  0
SECTION
  2
HEADER
  9
$ACADVER
  1
AC1015
  9
$ACADMAINTVER
 70
    13
  9
$DWGCODEPAGE
  3
ANSI_1252
  9
$INSBASE
 10
0.0
 20
0.0
 30
0.0
  9
$EXTMIN
 10
151.0
 20
-0.0303999999999682
 30
0.0
  9
$EXTMAX
 10
565.0
 20
231.5303999999999
 30
0.0
  9
$LIMMIN
 10
0.0
 20
0.0
  9
$LIMMAX
 10
12.0
 20
9.0
  9
$ORTHOMODE
 70
     0
  9
$REGENMODE
 70
     1
  9
$FILLMODE
 70
     1
  9
$QTEXTMODE
 70
     0
  9
$MIRRTEXT
 70
     1
  9
$LTSCALE
 40
1.0
  9
$ATTMODE
 70
     1
  9
$TEXTSIZE
 40
0.2
  9
$TRACEWID
 40
0.05
  9
$TEXTSTYLE
  7
Standard
  9
$CLAYER
  8
0
  9
$CELTYPE
  6
Continuous
  9
$CECOLOR
 62
   256
  9
$CELTSCALE
 40
1.0
  9
$DISPSILH
 70
     0
  9
$DIMSCALE
 40
1.0
  9
$DIMASZ
 40
0.18
  9
$DIMEXO
 40
0.0625
  9
$DIMDLI
 40
0.38
  9
$DIMRND
 40
0.0
  9
$DIMDLE
 40
0.0
  9
$DIMEXE
 40
0.18
  9
$DIMTP
 40
0.0
  9
$DIMTM
 40
0.0
  9
$DIMTXT
 40
0.18
  9
$DIMCEN
 40
0.09
  9
$DIMTSZ
 40
0.0
  9
$DIMTOL
 70
     0
  9
$DIMLIM
 70
     0
  9
$DIMTIH
 70
     1
  9
$DIMTOH
 70
     1
  9
$DIMSE1
 70
     0
  9
$DIMSE2
 70
     0
  9
$DIMTAD
 70
     0
  9
$DIMZIN
 70
     0
  9
$DIMBLK
  1

  9
$DIMASO
 70
     1
  9
$DIMSHO
 70
     1
  9
$DIMPOST
  1

  9
$DIMAPOST
  1

  9
$DIMALT
 70
     0
  9
$DIMALTD
 70
     2
  9
$DIMALTF
 40
25.4
  9
$DIMLFAC
 40
1.0
  9
$DIMTOFL
 70
     0
  9
$DIMTVP
 40
0.0
  9
$DIMTIX
 70
     0
  9
$DIMSOXD
 70
     0
  9
$DIMSAH
 70
     0
  9
$DIMBLK1
  1

  9
$DIMBLK2
  1

  9
$DIMSTYLE
  2
Standard
  9
$DIMCLRD
 70
     0
  9
$DIMCLRE
 70
     0
  9
$DIMCLRT
 70
     0
  9
$DIMTFAC
 40
1.0
  9
$DIMGAP
 40
0.09
  9
$DIMJUST
 70
     0
  9
$DIMSD1
 70
     0
  9
$DIMSD2
 70
     0
  9
$DIMTOLJ
 70
     1
  9
$DIMTZIN
 70
     0
  9
$DIMALTZ
 70
     0
  9
$DIMALTTZ
 70
     0
  9
$DIMUPT
 70
     0
  9
$DIMDEC
 70
     4
  9
$DIMTDEC
 70
     4
  9
$DIMALTU
 70
     2
  9
$DIMALTTD
 70
     2
  9
$DIMTXSTY
  7
Standard
  9
$DIMAUNIT
 70
     0
  9
$DIMADEC
 70
     0
  9
$DIMALTRND
 40
0.0
  9
$DIMAZIN
 70
     0
  9
$DIMDSEP
 70
    46
  9
$DIMATFIT
 70
     3
  9
$DIMFRAC
 70
     0
  9
$DIMLDRBLK
  1

  9
$DIMLUNIT
 70
     2
  9
$DIMLWD
 70
    -2
  9
$DIMLWE
 70
    -2
  9
$DIMTMOVE
 70
     0
  9
$LUNITS
 70
     2
  9
$LUPREC
 70
     4
  9
$SKETCHINC
 40
0.1
  9
$FILLETRAD
 40
0.0
  9
$AUNITS
 70
     0
  9
$AUPREC
 70
     0
  9
$MENU
  1
.
  9
$ELEVATION
 40
0.0
  9
$PELEVATION
 40
0.0
  9
$THICKNESS
 40
0.0
  9
$LIMCHECK
 70
     0
  9
$CHAMFERA
 40
0.0
  9
$CHAMFERB
 40
0.0
  9
$CHAMFERC
 40
0.0
  9
$CHAMFERD
 40
0.0
  9
$SKPOLY
 70
     0
  9
$TDCREATE
 40
2455509.364773032
  9
$TDUCREATE
 40
2455509.323106365
  9
$TDUPDATE
 40
2455509.376478217
  9
$TDUUPDATE
 40
2455509.334811551
  9
$TDINDWG
 40
0.0117055556
  9
$TDUSRTIMER
 40
0.0117055556
  9
$USRTIMER
 70
     1
  9
$ANGBASE
 50
0.0
  9
$ANGDIR
 70
     0
  9
$PDMODE
 70
     0
  9
$PDSIZE
 40
0.0
  9
$PLINEWID
 40
0.0
  9
$SPLFRAME
 70
     0
  9
$SPLINETYPE
 70
     6
  9
$SPLINESEGS
 70
     8
  9
$HANDSEED
  5
557
  9
$SURFTAB1
 70
     6
  9
$SURFTAB2
 70
     6
  9
$SURFTYPE
 70
     6
  9
$SURFU
 70
     6
  9
$SURFV
 70
     6
  9
$UCSBASE
  2

  9
$UCSNAME
  2

  9
$UCSORG
 10
0.0
 20
0.0
 30
0.0
  9
$UCSXDIR
 10
1.0
 20
0.0
 30
0.0
  9
$UCSYDIR
 10
0.0
 20
1.0
 30
0.0
  9
$UCSORTHOREF
  2

  9
$UCSORTHOVIEW
 70
     1
  9
$UCSORGTOP
 10
0.0
 20
0.0
 30
0.0
  9
$UCSORGBOTTOM
 10
0.0
 20
0.0
 30
0.0
  9
$UCSORGLEFT
 10
0.0
 20
0.0
 30
0.0
  9
$UCSORGRIGHT
 10
0.0
 20
0.0
 30
0.0
  9
$UCSORGFRONT
 10
0.0
 20
0.0
 30
0.0
  9
$UCSORGBACK
 10
0.0
 20
0.0
 30
0.0
  9
$PUCSBASE
  2

  9
$PUCSNAME
  2

  9
$PUCSORG
 10
0.0
 20
0.0
 30
0.0
  9
$PUCSXDIR
 10
1.0
 20
0.0
 30
0.0
  9
$PUCSYDIR
 10
0.0
 20
1.0
 30
0.0
  9
$PUCSORTHOREF
  2

  9
$PUCSORTHOVIEW
 70
     0
  9
$PUCSORGTOP
 10
0.0
 20
0.0
 30
0.0
  9
$PUCSORGBOTTOM
 10
0.0
 20
0.0
 30
0.0
  9
$PUCSORGLEFT
 10
0.0
 20
0.0
 30
0.0
  9
$PUCSORGRIGHT
 10
0.0
 20
0.0
 30
0.0
  9
$PUCSORGFRONT
 10
0.0
 20
0.0
 30
0.0
  9
$PUCSORGBACK
 10
0.0
 20
0.0
 30
0.0
  9
$USERI1
 70
     0
  9
$USERI2
 70
     0
  9
$USERI3
 70
     0
  9
$USERI4
 70
     0
  9
$USERI5
 70
     0
  9
$USERR1
 40
0.0
  9
$USERR2
 40
0.0
  9
$USERR3
 40
0.0
  9
$USERR4
 40
0.0
  9
$USERR5
 40
0.0
  9
$WORLDVIEW
 70
     1
  9
$SHADEDGE
 70
     3
  9
$SHADEDIF
 70
    70
  9
$TILEMODE
 70
     1
  9
$MAXACTVP
 70
    64
  9
$PINSBASE
 10
0.0
 20
0.0
 30
0.0
  9
$PLIMCHECK
 70
     0
  9
$PEXTMIN
 10
1.000000000000000E+20
 20
1.000000000000000E+20
 30
1.000000000000000E+20
  9
$PEXTMAX
 10
-1.000000000000000E+20
 20
-1.000000000000000E+20
 30
-1.000000000000000E+20
  9
$PLIMMIN
 10
0.0
 20
0.0
  9
$PLIMMAX
 10
12.0
 20
9.0
  9
$UNITMODE
 70
     0
  9
$VISRETAIN
 70
     1
  9
$PLINEGEN
 70
     0
  9
$PSLTSCALE
 70
     1
  9
$TREEDEPTH
 70
  3020
  9
$CMLSTYLE
  2
Standard
  9
$CMLJUST
 70
     0
  9
$CMLSCALE
 40
1.0
  9
$PROXYGRAPHICS
 70
     1
  9
$MEASUREMENT
 70
     0
  9
$CELWEIGHT
370
    -1
  9
$ENDCAPS
280
     0
  9
$JOINSTYLE
280
     0
  9
$LWDISPLAY
290
     0
  9
$INSUNITS
 70
     0
  9
$HYPERLINKBASE
  1

  9
$STYLESHEET
  1

  9
$XEDIT
290
     1
  9
$CEPSNTYPE
380
     0
  9
$PSTYLEMODE
290
     1
  9
$FINGERPRINTGUID
  2
{66950025-88AF-4FA2-9804-DDFBF58679D2}
  9
$VERSIONGUID
  2
{B6725C20-9BF3-4D3C-B670-94CD2875C8DF}
  9
$EXTNAMES
290
     1
  9
$PSVPSCALE
 40
0.0
  9
$OLESTARTUP
290
     0
  0
ENDSEC
  0
SECTION
  2
CLASSES
  0
CLASS
  1
ACDBDICTIONARYWDFLT
  2
AcDbDictionaryWithDefault
  3
AutoCAD 2000
 90
        0
280
     0
281
     0
  0
CLASS
  1
ACDBPLACEHOLDER
  2
AcDbPlaceHolder
  3
AutoCAD 2000
 90
        0
280
     0
281
     0
  0
CLASS
  1
LAYOUT
  2
AcDbLayout
  3
AutoCAD 2000
 90
        0
280
     0
281
     0
  0
CLASS
  1
DICTIONARYVAR
  2
AcDbDictionaryVar
  3
AutoCAD 2000
 90
        0
280
     0
281
     0
  0
ENDSEC
  0
SECTION
  2
TABLES
  0
TABLE
  2
VPORT
  5
8
330
0
100
AcDbSymbolTable
 70
     4
  0
VPORT
  5
556
330
8
100
AcDbSymbolTableRecord
100
AcDbViewportTableRecord
  2
*Active
 70
     0
 10
0.0
 20
0.0
 11
1.0
 21
1.0
 12
358.0
 22
115.7499999999999
 13
0.0
 23
0.0
 14
1.0
 24
1.0
 15
0.0
 25
0.0
 16
0.0
 26
0.0
 36
1.0
 17
0.0
 27
0.0
 37
0.0
 40
233.127163923337
 41
2.073363431151241
 42
50.0
 43
0.0
 44
0.0
 50
0.0
 51
0.0
 71
     0
 72
   100
 73
     1
 74
     3
 75
     0
 76
     0
 77
     0
 78
     0
281
     0
 65
     1
110
0.0
120
0.0
130
0.0
111
1.0
121
0.0
131
0.0
112
0.0
122
1.0
132
0.0
 79
     1
146
0.0
  0
ENDTAB
  0
TABLE
  2
LTYPE
  5
5
330
0
100
AcDbSymbolTable
 70
     1
  0
LTYPE
  5
13
330
5
100
AcDbSymbolTableRecord
100
AcDbLinetypeTableRecord
  2
ByBlock
 70
     0
  3

 72
    65
 73
     0
 40
0.0
  0
LTYPE
  5
14
330
5
100
AcDbSymbolTableRecord
100
AcDbLinetypeTableRecord
  2
ByLayer
 70
     0
  3

 72
    65
 73
     0
 40
0.0
  0
LTYPE
  5
15
330
5
100
AcDbSymbolTableRecord
100
AcDbLinetypeTableRecord
  2
Continuous
 70
     0
  3
Solid line
 72
    65
 73
     0
 40
0.0
  0
ENDTAB
  0
TABLE
  2
LAYER
  5
2
330
0
100
AcDbSymbolTable
 70
     1
  0
LAYER
  5
10
330
2
100
AcDbSymbolTableRecord
100
AcDbLayerTableRecord
  2
0
 70
     0
 62
     7
  6
Continuous
370
    -3
390
F
  0
ENDTAB
  0
TABLE
  2
STYLE
  5
3
330
0
100
AcDbSymbolTable
 70
     1
  0
STYLE
  5
11
330
3
100
AcDbSymbolTableRecord
100
AcDbTextStyleTableRecord
  2
Standard
 70
     0
 40
0.0
 41
1.0
 50
0.0
 71
     0
 42
0.2
  3
txt
  4

  0
ENDTAB
  0
TABLE
  2
VIEW
  5
6
330
0
100
AcDbSymbolTable
 70
     0
  0
ENDTAB
  0
TABLE
  2
UCS
  5
7
330
0
100
AcDbSymbolTable
 70
     0
  0
ENDTAB
  0
TABLE
  2
APPID
  5
9
330
0
100
AcDbSymbolTable
 70
     1
  0
APPID
  5
12
330
9
100
AcDbSymbolTableRecord
100
AcDbRegAppTableRecord
  2
ACAD
 70
     0
  0
ENDTAB
  0
TABLE
  2
DIMSTYLE
  5
A
330
0
100
AcDbSymbolTable
 70
     1
100
AcDbDimStyleTable
 71
     0
  0
DIMSTYLE
105
54E
330
A
100
AcDbSymbolTableRecord
100
AcDbDimStyleTableRecord
  2
Standard
 70
     0
340
11
  0
ENDTAB
  0
TABLE
  2
BLOCK_RECORD
  5
1
330
0
100
AcDbSymbolTable
 70
     0
  0
BLOCK_RECORD
  5
1E
330
1
100
AcDbSymbolTableRecord
100
AcDbBlockTableRecord
  2
*Model_Space
340
21
  0
BLOCK_RECORD
  5
1A
330
1
100
AcDbSymbolTableRecord
100
AcDbBlockTableRecord
  2
*Paper_Space
340
1D
  0
ENDTAB
  0
ENDSEC
  0
SECTION
  2
BLOCKS
  0
BLOCK
  5
1F
330
1E
100
AcDbEntity
  8
0
100
AcDbBlockBegin
  2
*Model_Space
 70
     0
 10
0.0
 20
0.0
 30
0.0
  3
*Model_Space
  1

  0
ENDBLK
  5
20
330
1E
100
AcDbEntity
  8
0
100
AcDbBlockEnd
  0
BLOCK
  5
1B
330
1A
100
AcDbEntity
 67
     1
  8
0
100
AcDbBlockBegin
  2
*Paper_Space
 70
     0
 10
0.0
 20
0.0
 30
0.0
  3
*Paper_Space
  1

  0
ENDBLK
  5
1C
330
1A
100
AcDbEntity
 67
     1
  8
0
100
AcDbBlockEnd
  0
ENDSEC
  0
SECTION
  2
ENTITIES
  0
LINE
  5
22
330
1E
100
AcDbEntity
  8
0
100
AcDbLine
 10
295.0
 20
1.63040000000003
 30
0.0
 11
298.599
 21
2.00628000000003
 31
0.0
  0
LINE
  5
23
330
1E
100
AcDbEntity
  8
0
100
AcDbLine
 10
298.599
 20
2.00628000000003
 30
0.0
 11
301.973
 21
3.008630000000029
 31
0.0
  0
LINE
  5
24
330
1E
100
AcDbEntity
  8
0
100
AcDbLine
 10
301.973
 20
3.008630000000029
 30
0.0
 11
304.9529999999999
 21
4.67920000000003
 31
0.0
  0
LINE
  5
25
330
1E
100
AcDbEntity
  8
0
100
AcDbLine
 10
291.401
 20
2.00628000000003
 30
0.0
 11
295.0
 21
1.63040000000003
 31
0.0
  0
LINE
  5
26
330
1E
100
AcDbEntity
  8
0
100
AcDbLine
 10
288.0269999999999
 20
3.008630000000029
 30
0.0
 11
291.401
 21
2.00628000000003
 31
0.0
  0
LINE
  5
27
330
1E
100
AcDbEntity
  8
0
100
AcDbLine
 10
304.9529999999999
 20
4.67920000000003
 30
0.0
 11
307.202
 21
6.892710000000029
 31
0.0
  0
LINE
  5
28
330
1E
100
AcDbEntity
  8
0
100
AcDbLine
 10
307.202
 20
6.892710000000029
 30
0.0
 11
308.552
 21
9.39856000000003
 31
0.0
  0
LINE
  5
29
330
1E
100
AcDbEntity
  8
0
100
AcDbLine
 10
285.047
 20
4.67920000000003
 30
0.0
 11
288.0269999999999
 21
3.008630000000029
 31
0.0
  0
LINE
  5
2A
330
1E
100
AcDbEntity
  8
0
100
AcDbLine
 10
282.7975
 20
6.892710000000029
 30
0.0
 11
285.047
 21
4.67920000000003
 31
0.0
  0
LINE
  5
2B
330
1E
100
AcDbEntity
  8
0
100
AcDbLine
 10
490.109
 20
6.055800000000029
 30
0.0
 11
495.8759999999999
 21
3.475800000000029
 31
0.0
  0
LINE
  5
2C
330
1E
100
AcDbEntity
  8
0
100
AcDbLine
 10
495.8759999999999
 20
3.475800000000029
 30
0.0
 11
502.08
 21
1.62350000000003
 31
0.0
  0
LINE
  5
2D
330
1E
100
AcDbEntity
  8
0
100
AcDbLine
 10
502.08
 20
1.62350000000003
 30
0.0
 11
508.577
 21
0.4327000000000321
 31
0.0
  0
LINE
  5
2E
330
1E
100
AcDbEntity
  8
0
100
AcDbLine
 10
502.08
 20
1.62350000000003
 30
0.0
 11
508.577
 21
0.4327000000000321
 31
0.0
  0
LINE
  5
2F
330
1E
100
AcDbEntity
  8
0
100
AcDbLine
 10
508.577
 20
0.4327000000000321
 30
0.0
 11
515.0
 21
-0.0303999999999682
 31
0.0
  0
LINE
  5
30
330
1E
100
AcDbEntity
  8
0
100
AcDbLine
 10
515.0
 20
-0.0303999999999682
 30
0.0
 11
521.4229999999999
 21
0.4327000000000321
 31
0.0
  0
LINE
  5
31
330
1E
100
AcDbEntity
  8
0
100
AcDbLine
 10
280.9417999999999
 20
36.00759999999999
 30
0.0
 11
280.9417999999999
 21
45.9061
 31
0.0
  0
LINE
  5
32
330
1E
100
AcDbEntity
  8
0
100
AcDbLine
 10
280.9417999999999
 20
36.00759999999999
 30
0.0
 11
280.9417999999999
 21
26.9317
 31
0.0
  0
LINE
  5
33
330
1E
100
AcDbEntity
  8
0
100
AcDbLine
 10
280.9417999999999
 20
26.9317
 30
0.0
 11
280.9417999999999
 21
19.3744
 31
0.0
  0
LINE
  5
34
330
1E
100
AcDbEntity
  8
0
100
AcDbLine
 10
280.9417999999999
 20
26.9317
 30
0.0
 11
280.9417999999999
 21
36.00759999999999
 31
0.0
  0
LINE
  5
35
330
1E
100
AcDbEntity
  8
0
100
AcDbLine
 10
280.9417999999999
 20
19.3744
 30
0.0
 11
280.9417999999999
 21
26.9317
 31
0.0
  0
LINE
  5
36
330
1E
100
AcDbEntity
  8
0
100
AcDbLine
 10
280.9417999999999
 20
19.3744
 30
0.0
 11
280.9417999999999
 21
12.9488
 31
0.0
  0
LINE
  5
37
330
1E
100
AcDbEntity
  8
0
100
AcDbLine
 10
280.9417999999999
 20
12.9488
 30
0.0
 11
280.9417999999999
 21
12.0715
 31
0.0
  0
LINE
  5
38
330
1E
100
AcDbEntity
  8
0
100
AcDbLine
 10
280.9417999999999
 20
12.9488
 30
0.0
 11
280.9417999999999
 21
19.3744
 31
0.0
  0
LINE
  5
39
330
1E
100
AcDbEntity
  8
0
100
AcDbLine
 10
308.552
 20
9.39856000000003
 30
0.0
 11
309.058
 21
12.0715
 31
0.0
  0
LINE
  5
3A
330
1E
100
AcDbEntity
  8
0
100
AcDbLine
 10
309.058
 20
36.00759999999999
 30
0.0
 11
309.058
 21
45.9061
 31
0.0
  0
LINE
  5
3B
330
1E
100
AcDbEntity
  8
0
100
AcDbLine
 10
309.058
 20
36.00759999999999
 30
0.0
 11
309.058
 21
26.9317
 31
0.0
  0
LINE
  5
3C
330
1E
100
AcDbEntity
  8
0
100
AcDbLine
 10
309.058
 20
19.3744
 30
0.0
 11
309.058
 21
26.9317
 31
0.0
  0
LINE
  5
3D
330
1E
100
AcDbEntity
  8
0
100
AcDbLine
 10
309.058
 20
19.3744
 30
0.0
 11
309.058
 21
12.9488
 31
0.0
  0
LINE
  5
3E
330
1E
100
AcDbEntity
  8
0
100
AcDbLine
 10
309.058
 20
26.9317
 30
0.0
 11
309.058
 21
19.3744
 31
0.0
  0
LINE
  5
3F
330
1E
100
AcDbEntity
  8
0
100
AcDbLine
 10
309.058
 20
26.9317
 30
0.0
 11
309.058
 21
36.00759999999999
 31
0.0
  0
LINE
  5
40
330
1E
100
AcDbEntity
  8
0
100
AcDbLine
 10
309.058
 20
12.0715
 30
0.0
 11
309.058
 21
12.9488
 31
0.0
  0
LINE
  5
41
330
1E
100
AcDbEntity
  8
0
100
AcDbLine
 10
309.058
 20
12.9488
 30
0.0
 11
309.058
 21
12.0715
 31
0.0
  0
LINE
  5
42
330
1E
100
AcDbEntity
  8
0
100
AcDbLine
 10
309.058
 20
12.9488
 30
0.0
 11
309.058
 21
19.3744
 31
0.0
  0
LINE
  5
43
330
1E
100
AcDbEntity
  8
0
100
AcDbLine
 10
281.4479
 20
9.39856000000003
 30
0.0
 11
282.7975
 21
6.892710000000029
 31
0.0
  0
LINE
  5
44
330
1E
100
AcDbEntity
  8
0
100
AcDbLine
 10
280.9417999999999
 20
12.0715
 30
0.0
 11
280.9417999999999
 21
12.9488
 31
0.0
  0
LINE
  5
45
330
1E
100
AcDbEntity
  8
0
100
AcDbLine
 10
280.9417999999999
 20
12.0715
 30
0.0
 11
281.4479
 21
9.39856000000003
 31
0.0
  0
LINE
  5
46
330
1E
100
AcDbEntity
  8
0
100
AcDbLine
 10
309.058
 20
45.9061
 30
0.0
 11
311.614
 21
166.5474
 31
0.0
  0
LINE
  5
47
330
1E
100
AcDbEntity
  8
0
100
AcDbLine
 10
309.058
 20
45.9061
 30
0.0
 11
309.058
 21
36.00759999999999
 31
0.0
  0
LINE
  5
48
330
1E
100
AcDbEntity
  8
0
100
AcDbLine
 10
309.058
 20
45.9061
 30
0.0
 11
311.614
 21
166.5474
 31
0.0
  0
LINE
  5
49
330
1E
100
AcDbEntity
  8
0
100
AcDbLine
 10
280.9417999999999
 20
45.9061
 30
0.0
 11
280.9417999999999
 21
36.00759999999999
 31
0.0
  0
LINE
  5
4A
330
1E
100
AcDbEntity
  8
0
100
AcDbLine
 10
465.0
 20
45.285
 30
0.0
 11
465.0
 21
54.16009999999999
 31
0.0
  0
LINE
  5
4B
330
1E
100
AcDbEntity
  8
0
100
AcDbLine
 10
465.0
 20
45.285
 30
0.0
 11
465.5109999999999
 21
39.4635
 31
0.0
  0
LINE
  5
4C
330
1E
100
AcDbEntity
  8
0
100
AcDbLine
 10
466.8249999999999
 20
33.5759
 30
0.0
 11
468.869
 21
27.9527
 31
0.0
  0
LINE
  5
4D
330
1E
100
AcDbEntity
  8
0
100
AcDbLine
 10
465.5109999999999
 20
39.4635
 30
0.0
 11
466.8249999999999
 21
33.5759
 31
0.0
  0
LINE
  5
4E
330
1E
100
AcDbEntity
  8
0
100
AcDbLine
 10
466.8249999999999
 20
42.4508
 30
0.0
 11
468.869
 21
36.8277
 31
0.0
  0
LINE
  5
4F
330
1E
100
AcDbEntity
  8
0
100
AcDbLine
 10
465.5109999999999
 20
48.3385
 30
0.0
 11
466.8249999999999
 21
42.4508
 31
0.0
  0
LINE
  5
50
330
1E
100
AcDbEntity
  8
0
100
AcDbLine
 10
471.715
 20
22.7266
 30
0.0
 11
475.365
 21
17.765
 31
0.0
  0
LINE
  5
51
330
1E
100
AcDbEntity
  8
0
100
AcDbLine
 10
468.869
 20
27.9527
 30
0.0
 11
471.715
 21
22.7266
 31
0.0
  0
LINE
  5
52
330
1E
100
AcDbEntity
  8
0
100
AcDbLine
 10
471.715
 20
31.6017
 30
0.0
 11
475.365
 21
26.64
 31
0.0
  0
LINE
  5
53
330
1E
100
AcDbEntity
  8
0
100
AcDbLine
 10
468.869
 20
36.8277
 30
0.0
 11
471.715
 21
31.6017
 31
0.0
  0
LINE
  5
54
330
1E
100
AcDbEntity
  8
0
100
AcDbLine
 10
475.365
 20
17.765
 30
0.0
 11
479.6719999999999
 21
13.2665
 31
0.0
  0
LINE
  5
55
330
1E
100
AcDbEntity
  8
0
100
AcDbLine
 10
479.6719999999999
 20
13.2665
 30
0.0
 11
484.635
 21
9.36360000000003
 31
0.0
  0
LINE
  5
56
330
1E
100
AcDbEntity
  8
0
100
AcDbLine
 10
479.6719999999999
 20
22.1416
 30
0.0
 11
484.635
 21
18.2386
 31
0.0
  0
LINE
  5
57
330
1E
100
AcDbEntity
  8
0
100
AcDbLine
 10
480.183
 20
23.0274
 30
0.0
 11
485.073
 21
19.1903
 31
0.0
  0
LINE
  5
58
330
1E
100
AcDbEntity
  8
0
100
AcDbLine
 10
475.365
 20
26.64
 30
0.0
 11
479.6719999999999
 21
22.1416
 31
0.0
  0
LINE
  5
59
330
1E
100
AcDbEntity
  8
0
100
AcDbLine
 10
475.949
 20
27.4596
 30
0.0
 11
480.183
 21
23.0274
 31
0.0
  0
LINE
  5
5A
330
1E
100
AcDbEntity
  8
0
100
AcDbLine
 10
472.299
 20
32.355
 30
0.0
 11
475.949
 21
27.4596
 31
0.0
  0
LINE
  5
5B
330
1E
100
AcDbEntity
  8
0
100
AcDbLine
 10
469.599
 20
37.515
 30
0.0
 11
472.299
 21
32.355
 31
0.0
  0
LINE
  5
5C
330
1E
100
AcDbEntity
  8
0
100
AcDbLine
 10
467.4819999999999
 20
43.3365
 30
0.0
 11
469.599
 21
37.515
 31
0.0
  0
LINE
  5
5D
330
1E
100
AcDbEntity
  8
0
100
AcDbLine
 10
466.241
 20
48.8273
 30
0.0
 11
467.4819999999999
 21
43.3365
 31
0.0
  0
LINE
  5
5E
330
1E
100
AcDbEntity
  8
0
100
AcDbLine
 10
465.0
 20
54.16009999999999
 30
0.0
 11
465.5109999999999
 21
59.9816
 31
0.0
  0
LINE
  5
5F
330
1E
100
AcDbEntity
  8
0
100
AcDbLine
 10
465.0
 20
54.16009999999999
 30
0.0
 11
465.5109999999999
 21
48.3385
 31
0.0
  0
LINE
  5
60
330
1E
100
AcDbEntity
  8
0
100
AcDbLine
 10
465.0
 20
54.16009999999999
 30
0.0
 11
465.0
 21
45.285
 31
0.0
  0
LINE
  5
67
330
1E
100
AcDbEntity
  8
0
100
AcDbLine
 10
465.5109999999999
 20
59.9816
 30
0.0
 11
466.8249999999999
 21
65.86929999999999
 31
0.0
  0
LINE
  5
68
330
1E
100
AcDbEntity
  8
0
100
AcDbLine
 10
468.869
 20
71.4924
 30
0.0
 11
471.715
 21
76.7185
 31
0.0
  0
LINE
  5
69
330
1E
100
AcDbEntity
  8
0
100
AcDbLine
 10
466.8249999999999
 20
65.86929999999999
 30
0.0
 11
468.869
 21
71.4924
 31
0.0
  0
LINE
  5
6A
330
1E
100
AcDbEntity
  8
0
100
AcDbLine
 10
471.715
 20
76.7185
 30
0.0
 11
475.365
 21
81.6798
 31
0.0
  0
LINE
  5
6B
330
1E
100
AcDbEntity
  8
0
100
AcDbLine
 10
475.365
 20
81.6798
 30
0.0
 11
479.6719999999999
 21
86.17879999999999
 31
0.0
  0
LINE
  5
6C
330
1E
100
AcDbEntity
  8
0
100
AcDbLine
 10
475.949
 20
81.70579999999999
 30
0.0
 11
480.183
 21
86.1378
 31
0.0
  0
LINE
  5
6D
330
1E
100
AcDbEntity
  8
0
100
AcDbLine
 10
472.299
 20
76.81029999999999
 30
0.0
 11
475.949
 21
81.70579999999999
 31
0.0
  0
LINE
  5
6E
330
1E
100
AcDbEntity
  8
0
100
AcDbLine
 10
469.599
 20
71.65040000000001
 30
0.0
 11
472.299
 21
76.81029999999999
 31
0.0
  0
LINE
  5
6F
330
1E
100
AcDbEntity
  8
0
100
AcDbLine
 10
467.4819999999999
 20
65.8288
 30
0.0
 11
469.599
 21
71.65040000000001
 31
0.0
  0
LINE
  5
70
330
1E
100
AcDbEntity
  8
0
100
AcDbLine
 10
466.241
 20
60.33809999999999
 30
0.0
 11
467.4819999999999
 21
65.8288
 31
0.0
  0
LINE
  5
71
330
1E
100
AcDbEntity
  8
0
100
AcDbLine
 10
465.73
 20
54.5827
 30
0.0
 11
466.241
 21
60.33809999999999
 31
0.0
  0
LINE
  5
72
330
1E
100
AcDbEntity
  8
0
100
AcDbLine
 10
465.73
 20
54.5827
 30
0.0
 11
466.241
 21
48.8273
 31
0.0
  0
LINE
  5
73
330
1E
100
AcDbEntity
  8
0
100
AcDbLine
 10
484.635
 20
9.36360000000003
 30
0.0
 11
490.109
 21
6.055800000000029
 31
0.0
  0
LINE
  5
74
330
1E
100
AcDbEntity
  8
0
100
AcDbLine
 10
484.635
 20
18.2386
 30
0.0
 11
490.109
 21
14.9307
 31
0.0
  0
LINE
  5
75
330
1E
100
AcDbEntity
  8
0
100
AcDbLine
 10
485.073
 20
19.1903
 30
0.0
 11
490.4749999999999
 21
15.8827
 31
0.0
  0
LINE
  5
76
330
1E
100
AcDbEntity
  8
0
100
AcDbLine
 10
479.6719999999999
 20
86.17879999999999
 30
0.0
 11
484.635
 21
90.08180000000001
 31
0.0
  0
LINE
  5
77
330
1E
100
AcDbEntity
  8
0
100
AcDbLine
 10
484.635
 20
90.08180000000001
 30
0.0
 11
490.109
 21
93.38880000000001
 31
0.0
  0
LINE
  5
78
330
1E
100
AcDbEntity
  8
0
100
AcDbLine
 10
480.183
 20
86.1378
 30
0.0
 11
485.073
 21
89.9748000000001
 31
0.0
  0
LINE
  5
79
330
1E
100
AcDbEntity
  8
0
100
AcDbLine
 10
490.109
 20
14.9307
 30
0.0
 11
495.8759999999999
 21
12.35079999999999
 31
0.0
  0
LINE
  5
7A
330
1E
100
AcDbEntity
  8
0
100
AcDbLine
 10
495.8759999999999
 20
12.35079999999999
 30
0.0
 11
502.08
 21
10.4984
 31
0.0
  0
LINE
  5
7B
330
1E
100
AcDbEntity
  8
0
100
AcDbLine
 10
490.4749999999999
 20
15.8827
 30
0.0
 11
496.168
 21
13.4349
 31
0.0
  0
LINE
  5
7C
330
1E
100
AcDbEntity
  8
0
100
AcDbLine
 10
496.168
 20
13.4349
 30
0.0
 11
502.591
 21
11.5165
 31
0.0
  0
LINE
  5
7D
330
1E
100
AcDbEntity
  8
0
100
AcDbLine
 10
485.073
 20
89.9748000000001
 30
0.0
 11
490.4749999999999
 21
93.28279999999999
 31
0.0
  0
LINE
  5
7E
330
1E
100
AcDbEntity
  8
0
100
AcDbLine
 10
490.109
 20
93.38880000000001
 30
0.0
 11
495.8759999999999
 21
95.9698
 31
0.0
  0
LINE
  5
7F
330
1E
100
AcDbEntity
  8
0
100
AcDbLine
 10
495.8759999999999
 20
95.9698
 30
0.0
 11
502.08
 21
97.8218000000001
 31
0.0
  0
LINE
  5
80
330
1E
100
AcDbEntity
  8
0
100
AcDbLine
 10
490.4749999999999
 20
93.28279999999999
 30
0.0
 11
496.168
 21
95.7308
 31
0.0
  0
LINE
  5
81
330
1E
100
AcDbEntity
  8
0
100
AcDbLine
 10
502.08
 20
10.4984
 30
0.0
 11
508.577
 21
9.307700000000028
 31
0.0
  0
LINE
  5
82
330
1E
100
AcDbEntity
  8
0
100
AcDbLine
 10
508.577
 20
9.307700000000028
 30
0.0
 11
515.0
 21
8.844600000000029
 31
0.0
  0
LINE
  5
83
330
1E
100
AcDbEntity
  8
0
100
AcDbLine
 10
502.591
 20
11.5165
 30
0.0
 11
508.65
 21
10.3919
 31
0.0
  0
LINE
  5
84
330
1E
100
AcDbEntity
  8
0
100
AcDbLine
 10
508.65
 20
10.3919
 30
0.0
 11
515.0
 21
9.928800000000029
 31
0.0
  0
LINE
  5
85
330
1E
100
AcDbEntity
  8
0
100
AcDbLine
 10
496.168
 20
95.7308
 30
0.0
 11
502.591
 21
97.64879999999999
 31
0.0
  0
LINE
  5
86
330
1E
100
AcDbEntity
  8
0
100
AcDbLine
 10
506.36
 20
98.60638981068191
 30
0.0
 11
506.36
 21
108.1153999999999
 31
0.0
  0
LINE
  5
87
330
1E
100
AcDbEntity
  8
0
100
AcDbLine
 10
502.08
 20
97.8218000000001
 30
0.0
 11
508.577
 21
99.01279999999999
 31
0.0
  0
LINE
  5
88
330
1E
100
AcDbEntity
  8
0
100
AcDbLine
 10
508.577
 20
99.01279999999999
 30
0.0
 11
515.0
 21
99.47580000000002
 31
0.0
  0
LINE
  5
89
330
1E
100
AcDbEntity
  8
0
100
AcDbLine
 10
502.591
 20
97.64879999999999
 30
0.0
 11
508.65
 21
98.7738
 31
0.0
  0
LINE
  5
8A
330
1E
100
AcDbEntity
  8
0
100
AcDbLine
 10
508.65
 20
98.7738
 30
0.0
 11
515.0
 21
99.2368
 31
0.0
  0
LINE
  5
8B
330
1E
100
AcDbEntity
  8
0
100
AcDbLine
 10
503.384
 20
106.7353999999999
 30
0.0
 11
504.6319999999999
 21
105.4324
 31
0.0
  0
LINE
  5
8C
330
1E
100
AcDbEntity
  8
0
100
AcDbLine
 10
503.0
 20
108.1153999999999
 30
0.0
 11
503.384
 21
109.5344
 31
0.0
  0
LINE
  5
8D
330
1E
100
AcDbEntity
  8
0
100
AcDbLine
 10
503.0
 20
108.1153999999999
 30
0.0
 11
503.384
 21
106.7353999999999
 31
0.0
  0
LINE
  5
8E
330
1E
100
AcDbEntity
  8
0
100
AcDbLine
 10
503.0
 20
108.1153999999999
 30
0.0
 11
503.0
 21
167.9754
 31
0.0
  0
LINE
  5
8F
330
1E
100
AcDbEntity
  8
0
100
AcDbLine
 10
504.6319999999999
 20
105.4324
 30
0.0
 11
506.36
 21
104.4037
 31
0.0
  0
LINE
  5
90
330
1E
100
AcDbEntity
  8
0
100
AcDbLine
 10
503.384
 20
109.5344
 30
0.0
 11
504.6319999999999
 21
110.8363999999999
 31
0.0
  0
LINE
  5
91
330
1E
100
AcDbEntity
  8
0
100
AcDbLine
 10
504.6319999999999
 20
110.8363999999999
 30
0.0
 11
506.5519999999999
 21
111.9793999999999
 31
0.0
  0
LINE
  5
92
330
1E
100
AcDbEntity
  8
0
100
AcDbLine
 10
506.5519999999999
 20
111.9793999999999
 30
0.0
 11
509.048
 21
112.8484
 31
0.0
  0
LINE
  5
93
330
1E
100
AcDbEntity
  8
0
100
AcDbLine
 10
509.048
 20
112.8484
 30
0.0
 11
511.928
 21
113.3593999999999
 31
0.0
  0
LINE
  5
94
330
1E
100
AcDbEntity
  8
0
100
AcDbLine
 10
511.928
 20
113.3593999999999
 30
0.0
 11
515.0
 21
113.5574
 31
0.0
  0
LINE
  5
95
330
1E
100
AcDbEntity
  8
0
100
AcDbLine
 10
512.7919999999999
 20
111.9013999999999
 30
0.0
 11
515.0
 21
112.0584
 31
0.0
  0
LINE
  5
96
330
1E
100
AcDbEntity
  8
0
100
AcDbLine
 10
510.6799999999999
 20
111.5064
 30
0.0
 11
512.7919999999999
 21
111.9013999999999
 31
0.0
  0
LINE
  5
97
330
1E
100
AcDbEntity
  8
0
100
AcDbLine
 10
508.856
 20
110.8764
 30
0.0
 11
510.6799999999999
 21
111.5064
 31
0.0
  0
LINE
  5
98
330
1E
100
AcDbEntity
  8
0
100
AcDbLine
 10
507.5119999999999
 20
110.0864
 30
0.0
 11
508.856
 21
110.8764
 31
0.0
  0
LINE
  5
99
330
1E
100
AcDbEntity
  8
0
100
AcDbLine
 10
506.648
 20
109.1393999999999
 30
0.0
 11
507.5119999999999
 21
110.0864
 31
0.0
  0
LINE
  5
9A
330
1E
100
AcDbEntity
  8
0
100
AcDbLine
 10
506.36
 20
108.1153999999999
 30
0.0
 11
506.36
 21
98.60638981068191
 31
0.0
  0
LINE
  5
9B
330
1E
100
AcDbEntity
  8
0
100
AcDbLine
 10
506.36
 20
108.1153999999999
 30
0.0
 11
506.648
 21
109.1393999999999
 31
0.0
  0
LINE
  5
F6
330
1E
100
AcDbEntity
  8
0
100
AcDbLine
 10
405.0
 20
162.0303999999999
 30
0.0
 11
413.6999999999999
 21
163.2303999999999
 31
0.0
  0
LINE
  5
F8
330
1E
100
AcDbEntity
  8
0
100
AcDbLine
 10
396.3
 20
163.2303999999999
 30
0.0
 11
405.0
 21
162.0303999999999
 31
0.0
  0
LINE
  5
FB
330
1E
100
AcDbEntity
  8
0
100
AcDbLine
 10
413.6999999999999
 20
163.2303999999999
 30
0.0
 11
421.8999999999999
 21
166.6304
 31
0.0
  0
LINE
  5
FD
330
1E
100
AcDbEntity
  8
0
100
AcDbLine
 10
311.5746681350839
 20
164.6909652132729
 30
0.0
 11
312.8399999999999
 21
165.1904
 31
0.0
  0
LINE
  5
FE
330
1E
100
AcDbEntity
  8
0
100
AcDbLine
 10
312.8399999999999
 20
165.1904
 30
0.0
 11
320.1499999999999
 21
170.8804
 31
0.0
  0
LINE
  5
FF
330
1E
100
AcDbEntity
  8
0
100
AcDbLine
 10
277.16
 20
165.1904
 30
0.0
 11
278.425030886675
 21
164.691084011359
 31
0.0
  0
LINE
  5
102
330
1E
100
AcDbEntity
  8
0
100
AcDbLine
 10
193.6999999999999
 20
163.2303999999999
 30
0.0
 11
201.9
 21
166.6304
 31
0.0
  0
LINE
  5
105
330
1E
100
AcDbEntity
  8
0
100
AcDbLine
 10
185.0
 20
162.0303999999999
 30
0.0
 11
193.6999999999999
 21
163.2303999999999
 31
0.0
  0
LINE
  5
106
330
1E
100
AcDbEntity
  8
0
100
AcDbLine
 10
176.3
 20
163.2303999999999
 30
0.0
 11
185.0
 21
162.0303999999999
 31
0.0
  0
LINE
  5
109
330
1E
100
AcDbEntity
  8
0
100
AcDbLine
 10
311.614
 20
166.5474
 30
0.0
 11
311.684
 21
170.3734
 31
0.0
  0
LINE
  5
10A
330
1E
100
AcDbEntity
  8
0
100
AcDbLine
 10
278.3856999999999
 20
166.5474
 30
0.0
 11
280.9417999999999
 21
45.9061
 31
0.0
  0
LINE
  5
10B
330
1E
100
AcDbEntity
  8
0
100
AcDbLine
 10
278.3856999999999
 20
166.5474
 30
0.0
 11
280.9417999999999
 21
45.9061
 31
0.0
  0
LINE
  5
10D
330
1E
100
AcDbEntity
  8
0
100
AcDbLine
 10
388.1
 20
166.6304
 30
0.0
 11
396.3
 21
163.2303999999999
 31
0.0
  0
LINE
  5
10E
330
1E
100
AcDbEntity
  8
0
100
AcDbLine
 10
421.8999999999999
 20
166.6304
 30
0.0
 11
429.0
 21
172.0303999999999
 31
0.0
  0
LINE
  5
10F
330
1E
100
AcDbEntity
  8
0
100
AcDbLine
 10
201.9
 20
166.6304
 30
0.0
 11
209.0
 21
172.0303999999999
 31
0.0
  0
LINE
  5
115
330
1E
100
AcDbEntity
  8
0
100
AcDbLine
 10
168.1
 20
166.6304
 30
0.0
 11
176.3
 21
163.2303999999999
 31
0.0
  0
LINE
  5
116
330
1E
100
AcDbEntity
  8
0
100
AcDbLine
 10
497.6399999999999
 20
165.6503999999999
 30
0.0
 11
502.3024618485459
 21
163.785415260582
 31
0.0
  0
LINE
  5
117
330
1E
100
AcDbEntity
  8
0
100
AcDbLine
 10
497.16
 20
165.1904
 30
0.0
 11
502.706737750173
 21
163.0010662274919
 31
0.0
  0
LINE
  5
118
330
1E
100
AcDbEntity
  8
0
100
AcDbLine
 10
501.485
 20
165.3713999999999
 30
0.0
 11
502.838
 21
162.7463999999999
 31
0.0
  0
LINE
  5
11A
330
1E
100
AcDbEntity
  8
0
100
AcDbLine
 10
311.684
 20
170.3734
 30
0.0
 11
311.782
 21
174.3344
 31
0.0
  0
LINE
  5
11B
330
1E
100
AcDbEntity
  8
0
100
AcDbLine
 10
320.1499999999999
 20
170.8804
 30
0.0
 11
325.8399999999999
 21
178.1904
 31
0.0
  0
LINE
  5
11C
330
1E
100
AcDbEntity
  8
0
100
AcDbLine
 10
278.3158
 20
170.3734
 30
0.0
 11
278.3856999999999
 21
166.5474
 31
0.0
  0
LINE
  5
120
330
1E
100
AcDbEntity
  8
0
100
AcDbLine
 10
269.85
 20
170.8804
 30
0.0
 11
277.16
 21
165.1904
 31
0.0
  0
LINE
  5
122
330
1E
100
AcDbEntity
  8
0
100
AcDbLine
 10
381.0
 20
172.0303999999999
 30
0.0
 11
388.1
 21
166.6304
 31
0.0
  0
LINE
  5
123
330
1E
100
AcDbEntity
  8
0
100
AcDbLine
 10
429.0
 20
172.0303999999999
 30
0.0
 11
434.4
 21
179.1304
 31
0.0
  0
LINE
  5
124
330
1E
100
AcDbEntity
  8
0
100
AcDbLine
 10
209.0
 20
172.0303999999999
 30
0.0
 11
214.4
 21
179.1304
 31
0.0
  0
LINE
  5
128
330
1E
100
AcDbEntity
  8
0
100
AcDbLine
 10
311.782
 20
174.3344
 30
0.0
 11
311.904
 21
178.1584
 31
0.0
  0
LINE
  5
129
330
1E
100
AcDbEntity
  8
0
100
AcDbLine
 10
278.2185
 20
174.3344
 30
0.0
 11
278.3158
 21
170.3734
 31
0.0
  0
LINE
  5
132
330
1E
100
AcDbEntity
  8
0
100
AcDbLine
 10
311.8254528801689
 20
175.696398473488
 30
0.0
 11
313.656
 21
177.3744
 31
0.0
  0
LINE
  5
133
330
1E
100
AcDbEntity
  8
0
100
AcDbLine
 10
313.656
 20
177.3744
 30
0.0
 11
315.988
 21
179.9183999999999
 31
0.0
  0
LINE
  5
134
330
1E
100
AcDbEntity
  8
0
100
AcDbLine
 10
276.344
 20
177.3744
 30
0.0
 11
278.1747687057109
 21
175.696195353098
 31
0.0
  0
LINE
  5
140
330
1E
100
AcDbEntity
  8
0
100
AcDbLine
 10
311.904
 20
178.1584
 30
0.0
 11
311.989
 21
181.7234
 31
0.0
  0
LINE
  5
141
330
1E
100
AcDbEntity
  8
0
100
AcDbLine
 10
325.8399999999999
 20
178.1904
 30
0.0
 11
329.2699999999999
 21
186.8804
 31
0.0
  0
LINE
  5
142
330
1E
100
AcDbEntity
  8
0
100
AcDbLine
 10
278.0957
 20
178.1584
 30
0.0
 11
278.2185
 21
174.3344
 31
0.0
  0
LINE
  5
143
330
1E
100
AcDbEntity
  8
0
100
AcDbLine
 10
264.16
 20
178.1904
 30
0.0
 11
269.85
 21
170.8804
 31
0.0
  0
LINE
  5
145
330
1E
100
AcDbEntity
  8
0
100
AcDbLine
 10
405.0
 20
177.5304
 30
0.0
 11
409.7999999999999
 21
178.2304
 31
0.0
  0
LINE
  5
147
330
1E
100
AcDbEntity
  8
0
100
AcDbLine
 10
185.0
 20
177.5304
 30
0.0
 11
189.8
 21
178.2304
 31
0.0
  0
LINE
  5
14C
330
1E
100
AcDbEntity
  8
0
100
AcDbLine
 10
161.0
 20
172.0303999999999
 30
0.0
 11
168.1
 21
166.6304
 31
0.0
  0
LINE
  5
14D
330
1E
100
AcDbEntity
  8
0
100
AcDbLine
 10
490.22
 20
171.2504
 30
0.0
 11
497.6399999999999
 21
165.6503999999999
 31
0.0
  0
LINE
  5
14E
330
1E
100
AcDbEntity
  8
0
100
AcDbLine
 10
489.85
 20
170.8804
 30
0.0
 11
497.16
 21
165.1904
 31
0.0
  0
LINE
  5
14F
330
1E
100
AcDbEntity
  8
0
100
AcDbLine
 10
400.1999999999999
 20
178.2304
 30
0.0
 11
405.0
 21
177.5304
 31
0.0
  0
LINE
  5
150
330
1E
100
AcDbEntity
  8
0
100
AcDbLine
 10
409.7999999999999
 20
178.2304
 30
0.0
 11
414.2
 21
180.0303999999999
 31
0.0
  0
LINE
  5
162
330
1E
100
AcDbEntity
  8
0
100
AcDbLine
 10
375.6
 20
179.1304
 30
0.0
 11
381.0
 21
172.0303999999999
 31
0.0
  0
LINE
  5
163
330
1E
100
AcDbEntity
  8
0
100
AcDbLine
 10
405.0
 20
179.0303999999999
 30
0.0
 11
409.3999999999999
 21
179.6304
 31
0.0
  0
LINE
  5
164
330
1E
100
AcDbEntity
  8
0
100
AcDbLine
 10
434.4
 20
179.1304
 30
0.0
 11
437.8
 21
187.3304
 31
0.0
  0
LINE
  5
165
330
1E
100
AcDbEntity
  8
0
100
AcDbLine
 10
214.4
 20
179.1304
 30
0.0
 11
217.8
 21
187.3304
 31
0.0
  0
LINE
  5
166
330
1E
100
AcDbEntity
  8
0
100
AcDbLine
 10
185.0
 20
179.0303999999999
 30
0.0
 11
189.4
 21
179.6304
 31
0.0
  0
LINE
  5
167
330
1E
100
AcDbEntity
  8
0
100
AcDbLine
 10
189.8
 20
178.2304
 30
0.0
 11
194.1999999999999
 21
180.0303999999999
 31
0.0
  0
LINE
  5
168
330
1E
100
AcDbEntity
  8
0
100
AcDbLine
 10
180.1999999999999
 20
178.2304
 30
0.0
 11
185.0
 21
177.5304
 31
0.0
  0
LINE
  5
16B
330
1E
100
AcDbEntity
  8
0
100
AcDbLine
 10
155.6
 20
179.1304
 30
0.0
 11
161.0
 21
172.0303999999999
 31
0.0
  0
LINE
  5
16D
330
1E
100
AcDbEntity
  8
0
100
AcDbLine
 10
484.62
 20
178.6704
 30
0.0
 11
490.22
 21
171.2504
 31
0.0
  0
LINE
  5
16E
330
1E
100
AcDbEntity
  8
0
100
AcDbLine
 10
484.16
 20
178.1904
 30
0.0
 11
489.85
 21
170.8804
 31
0.0
  0
LINE
  5
16F
330
1E
100
AcDbEntity
  8
0
100
AcDbLine
 10
501.6939999999999
 20
170.6814
 30
0.0
 11
503.019
 21
173.2193999999999
 31
0.0
  0
LINE
  5
170
330
1E
100
AcDbEntity
  8
0
100
AcDbLine
 10
501.485
 20
170.9004
 30
0.0
 11
502.838
 21
173.5253999999999
 31
0.0
  0
LINE
  5
171
330
1E
100
AcDbEntity
  8
0
100
AcDbLine
 10
501.0
 20
168.1353999999999
 30
0.0
 11
501.485
 21
165.3713999999999
 31
0.0
  0
LINE
  5
172
330
1E
100
AcDbEntity
  8
0
100
AcDbLine
 10
501.0
 20
168.1353999999999
 30
0.0
 11
501.1969999999999
 21
167.9754
 31
0.0
  0
LINE
  5
173
330
1E
100
AcDbEntity
  8
0
100
AcDbLine
 10
501.0
 20
168.1353999999999
 30
0.0
 11
501.485
 21
170.9004
 31
0.0
  0
LINE
  5
174
330
1E
100
AcDbEntity
  8
0
100
AcDbLine
 10
501.1969999999999
 20
167.9754
 30
0.0
 11
501.6939999999999
 21
165.2684
 31
0.0
  0
LINE
  5
175
330
1E
100
AcDbEntity
  8
0
100
AcDbLine
 10
501.1969999999999
 20
167.9754
 30
0.0
 11
501.6939999999999
 21
170.6814
 31
0.0
  0
LINE
  5
176
330
1E
100
AcDbEntity
  8
0
100
AcDbLine
 10
502.838
 20
173.5253999999999
 30
0.0
 11
505.0819999999999
 21
175.7333999999999
 31
0.0
  0
LINE
  5
177
330
1E
100
AcDbEntity
  8
0
100
AcDbLine
 10
502.838
 20
162.7463999999999
 30
0.0
 11
503.0
 21
162.586926737968
 31
0.0
  0
LINE
  5
178
330
1E
100
AcDbEntity
  8
0
100
AcDbLine
 10
501.6939999999999
 20
165.2684
 30
0.0
 11
503.0
 21
162.766793962264
 31
0.0
  0
LINE
  5
179
330
1E
100
AcDbEntity
  8
0
100
AcDbLine
 10
189.3
 20
179.9304
 30
0.0
 11
193.3
 21
181.5303999999999
 31
0.0
  0
LINE
  5
17A
330
1E
100
AcDbEntity
  8
0
100
AcDbLine
 10
185.0
 20
179.3304
 30
0.0
 11
189.3
 21
179.9304
 31
0.0
  0
LINE
  5
181
330
1E
100
AcDbEntity
  8
0
100
AcDbLine
 10
405.0
 20
179.3304
 30
0.0
 11
409.2999999999999
 21
179.9304
 31
0.0
  0
LINE
  5
185
330
1E
100
AcDbEntity
  8
0
100
AcDbLine
 10
315.988
 20
179.9183999999999
 30
0.0
 11
318.002
 21
182.8864
 31
0.0
  0
LINE
  5
186
330
1E
100
AcDbEntity
  8
0
100
AcDbLine
 10
274.012
 20
179.9183999999999
 30
0.0
 11
276.344
 21
177.3744
 31
0.0
  0
LINE
  5
187
330
1E
100
AcDbEntity
  8
0
100
AcDbLine
 10
400.6999999999999
 20
179.9304
 30
0.0
 11
405.0
 21
179.3304
 31
0.0
  0
LINE
  5
188
330
1E
100
AcDbEntity
  8
0
100
AcDbLine
 10
400.6
 20
179.6304
 30
0.0
 11
405.0
 21
179.0303999999999
 31
0.0
  0
LINE
  5
189
330
1E
100
AcDbEntity
  8
0
100
AcDbLine
 10
409.2999999999999
 20
179.9304
 30
0.0
 11
413.3
 21
181.5303999999999
 31
0.0
  0
LINE
  5
18A
330
1E
100
AcDbEntity
  8
0
100
AcDbLine
 10
409.3999999999999
 20
179.6304
 30
0.0
 11
413.4999999999999
 21
181.3304
 31
0.0
  0
LINE
  5
18C
330
1E
100
AcDbEntity
  8
0
100
AcDbLine
 10
189.4
 20
179.6304
 30
0.0
 11
193.5
 21
181.3304
 31
0.0
  0
LINE
  5
18E
330
1E
100
AcDbEntity
  8
0
100
AcDbLine
 10
180.7
 20
179.9304
 30
0.0
 11
185.0
 21
179.3304
 31
0.0
  0
LINE
  5
18F
330
1E
100
AcDbEntity
  8
0
100
AcDbLine
 10
180.6
 20
179.6304
 30
0.0
 11
185.0
 21
179.0303999999999
 31
0.0
  0
LINE
  5
190
330
1E
100
AcDbEntity
  8
0
100
AcDbLine
 10
194.1999999999999
 20
180.0303999999999
 30
0.0
 11
198.0
 21
183.0303999999999
 31
0.0
  0
LINE
  5
191
330
1E
100
AcDbEntity
  8
0
100
AcDbLine
 10
193.3
 20
181.5303999999999
 30
0.0
 11
196.8
 21
184.2304
 31
0.0
  0
LINE
  5
192
330
1E
100
AcDbEntity
  8
0
100
AcDbLine
 10
193.5
 20
181.3304
 30
0.0
 11
197.0
 21
184.0303999999999
 31
0.0
  0
LINE
  5
193
330
1E
100
AcDbEntity
  8
0
100
AcDbLine
 10
176.6999999999999
 20
181.5303999999999
 30
0.0
 11
180.7
 21
179.9304
 31
0.0
  0
LINE
  5
194
330
1E
100
AcDbEntity
  8
0
100
AcDbLine
 10
176.5
 20
181.3304
 30
0.0
 11
180.6
 21
179.6304
 31
0.0
  0
LINE
  5
195
330
1E
100
AcDbEntity
  8
0
100
AcDbLine
 10
175.8
 20
180.0303999999999
 30
0.0
 11
180.1999999999999
 21
178.2304
 31
0.0
  0
LINE
  5
19E
330
1E
100
AcDbEntity
  8
0
100
AcDbLine
 10
395.8
 20
180.0303999999999
 30
0.0
 11
400.1999999999999
 21
178.2304
 31
0.0
  0
LINE
  5
19F
330
1E
100
AcDbEntity
  8
0
100
AcDbLine
 10
414.2
 20
180.0303999999999
 30
0.0
 11
418.0
 21
183.0303999999999
 31
0.0
  0
LINE
  5
1A7
330
1E
100
AcDbEntity
  8
0
100
AcDbLine
 10
396.7
 20
181.5303999999999
 30
0.0
 11
400.6999999999999
 21
179.9304
 31
0.0
  0
LINE
  5
1A8
330
1E
100
AcDbEntity
  8
0
100
AcDbLine
 10
396.5
 20
181.3304
 30
0.0
 11
400.6
 21
179.6304
 31
0.0
  0
LINE
  5
1AA
330
1E
100
AcDbEntity
  8
0
100
AcDbLine
 10
311.989
 20
181.7234
 30
0.0
 11
312.151
 21
184.9473999999999
 31
0.0
  0
LINE
  5
1AB
330
1E
100
AcDbEntity
  8
0
100
AcDbLine
 10
278.0111
 20
181.7234
 30
0.0
 11
278.0957
 21
178.1584
 31
0.0
  0
LINE
  5
1AC
330
1E
100
AcDbEntity
  8
0
100
AcDbLine
 10
413.3
 20
181.5303999999999
 30
0.0
 11
416.8
 21
184.2304
 31
0.0
  0
LINE
  5
1AD
330
1E
100
AcDbEntity
  8
0
100
AcDbLine
 10
413.4999999999999
 20
181.3304
 30
0.0
 11
417.0
 21
184.0303999999999
 31
0.0
  0
LINE
  5
1BD
330
1E
100
AcDbEntity
  8
0
100
AcDbLine
 10
318.002
 20
182.8864
 30
0.0
 11
319.3799999999999
 21
185.9604
 31
0.0
  0
LINE
  5
1BE
330
1E
100
AcDbEntity
  8
0
100
AcDbLine
 10
271.998
 20
182.8864
 30
0.0
 11
274.012
 21
179.9183999999999
 31
0.0
  0
LINE
  5
1C9
330
1E
100
AcDbEntity
  8
0
100
AcDbLine
 10
197.0
 20
184.0303999999999
 30
0.0
 11
199.6999999999999
 21
187.5303999999999
 31
0.0
  0
LINE
  5
1CA
330
1E
100
AcDbEntity
  8
0
100
AcDbLine
 10
196.8
 20
184.2304
 30
0.0
 11
199.5
 21
187.7304
 31
0.0
  0
LINE
  5
1CB
330
1E
100
AcDbEntity
  8
0
100
AcDbLine
 10
173.2
 20
184.2304
 30
0.0
 11
176.6999999999999
 21
181.5303999999999
 31
0.0
  0
LINE
  5
1CC
330
1E
100
AcDbEntity
  8
0
100
AcDbLine
 10
173.0
 20
184.0303999999999
 30
0.0
 11
176.5
 21
181.3304
 31
0.0
  0
LINE
  5
1CD
330
1E
100
AcDbEntity
  8
0
100
AcDbLine
 10
172.0
 20
183.0303999999999
 30
0.0
 11
175.8
 21
180.0303999999999
 31
0.0
  0
LINE
  5
1CE
330
1E
100
AcDbEntity
  8
0
100
AcDbLine
 10
169.0
 20
186.8304
 30
0.0
 11
172.0
 21
183.0303999999999
 31
0.0
  0
LINE
  5
1CF
330
1E
100
AcDbEntity
  8
0
100
AcDbLine
 10
392.0
 20
183.0303999999999
 30
0.0
 11
395.8
 21
180.0303999999999
 31
0.0
  0
LINE
  5
1D4
330
1E
100
AcDbEntity
  8
0
100
AcDbLine
 10
393.2
 20
184.2304
 30
0.0
 11
396.7
 21
181.5303999999999
 31
0.0
  0
LINE
  5
1D5
330
1E
100
AcDbEntity
  8
0
100
AcDbLine
 10
393.0
 20
184.0303999999999
 30
0.0
 11
396.5
 21
181.3304
 31
0.0
  0
LINE
  5
1DE
330
1E
100
AcDbEntity
  8
0
100
AcDbLine
 10
312.151
 20
184.9473999999999
 30
0.0
 11
312.355
 21
187.8894
 31
0.0
  0
LINE
  5
1DF
330
1E
100
AcDbEntity
  8
0
100
AcDbLine
 10
319.3799999999999
 20
185.9604
 30
0.0
 11
320.5459999999999
 21
189.2464
 31
0.0
  0
LINE
  5
1E0
330
1E
100
AcDbEntity
  8
0
100
AcDbLine
 10
277.8486
 20
184.9473999999999
 30
0.0
 11
278.0111
 21
181.7234
 31
0.0
  0
LINE
  5
1E7
330
1E
100
AcDbEntity
  8
0
100
AcDbLine
 10
270.6199999999999
 20
185.9604
 30
0.0
 11
271.998
 21
182.8864
 31
0.0
  0
LINE
  5
1E8
330
1E
100
AcDbEntity
  8
0
100
AcDbLine
 10
389.0
 20
186.8304
 30
0.0
 11
392.0
 21
183.0303999999999
 31
0.0
  0
LINE
  5
1E9
330
1E
100
AcDbEntity
  8
0
100
AcDbLine
 10
416.8
 20
184.2304
 30
0.0
 11
419.5
 21
187.7304
 31
0.0
  0
LINE
  5
1EA
330
1E
100
AcDbEntity
  8
0
100
AcDbLine
 10
417.0
 20
184.0303999999999
 30
0.0
 11
419.7
 21
187.5303999999999
 31
0.0
  0
LINE
  5
1EB
330
1E
100
AcDbEntity
  8
0
100
AcDbLine
 10
421.0
 20
186.8304
 30
0.0
 11
422.7999999999999
 21
191.2303999999999
 31
0.0
  0
LINE
  5
1EF
330
1E
100
AcDbEntity
  8
0
100
AcDbLine
 10
418.0
 20
183.0303999999999
 30
0.0
 11
421.0
 21
186.8304
 31
0.0
  0
LINE
  5
1F2
330
1E
100
AcDbEntity
  8
0
100
AcDbLine
 10
329.2699999999999
 20
186.8804
 30
0.0
 11
330.5
 21
196.0303999999999
 31
0.0
  0
LINE
  5
1F5
330
1E
100
AcDbEntity
  8
0
100
AcDbLine
 10
260.73
 20
186.8804
 30
0.0
 11
264.16
 21
178.1904
 31
0.0
  0
LINE
  5
1F6
330
1E
100
AcDbEntity
  8
0
100
AcDbLine
 10
372.1999999999999
 20
187.3304
 30
0.0
 11
375.6
 21
179.1304
 31
0.0
  0
LINE
  5
1FC
330
1E
100
AcDbEntity
  8
0
100
AcDbLine
 10
437.8
 20
187.3304
 30
0.0
 11
439.0
 21
196.0303999999999
 31
0.0
  0
LINE
  5
1FD
330
1E
100
AcDbEntity
  8
0
100
AcDbLine
 10
217.8
 20
187.3304
 30
0.0
 11
219.0
 21
196.0303999999999
 31
0.0
  0
LINE
  5
1FE
330
1E
100
AcDbEntity
  8
0
100
AcDbLine
 10
201.0
 20
186.8304
 30
0.0
 11
202.8
 21
191.2303999999999
 31
0.0
  0
LINE
  5
200
330
1E
100
AcDbEntity
  8
0
100
AcDbLine
 10
198.0
 20
183.0303999999999
 30
0.0
 11
201.0
 21
186.8304
 31
0.0
  0
LINE
  5
204
330
1E
100
AcDbEntity
  8
0
100
AcDbLine
 10
168.3
 20
196.0303999999999
 30
0.0
 11
168.9
 21
191.7304
 31
0.0
  0
LINE
  5
205
330
1E
100
AcDbEntity
  8
0
100
AcDbLine
 10
168.3
 20
196.0303999999999
 30
0.0
 11
168.9
 21
200.3303999999999
 31
0.0
  0
LINE
  5
206
330
1E
100
AcDbEntity
  8
0
100
AcDbLine
 10
199.6999999999999
 20
187.5303999999999
 30
0.0
 11
201.4
 21
191.6304
 31
0.0
  0
LINE
  5
207
330
1E
100
AcDbEntity
  8
0
100
AcDbLine
 10
199.5
 20
187.7304
 30
0.0
 11
201.1
 21
191.7304
 31
0.0
  0
LINE
  5
208
330
1E
100
AcDbEntity
  8
0
100
AcDbLine
 10
201.1
 20
191.7304
 30
0.0
 11
201.6999999999999
 21
196.0303999999999
 31
0.0
  0
LINE
  5
209
330
1E
100
AcDbEntity
  8
0
100
AcDbLine
 10
201.4
 20
191.6304
 30
0.0
 11
202.0
 21
196.0303999999999
 31
0.0
  0
LINE
  5
20A
330
1E
100
AcDbEntity
  8
0
100
AcDbLine
 10
202.8
 20
191.2303999999999
 30
0.0
 11
203.5
 21
196.0303999999999
 31
0.0
  0
LINE
  5
20B
330
1E
100
AcDbEntity
  8
0
100
AcDbLine
 10
170.5
 20
187.7304
 30
0.0
 11
173.2
 21
184.2304
 31
0.0
  0
LINE
  5
20C
330
1E
100
AcDbEntity
  8
0
100
AcDbLine
 10
168.9
 20
191.7304
 30
0.0
 11
170.5
 21
187.7304
 31
0.0
  0
LINE
  5
20D
330
1E
100
AcDbEntity
  8
0
100
AcDbLine
 10
170.3
 20
187.5303999999999
 30
0.0
 11
173.0
 21
184.0303999999999
 31
0.0
  0
LINE
  5
20E
330
1E
100
AcDbEntity
  8
0
100
AcDbLine
 10
168.5999999999999
 20
191.6304
 30
0.0
 11
170.3
 21
187.5303999999999
 31
0.0
  0
LINE
  5
20F
330
1E
100
AcDbEntity
  8
0
100
AcDbLine
 10
168.0
 20
196.0303999999999
 30
0.0
 11
168.5999999999999
 21
191.6304
 31
0.0
  0
LINE
  5
210
330
1E
100
AcDbEntity
  8
0
100
AcDbLine
 10
168.0
 20
196.0303999999999
 30
0.0
 11
168.5999999999999
 21
200.4303999999999
 31
0.0
  0
LINE
  5
211
330
1E
100
AcDbEntity
  8
0
100
AcDbLine
 10
167.1999999999999
 20
191.2303999999999
 30
0.0
 11
169.0
 21
186.8304
 31
0.0
  0
LINE
  5
212
330
1E
100
AcDbEntity
  8
0
100
AcDbLine
 10
166.5
 20
196.0303999999999
 30
0.0
 11
167.1999999999999
 21
191.2303999999999
 31
0.0
  0
LINE
  5
213
330
1E
100
AcDbEntity
  8
0
100
AcDbLine
 10
166.5
 20
196.0303999999999
 30
0.0
 11
167.1999999999999
 21
200.8303999999999
 31
0.0
  0
LINE
  5
233
330
1E
100
AcDbEntity
  8
0
100
AcDbLine
 10
312.355
 20
187.8894
 30
0.0
 11
312.5579999999999
 21
190.2843999999999
 31
0.0
  0
LINE
  5
234
330
1E
100
AcDbEntity
  8
0
100
AcDbLine
 10
320.5459999999999
 20
189.2464
 30
0.0
 11
321.182
 21
192.5323999999999
 31
0.0
  0
LINE
  5
235
330
1E
100
AcDbEntity
  8
0
100
AcDbLine
 10
277.6454
 20
187.8894
 30
0.0
 11
277.8486
 21
184.9473999999999
 31
0.0
  0
LINE
  5
269
330
1E
100
AcDbEntity
  8
0
100
AcDbLine
 10
321.182
 20
192.5323999999999
 30
0.0
 11
321.4999999999999
 21
196.0303999999999
 31
0.0
  0
LINE
  5
26B
330
1E
100
AcDbEntity
  8
0
100
AcDbLine
 10
269.4539999999999
 20
189.2464
 30
0.0
 11
270.6199999999999
 21
185.9604
 31
0.0
  0
LINE
  5
26C
330
1E
100
AcDbEntity
  8
0
100
AcDbLine
 10
268.818
 20
192.5323999999999
 30
0.0
 11
269.4539999999999
 21
189.2464
 31
0.0
  0
LINE
  5
26D
330
1E
100
AcDbEntity
  8
0
100
AcDbLine
 10
268.5
 20
196.0303999999999
 30
0.0
 11
268.818
 21
199.5284
 31
0.0
  0
LINE
  5
26E
330
1E
100
AcDbEntity
  8
0
100
AcDbLine
 10
268.5
 20
196.0303999999999
 30
0.0
 11
268.818
 21
192.5323999999999
 31
0.0
  0
LINE
  5
271
330
1E
100
AcDbEntity
  8
0
100
AcDbLine
 10
259.5
 20
196.0303999999999
 30
0.0
 11
260.73
 21
205.1803999999999
 31
0.0
  0
LINE
  5
272
330
1E
100
AcDbEntity
  8
0
100
AcDbLine
 10
259.5
 20
196.0303999999999
 30
0.0
 11
260.73
 21
186.8804
 31
0.0
  0
LINE
  5
276
330
1E
100
AcDbEntity
  8
0
100
AcDbLine
 10
371.0
 20
196.0303999999999
 30
0.0
 11
372.1999999999999
 21
187.3304
 31
0.0
  0
LINE
  5
278
330
1E
100
AcDbEntity
  8
0
100
AcDbLine
 10
371.0
 20
196.0303999999999
 30
0.0
 11
372.1999999999999
 21
204.7304
 31
0.0
  0
LINE
  5
27A
330
1E
100
AcDbEntity
  8
0
100
AcDbLine
 10
390.5
 20
187.7304
 30
0.0
 11
393.2
 21
184.2304
 31
0.0
  0
LINE
  5
27B
330
1E
100
AcDbEntity
  8
0
100
AcDbLine
 10
390.3
 20
187.5303999999999
 30
0.0
 11
393.0
 21
184.0303999999999
 31
0.0
  0
LINE
  5
27C
330
1E
100
AcDbEntity
  8
0
100
AcDbLine
 10
387.1999999999999
 20
191.2303999999999
 30
0.0
 11
389.0
 21
186.8304
 31
0.0
  0
LINE
  5
27D
330
1E
100
AcDbEntity
  8
0
100
AcDbLine
 10
419.5
 20
187.7304
 30
0.0
 11
421.1
 21
191.7304
 31
0.0
  0
LINE
  5
27E
330
1E
100
AcDbEntity
  8
0
100
AcDbLine
 10
419.7
 20
187.5303999999999
 30
0.0
 11
421.3999999999999
 21
191.6304
 31
0.0
  0
LINE
  5
27F
330
1E
100
AcDbEntity
  8
0
100
AcDbLine
 10
388.8999999999999
 20
191.7304
 30
0.0
 11
390.5
 21
187.7304
 31
0.0
  0
LINE
  5
280
330
1E
100
AcDbEntity
  8
0
100
AcDbLine
 10
388.6
 20
191.6304
 30
0.0
 11
390.3
 21
187.5303999999999
 31
0.0
  0
LINE
  5
281
330
1E
100
AcDbEntity
  8
0
100
AcDbLine
 10
388.3
 20
196.0303999999999
 30
0.0
 11
388.8999999999999
 21
191.7304
 31
0.0
  0
LINE
  5
282
330
1E
100
AcDbEntity
  8
0
100
AcDbLine
 10
388.3
 20
196.0303999999999
 30
0.0
 11
388.8999999999999
 21
200.3303999999999
 31
0.0
  0
LINE
  5
283
330
1E
100
AcDbEntity
  8
0
100
AcDbLine
 10
388.0
 20
196.0303999999999
 30
0.0
 11
388.6
 21
191.6304
 31
0.0
  0
LINE
  5
284
330
1E
100
AcDbEntity
  8
0
100
AcDbLine
 10
388.0
 20
196.0303999999999
 30
0.0
 11
388.6
 21
200.4303999999999
 31
0.0
  0
LINE
  5
285
330
1E
100
AcDbEntity
  8
0
100
AcDbLine
 10
386.5
 20
196.0303999999999
 30
0.0
 11
387.1999999999999
 21
191.2303999999999
 31
0.0
  0
LINE
  5
286
330
1E
100
AcDbEntity
  8
0
100
AcDbLine
 10
386.5
 20
196.0303999999999
 30
0.0
 11
387.1999999999999
 21
200.8303999999999
 31
0.0
  0
LINE
  5
287
330
1E
100
AcDbEntity
  8
0
100
AcDbLine
 10
421.1
 20
191.7304
 30
0.0
 11
421.6999999999999
 21
196.0303999999999
 31
0.0
  0
LINE
  5
29A
330
1E
100
AcDbEntity
  8
0
100
AcDbLine
 10
421.3999999999999
 20
191.6304
 30
0.0
 11
422.0
 21
196.0303999999999
 31
0.0
  0
LINE
  5
29B
330
1E
100
AcDbEntity
  8
0
100
AcDbLine
 10
422.7999999999999
 20
191.2303999999999
 30
0.0
 11
423.5
 21
196.0303999999999
 31
0.0
  0
LINE
  5
2A4
330
1E
100
AcDbEntity
  8
0
100
AcDbLine
 10
152.2
 20
187.3304
 30
0.0
 11
155.6
 21
179.1304
 31
0.0
  0
LINE
  5
2A5
330
1E
100
AcDbEntity
  8
0
100
AcDbLine
 10
151.0
 20
196.0303999999999
 30
0.0
 11
152.2
 21
187.3304
 31
0.0
  0
LINE
  5
2A6
330
1E
100
AcDbEntity
  8
0
100
AcDbLine
 10
151.0
 20
196.0303999999999
 30
0.0
 11
152.2
 21
204.7304
 31
0.0
  0
LINE
  5
2A7
330
1E
100
AcDbEntity
  8
0
100
AcDbLine
 10
481.2599999999999
 20
187.0704
 30
0.0
 11
484.62
 21
178.6704
 31
0.0
  0
LINE
  5
2A8
330
1E
100
AcDbEntity
  8
0
100
AcDbLine
 10
480.73
 20
186.8804
 30
0.0
 11
484.16
 21
178.1904
 31
0.0
  0
LINE
  5
2A9
330
1E
100
AcDbEntity
  8
0
100
AcDbLine
 10
480.0
 20
196.0303999999999
 30
0.0
 11
481.2599999999999
 21
204.9904
 31
0.0
  0
LINE
  5
2AA
330
1E
100
AcDbEntity
  8
0
100
AcDbLine
 10
480.0
 20
196.0303999999999
 30
0.0
 11
481.2599999999999
 21
187.0704
 31
0.0
  0
LINE
  5
2AC
330
1E
100
AcDbEntity
  8
0
100
AcDbLine
 10
152.2
 20
204.7304
 30
0.0
 11
155.6
 21
212.9303999999999
 31
0.0
  0
LINE
  5
2AD
330
1E
100
AcDbEntity
  8
0
100
AcDbLine
 10
168.9
 20
200.3303999999999
 30
0.0
 11
170.5
 21
204.3304
 31
0.0
  0
LINE
  5
2AE
330
1E
100
AcDbEntity
  8
0
100
AcDbLine
 10
170.5
 20
204.3304
 30
0.0
 11
173.2
 21
207.8304
 31
0.0
  0
LINE
  5
2AF
330
1E
100
AcDbEntity
  8
0
100
AcDbLine
 10
170.3
 20
204.5303999999999
 30
0.0
 11
173.0
 21
208.0303999999999
 31
0.0
  0
LINE
  5
2B0
330
1E
100
AcDbEntity
  8
0
100
AcDbLine
 10
168.5999999999999
 20
200.4303999999999
 30
0.0
 11
170.3
 21
204.5303999999999
 31
0.0
  0
LINE
  5
2B1
330
1E
100
AcDbEntity
  8
0
100
AcDbLine
 10
167.1999999999999
 20
200.8303999999999
 30
0.0
 11
169.0
 21
205.2303999999999
 31
0.0
  0
LINE
  5
2B2
330
1E
100
AcDbEntity
  8
0
100
AcDbLine
 10
169.0
 20
205.2303999999999
 30
0.0
 11
172.0
 21
209.0303999999999
 31
0.0
  0
LINE
  5
2B5
330
1E
100
AcDbEntity
  8
0
100
AcDbLine
 10
196.8
 20
207.8304
 30
0.0
 11
199.5
 21
204.3304
 31
0.0
  0
LINE
  5
2B6
330
1E
100
AcDbEntity
  8
0
100
AcDbLine
 10
197.0
 20
208.0303999999999
 30
0.0
 11
199.6999999999999
 21
204.5303999999999
 31
0.0
  0
LINE
  5
2B7
330
1E
100
AcDbEntity
  8
0
100
AcDbLine
 10
173.2
 20
207.8304
 30
0.0
 11
176.6999999999999
 21
210.5303999999999
 31
0.0
  0
LINE
  5
2B8
330
1E
100
AcDbEntity
  8
0
100
AcDbLine
 10
173.0
 20
208.0303999999999
 30
0.0
 11
176.5
 21
210.7304
 31
0.0
  0
LINE
  5
2B9
330
1E
100
AcDbEntity
  8
0
100
AcDbLine
 10
172.0
 20
209.0303999999999
 30
0.0
 11
175.8
 21
212.0303999999999
 31
0.0
  0
LINE
  5
2BD
330
1E
100
AcDbEntity
  8
0
100
AcDbLine
 10
199.5
 20
204.3304
 30
0.0
 11
201.1
 21
200.3303999999999
 31
0.0
  0
LINE
  5
2BE
330
1E
100
AcDbEntity
  8
0
100
AcDbLine
 10
201.1
 20
200.3303999999999
 30
0.0
 11
201.6999999999999
 21
196.0303999999999
 31
0.0
  0
LINE
  5
2BF
330
1E
100
AcDbEntity
  8
0
100
AcDbLine
 10
199.6999999999999
 20
204.5303999999999
 30
0.0
 11
201.4
 21
200.4303999999999
 31
0.0
  0
LINE
  5
2C0
330
1E
100
AcDbEntity
  8
0
100
AcDbLine
 10
201.4
 20
200.4303999999999
 30
0.0
 11
202.0
 21
196.0303999999999
 31
0.0
  0
LINE
  5
2C1
330
1E
100
AcDbEntity
  8
0
100
AcDbLine
 10
201.0
 20
205.2303999999999
 30
0.0
 11
202.8
 21
200.8303999999999
 31
0.0
  0
LINE
  5
2F9
330
1E
100
AcDbEntity
  8
0
100
AcDbLine
 10
269.4539999999999
 20
202.8144
 30
0.0
 11
270.6199999999999
 21
206.1004
 31
0.0
  0
LINE
  5
2FA
330
1E
100
AcDbEntity
  8
0
100
AcDbLine
 10
268.818
 20
199.5284
 30
0.0
 11
269.4539999999999
 21
202.8144
 31
0.0
  0
LINE
  5
2FC
330
1E
100
AcDbEntity
  8
0
100
AcDbLine
 10
270.6199999999999
 20
206.1004
 30
0.0
 11
271.998
 21
209.1743999999999
 31
0.0
  0
LINE
  5
2FE
330
1E
100
AcDbEntity
  8
0
100
AcDbLine
 10
260.73
 20
205.1803999999999
 30
0.0
 11
264.16
 21
213.8704
 31
0.0
  0
LINE
  5
2FF
330
1E
100
AcDbEntity
  8
0
100
AcDbLine
 10
217.8
 20
204.7304
 30
0.0
 11
219.0
 21
196.0303999999999
 31
0.0
  0
LINE
  5
300
330
1E
100
AcDbEntity
  8
0
100
AcDbLine
 10
202.8
 20
200.8303999999999
 30
0.0
 11
203.5
 21
196.0303999999999
 31
0.0
  0
LINE
  5
301
330
1E
100
AcDbEntity
  8
0
100
AcDbLine
 10
271.998
 20
209.1743999999999
 30
0.0
 11
274.012
 21
212.1424
 31
0.0
  0
LINE
  5
307
330
1E
100
AcDbEntity
  8
0
100
AcDbLine
 10
198.0
 20
209.0303999999999
 30
0.0
 11
201.0
 21
205.2303999999999
 31
0.0
  0
LINE
  5
308
330
1E
100
AcDbEntity
  8
0
100
AcDbLine
 10
176.6999999999999
 20
210.5303999999999
 30
0.0
 11
180.7
 21
212.1304
 31
0.0
  0
LINE
  5
309
330
1E
100
AcDbEntity
  8
0
100
AcDbLine
 10
176.5
 20
210.7304
 30
0.0
 11
180.6
 21
212.4303999999999
 31
0.0
  0
LINE
  5
30A
330
1E
100
AcDbEntity
  8
0
100
AcDbLine
 10
193.3
 20
210.5303999999999
 30
0.0
 11
196.8
 21
207.8304
 31
0.0
  0
LINE
  5
30B
330
1E
100
AcDbEntity
  8
0
100
AcDbLine
 10
193.5
 20
210.7304
 30
0.0
 11
197.0
 21
208.0303999999999
 31
0.0
  0
LINE
  5
30D
330
1E
100
AcDbEntity
  8
0
100
AcDbLine
 10
180.7
 20
212.1304
 30
0.0
 11
185.0
 21
212.7304
 31
0.0
  0
LINE
  5
30E
330
1E
100
AcDbEntity
  8
0
100
AcDbLine
 10
180.6
 20
212.4303999999999
 30
0.0
 11
185.0
 21
213.0303999999999
 31
0.0
  0
LINE
  5
30F
330
1E
100
AcDbEntity
  8
0
100
AcDbLine
 10
175.8
 20
212.0303999999999
 30
0.0
 11
180.1999999999999
 21
213.8304
 31
0.0
  0
LINE
  5
310
330
1E
100
AcDbEntity
  8
0
100
AcDbLine
 10
189.3
 20
212.1304
 30
0.0
 11
193.3
 21
210.5303999999999
 31
0.0
  0
LINE
  5
311
330
1E
100
AcDbEntity
  8
0
100
AcDbLine
 10
155.6
 20
212.9303999999999
 30
0.0
 11
161.0
 21
220.0304
 31
0.0
  0
LINE
  5
312
330
1E
100
AcDbEntity
  8
0
100
AcDbLine
 10
185.0
 20
212.7304
 30
0.0
 11
189.3
 21
212.1304
 31
0.0
  0
LINE
  5
313
330
1E
100
AcDbEntity
  8
0
100
AcDbLine
 10
189.4
 20
212.4303999999999
 30
0.0
 11
193.5
 21
210.7304
 31
0.0
  0
LINE
  5
314
330
1E
100
AcDbEntity
  8
0
100
AcDbLine
 10
180.1999999999999
 20
213.8304
 30
0.0
 11
185.0
 21
214.5303999999999
 31
0.0
  0
LINE
  5
315
330
1E
100
AcDbEntity
  8
0
100
AcDbLine
 10
185.0
 20
213.0303999999999
 30
0.0
 11
189.4
 21
212.4303999999999
 31
0.0
  0
LINE
  5
316
330
1E
100
AcDbEntity
  8
0
100
AcDbLine
 10
189.8
 20
213.8304
 30
0.0
 11
194.1999999999999
 21
212.0303999999999
 31
0.0
  0
LINE
  5
31A
330
1E
100
AcDbEntity
  8
0
100
AcDbLine
 10
274.012
 20
212.1424
 30
0.0
 11
276.344
 21
214.6863999999999
 31
0.0
  0
LINE
  5
31C
330
1E
100
AcDbEntity
  8
0
100
AcDbLine
 10
264.16
 20
213.8704
 30
0.0
 11
269.85
 21
221.1803999999999
 31
0.0
  0
LINE
  5
31D
330
1E
100
AcDbEntity
  8
0
100
AcDbLine
 10
214.4
 20
212.9303999999999
 30
0.0
 11
217.8
 21
204.7304
 31
0.0
  0
LINE
  5
31E
330
1E
100
AcDbEntity
  8
0
100
AcDbLine
 10
194.1999999999999
 20
212.0303999999999
 30
0.0
 11
198.0
 21
209.0303999999999
 31
0.0
  0
LINE
  5
330
330
1E
100
AcDbEntity
  8
0
100
AcDbLine
 10
321.182
 20
199.5284
 30
0.0
 11
321.4999999999999
 21
196.0303999999999
 31
0.0
  0
LINE
  5
331
330
1E
100
AcDbEntity
  8
0
100
AcDbLine
 10
388.8999999999999
 20
200.3303999999999
 30
0.0
 11
390.5
 21
204.3304
 31
0.0
  0
LINE
  5
332
330
1E
100
AcDbEntity
  8
0
100
AcDbLine
 10
388.6
 20
200.4303999999999
 30
0.0
 11
390.3
 21
204.5303999999999
 31
0.0
  0
LINE
  5
333
330
1E
100
AcDbEntity
  8
0
100
AcDbLine
 10
421.1
 20
200.3303999999999
 30
0.0
 11
421.6999999999999
 21
196.0303999999999
 31
0.0
  0
LINE
  5
344
330
1E
100
AcDbEntity
  8
0
100
AcDbLine
 10
320.5459999999999
 20
202.8144
 30
0.0
 11
321.182
 21
199.5284
 31
0.0
  0
LINE
  5
345
330
1E
100
AcDbEntity
  8
0
100
AcDbLine
 10
390.5
 20
204.3304
 30
0.0
 11
393.2
 21
207.8304
 31
0.0
  0
LINE
  5
346
330
1E
100
AcDbEntity
  8
0
100
AcDbLine
 10
387.1999999999999
 20
200.8303999999999
 30
0.0
 11
389.0
 21
205.2303999999999
 31
0.0
  0
LINE
  5
349
330
1E
100
AcDbEntity
  8
0
100
AcDbLine
 10
329.2699999999999
 20
205.1803999999999
 30
0.0
 11
330.5
 21
196.0303999999999
 31
0.0
  0
LINE
  5
34A
330
1E
100
AcDbEntity
  8
0
100
AcDbLine
 10
372.1999999999999
 20
204.7304
 30
0.0
 11
375.6
 21
212.9303999999999
 31
0.0
  0
LINE
  5
34B
330
1E
100
AcDbEntity
  8
0
100
AcDbLine
 10
390.3
 20
204.5303999999999
 30
0.0
 11
393.0
 21
208.0303999999999
 31
0.0
  0
LINE
  5
34C
330
1E
100
AcDbEntity
  8
0
100
AcDbLine
 10
419.5
 20
204.3304
 30
0.0
 11
421.1
 21
200.3303999999999
 31
0.0
  0
LINE
  5
34D
330
1E
100
AcDbEntity
  8
0
100
AcDbLine
 10
419.7
 20
204.5303999999999
 30
0.0
 11
421.3999999999999
 21
200.4303999999999
 31
0.0
  0
LINE
  5
34E
330
1E
100
AcDbEntity
  8
0
100
AcDbLine
 10
421.3999999999999
 20
200.4303999999999
 30
0.0
 11
422.0
 21
196.0303999999999
 31
0.0
  0
LINE
  5
36A
330
1E
100
AcDbEntity
  8
0
100
AcDbLine
 10
437.8
 20
204.7304
 30
0.0
 11
439.0
 21
196.0303999999999
 31
0.0
  0
LINE
  5
36B
330
1E
100
AcDbEntity
  8
0
100
AcDbLine
 10
422.7999999999999
 20
200.8303999999999
 30
0.0
 11
423.5
 21
196.0303999999999
 31
0.0
  0
LINE
  5
37A
330
1E
100
AcDbEntity
  8
0
100
AcDbLine
 10
318.002
 20
209.1743999999999
 30
0.0
 11
319.3799999999999
 21
206.1004
 31
0.0
  0
LINE
  5
37B
330
1E
100
AcDbEntity
  8
0
100
AcDbLine
 10
319.3799999999999
 20
206.1004
 30
0.0
 11
320.5459999999999
 21
202.8144
 31
0.0
  0
LINE
  5
37C
330
1E
100
AcDbEntity
  8
0
100
AcDbLine
 10
389.0
 20
205.2303999999999
 30
0.0
 11
392.0
 21
209.0303999999999
 31
0.0
  0
LINE
  5
3B0
330
1E
100
AcDbEntity
  8
0
100
AcDbLine
 10
325.8399999999999
 20
213.8704
 30
0.0
 11
329.2699999999999
 21
205.1803999999999
 31
0.0
  0
LINE
  5
3B1
330
1E
100
AcDbEntity
  8
0
100
AcDbLine
 10
315.988
 20
212.1424
 30
0.0
 11
318.002
 21
209.1743999999999
 31
0.0
  0
LINE
  5
3B3
330
1E
100
AcDbEntity
  8
0
100
AcDbLine
 10
375.6
 20
212.9303999999999
 30
0.0
 11
381.0
 21
220.0304
 31
0.0
  0
LINE
  5
3B7
330
1E
100
AcDbEntity
  8
0
100
AcDbLine
 10
393.2
 20
207.8304
 30
0.0
 11
396.7
 21
210.5303999999999
 31
0.0
  0
LINE
  5
3B8
330
1E
100
AcDbEntity
  8
0
100
AcDbLine
 10
393.0
 20
208.0303999999999
 30
0.0
 11
396.5
 21
210.7304
 31
0.0
  0
LINE
  5
3B9
330
1E
100
AcDbEntity
  8
0
100
AcDbLine
 10
416.8
 20
207.8304
 30
0.0
 11
419.5
 21
204.3304
 31
0.0
  0
LINE
  5
3BA
330
1E
100
AcDbEntity
  8
0
100
AcDbLine
 10
392.0
 20
209.0303999999999
 30
0.0
 11
395.8
 21
212.0303999999999
 31
0.0
  0
LINE
  5
3BB
330
1E
100
AcDbEntity
  8
0
100
AcDbLine
 10
417.0
 20
208.0303999999999
 30
0.0
 11
419.7
 21
204.5303999999999
 31
0.0
  0
LINE
  5
3C0
330
1E
100
AcDbEntity
  8
0
100
AcDbLine
 10
421.0
 20
205.2303999999999
 30
0.0
 11
422.7999999999999
 21
200.8303999999999
 31
0.0
  0
LINE
  5
3C1
330
1E
100
AcDbEntity
  8
0
100
AcDbLine
 10
413.3
 20
210.5303999999999
 30
0.0
 11
416.8
 21
207.8304
 31
0.0
  0
LINE
  5
3C2
330
1E
100
AcDbEntity
  8
0
100
AcDbLine
 10
413.4999999999999
 20
210.7304
 30
0.0
 11
417.0
 21
208.0303999999999
 31
0.0
  0
LINE
  5
3C3
330
1E
100
AcDbEntity
  8
0
100
AcDbLine
 10
396.7
 20
210.5303999999999
 30
0.0
 11
400.6999999999999
 21
212.1304
 31
0.0
  0
LINE
  5
3C4
330
1E
100
AcDbEntity
  8
0
100
AcDbLine
 10
414.2
 20
212.0303999999999
 30
0.0
 11
418.0
 21
209.0303999999999
 31
0.0
  0
LINE
  5
3C5
330
1E
100
AcDbEntity
  8
0
100
AcDbLine
 10
396.5
 20
210.7304
 30
0.0
 11
400.6
 21
212.4303999999999
 31
0.0
  0
LINE
  5
3C6
330
1E
100
AcDbEntity
  8
0
100
AcDbLine
 10
395.8
 20
212.0303999999999
 30
0.0
 11
400.1999999999999
 21
213.8304
 31
0.0
  0
LINE
  5
3C7
330
1E
100
AcDbEntity
  8
0
100
AcDbLine
 10
409.2999999999999
 20
212.1304
 30
0.0
 11
413.3
 21
210.5303999999999
 31
0.0
  0
LINE
  5
3C8
330
1E
100
AcDbEntity
  8
0
100
AcDbLine
 10
409.3999999999999
 20
212.4303999999999
 30
0.0
 11
413.4999999999999
 21
210.7304
 31
0.0
  0
LINE
  5
3C9
330
1E
100
AcDbEntity
  8
0
100
AcDbLine
 10
400.6999999999999
 20
212.1304
 30
0.0
 11
405.0
 21
212.7304
 31
0.0
  0
LINE
  5
3CA
330
1E
100
AcDbEntity
  8
0
100
AcDbLine
 10
405.0
 20
212.7304
 30
0.0
 11
409.2999999999999
 21
212.1304
 31
0.0
  0
LINE
  5
3CB
330
1E
100
AcDbEntity
  8
0
100
AcDbLine
 10
405.0
 20
213.0303999999999
 30
0.0
 11
409.3999999999999
 21
212.4303999999999
 31
0.0
  0
LINE
  5
3CC
330
1E
100
AcDbEntity
  8
0
100
AcDbLine
 10
409.7999999999999
 20
213.8304
 30
0.0
 11
414.2
 21
212.0303999999999
 31
0.0
  0
LINE
  5
3CD
330
1E
100
AcDbEntity
  8
0
100
AcDbLine
 10
400.6
 20
212.4303999999999
 30
0.0
 11
405.0
 21
213.0303999999999
 31
0.0
  0
LINE
  5
3CE
330
1E
100
AcDbEntity
  8
0
100
AcDbLine
 10
400.1999999999999
 20
213.8304
 30
0.0
 11
405.0
 21
214.5303999999999
 31
0.0
  0
LINE
  5
3E3
330
1E
100
AcDbEntity
  8
0
100
AcDbLine
 10
434.4
 20
212.9303999999999
 30
0.0
 11
437.8
 21
204.7304
 31
0.0
  0
LINE
  5
3EA
330
1E
100
AcDbEntity
  8
0
100
AcDbLine
 10
418.0
 20
209.0303999999999
 30
0.0
 11
421.0
 21
205.2303999999999
 31
0.0
  0
LINE
  5
3EE
330
1E
100
AcDbEntity
  8
0
100
AcDbLine
 10
298.5109999999999
 20
214.151107008965
 30
0.0
 11
298.5109999999999
 21
226.1283999999999
 31
0.0
  0
LINE
  5
3F4
330
1E
100
AcDbEntity
  8
0
100
AcDbLine
 10
161.0
 20
220.0304
 30
0.0
 11
168.1
 21
225.4303999999999
 31
0.0
  0
LINE
  5
3F8
330
1E
100
AcDbEntity
  8
0
100
AcDbLine
 10
168.1
 20
225.4303999999999
 30
0.0
 11
176.3
 21
228.8304
 31
0.0
  0
LINE
  5
3F9
330
1E
100
AcDbEntity
  8
0
100
AcDbLine
 10
176.3
 20
228.8304
 30
0.0
 11
185.0
 21
230.0304
 31
0.0
  0
LINE
  5
400
330
1E
100
AcDbEntity
  8
0
100
AcDbLine
 10
185.0
 20
230.0304
 30
0.0
 11
193.6999999999999
 21
228.8304
 31
0.0
  0
LINE
  5
405
330
1E
100
AcDbEntity
  8
0
100
AcDbLine
 10
276.344
 20
214.6863999999999
 30
0.0
 11
278.8879999999999
 21
217.0184
 31
0.0
  0
LINE
  5
406
330
1E
100
AcDbEntity
  8
0
100
AcDbLine
 10
278.8879999999999
 20
217.0184
 30
0.0
 11
281.856
 21
219.0323999999999
 31
0.0
  0
LINE
  5
407
330
1E
100
AcDbEntity
  8
0
100
AcDbLine
 10
281.856
 20
219.0323999999999
 30
0.0
 11
284.9299999999999
 21
220.4104
 31
0.0
  0
LINE
  5
408
330
1E
100
AcDbEntity
  8
0
100
AcDbLine
 10
284.9299999999999
 20
220.4104
 30
0.0
 11
288.216
 21
221.5764
 31
0.0
  0
LINE
  5
40A
330
1E
100
AcDbEntity
  8
0
100
AcDbLine
 10
288.216
 20
221.5764
 30
0.0
 11
291.502
 21
222.2123999999999
 31
0.0
  0
LINE
  5
40C
330
1E
100
AcDbEntity
  8
0
100
AcDbLine
 10
277.16
 20
226.8704
 30
0.0
 11
285.85
 21
230.3004
 31
0.0
  0
LINE
  5
40D
330
1E
100
AcDbEntity
  8
0
100
AcDbLine
 10
269.85
 20
221.1803999999999
 30
0.0
 11
277.16
 21
226.8704
 31
0.0
  0
LINE
  5
40F
330
1E
100
AcDbEntity
  8
0
100
AcDbLine
 10
209.0
 20
220.0304
 30
0.0
 11
214.4
 21
212.9303999999999
 31
0.0
  0
LINE
  5
412
330
1E
100
AcDbEntity
  8
0
100
AcDbLine
 10
201.9
 20
225.4303999999999
 30
0.0
 11
209.0
 21
220.0304
 31
0.0
  0
LINE
  5
414
330
1E
100
AcDbEntity
  8
0
100
AcDbLine
 10
285.85
 20
230.3004
 30
0.0
 11
295.0
 21
231.5303999999999
 31
0.0
  0
LINE
  5
415
330
1E
100
AcDbEntity
  8
0
100
AcDbLine
 10
193.6999999999999
 20
228.8304
 30
0.0
 11
201.9
 21
225.4303999999999
 31
0.0
  0
LINE
  5
418
330
1E
100
AcDbEntity
  8
0
100
AcDbLine
 10
185.0
 20
214.5303999999999
 30
0.0
 11
189.8
 21
213.8304
 31
0.0
  0
LINE
  5
419
330
1E
100
AcDbEntity
  8
0
100
AcDbLine
 10
291.595
 20
226.3284
 30
0.0
 11
291.721
 21
226.3284
 31
0.0
  0
LINE
  5
41A
330
1E
100
AcDbEntity
  8
0
100
AcDbLine
 10
291.721
 20
226.3284
 30
0.0
 11
292.057
 21
226.3284
 31
0.0
  0
LINE
  5
41B
330
1E
100
AcDbEntity
  8
0
100
AcDbLine
 10
292.057
 20
226.3284
 30
0.0
 11
292.603
 21
226.3284
 31
0.0
  0
LINE
  5
41C
330
1E
100
AcDbEntity
  8
0
100
AcDbLine
 10
292.603
 20
226.3284
 30
0.0
 11
293.317
 21
226.3284
 31
0.0
  0
LINE
  5
41D
330
1E
100
AcDbEntity
  8
0
100
AcDbLine
 10
298.3009999999999
 20
226.3284
 30
0.0
 11
298.427
 21
226.3284
 31
0.0
  0
LINE
  5
424
330
1E
100
AcDbEntity
  8
0
100
AcDbLine
 10
313.656
 20
214.6863999999999
 30
0.0
 11
315.988
 21
212.1424
 31
0.0
  0
LINE
  5
426
330
1E
100
AcDbEntity
  8
0
100
AcDbLine
 10
311.112
 20
217.0184
 30
0.0
 11
313.656
 21
214.6863999999999
 31
0.0
  0
LINE
  5
427
330
1E
100
AcDbEntity
  8
0
100
AcDbLine
 10
308.144
 20
219.0323999999999
 30
0.0
 11
311.112
 21
217.0184
 31
0.0
  0
LINE
  5
429
330
1E
100
AcDbEntity
  8
0
100
AcDbLine
 10
320.1499999999999
 20
221.1803999999999
 30
0.0
 11
325.8399999999999
 21
213.8704
 31
0.0
  0
LINE
  5
42A
330
1E
100
AcDbEntity
  8
0
100
AcDbLine
 10
305.0699999999999
 20
220.4104
 30
0.0
 11
308.144
 21
219.0323999999999
 31
0.0
  0
LINE
  5
42B
330
1E
100
AcDbEntity
  8
0
100
AcDbLine
 10
301.784
 20
221.5764
 30
0.0
 11
305.0699999999999
 21
220.4104
 31
0.0
  0
LINE
  5
42C
330
1E
100
AcDbEntity
  8
0
100
AcDbLine
 10
298.5109999999999
 20
222.209883870968
 30
0.0
 11
301.784
 21
221.5764
 31
0.0
  0
LINE
  5
431
330
1E
100
AcDbEntity
  8
0
100
AcDbLine
 10
381.0
 20
220.0304
 30
0.0
 11
388.1
 21
225.4303999999999
 31
0.0
  0
LINE
  5
432
330
1E
100
AcDbEntity
  8
0
100
AcDbLine
 10
381.0
 20
220.0304
 30
0.0
 11
381.3
 21
219.7303999999999
 31
0.0
  0
LINE
  5
433
330
1E
100
AcDbEntity
  8
0
100
AcDbLine
 10
388.1
 20
225.4303999999999
 30
0.0
 11
396.3
 21
228.8304
 31
0.0
  0
LINE
  5
44D
330
1E
100
AcDbEntity
  8
0
100
AcDbLine
 10
429.0
 20
220.0304
 30
0.0
 11
434.4
 21
212.9303999999999
 31
0.0
  0
LINE
  5
451
330
1E
100
AcDbEntity
  8
0
100
AcDbLine
 10
421.8999999999999
 20
225.4303999999999
 30
0.0
 11
429.0
 21
220.0304
 31
0.0
  0
LINE
  5
453
330
1E
100
AcDbEntity
  8
0
100
AcDbLine
 10
405.0
 20
214.5303999999999
 30
0.0
 11
409.7999999999999
 21
213.8304
 31
0.0
  0
LINE
  5
454
330
1E
100
AcDbEntity
  8
0
100
AcDbLine
 10
298.5109999999999
 20
226.1283999999999
 30
0.0
 11
298.5109999999999
 21
214.151107008965
 31
0.0
  0
LINE
  5
455
330
1E
100
AcDbEntity
  8
0
100
AcDbLine
 10
298.427
 20
226.3284
 30
0.0
 11
298.5109999999999
 21
226.1283999999999
 31
0.0
  0
LINE
  5
456
330
1E
100
AcDbEntity
  8
0
100
AcDbLine
 10
297.9649999999999
 20
226.3284
 30
0.0
 11
298.3009999999999
 21
226.3284
 31
0.0
  0
LINE
  5
457
330
1E
100
AcDbEntity
  8
0
100
AcDbLine
 10
297.419
 20
226.3284
 30
0.0
 11
297.9649999999999
 21
226.3284
 31
0.0
  0
LINE
  5
458
330
1E
100
AcDbEntity
  8
0
100
AcDbLine
 10
296.705
 20
226.3284
 30
0.0
 11
297.419
 21
226.3284
 31
0.0
  0
LINE
  5
459
330
1E
100
AcDbEntity
  8
0
100
AcDbLine
 10
295.8929999999999
 20
226.3284
 30
0.0
 11
296.705
 21
226.3284
 31
0.0
  0
LINE
  5
45A
330
1E
100
AcDbEntity
  8
0
100
AcDbLine
 10
295.0109999999999
 20
226.3284
 30
0.0
 11
295.8929999999999
 21
226.3284
 31
0.0
  0
LINE
  5
45B
330
1E
100
AcDbEntity
  8
0
100
AcDbLine
 10
293.317
 20
226.3284
 30
0.0
 11
294.129
 21
226.3284
 31
0.0
  0
LINE
  5
461
330
1E
100
AcDbEntity
  8
0
100
AcDbLine
 10
304.1499999999999
 20
230.3004
 30
0.0
 11
312.8399999999999
 21
226.8704
 31
0.0
  0
LINE
  5
462
330
1E
100
AcDbEntity
  8
0
100
AcDbLine
 10
312.8399999999999
 20
226.8704
 30
0.0
 11
320.1499999999999
 21
221.1803999999999
 31
0.0
  0
LINE
  5
464
330
1E
100
AcDbEntity
  8
0
100
AcDbLine
 10
295.0
 20
231.5303999999999
 30
0.0
 11
304.1499999999999
 21
230.3004
 31
0.0
  0
LINE
  5
469
330
1E
100
AcDbEntity
  8
0
100
AcDbLine
 10
413.6999999999999
 20
228.8304
 30
0.0
 11
421.8999999999999
 21
225.4303999999999
 31
0.0
  0
LINE
  5
46C
330
1E
100
AcDbEntity
  8
0
100
AcDbLine
 10
405.0
 20
230.0304
 30
0.0
 11
413.6999999999999
 21
228.8304
 31
0.0
  0
LINE
  5
46D
330
1E
100
AcDbEntity
  8
0
100
AcDbLine
 10
396.3
 20
228.8304
 30
0.0
 11
405.0
 21
230.0304
 31
0.0
  0
LINE
  5
46E
330
1E
100
AcDbEntity
  8
0
100
AcDbLine
 10
294.129
 20
226.3284
 30
0.0
 11
295.0109999999999
 21
226.3284
 31
0.0
  0
LINE
  5
46F
330
1E
100
AcDbEntity
  8
0
100
AcDbLine
 10
291.5109999999999
 20
226.1283999999999
 30
0.0
 11
291.595
 21
226.3284
 31
0.0
  0
LINE
  5
470
330
1E
100
AcDbEntity
  8
0
100
AcDbLine
 10
291.5109999999999
 20
226.1283999999999
 30
0.0
 11
291.5109999999999
 21
214.154110268949
 31
0.0
  0
LINE
  5
471
330
1E
100
AcDbEntity
  8
0
100
AcDbLine
 10
291.5109999999999
 20
214.154110268949
 30
0.0
 11
291.5109999999999
 21
226.1283999999999
 31
0.0
  0
LINE
  5
472
330
1E
100
AcDbEntity
  8
0
100
AcDbLine
 10
484.62
 20
213.3904
 30
0.0
 11
490.22
 21
220.8104
 31
0.0
  0
LINE
  5
473
330
1E
100
AcDbEntity
  8
0
100
AcDbLine
 10
481.2599999999999
 20
204.9904
 30
0.0
 11
484.62
 21
213.3904
 31
0.0
  0
LINE
  5
474
330
1E
100
AcDbEntity
  8
0
100
AcDbLine
 10
497.6399999999999
 20
226.4104
 30
0.0
 11
506.04
 21
229.7703999999999
 31
0.0
  0
LINE
  5
475
330
1E
100
AcDbEntity
  8
0
100
AcDbLine
 10
490.22
 20
220.8104
 30
0.0
 11
497.6399999999999
 21
226.4104
 31
0.0
  0
LINE
  5
476
330
1E
100
AcDbEntity
  8
0
100
AcDbLine
 10
497.16
 20
226.8704
 30
0.0
 11
505.85
 21
230.3004
 31
0.0
  0
LINE
  5
477
330
1E
100
AcDbEntity
  8
0
100
AcDbLine
 10
489.85
 20
221.1803999999999
 30
0.0
 11
497.16
 21
226.8704
 31
0.0
  0
LINE
  5
478
330
1E
100
AcDbEntity
  8
0
100
AcDbLine
 10
489.85
 20
221.1803999999999
 30
0.0
 11
490.22
 21
220.8104
 31
0.0
  0
LINE
  5
479
330
1E
100
AcDbEntity
  8
0
100
AcDbLine
 10
484.16
 20
213.8704
 30
0.0
 11
489.85
 21
221.1803999999999
 31
0.0
  0
LINE
  5
47A
330
1E
100
AcDbEntity
  8
0
100
AcDbLine
 10
480.73
 20
205.1803999999999
 30
0.0
 11
484.16
 21
213.8704
 31
0.0
  0
LINE
  5
47B
330
1E
100
AcDbEntity
  8
0
100
AcDbLine
 10
479.4999999999999
 20
196.0303999999999
 30
0.0
 11
480.73
 21
205.1803999999999
 31
0.0
  0
LINE
  5
47C
330
1E
100
AcDbEntity
  8
0
100
AcDbLine
 10
479.4999999999999
 20
196.0303999999999
 30
0.0
 11
480.73
 21
186.8804
 31
0.0
  0
LINE
  5
47D
330
1E
100
AcDbEntity
  8
0
100
AcDbLine
 10
500.0
 20
196.0073999999999
 30
0.0
 11
500.0
 21
182.2674
 31
0.0
  0
LINE
  5
47E
330
1E
100
AcDbEntity
  8
0
100
AcDbLine
 10
500.0
 20
196.0073999999999
 30
0.0
 11
500.52
 21
201.0543999999999
 31
0.0
  0
LINE
  5
47F
330
1E
100
AcDbEntity
  8
0
100
AcDbLine
 10
500.0
 20
182.2674
 30
0.0
 11
500.52
 21
179.3053999999999
 31
0.0
  0
LINE
  5
480
330
1E
100
AcDbEntity
  8
0
100
AcDbLine
 10
500.0
 20
182.2674
 30
0.0
 11
500.211
 21
182.1163999999999
 31
0.0
  0
LINE
  5
481
330
1E
100
AcDbEntity
  8
0
100
AcDbLine
 10
500.0
 20
182.2674
 30
0.0
 11
500.52
 21
185.2284
 31
0.0
  0
LINE
  5
482
330
1E
100
AcDbEntity
  8
0
100
AcDbLine
 10
501.485
 20
184.8804
 30
0.0
 11
502.838
 21
187.5054
 31
0.0
  0
LINE
  5
483
330
1E
100
AcDbEntity
  8
0
100
AcDbLine
 10
501.0
 20
182.1163999999999
 30
0.0
 11
501.0
 21
168.1353999999999
 31
0.0
  0
LINE
  5
484
330
1E
100
AcDbEntity
  8
0
100
AcDbLine
 10
501.0
 20
182.1163999999999
 30
0.0
 11
501.485
 21
184.8804
 31
0.0
  0
LINE
  5
485
330
1E
100
AcDbEntity
  8
0
100
AcDbLine
 10
500.744
 20
185.0164
 30
0.0
 11
502.163
 21
187.7354
 31
0.0
  0
LINE
  5
486
330
1E
100
AcDbEntity
  8
0
100
AcDbLine
 10
500.52
 20
201.0543999999999
 30
0.0
 11
501.9689999999999
 21
205.8473999999999
 31
0.0
  0
LINE
  5
487
330
1E
100
AcDbEntity
  8
0
100
AcDbLine
 10
501.9689999999999
 20
205.8473999999999
 30
0.0
 11
504.373
 21
209.8794
 31
0.0
  0
LINE
  5
488
330
1E
100
AcDbEntity
  8
0
100
AcDbLine
 10
500.52
 20
185.2284
 30
0.0
 11
501.9689999999999
 21
188.0414
 31
0.0
  0
LINE
  5
489
330
1E
100
AcDbEntity
  8
0
100
AcDbLine
 10
502.838
 20
187.5054
 30
0.0
 11
505.0819999999999
 21
189.7144
 31
0.0
  0
LINE
  5
48A
330
1E
100
AcDbEntity
  8
0
100
AcDbLine
 10
502.163
 20
187.7354
 30
0.0
 11
504.53
 21
190.1374
 31
0.0
  0
LINE
  5
48B
330
1E
100
AcDbEntity
  8
0
100
AcDbLine
 10
501.9689999999999
 20
188.0414
 30
0.0
 11
504.373
 21
190.4073999999999
 31
0.0
  0
LINE
  5
48C
330
1E
100
AcDbEntity
  8
0
100
AcDbLine
 10
500.52
 20
179.3053999999999
 30
0.0
 11
501.0
 21
178.373557349896
 31
0.0
  0
LINE
  5
48D
330
1E
100
AcDbEntity
  8
0
100
AcDbLine
 10
500.211
 20
182.1163999999999
 30
0.0
 11
500.744
 21
179.2163999999999
 31
0.0
  0
LINE
  5
48E
330
1E
100
AcDbEntity
  8
0
100
AcDbLine
 10
500.211
 20
182.1163999999999
 30
0.0
 11
500.744
 21
185.0164
 31
0.0
  0
LINE
  5
48F
330
1E
100
AcDbEntity
  8
0
100
AcDbLine
 10
500.744
 20
179.2163999999999
 30
0.0
 11
501.0
 21
178.725868639887
 31
0.0
  0
LINE
  5
490
330
1E
100
AcDbEntity
  8
0
100
AcDbLine
 10
503.019
 20
173.2193999999999
 30
0.0
 11
505.228
 21
175.4614
 31
0.0
  0
LINE
  5
491
330
1E
100
AcDbEntity
  8
0
100
AcDbLine
 10
505.228
 20
175.4614
 30
0.0
 11
508.154
 21
177.1534
 31
0.0
  0
LINE
  5
492
330
1E
100
AcDbEntity
  8
0
100
AcDbLine
 10
505.0819999999999
 20
189.7144
 30
0.0
 11
507.9649999999999
 21
191.4334
 31
0.0
  0
LINE
  5
493
330
1E
100
AcDbEntity
  8
0
100
AcDbLine
 10
505.0819999999999
 20
175.7333999999999
 30
0.0
 11
507.9649999999999
 21
177.4524
 31
0.0
  0
LINE
  5
494
330
1E
100
AcDbEntity
  8
0
100
AcDbLine
 10
504.53
 20
190.1374
 30
0.0
 11
507.6649999999999
 21
191.9494
 31
0.0
  0
LINE
  5
495
330
1E
100
AcDbEntity
  8
0
100
AcDbLine
 10
504.373
 20
190.4073999999999
 30
0.0
 11
507.462
 21
192.2494
 31
0.0
  0
LINE
  5
496
330
1E
100
AcDbEntity
  8
0
100
AcDbLine
 10
508.154
 20
177.1534
 30
0.0
 11
511.4659999999999
 21
178.1684
 31
0.0
  0
LINE
  5
497
330
1E
100
AcDbEntity
  8
0
100
AcDbLine
 10
507.9649999999999
 20
191.4334
 30
0.0
 11
511.392
 21
192.4694
 31
0.0
  0
LINE
  5
498
330
1E
100
AcDbEntity
  8
0
100
AcDbLine
 10
507.9649999999999
 20
177.4524
 30
0.0
 11
511.392
 21
178.4884
 31
0.0
  0
LINE
  5
499
330
1E
100
AcDbEntity
  8
0
100
AcDbLine
 10
507.6649999999999
 20
191.9494
 30
0.0
 11
511.214
 21
193.0374
 31
0.0
  0
LINE
  5
49A
330
1E
100
AcDbEntity
  8
0
100
AcDbLine
 10
507.462
 20
192.2494
 30
0.0
 11
511.134
 21
193.3594
 31
0.0
  0
LINE
  5
49B
330
1E
100
AcDbEntity
  8
0
100
AcDbLine
 10
511.4659999999999
 20
178.1684
 30
0.0
 11
515.0
 21
178.5483999999999
 31
0.0
  0
LINE
  5
49C
330
1E
100
AcDbEntity
  8
0
100
AcDbLine
 10
511.392
 20
178.4884
 30
0.0
 11
515.0
 21
178.8604
 31
0.0
  0
LINE
  5
49D
330
1E
100
AcDbEntity
  8
0
100
AcDbLine
 10
515.0
 20
178.5483999999999
 30
0.0
 11
518.534
 21
178.1684
 31
0.0
  0
LINE
  5
49E
330
1E
100
AcDbEntity
  8
0
100
AcDbLine
 10
511.392
 20
192.4694
 30
0.0
 11
515.0
 21
192.8414
 31
0.0
  0
LINE
  5
49F
330
1E
100
AcDbEntity
  8
0
100
AcDbLine
 10
515.0
 20
192.8414
 30
0.0
 11
518.608
 21
192.4694
 31
0.0
  0
LINE
  5
4A0
330
1E
100
AcDbEntity
  8
0
100
AcDbLine
 10
515.0
 20
178.8604
 30
0.0
 11
518.608
 21
178.4884
 31
0.0
  0
LINE
  5
4A1
330
1E
100
AcDbEntity
  8
0
100
AcDbLine
 10
511.214
 20
193.0374
 30
0.0
 11
515.0
 21
193.4454
 31
0.0
  0
LINE
  5
4A2
330
1E
100
AcDbEntity
  8
0
100
AcDbLine
 10
511.134
 20
193.3594
 30
0.0
 11
515.0
 21
193.7573999999999
 31
0.0
  0
LINE
  5
4A3
330
1E
100
AcDbEntity
  8
0
100
AcDbLine
 10
515.0
 20
193.4454
 30
0.0
 11
518.7859999999999
 21
193.0374
 31
0.0
  0
LINE
  5
4A4
330
1E
100
AcDbEntity
  8
0
100
AcDbLine
 10
504.373
 20
209.8794
 30
0.0
 11
507.462
 21
213.0184
 31
0.0
  0
LINE
  5
4A5
330
1E
100
AcDbEntity
  8
0
100
AcDbLine
 10
507.462
 20
213.0184
 30
0.0
 11
511.134
 21
214.9104
 31
0.0
  0
LINE
  5
4A6
330
1E
100
AcDbEntity
  8
0
100
AcDbLine
 10
506.04
 20
229.7703999999999
 30
0.0
 11
515.0
 21
231.0303999999999
 31
0.0
  0
LINE
  5
4A7
330
1E
100
AcDbEntity
  8
0
100
AcDbLine
 10
515.0
 20
231.0303999999999
 30
0.0
 11
523.96
 21
229.7703999999999
 31
0.0
  0
LINE
  5
4A8
330
1E
100
AcDbEntity
  8
0
100
AcDbLine
 10
505.85
 20
230.3004
 30
0.0
 11
515.0
 21
231.5303999999999
 31
0.0
  0
LINE
  5
4AA
330
1E
100
AcDbEntity
  8
0
100
AcDbLine
 10
515.0
 20
231.5303999999999
 30
0.0
 11
524.15
 21
230.3004
 31
0.0
  0
LINE
  5
4AB
330
1E
100
AcDbEntity
  8
0
100
AcDbLine
 10
511.134
 20
214.9104
 30
0.0
 11
515.0
 21
215.5883999999999
 31
0.0
  0
LINE
  5
4AC
330
1E
100
AcDbEntity
  8
0
100
AcDbLine
 10
515.0
 20
215.5883999999999
 30
0.0
 11
518.8659999999999
 21
214.9104
 31
0.0
  0
LINE
  5
4AD
330
1E
100
AcDbEntity
  8
0
100
AcDbLine
 10
515.0
 20
193.7573999999999
 30
0.0
 11
518.8659999999999
 21
193.3594
 31
0.0
  0
LINE
  5
4AE
330
1E
100
AcDbEntity
  8
0
100
AcDbLine
 10
503.0
 20
167.9754
 30
0.0
 11
503.0
 21
108.1153999999999
 31
0.0
  0
LINE
  5
4AF
330
1E
100
AcDbEntity
  8
0
100
AcDbLine
 10
515.0
 20
113.5574
 30
0.0
 11
518.0719999999999
 21
113.3593999999999
 31
0.0
  0
LINE
  5
4B0
330
1E
100
AcDbEntity
  8
0
100
AcDbLine
 10
515.0
 20
112.0584
 30
0.0
 11
517.2080000000001
 21
111.9013999999999
 31
0.0
  0
LINE
  5
4B1
330
1E
100
AcDbEntity
  8
0
100
AcDbLine
 10
515.0
 20
99.47580000000002
 30
0.0
 11
521.4229999999999
 21
99.01279999999999
 31
0.0
  0
LINE
  5
4B2
330
1E
100
AcDbEntity
  8
0
100
AcDbLine
 10
515.0
 20
99.2368
 30
0.0
 11
521.35
 21
98.7738
 31
0.0
  0
LINE
  5
4B3
330
1E
100
AcDbEntity
  8
0
100
AcDbLine
 10
515.0
 20
8.844600000000029
 30
0.0
 11
521.4229999999999
 21
9.307700000000028
 31
0.0
  0
LINE
  5
4B4
330
1E
100
AcDbEntity
  8
0
100
AcDbLine
 10
521.4229999999999
 20
0.4327000000000321
 30
0.0
 11
527.9199999999999
 21
1.62350000000003
 31
0.0
  0
LINE
  5
4B5
330
1E
100
AcDbEntity
  8
0
100
AcDbLine
 10
521.4229999999999
 20
0.4327000000000321
 30
0.0
 11
527.9199999999999
 21
1.62350000000003
 31
0.0
  0
LINE
  5
4B6
330
1E
100
AcDbEntity
  8
0
100
AcDbLine
 10
545.365
 20
9.36360000000003
 30
0.0
 11
550.329
 21
13.2665
 31
0.0
  0
LINE
  5
4B7
330
1E
100
AcDbEntity
  8
0
100
AcDbLine
 10
539.8909999999999
 20
6.055800000000029
 30
0.0
 11
545.365
 21
9.36360000000003
 31
0.0
  0
LINE
  5
4B8
330
1E
100
AcDbEntity
  8
0
100
AcDbLine
 10
534.1239999999999
 20
3.475800000000029
 30
0.0
 11
539.8909999999999
 21
6.055800000000029
 31
0.0
  0
LINE
  5
4B9
330
1E
100
AcDbEntity
  8
0
100
AcDbLine
 10
527.9199999999999
 20
1.62350000000003
 30
0.0
 11
534.1239999999999
 21
3.475800000000029
 31
0.0
  0
LINE
  5
4BA
330
1E
100
AcDbEntity
  8
0
100
AcDbLine
 10
521.4229999999999
 20
9.307700000000028
 30
0.0
 11
527.9199999999999
 21
10.4984
 31
0.0
  0
LINE
  5
4BB
330
1E
100
AcDbEntity
  8
0
100
AcDbLine
 10
523.6399999999999
 20
98.60638981068191
 30
0.0
 11
523.6399999999999
 21
108.1153999999999
 31
0.0
  0
LINE
  5
4BC
330
1E
100
AcDbEntity
  8
0
100
AcDbLine
 10
527.409
 20
97.64879999999999
 30
0.0
 11
533.832
 21
95.7308
 31
0.0
  0
LINE
  5
4BD
330
1E
100
AcDbEntity
  8
0
100
AcDbLine
 10
521.144
 20
110.8764
 30
0.0
 11
522.488
 21
110.0864
 31
0.0
  0
LINE
  5
4BE
330
1E
100
AcDbEntity
  8
0
100
AcDbLine
 10
519.32
 20
111.5064
 30
0.0
 11
521.144
 21
110.8764
 31
0.0
  0
LINE
  5
4BF
330
1E
100
AcDbEntity
  8
0
100
AcDbLine
 10
518.534
 20
178.1684
 30
0.0
 11
521.846
 21
177.1534
 31
0.0
  0
LINE
  5
4C0
330
1E
100
AcDbEntity
  8
0
100
AcDbLine
 10
518.608
 20
192.4694
 30
0.0
 11
522.0349999999999
 21
191.4334
 31
0.0
  0
LINE
  5
4C1
330
1E
100
AcDbEntity
  8
0
100
AcDbLine
 10
518.608
 20
178.4884
 30
0.0
 11
522.0349999999999
 21
177.4524
 31
0.0
  0
LINE
  5
4C2
330
1E
100
AcDbEntity
  8
0
100
AcDbLine
 10
518.7859999999999
 20
193.0374
 30
0.0
 11
522.335
 21
191.9494
 31
0.0
  0
LINE
  5
4C3
330
1E
100
AcDbEntity
  8
0
100
AcDbLine
 10
518.8659999999999
 20
214.9104
 30
0.0
 11
522.538
 21
213.0184
 31
0.0
  0
LINE
  5
4C4
330
1E
100
AcDbEntity
  8
0
100
AcDbLine
 10
518.8659999999999
 20
193.3594
 30
0.0
 11
522.538
 21
192.2494
 31
0.0
  0
LINE
  5
4C5
330
1E
100
AcDbEntity
  8
0
100
AcDbLine
 10
520.952
 20
112.8484
 30
0.0
 11
523.4479999999999
 21
111.9793999999999
 31
0.0
  0
LINE
  5
4C6
330
1E
100
AcDbEntity
  8
0
100
AcDbLine
 10
518.0719999999999
 20
113.3593999999999
 30
0.0
 11
520.952
 21
112.8484
 31
0.0
  0
LINE
  5
4C7
330
1E
100
AcDbEntity
  8
0
100
AcDbLine
 10
517.2080000000001
 20
111.9013999999999
 30
0.0
 11
519.32
 21
111.5064
 31
0.0
  0
LINE
  5
4C8
330
1E
100
AcDbEntity
  8
0
100
AcDbLine
 10
523.6399999999999
 20
104.4037
 30
0.0
 11
525.3680000000001
 21
105.4324
 31
0.0
  0
LINE
  5
4C9
330
1E
100
AcDbEntity
  8
0
100
AcDbLine
 10
525.3680000000001
 20
105.4324
 30
0.0
 11
526.616
 21
106.7353999999999
 31
0.0
  0
LINE
  5
4CA
330
1E
100
AcDbEntity
  8
0
100
AcDbLine
 10
527.0
 20
108.1153999999999
 30
0.0
 11
527.0
 21
167.9754
 31
0.0
  0
LINE
  5
4CB
330
1E
100
AcDbEntity
  8
0
100
AcDbLine
 10
526.616
 20
106.7353999999999
 30
0.0
 11
527.0
 21
108.1153999999999
 31
0.0
  0
LINE
  5
4CC
330
1E
100
AcDbEntity
  8
0
100
AcDbLine
 10
526.616
 20
109.5344
 30
0.0
 11
527.0
 21
108.1153999999999
 31
0.0
  0
LINE
  5
4CD
330
1E
100
AcDbEntity
  8
0
100
AcDbLine
 10
523.6399999999999
 20
108.1153999999999
 30
0.0
 11
523.6399999999999
 21
98.60638981068191
 31
0.0
  0
LINE
  5
4CE
330
1E
100
AcDbEntity
  8
0
100
AcDbLine
 10
523.3519999999999
 20
109.1393999999999
 30
0.0
 11
523.6399999999999
 21
108.1153999999999
 31
0.0
  0
LINE
  5
4CF
330
1E
100
AcDbEntity
  8
0
100
AcDbLine
 10
521.846
 20
177.1534
 30
0.0
 11
524.7719999999999
 21
175.4614
 31
0.0
  0
LINE
  5
4D0
330
1E
100
AcDbEntity
  8
0
100
AcDbLine
 10
522.0349999999999
 20
191.4334
 30
0.0
 11
524.9179999999999
 21
189.7144
 31
0.0
  0
LINE
  5
4D1
330
1E
100
AcDbEntity
  8
0
100
AcDbLine
 10
522.0349999999999
 20
177.4524
 30
0.0
 11
524.9179999999999
 21
175.7333999999999
 31
0.0
  0
LINE
  5
4D2
330
1E
100
AcDbEntity
  8
0
100
AcDbLine
 10
522.335
 20
191.9494
 30
0.0
 11
525.47
 21
190.1374
 31
0.0
  0
LINE
  5
4D3
330
1E
100
AcDbEntity
  8
0
100
AcDbLine
 10
522.538
 20
213.0184
 30
0.0
 11
525.6269999999999
 21
209.8794
 31
0.0
  0
LINE
  5
4D4
330
1E
100
AcDbEntity
  8
0
100
AcDbLine
 10
522.538
 20
192.2494
 30
0.0
 11
525.6269999999999
 21
190.4073999999999
 31
0.0
  0
LINE
  5
4D5
330
1E
100
AcDbEntity
  8
0
100
AcDbLine
 10
524.7719999999999
 20
175.4614
 30
0.0
 11
526.9809999999999
 21
173.2193999999999
 31
0.0
  0
LINE
  5
4D6
330
1E
100
AcDbEntity
  8
0
100
AcDbLine
 10
524.7719999999999
 20
175.4614
 30
0.0
 11
524.9179999999999
 21
175.7333999999999
 31
0.0
  0
LINE
  5
4D7
330
1E
100
AcDbEntity
  8
0
100
AcDbLine
 10
524.9179999999999
 20
189.7144
 30
0.0
 11
527.1619999999999
 21
187.5054
 31
0.0
  0
LINE
  5
4D8
330
1E
100
AcDbEntity
  8
0
100
AcDbLine
 10
524.9179999999999
 20
175.7333999999999
 30
0.0
 11
527.1619999999999
 21
173.5253999999999
 31
0.0
  0
LINE
  5
4DA
330
1E
100
AcDbEntity
  8
0
100
AcDbLine
 10
527.0
 20
162.766793962264
 30
0.0
 11
528.306
 21
165.2684
 31
0.0
  0
LINE
  5
4DB
330
1E
100
AcDbEntity
  8
0
100
AcDbLine
 10
527.0
 20
162.586926737968
 30
0.0
 11
527.1619999999999
 21
162.7463999999999
 31
0.0
  0
LINE
  5
4DC
330
1E
100
AcDbEntity
  8
0
100
AcDbLine
 10
526.9809999999999
 20
173.2193999999999
 30
0.0
 11
528.306
 21
170.6814
 31
0.0
  0
LINE
  5
4DD
330
1E
100
AcDbEntity
  8
0
100
AcDbLine
 10
525.47
 20
190.1374
 30
0.0
 11
527.8369999999999
 21
187.7354
 31
0.0
  0
LINE
  5
4DE
330
1E
100
AcDbEntity
  8
0
100
AcDbLine
 10
525.47
 20
190.1374
 30
0.0
 11
525.6269999999999
 21
190.4073999999999
 31
0.0
  0
LINE
  5
4DF
330
1E
100
AcDbEntity
  8
0
100
AcDbLine
 10
524.15
 20
230.3004
 30
0.0
 11
532.84
 21
226.8704
 31
0.0
  0
LINE
  5
4E0
330
1E
100
AcDbEntity
  8
0
100
AcDbLine
 10
523.96
 20
229.7703999999999
 30
0.0
 11
532.3599999999999
 21
226.4104
 31
0.0
  0
LINE
  5
4E1
330
1E
100
AcDbEntity
  8
0
100
AcDbLine
 10
525.6269999999999
 20
209.8794
 30
0.0
 11
528.0309999999999
 21
205.8473999999999
 31
0.0
  0
LINE
  5
4E2
330
1E
100
AcDbEntity
  8
0
100
AcDbLine
 10
525.6269999999999
 20
190.4073999999999
 30
0.0
 11
528.0309999999999
 21
188.0414
 31
0.0
  0
LINE
  5
4E3
330
1E
100
AcDbEntity
  8
0
100
AcDbLine
 10
527.293262249828
 20
163.0010662274919
 30
0.0
 11
532.84
 21
165.1904
 31
0.0
  0
LINE
  5
4E4
330
1E
100
AcDbEntity
  8
0
100
AcDbLine
 10
527.1619999999999
 20
162.7463999999999
 30
0.0
 11
528.5149999999999
 21
165.3713999999999
 31
0.0
  0
LINE
  5
4E5
330
1E
100
AcDbEntity
  8
0
100
AcDbLine
 10
527.1619999999999
 20
187.5054
 30
0.0
 11
528.5149999999999
 21
184.8804
 31
0.0
  0
LINE
  5
4E6
330
1E
100
AcDbEntity
  8
0
100
AcDbLine
 10
527.1619999999999
 20
173.5253999999999
 30
0.0
 11
528.5149999999999
 21
170.9004
 31
0.0
  0
LINE
  5
4E7
330
1E
100
AcDbEntity
  8
0
100
AcDbLine
 10
527.0
 20
167.9754
 30
0.0
 11
527.0
 21
108.1153999999999
 31
0.0
  0
LINE
  5
4E8
330
1E
100
AcDbEntity
  8
0
100
AcDbLine
 10
525.3680000000001
 20
110.8363999999999
 30
0.0
 11
526.616
 21
109.5344
 31
0.0
  0
LINE
  5
4E9
330
1E
100
AcDbEntity
  8
0
100
AcDbLine
 10
523.4479999999999
 20
111.9793999999999
 30
0.0
 11
525.3680000000001
 21
110.8363999999999
 31
0.0
  0
LINE
  5
4EA
330
1E
100
AcDbEntity
  8
0
100
AcDbLine
 10
522.488
 20
110.0864
 30
0.0
 11
523.3519999999999
 21
109.1393999999999
 31
0.0
  0
LINE
  5
4EB
330
1E
100
AcDbEntity
  8
0
100
AcDbLine
 10
521.4229999999999
 20
99.01279999999999
 30
0.0
 11
527.9199999999999
 21
97.8218000000001
 31
0.0
  0
LINE
  5
4EC
330
1E
100
AcDbEntity
  8
0
100
AcDbLine
 10
521.35
 20
98.7738
 30
0.0
 11
527.409
 21
97.64879999999999
 31
0.0
  0
LINE
  5
4ED
330
1E
100
AcDbEntity
  8
0
100
AcDbLine
 10
550.329
 20
13.2665
 30
0.0
 11
554.635
 21
17.765
 31
0.0
  0
LINE
  5
4EE
330
1E
100
AcDbEntity
  8
0
100
AcDbLine
 10
534.1239999999999
 20
12.35079999999999
 30
0.0
 11
539.8909999999999
 21
14.9307
 31
0.0
  0
LINE
  5
4EF
330
1E
100
AcDbEntity
  8
0
100
AcDbLine
 10
527.9199999999999
 20
10.4984
 30
0.0
 11
534.1239999999999
 21
12.35079999999999
 31
0.0
  0
LINE
  5
4F0
330
1E
100
AcDbEntity
  8
0
100
AcDbLine
 10
539.5249999999999
 20
93.28279999999999
 30
0.0
 11
544.927
 21
89.9748000000001
 31
0.0
  0
LINE
  5
4F1
330
1E
100
AcDbEntity
  8
0
100
AcDbLine
 10
527.6975381514539
 20
163.785415260582
 30
0.0
 11
532.3599999999999
 21
165.6503999999999
 31
0.0
  0
LINE
  5
4F2
330
1E
100
AcDbEntity
  8
0
100
AcDbLine
 10
527.8369999999999
 20
187.7354
 30
0.0
 11
529.2559999999999
 21
185.0164
 31
0.0
  0
LINE
  5
4F3
330
1E
100
AcDbEntity
  8
0
100
AcDbLine
 10
528.5149999999999
 20
165.3713999999999
 30
0.0
 11
529.0
 21
168.1353999999999
 31
0.0
  0
LINE
  5
4F4
330
1E
100
AcDbEntity
  8
0
100
AcDbLine
 10
528.306
 20
165.2684
 30
0.0
 11
528.803
 21
167.9754
 31
0.0
  0
LINE
  5
4F5
330
1E
100
AcDbEntity
  8
0
100
AcDbLine
 10
528.306
 20
170.6814
 30
0.0
 11
528.803
 21
167.9754
 31
0.0
  0
LINE
  5
4F6
330
1E
100
AcDbEntity
  8
0
100
AcDbLine
 10
528.803
 20
167.9754
 30
0.0
 11
529.0
 21
168.1353999999999
 31
0.0
  0
LINE
  5
4F7
330
1E
100
AcDbEntity
  8
0
100
AcDbLine
 10
528.5149999999999
 20
170.9004
 30
0.0
 11
528.5149999999999
 21
184.8804
 31
0.0
  0
LINE
  5
4F8
330
1E
100
AcDbEntity
  8
0
100
AcDbLine
 10
528.5149999999999
 20
170.9004
 30
0.0
 11
529.0
 21
168.1353999999999
 31
0.0
  0
LINE
  5
4F9
330
1E
100
AcDbEntity
  8
0
100
AcDbLine
 10
528.5149999999999
 20
184.8804
 30
0.0
 11
529.0
 21
182.1163999999999
 31
0.0
  0
LINE
  5
4FA
330
1E
100
AcDbEntity
  8
0
100
AcDbLine
 10
529.0
 20
182.1163999999999
 30
0.0
 11
529.0
 21
168.1353999999999
 31
0.0
  0
LINE
  5
4FB
330
1E
100
AcDbEntity
  8
0
100
AcDbLine
 10
529.2559999999999
 20
179.2163999999999
 30
0.0
 11
529.7889999999999
 21
182.1163999999999
 31
0.0
  0
LINE
  5
4FC
330
1E
100
AcDbEntity
  8
0
100
AcDbLine
 10
529.0
 20
178.725868639887
 30
0.0
 11
529.2559999999999
 21
179.2163999999999
 31
0.0
  0
LINE
  5
4FD
330
1E
100
AcDbEntity
  8
0
100
AcDbLine
 10
529.0
 20
178.3735573498969
 30
0.0
 11
529.48
 21
179.3053999999999
 31
0.0
  0
LINE
  5
4FE
330
1E
100
AcDbEntity
  8
0
100
AcDbLine
 10
529.48
 20
179.3053999999999
 30
0.0
 11
530.0
 21
182.2674
 31
0.0
  0
LINE
  5
4FF
330
1E
100
AcDbEntity
  8
0
100
AcDbLine
 10
529.2559999999999
 20
185.0164
 30
0.0
 11
529.7889999999999
 21
182.1163999999999
 31
0.0
  0
LINE
  5
500
330
1E
100
AcDbEntity
  8
0
100
AcDbLine
 10
529.48
 20
201.0543999999999
 30
0.0
 11
530.0
 21
196.0073999999999
 31
0.0
  0
LINE
  5
501
330
1E
100
AcDbEntity
  8
0
100
AcDbLine
 10
528.0309999999999
 20
205.8473999999999
 30
0.0
 11
529.48
 21
201.0543999999999
 31
0.0
  0
LINE
  5
502
330
1E
100
AcDbEntity
  8
0
100
AcDbLine
 10
528.0309999999999
 20
188.0414
 30
0.0
 11
529.48
 21
185.2284
 31
0.0
  0
LINE
  5
503
330
1E
100
AcDbEntity
  8
0
100
AcDbLine
 10
532.84
 20
165.1904
 30
0.0
 11
540.1499999999999
 21
170.8804
 31
0.0
  0
LINE
  5
504
330
1E
100
AcDbEntity
  8
0
100
AcDbLine
 10
532.3599999999999
 20
165.6503999999999
 30
0.0
 11
539.78
 21
171.2504
 31
0.0
  0
LINE
  5
505
330
1E
100
AcDbEntity
  8
0
100
AcDbLine
 10
529.7889999999999
 20
182.1163999999999
 30
0.0
 11
530.0
 21
182.2674
 31
0.0
  0
LINE
  5
507
330
1E
100
AcDbEntity
  8
0
100
AcDbLine
 10
532.84
 20
226.8704
 30
0.0
 11
540.1499999999999
 21
221.1803999999999
 31
0.0
  0
LINE
  5
508
330
1E
100
AcDbEntity
  8
0
100
AcDbLine
 10
532.3599999999999
 20
226.4104
 30
0.0
 11
539.78
 21
220.8104
 31
0.0
  0
LINE
  5
509
330
1E
100
AcDbEntity
  8
0
100
AcDbLine
 10
530.0
 20
196.0073999999999
 30
0.0
 11
530.0
 21
182.2674
 31
0.0
  0
LINE
  5
50A
330
1E
100
AcDbEntity
  8
0
100
AcDbLine
 10
529.48
 20
185.2284
 30
0.0
 11
529.48
 21
201.0543999999999
 31
0.0
  0
LINE
  5
50B
330
1E
100
AcDbEntity
  8
0
100
AcDbLine
 10
529.48
 20
185.2284
 30
0.0
 11
530.0
 21
182.2674
 31
0.0
  0
LINE
  5
50C
330
1E
100
AcDbEntity
  8
0
100
AcDbLine
 10
534.1239999999999
 20
95.9698
 30
0.0
 11
539.8909999999999
 21
93.38880000000001
 31
0.0
  0
LINE
  5
50D
330
1E
100
AcDbEntity
  8
0
100
AcDbLine
 10
527.9199999999999
 20
97.8218000000001
 30
0.0
 11
534.1239999999999
 21
95.9698
 31
0.0
  0
LINE
  5
50E
330
1E
100
AcDbEntity
  8
0
100
AcDbLine
 10
533.832
 20
95.7308
 30
0.0
 11
539.5249999999999
 21
93.28279999999999
 31
0.0
  0
LINE
  5
50F
330
1E
100
AcDbEntity
  8
0
100
AcDbLine
 10
554.635
 20
17.765
 30
0.0
 11
558.2849999999999
 21
22.7266
 31
0.0
  0
LINE
  5
510
330
1E
100
AcDbEntity
  8
0
100
AcDbLine
 10
545.365
 20
18.2386
 30
0.0
 11
550.329
 21
22.1416
 31
0.0
  0
LINE
  5
511
330
1E
100
AcDbEntity
  8
0
100
AcDbLine
 10
539.8909999999999
 20
14.9307
 30
0.0
 11
545.365
 21
18.2386
 31
0.0
  0
LINE
  5
512
330
1E
100
AcDbEntity
  8
0
100
AcDbLine
 10
550.329
 20
22.1416
 30
0.0
 11
554.635
 21
26.64
 31
0.0
  0
LINE
  5
513
330
1E
100
AcDbEntity
  8
0
100
AcDbLine
 10
549.8179999999999
 20
23.0274
 30
0.0
 11
554.0509999999999
 21
27.4596
 31
0.0
  0
LINE
  5
514
330
1E
100
AcDbEntity
  8
0
100
AcDbLine
 10
558.2849999999999
 20
22.7266
 30
0.0
 11
561.1309999999999
 21
27.9527
 31
0.0
  0
LINE
  5
515
330
1E
100
AcDbEntity
  8
0
100
AcDbLine
 10
554.635
 20
26.64
 30
0.0
 11
558.2849999999999
 21
31.6017
 31
0.0
  0
LINE
  5
516
330
1E
100
AcDbEntity
  8
0
100
AcDbLine
 10
558.2849999999999
 20
31.6017
 30
0.0
 11
561.1309999999999
 21
36.8277
 31
0.0
  0
LINE
  5
517
330
1E
100
AcDbEntity
  8
0
100
AcDbLine
 10
554.0509999999999
 20
27.4596
 30
0.0
 11
557.701
 21
32.355
 31
0.0
  0
LINE
  5
518
330
1E
100
AcDbEntity
  8
0
100
AcDbLine
 10
557.701
 20
32.355
 30
0.0
 11
560.4009999999999
 21
37.515
 31
0.0
  0
LINE
  5
519
330
1E
100
AcDbEntity
  8
0
100
AcDbLine
 10
561.1309999999999
 20
27.9527
 30
0.0
 11
563.1749999999999
 21
33.5759
 31
0.0
  0
LINE
  5
51A
330
1E
100
AcDbEntity
  8
0
100
AcDbLine
 10
563.1749999999999
 20
33.5759
 30
0.0
 11
564.489
 21
39.4635
 31
0.0
  0
LINE
  5
51B
330
1E
100
AcDbEntity
  8
0
100
AcDbLine
 10
561.1309999999999
 20
36.8277
 30
0.0
 11
563.1749999999999
 21
42.4508
 31
0.0
  0
LINE
  5
51C
330
1E
100
AcDbEntity
  8
0
100
AcDbLine
 10
563.1749999999999
 20
42.4508
 30
0.0
 11
564.489
 21
48.3385
 31
0.0
  0
LINE
  5
51D
330
1E
100
AcDbEntity
  8
0
100
AcDbLine
 10
560.4009999999999
 20
37.515
 30
0.0
 11
562.518
 21
43.3365
 31
0.0
  0
LINE
  5
51E
330
1E
100
AcDbEntity
  8
0
100
AcDbLine
 10
558.2849999999999
 20
76.7185
 30
0.0
 11
561.1309999999999
 21
71.4924
 31
0.0
  0
LINE
  5
51F
330
1E
100
AcDbEntity
  8
0
100
AcDbLine
 10
539.78
 20
171.2504
 30
0.0
 11
545.38
 21
178.6704
 31
0.0
  0
LINE
  5
520
330
1E
100
AcDbEntity
  8
0
100
AcDbLine
 10
539.78
 20
220.8104
 30
0.0
 11
545.38
 21
213.3904
 31
0.0
  0
LINE
  5
521
330
1E
100
AcDbEntity
  8
0
100
AcDbLine
 10
540.1499999999999
 20
170.8804
 30
0.0
 11
545.84
 21
178.1904
 31
0.0
  0
LINE
  5
522
330
1E
100
AcDbEntity
  8
0
100
AcDbLine
 10
545.84
 20
178.1904
 30
0.0
 11
549.27
 21
186.8804
 31
0.0
  0
LINE
  5
523
330
1E
100
AcDbEntity
  8
0
100
AcDbLine
 10
545.38
 20
178.6704
 30
0.0
 11
548.74
 21
187.0704
 31
0.0
  0
LINE
  5
524
330
1E
100
AcDbEntity
  8
0
100
AcDbLine
 10
548.74
 20
187.0704
 30
0.0
 11
550.0
 21
196.0303999999999
 31
0.0
  0
LINE
  5
525
330
1E
100
AcDbEntity
  8
0
100
AcDbLine
 10
540.1499999999999
 20
221.1803999999999
 30
0.0
 11
545.84
 21
213.8704
 31
0.0
  0
LINE
  5
526
330
1E
100
AcDbEntity
  8
0
100
AcDbLine
 10
545.84
 20
213.8704
 30
0.0
 11
549.27
 21
205.1803999999999
 31
0.0
  0
LINE
  5
527
330
1E
100
AcDbEntity
  8
0
100
AcDbLine
 10
545.38
 20
213.3904
 30
0.0
 11
548.74
 21
204.9904
 31
0.0
  0
LINE
  5
528
330
1E
100
AcDbEntity
  8
0
100
AcDbLine
 10
549.27
 20
186.8804
 30
0.0
 11
550.4999999999999
 21
196.0303999999999
 31
0.0
  0
LINE
  5
529
330
1E
100
AcDbEntity
  8
0
100
AcDbLine
 10
550.0
 20
196.0303999999999
 30
0.0
 11
550.4999999999999
 21
196.0303999999999
 31
0.0
  0
LINE
  5
52A
330
1E
100
AcDbEntity
  8
0
100
AcDbLine
 10
549.27
 20
205.1803999999999
 30
0.0
 11
550.4999999999999
 21
196.0303999999999
 31
0.0
  0
LINE
  5
52B
330
1E
100
AcDbEntity
  8
0
100
AcDbLine
 10
548.74
 20
204.9904
 30
0.0
 11
550.0
 21
196.0303999999999
 31
0.0
  0
LINE
  5
52C
330
1E
100
AcDbEntity
  8
0
100
AcDbLine
 10
545.365
 20
90.08180000000001
 30
0.0
 11
550.329
 21
86.17879999999999
 31
0.0
  0
LINE
  5
52D
330
1E
100
AcDbEntity
  8
0
100
AcDbLine
 10
539.8909999999999
 20
93.38880000000001
 30
0.0
 11
545.365
 21
90.08180000000001
 31
0.0
  0
LINE
  5
52E
330
1E
100
AcDbEntity
  8
0
100
AcDbLine
 10
544.927
 20
89.9748000000001
 30
0.0
 11
549.8179999999999
 21
86.1378
 31
0.0
  0
LINE
  5
533
330
1E
100
AcDbEntity
  8
0
100
AcDbLine
 10
550.329
 20
86.17879999999999
 30
0.0
 11
554.635
 21
81.6798
 31
0.0
  0
LINE
  5
534
330
1E
100
AcDbEntity
  8
0
100
AcDbLine
 10
549.8179999999999
 20
86.1378
 30
0.0
 11
554.0509999999999
 21
81.70579999999999
 31
0.0
  0
LINE
  5
537
330
1E
100
AcDbEntity
  8
0
100
AcDbLine
 10
554.635
 20
81.6798
 30
0.0
 11
558.2849999999999
 21
76.7185
 31
0.0
  0
LINE
  5
538
330
1E
100
AcDbEntity
  8
0
100
AcDbLine
 10
554.0509999999999
 20
81.70579999999999
 30
0.0
 11
557.701
 21
76.81029999999999
 31
0.0
  0
LINE
  5
539
330
1E
100
AcDbEntity
  8
0
100
AcDbLine
 10
557.701
 20
76.81029999999999
 30
0.0
 11
560.4009999999999
 21
71.65040000000001
 31
0.0
  0
LINE
  5
53A
330
1E
100
AcDbEntity
  8
0
100
AcDbLine
 10
561.1309999999999
 20
71.4924
 30
0.0
 11
563.1749999999999
 21
65.86929999999999
 31
0.0
  0
LINE
  5
53B
330
1E
100
AcDbEntity
  8
0
100
AcDbLine
 10
563.1749999999999
 20
65.86929999999999
 30
0.0
 11
564.489
 21
59.9816
 31
0.0
  0
LINE
  5
53C
330
1E
100
AcDbEntity
  8
0
100
AcDbLine
 10
560.4009999999999
 20
71.65040000000001
 30
0.0
 11
562.518
 21
65.8288
 31
0.0
  0
LINE
  5
53D
330
1E
100
AcDbEntity
  8
0
100
AcDbLine
 10
562.518
 20
65.8288
 30
0.0
 11
563.759
 21
60.33809999999999
 31
0.0
  0
LINE
  5
53E
330
1E
100
AcDbEntity
  8
0
100
AcDbLine
 10
563.759
 20
60.33809999999999
 30
0.0
 11
564.2699999999999
 21
54.5827
 31
0.0
  0
LINE
  5
53F
330
1E
100
AcDbEntity
  8
0
100
AcDbLine
 10
562.518
 20
43.3365
 30
0.0
 11
563.759
 21
48.8273
 31
0.0
  0
LINE
  5
540
330
1E
100
AcDbEntity
  8
0
100
AcDbLine
 10
565.0
 20
45.285
 30
0.0
 11
565.0
 21
54.16009999999999
 31
0.0
  0
LINE
  5
541
330
1E
100
AcDbEntity
  8
0
100
AcDbLine
 10
564.489
 20
39.4635
 30
0.0
 11
565.0
 21
45.285
 31
0.0
  0
LINE
  5
544
330
1E
100
AcDbEntity
  8
0
100
AcDbLine
 10
565.0
 20
54.16009999999999
 30
0.0
 11
565.0
 21
45.285
 31
0.0
  0
LINE
  5
545
330
1E
100
AcDbEntity
  8
0
100
AcDbLine
 10
564.489
 20
59.9816
 30
0.0
 11
565.0
 21
54.16009999999999
 31
0.0
  0
LINE
  5
546
330
1E
100
AcDbEntity
  8
0
100
AcDbLine
 10
564.489
 20
48.3385
 30
0.0
 11
565.0
 21
54.16009999999999
 31
0.0
  0
LINE
  5
547
330
1E
100
AcDbEntity
  8
0
100
AcDbLine
 10
563.759
 20
48.8273
 30
0.0
 11
564.2699999999999
 21
54.5827
 31
0.0
  0
LINE
  5
548
330
1E
100
AcDbEntity
  8
0
100
AcDbLine
 10
544.927
 20
19.1903
 30
0.0
 11
549.8179999999999
 21
23.0274
 31
0.0
  0
LINE
  5
549
330
1E
100
AcDbEntity
  8
0
100
AcDbLine
 10
539.5249999999999
 20
15.8827
 30
0.0
 11
544.927
 21
19.1903
 31
0.0
  0
LINE
  5
54A
330
1E
100
AcDbEntity
  8
0
100
AcDbLine
 10
533.832
 20
13.4349
 30
0.0
 11
539.5249999999999
 21
15.8827
 31
0.0
  0
LINE
  5
54B
330
1E
100
AcDbEntity
  8
0
100
AcDbLine
 10
527.409
 20
11.5165
 30
0.0
 11
533.832
 21
13.4349
 31
0.0
  0
LINE
  5
54C
330
1E
100
AcDbEntity
  8
0
100
AcDbLine
 10
521.35
 20
10.3919
 30
0.0
 11
527.409
 21
11.5165
 31
0.0
  0
LINE
  5
54D
330
1E
100
AcDbEntity
  8
0
100
AcDbLine
 10
515.0
 20
9.928800000000029
 30
0.0
 11
521.35
 21
10.3919
 31
0.0
  0
ENDSEC
  0
SECTION
  2
OBJECTS
  0
DICTIONARY
  5
C
330
0
100
AcDbDictionary
281
     1
  3
ACAD_GROUP
350
D
  3
ACAD_LAYOUT
350
19
  3
ACAD_MLINESTYLE
350
16
  3
ACAD_PLOTSETTINGS
350
18
  3
ACAD_PLOTSTYLENAME
350
E
  3
AcDbVariableDictionary
350
553
  0
DICTIONARY
  5
D
102
{ACAD_REACTORS
330
C
102
}
330
C
100
AcDbDictionary
281
     1
  0
DICTIONARY
  5
19
102
{ACAD_REACTORS
330
C
102
}
330
C
100
AcDbDictionary
281
     1
  3
Layout1
350
1D
  3
Model
350
21
  0
DICTIONARY
  5
16
102
{ACAD_REACTORS
330
C
102
}
330
C
100
AcDbDictionary
281
     1
  3
Standard
350
17
  0
DICTIONARY
  5
18
102
{ACAD_REACTORS
330
C
102
}
330
C
100
AcDbDictionary
281
     1
  0
ACDBDICTIONARYWDFLT
  5
E
102
{ACAD_REACTORS
330
C
102
}
330
C
100
AcDbDictionary
281
     1
  3
Normal
350
F
100
AcDbDictionaryWithDefault
340
F
  0
DICTIONARY
  5
553
102
{ACAD_REACTORS
330
C
102
}
330
C
100
AcDbDictionary
281
     1
  3
DIMASSOC
350
554
  0
LAYOUT
  5
1D
102
{ACAD_REACTORS
330
19
102
}
330
19
100
AcDbPlotSettings
  1

  2
C:\Programme\AutoCAD LT 2002 Deu\plotters\DWF ePlot (optimized for plotting).pc3
  4

  6

 40
0.0
 41
0.0
 42
0.0
 43
0.0
 44
0.0
 45
0.0
 46
0.0
 47
0.0
 48
0.0
 49
0.0
140
0.0
141
0.0
142
1.0
143
1.0
 70
   688
 72
     0
 73
     0
 74
     5
  7

 75
    16
147
1.0
148
0.0
149
0.0
100
AcDbLayout
  1
Layout1
 70
     1
 71
     1
 10
0.0
 20
0.0
 11
12.0
 21
9.0
 12
0.0
 22
0.0
 32
0.0
 14
1.000000000000000E+20
 24
1.000000000000000E+20
 34
1.000000000000000E+20
 15
-1.000000000000000E+20
 25
-1.000000000000000E+20
 35
-1.000000000000000E+20
146
0.0
 13
0.0
 23
0.0
 33
0.0
 16
1.0
 26
0.0
 36
0.0
 17
0.0
 27
1.0
 37
0.0
 76
     0
330
1A
  0
LAYOUT
  5
21
102
{ACAD_REACTORS
330
19
102
}
330
19
100
AcDbPlotSettings
  1

  2
C:\Programme\AutoCAD LT 2002 Deu\plotters\DWF ePlot (optimized for plotting).pc3
  4

  6

 40
0.0
 41
0.0
 42
0.0
 43
0.0
 44
0.0
 45
0.0
 46
0.0
 47
0.0
 48
0.0
 49
0.0
140
0.0
141
0.0
142
1.0
143
1.0
 70
  1712
 72
     0
 73
     0
 74
     0
  7

 75
     0
147
1.0
148
0.0
149
0.0
100
AcDbLayout
  1
Model
 70
     1
 71
     0
 10
0.0
 20
0.0
 11
12.0
 21
9.0
 12
0.0
 22
0.0
 32
0.0
 14
0.0
 24
0.0
 34
0.0
 15
0.0
 25
0.0
 35
0.0
146
0.0
 13
0.0
 23
0.0
 33
0.0
 16
1.0
 26
0.0
 36
0.0
 17
0.0
 27
1.0
 37
0.0
 76
     0
330
1E
  0
MLINESTYLE
  5
17
102
{ACAD_REACTORS
330
16
102
}
330
16
100
AcDbMlineStyle
  2
STANDARD
 70
     0
  3

 62
   256
 51
90.0
 52
90.0
 71
     2
 49
0.5
 62
   256
  6
BYLAYER
 49
-0.5
 62
   256
  6
BYLAYER
  0
ACDBPLACEHOLDER
  5
F
102
{ACAD_REACTORS
330
E
102
}
330
E
  0
DICTIONARYVAR
  5
554
102
{ACAD_REACTORS
330
553
102
}
330
553
100
DictionaryVariables
280
     0
  1
1
  0
ENDSEC
  0
EOF
