  0
SECTION
  2
HEADER
  9
$ACADVER
  1
AC1015
  9
$ACADMAINTVER
 70
    13
  9
$DWGCODEPAGE
  3
ANSI_1252
  9
$INSBASE
 10
0.0
 20
0.0
 30
0.0
  9
$EXTMIN
 10
-0.0000000000000047
 20
0.0804934999999948
 30
0.0
  9
$EXTMAX
 10
105.0
 20
200.9195064999999
 30
0.0
  9
$LIMMIN
 10
0.0
 20
0.0
  9
$LIMMAX
 10
12.0
 20
9.0
  9
$ORTHOMODE
 70
     0
  9
$REGENMODE
 70
     1
  9
$FILLMODE
 70
     1
  9
$QTEXTMODE
 70
     0
  9
$MIRRTEXT
 70
     1
  9
$LTSCALE
 40
1.0
  9
$ATTMODE
 70
     1
  9
$TEXTSIZE
 40
0.2
  9
$TRACEWID
 40
0.05
  9
$TEXTSTYLE
  7
Standard
  9
$CLAYER
  8
0
  9
$CELTYPE
  6
Continuous
  9
$CECOLOR
 62
   256
  9
$CELTSCALE
 40
1.0
  9
$DISPSILH
 70
     0
  9
$DIMSCALE
 40
1.0
  9
$DIMASZ
 40
0.18
  9
$DIMEXO
 40
0.0625
  9
$DIMDLI
 40
0.38
  9
$DIMRND
 40
0.0
  9
$DIMDLE
 40
0.0
  9
$DIMEXE
 40
0.18
  9
$DIMTP
 40
0.0
  9
$DIMTM
 40
0.0
  9
$DIMTXT
 40
0.18
  9
$DIMCEN
 40
0.09
  9
$DIMTSZ
 40
0.0
  9
$DIMTOL
 70
     0
  9
$DIMLIM
 70
     0
  9
$DIMTIH
 70
     1
  9
$DIMTOH
 70
     1
  9
$DIMSE1
 70
     0
  9
$DIMSE2
 70
     0
  9
$DIMTAD
 70
     0
  9
$DIMZIN
 70
     0
  9
$DIMBLK
  1

  9
$DIMASO
 70
     1
  9
$DIMSHO
 70
     1
  9
$DIMPOST
  1

  9
$DIMAPOST
  1

  9
$DIMALT
 70
     0
  9
$DIMALTD
 70
     2
  9
$DIMALTF
 40
25.4
  9
$DIMLFAC
 40
1.0
  9
$DIMTOFL
 70
     0
  9
$DIMTVP
 40
0.0
  9
$DIMTIX
 70
     0
  9
$DIMSOXD
 70
     0
  9
$DIMSAH
 70
     0
  9
$DIMBLK1
  1

  9
$DIMBLK2
  1

  9
$DIMSTYLE
  2
Standard
  9
$DIMCLRD
 70
     0
  9
$DIMCLRE
 70
     0
  9
$DIMCLRT
 70
     0
  9
$DIMTFAC
 40
1.0
  9
$DIMGAP
 40
0.09
  9
$DIMJUST
 70
     0
  9
$DIMSD1
 70
     0
  9
$DIMSD2
 70
     0
  9
$DIMTOLJ
 70
     1
  9
$DIMTZIN
 70
     0
  9
$DIMALTZ
 70
     0
  9
$DIMALTTZ
 70
     0
  9
$DIMUPT
 70
     0
  9
$DIMDEC
 70
     4
  9
$DIMTDEC
 70
     4
  9
$DIMALTU
 70
     2
  9
$DIMALTTD
 70
     2
  9
$DIMTXSTY
  7
Standard
  9
$DIMAUNIT
 70
     0
  9
$DIMADEC
 70
     0
  9
$DIMALTRND
 40
0.0
  9
$DIMAZIN
 70
     0
  9
$DIMDSEP
 70
    46
  9
$DIMATFIT
 70
     3
  9
$DIMFRAC
 70
     0
  9
$DIMLDRBLK
  1

  9
$DIMLUNIT
 70
     2
  9
$DIMLWD
 70
    -2
  9
$DIMLWE
 70
    -2
  9
$DIMTMOVE
 70
     0
  9
$LUNITS
 70
     2
  9
$LUPREC
 70
     4
  9
$SKETCHINC
 40
0.1
  9
$FILLETRAD
 40
0.0
  9
$AUNITS
 70
     0
  9
$AUPREC
 70
     0
  9
$MENU
  1
.
  9
$ELEVATION
 40
0.0
  9
$PELEVATION
 40
0.0
  9
$THICKNESS
 40
0.0
  9
$LIMCHECK
 70
     0
  9
$CHAMFERA
 40
0.0
  9
$CHAMFERB
 40
0.0
  9
$CHAMFERC
 40
0.0
  9
$CHAMFERD
 40
0.0
  9
$SKPOLY
 70
     0
  9
$TDCREATE
 40
2454752.475974028
  9
$TDUCREATE
 40
2454752.392640694
  9
$TDUPDATE
 40
2454752.476560324
  9
$TDUUPDATE
 40
2454752.393226991
  9
$TDINDWG
 40
0.0005864815
  9
$TDUSRTIMER
 40
0.0005864815
  9
$USRTIMER
 70
     1
  9
$ANGBASE
 50
0.0
  9
$ANGDIR
 70
     0
  9
$PDMODE
 70
     0
  9
$PDSIZE
 40
0.0
  9
$PLINEWID
 40
0.0
  9
$SPLFRAME
 70
     0
  9
$SPLINETYPE
 70
     6
  9
$SPLINESEGS
 70
     8
  9
$HANDSEED
  5
14C
  9
$SURFTAB1
 70
     6
  9
$SURFTAB2
 70
     6
  9
$SURFTYPE
 70
     6
  9
$SURFU
 70
     6
  9
$SURFV
 70
     6
  9
$UCSBASE
  2

  9
$UCSNAME
  2

  9
$UCSORG
 10
0.0
 20
0.0
 30
0.0
  9
$UCSXDIR
 10
1.0
 20
0.0
 30
0.0
  9
$UCSYDIR
 10
0.0
 20
1.0
 30
0.0
  9
$UCSORTHOREF
  2

  9
$UCSORTHOVIEW
 70
     1
  9
$UCSORGTOP
 10
0.0
 20
0.0
 30
0.0
  9
$UCSORGBOTTOM
 10
0.0
 20
0.0
 30
0.0
  9
$UCSORGLEFT
 10
0.0
 20
0.0
 30
0.0
  9
$UCSORGRIGHT
 10
0.0
 20
0.0
 30
0.0
  9
$UCSORGFRONT
 10
0.0
 20
0.0
 30
0.0
  9
$UCSORGBACK
 10
0.0
 20
0.0
 30
0.0
  9
$PUCSBASE
  2

  9
$PUCSNAME
  2

  9
$PUCSORG
 10
0.0
 20
0.0
 30
0.0
  9
$PUCSXDIR
 10
1.0
 20
0.0
 30
0.0
  9
$PUCSYDIR
 10
0.0
 20
1.0
 30
0.0
  9
$PUCSORTHOREF
  2

  9
$PUCSORTHOVIEW
 70
     0
  9
$PUCSORGTOP
 10
0.0
 20
0.0
 30
0.0
  9
$PUCSORGBOTTOM
 10
0.0
 20
0.0
 30
0.0
  9
$PUCSORGLEFT
 10
0.0
 20
0.0
 30
0.0
  9
$PUCSORGRIGHT
 10
0.0
 20
0.0
 30
0.0
  9
$PUCSORGFRONT
 10
0.0
 20
0.0
 30
0.0
  9
$PUCSORGBACK
 10
0.0
 20
0.0
 30
0.0
  9
$USERI1
 70
     0
  9
$USERI2
 70
     0
  9
$USERI3
 70
     0
  9
$USERI4
 70
     0
  9
$USERI5
 70
     0
  9
$USERR1
 40
0.0
  9
$USERR2
 40
0.0
  9
$USERR3
 40
0.0
  9
$USERR4
 40
0.0
  9
$USERR5
 40
0.0
  9
$WORLDVIEW
 70
     1
  9
$SHADEDGE
 70
     3
  9
$SHADEDIF
 70
    70
  9
$TILEMODE
 70
     1
  9
$MAXACTVP
 70
    64
  9
$PINSBASE
 10
0.0
 20
0.0
 30
0.0
  9
$PLIMCHECK
 70
     0
  9
$PEXTMIN
 10
1.000000000000000E+20
 20
1.000000000000000E+20
 30
1.000000000000000E+20
  9
$PEXTMAX
 10
-1.000000000000000E+20
 20
-1.000000000000000E+20
 30
-1.000000000000000E+20
  9
$PLIMMIN
 10
0.0
 20
0.0
  9
$PLIMMAX
 10
12.0
 20
9.0
  9
$UNITMODE
 70
     0
  9
$VISRETAIN
 70
     1
  9
$PLINEGEN
 70
     0
  9
$PSLTSCALE
 70
     1
  9
$TREEDEPTH
 70
  3020
  9
$CMLSTYLE
  2
Standard
  9
$CMLJUST
 70
     0
  9
$CMLSCALE
 40
1.0
  9
$PROXYGRAPHICS
 70
     1
  9
$MEASUREMENT
 70
     0
  9
$CELWEIGHT
370
    -1
  9
$ENDCAPS
280
     0
  9
$JOINSTYLE
280
     0
  9
$LWDISPLAY
290
     0
  9
$INSUNITS
 70
     0
  9
$HYPERLINKBASE
  1

  9
$STYLESHEET
  1

  9
$XEDIT
290
     1
  9
$CEPSNTYPE
380
     0
  9
$PSTYLEMODE
290
     1
  9
$FINGERPRINTGUID
  2
{B90E1F50-0416-4736-945E-8B64179523EB}
  9
$VERSIONGUID
  2
{1105A051-0528-497E-B722-F4F231A8659D}
  9
$EXTNAMES
290
     1
  9
$PSVPSCALE
 40
0.0
  9
$OLESTARTUP
290
     0
  0
ENDSEC
  0
SECTION
  2
CLASSES
  0
CLASS
  1
ACDBDICTIONARYWDFLT
  2
AcDbDictionaryWithDefault
  3
AutoCAD 2000
 90
        0
280
     0
281
     0
  0
CLASS
  1
ACDBPLACEHOLDER
  2
AcDbPlaceHolder
  3
AutoCAD 2000
 90
        0
280
     0
281
     0
  0
CLASS
  1
LAYOUT
  2
AcDbLayout
  3
AutoCAD 2000
 90
        0
280
     0
281
     0
  0
CLASS
  1
DICTIONARYVAR
  2
AcDbDictionaryVar
  3
AutoCAD 2000
 90
        0
280
     0
281
     0
  0
ENDSEC
  0
SECTION
  2
TABLES
  0
TABLE
  2
VPORT
  5
8
330
0
100
AcDbSymbolTable
 70
     2
  0
VPORT
  5
14B
330
8
100
AcDbSymbolTableRecord
100
AcDbViewportTableRecord
  2
*Active
 70
     0
 10
0.0
 20
0.0
 11
1.0
 21
1.0
 12
52.5
 22
100.4999999999999
 13
0.0
 23
0.0
 14
1.0
 24
1.0
 15
0.0
 25
0.0
 16
0.0
 26
0.0
 36
1.0
 17
0.0
 27
0.0
 37
0.0
 40
202.3799772941176
 41
2.078104993597951
 42
50.0
 43
0.0
 44
0.0
 50
0.0
 51
0.0
 71
     0
 72
   100
 73
     1
 74
     3
 75
     0
 76
     0
 77
     0
 78
     0
281
     0
 65
     1
110
0.0
120
0.0
130
0.0
111
1.0
121
0.0
131
0.0
112
0.0
122
1.0
132
0.0
 79
     1
146
0.0
  0
ENDTAB
  0
TABLE
  2
LTYPE
  5
5
330
0
100
AcDbSymbolTable
 70
     1
  0
LTYPE
  5
13
330
5
100
AcDbSymbolTableRecord
100
AcDbLinetypeTableRecord
  2
ByBlock
 70
     0
  3

 72
    65
 73
     0
 40
0.0
  0
LTYPE
  5
14
330
5
100
AcDbSymbolTableRecord
100
AcDbLinetypeTableRecord
  2
ByLayer
 70
     0
  3

 72
    65
 73
     0
 40
0.0
  0
LTYPE
  5
15
330
5
100
AcDbSymbolTableRecord
100
AcDbLinetypeTableRecord
  2
Continuous
 70
     0
  3
Solid line
 72
    65
 73
     0
 40
0.0
  0
ENDTAB
  0
TABLE
  2
LAYER
  5
2
330
0
100
AcDbSymbolTable
 70
     1
  0
LAYER
  5
10
330
2
100
AcDbSymbolTableRecord
100
AcDbLayerTableRecord
  2
0
 70
     0
 62
     7
  6
Continuous
370
    -3
390
F
  0
ENDTAB
  0
TABLE
  2
STYLE
  5
3
330
0
100
AcDbSymbolTable
 70
     1
  0
STYLE
  5
11
330
3
100
AcDbSymbolTableRecord
100
AcDbTextStyleTableRecord
  2
Standard
 70
     0
 40
0.0
 41
1.0
 50
0.0
 71
     0
 42
0.2
  3
txt
  4

  0
ENDTAB
  0
TABLE
  2
VIEW
  5
6
330
0
100
AcDbSymbolTable
 70
     0
  0
ENDTAB
  0
TABLE
  2
UCS
  5
7
330
0
100
AcDbSymbolTable
 70
     0
  0
ENDTAB
  0
TABLE
  2
APPID
  5
9
330
0
100
AcDbSymbolTable
 70
     1
  0
APPID
  5
12
330
9
100
AcDbSymbolTableRecord
100
AcDbRegAppTableRecord
  2
ACAD
 70
     0
  0
ENDTAB
  0
TABLE
  2
DIMSTYLE
  5
A
330
0
100
AcDbSymbolTable
 70
     1
100
AcDbDimStyleTable
 71
     0
  0
DIMSTYLE
105
145
330
A
100
AcDbSymbolTableRecord
100
AcDbDimStyleTableRecord
  2
Standard
 70
     0
340
11
  0
ENDTAB
  0
TABLE
  2
BLOCK_RECORD
  5
1
330
0
100
AcDbSymbolTable
 70
     0
  0
BLOCK_RECORD
  5
1E
330
1
100
AcDbSymbolTableRecord
100
AcDbBlockTableRecord
  2
*Model_Space
340
21
  0
BLOCK_RECORD
  5
1A
330
1
100
AcDbSymbolTableRecord
100
AcDbBlockTableRecord
  2
*Paper_Space
340
1D
  0
ENDTAB
  0
ENDSEC
  0
SECTION
  2
BLOCKS
  0
BLOCK
  5
1F
330
1E
100
AcDbEntity
  8
0
100
AcDbBlockBegin
  2
*Model_Space
 70
     0
 10
0.0
 20
0.0
 30
0.0
  3
*Model_Space
  1

  0
ENDBLK
  5
20
330
1E
100
AcDbEntity
  8
0
100
AcDbBlockEnd
  0
BLOCK
  5
1B
330
1A
100
AcDbEntity
 67
     1
  8
0
100
AcDbBlockBegin
  2
*Paper_Space
 70
     0
 10
0.0
 20
0.0
 30
0.0
  3
*Paper_Space
  1

  0
ENDBLK
  5
1C
330
1A
100
AcDbEntity
 67
     1
  8
0
100
AcDbBlockEnd
  0
ENDSEC
  0
SECTION
  2
ENTITIES
  0
LINE
  5
22
330
1E
100
AcDbEntity
  8
0
100
AcDbLine
 10
52.5
 20
0.0804934999999948
 30
0.0
 11
66.09999999999999
 21
0.9804934999999948
 31
0.0
  0
LINE
  5
23
330
1E
100
AcDbEntity
  8
0
100
AcDbLine
 10
66.09999999999999
 20
0.9804934999999948
 30
0.0
 11
78.7
 21
3.580496499999999
 31
0.0
  0
LINE
  5
24
330
1E
100
AcDbEntity
  8
0
100
AcDbLine
 10
78.7
 20
3.580496499999999
 30
0.0
 11
89.59999999999999
 21
7.78049649999999
 31
0.0
  0
LINE
  5
25
330
1E
100
AcDbEntity
  8
0
100
AcDbLine
 10
38.9
 20
0.9804934999999948
 30
0.0
 11
52.5
 21
0.0804934999999948
 31
0.0
  0
LINE
  5
26
330
1E
100
AcDbEntity
  8
0
100
AcDbLine
 10
89.59999999999999
 20
7.78049649999999
 30
0.0
 11
98.0
 21
13.2305065
 31
0.0
  0
LINE
  5
27
330
1E
100
AcDbEntity
  8
0
100
AcDbLine
 10
98.0
 20
13.2305065
 30
0.0
 11
103.2
 21
19.5305065
 31
0.0
  0
LINE
  5
28
330
1E
100
AcDbEntity
  8
0
100
AcDbLine
 10
26.3
 20
3.580496499999999
 30
0.0
 11
38.9
 21
0.9804934999999948
 31
0.0
  0
LINE
  5
29
330
1E
100
AcDbEntity
  8
0
100
AcDbLine
 10
15.4
 20
7.78049649999999
 30
0.0
 11
26.3
 21
3.580496499999999
 31
0.0
  0
LINE
  5
2A
330
1E
100
AcDbEntity
  8
0
100
AcDbLine
 10
10.0
 20
32.7548065
 30
0.0
 11
14.4
 21
27.4548065
 31
0.0
  0
LINE
  5
2B
330
1E
100
AcDbEntity
  8
0
100
AcDbLine
 10
9.811275285839929
 20
30.8739604138083
 30
0.0
 11
13.5
 21
26.3888065
 31
0.0
  0
LINE
  5
2C
330
1E
100
AcDbEntity
  8
0
100
AcDbLine
 10
21.4
 20
22.9048065
 30
0.0
 11
30.5
 21
19.40480649999999
 31
0.0
  0
LINE
  5
2D
330
1E
100
AcDbEntity
  8
0
100
AcDbLine
 10
20.69999999999999
 20
21.6888065
 30
0.0
 11
30.1
 21
18.0888065
 31
0.0
  0
LINE
  5
2E
330
1E
100
AcDbEntity
  8
0
100
AcDbLine
 10
20.69999999999999
 20
20.82280649999999
 30
0.0
 11
30.1
 21
17.2228065
 31
0.0
  0
LINE
  5
2F
330
1E
100
AcDbEntity
  8
0
100
AcDbLine
 10
40.8
 20
15.8888065
 30
0.0
 11
52.5
 21
15.0888065
 31
0.0
  0
LINE
  5
30
330
1E
100
AcDbEntity
  8
0
100
AcDbLine
 10
40.8
 20
15.0228065
 30
0.0
 11
52.5
 21
14.2228065
 31
0.0
  0
LINE
  5
31
330
1E
100
AcDbEntity
  8
0
100
AcDbLine
 10
52.5
 20
16.4548065
 30
0.0
 11
63.9
 21
17.2048065
 31
0.0
  0
LINE
  5
32
330
1E
100
AcDbEntity
  8
0
100
AcDbLine
 10
52.5
 20
15.0888065
 30
0.0
 11
64.2
 21
15.8888065
 31
0.0
  0
LINE
  5
33
330
1E
100
AcDbEntity
  8
0
100
AcDbLine
 10
52.5
 20
14.2228065
 30
0.0
 11
64.2
 21
15.0228065
 31
0.0
  0
LINE
  5
34
330
1E
100
AcDbEntity
  8
0
100
AcDbLine
 10
52.5
 20
13.8568065
 30
0.0
 11
63.9
 21
14.6068065
 31
0.0
  0
LINE
  5
35
330
1E
100
AcDbEntity
  8
0
100
AcDbLine
 10
64.2
 20
15.8888065
 30
0.0
 11
74.90000000000001
 21
18.0888065
 31
0.0
  0
LINE
  5
36
330
1E
100
AcDbEntity
  8
0
100
AcDbLine
 10
64.2
 20
15.0228065
 30
0.0
 11
74.90000000000001
 21
17.2228065
 31
0.0
  0
LINE
  5
37
330
1E
100
AcDbEntity
  8
0
100
AcDbLine
 10
63.9
 20
14.6068065
 30
0.0
 11
74.5
 21
16.8068065
 31
0.0
  0
LINE
  5
38
330
1E
100
AcDbEntity
  8
0
100
AcDbLine
 10
74.5
 20
16.8068065
 30
0.0
 11
83.59999999999999
 21
20.3068065
 31
0.0
  0
LINE
  5
39
330
1E
100
AcDbEntity
  8
0
100
AcDbLine
 10
41.1
 20
14.6068065
 30
0.0
 11
52.5
 21
13.8568065
 31
0.0
  0
LINE
  5
3A
330
1E
100
AcDbEntity
  8
0
100
AcDbLine
 10
52.5
 20
16.9548065
 30
0.0
 11
63.6
 21
17.7048065
 31
0.0
  0
LINE
  5
3B
330
1E
100
AcDbEntity
  8
0
100
AcDbLine
 10
63.9
 20
17.2048065
 30
0.0
 11
74.5
 21
19.40480649999999
 31
0.0
  0
LINE
  5
3C
330
1E
100
AcDbEntity
  8
0
100
AcDbLine
 10
74.90000000000001
 20
17.2228065
 30
0.0
 11
84.29999999999999
 21
20.82280649999999
 31
0.0
  0
LINE
  5
3D
330
1E
100
AcDbEntity
  8
0
100
AcDbLine
 10
41.1
 20
17.2048065
 30
0.0
 11
52.5
 21
16.4548065
 31
0.0
  0
LINE
  5
3E
330
1E
100
AcDbEntity
  8
0
100
AcDbLine
 10
22.1
 20
23.2548065
 30
0.0
 11
31.0
 21
19.8048065
 31
0.0
  0
LINE
  5
3F
330
1E
100
AcDbEntity
  8
0
100
AcDbLine
 10
63.6
 20
17.7048065
 30
0.0
 11
74.0
 21
19.8048065
 31
0.0
  0
LINE
  5
40
330
1E
100
AcDbEntity
  8
0
100
AcDbLine
 10
74.5
 20
19.40480649999999
 30
0.0
 11
83.59999999999999
 21
22.9048065
 31
0.0
  0
LINE
  5
41
330
1E
100
AcDbEntity
  8
0
100
AcDbLine
 10
74.90000000000001
 20
18.0888065
 30
0.0
 11
84.29999999999999
 21
21.6888065
 31
0.0
  0
LINE
  5
42
330
1E
100
AcDbEntity
  8
0
100
AcDbLine
 10
41.39999999999999
 20
17.7048065
 30
0.0
 11
52.5
 21
16.9548065
 31
0.0
  0
LINE
  5
43
330
1E
100
AcDbEntity
  8
0
100
AcDbLine
 10
74.0
 20
19.8048065
 30
0.0
 11
82.9
 21
23.2548065
 31
0.0
  0
LINE
  5
44
330
1E
100
AcDbEntity
  8
0
100
AcDbLine
 10
82.9
 20
23.2548065
 30
0.0
 11
89.8
 21
27.7048065
 31
0.0
  0
LINE
  5
45
330
1E
100
AcDbEntity
  8
0
100
AcDbLine
 10
83.59999999999999
 20
22.9048065
 30
0.0
 11
90.6
 21
27.4548065
 31
0.0
  0
LINE
  5
46
330
1E
100
AcDbEntity
  8
0
100
AcDbLine
 10
31.0
 20
19.8048065
 30
0.0
 11
41.39999999999999
 21
17.7048065
 31
0.0
  0
LINE
  5
47
330
1E
100
AcDbEntity
  8
0
100
AcDbLine
 10
30.5
 20
19.40480649999999
 30
0.0
 11
41.1
 21
17.2048065
 31
0.0
  0
LINE
  5
48
330
1E
100
AcDbEntity
  8
0
100
AcDbLine
 10
30.1
 20
18.0888065
 30
0.0
 11
40.8
 21
15.8888065
 31
0.0
  0
LINE
  5
49
330
1E
100
AcDbEntity
  8
0
100
AcDbLine
 10
30.1
 20
17.2228065
 30
0.0
 11
40.8
 21
15.0228065
 31
0.0
  0
LINE
  5
4A
330
1E
100
AcDbEntity
  8
0
100
AcDbLine
 10
84.29999999999999
 20
21.6888065
 30
0.0
 11
91.5
 21
26.3888065
 31
0.0
  0
LINE
  5
4B
330
1E
100
AcDbEntity
  8
0
100
AcDbLine
 10
84.29999999999999
 20
20.82280649999999
 30
0.0
 11
90.7422700228833
 21
25.0281772093821
 31
0.0
  0
LINE
  5
4C
330
1E
100
AcDbEntity
  8
0
100
AcDbLine
 10
83.59999999999999
 20
20.3068065
 30
0.0
 11
90.6
 21
24.8568065
 31
0.0
  0
LINE
  5
4D
330
1E
100
AcDbEntity
  8
0
100
AcDbLine
 10
90.6
 20
24.8568065
 30
0.0
 11
95.0
 21
30.1568065
 31
0.0
  0
LINE
  5
4E
330
1E
100
AcDbEntity
  8
0
100
AcDbLine
 10
103.2
 20
19.5305065
 30
0.0
 11
105.0
 21
26.33050649999999
 31
0.0
  0
LINE
  5
4F
330
1E
100
AcDbEntity
  8
0
100
AcDbLine
 10
30.5
 20
16.8068065
 30
0.0
 11
41.1
 21
14.6068065
 31
0.0
  0
LINE
  5
50
330
1E
100
AcDbEntity
  8
0
100
AcDbLine
 10
21.4
 20
20.3068065
 30
0.0
 11
30.5
 21
16.8068065
 31
0.0
  0
LINE
  5
51
330
1E
100
AcDbEntity
  8
0
100
AcDbLine
 10
13.5
 20
26.3888065
 30
0.0
 11
20.69999999999999
 21
21.6888065
 31
0.0
  0
LINE
  5
52
330
1E
100
AcDbEntity
  8
0
100
AcDbLine
 10
90.6
 20
27.4548065
 30
0.0
 11
95.0
 21
32.7548065
 31
0.0
  0
LINE
  5
53
330
1E
100
AcDbEntity
  8
0
100
AcDbLine
 10
91.5
 20
26.3888065
 30
0.0
 11
95.1887247141601
 21
30.8739604138083
 31
0.0
  0
LINE
  5
54
330
1E
100
AcDbEntity
  8
0
100
AcDbLine
 10
91.5
 20
26.3888065
 30
0.0
 11
95.1887247141601
 21
30.8739604138083
 31
0.0
  0
LINE
  5
55
330
1E
100
AcDbEntity
  8
0
100
AcDbLine
 10
89.8
 20
27.7048065
 30
0.0
 11
94.0
 21
32.9048065
 31
0.0
  0
LINE
  5
56
330
1E
100
AcDbEntity
  8
0
100
AcDbLine
 10
15.2
 20
27.7048065
 30
0.0
 11
22.1
 21
23.2548065
 31
0.0
  0
LINE
  5
57
330
1E
100
AcDbEntity
  8
0
100
AcDbLine
 10
14.4
 20
27.4548065
 30
0.0
 11
21.4
 21
22.9048065
 31
0.0
  0
LINE
  5
58
330
1E
100
AcDbEntity
  8
0
100
AcDbLine
 10
14.25772997711669
 20
25.0281772093821
 30
0.0
 11
20.69999999999999
 21
20.82280649999999
 31
0.0
  0
LINE
  5
59
330
1E
100
AcDbEntity
  8
0
100
AcDbLine
 10
94.0
 20
32.9048065
 30
0.0
 11
95.5
 21
38.4548065
 31
0.0
  0
LINE
  5
5A
330
1E
100
AcDbEntity
  8
0
100
AcDbLine
 10
95.0
 20
32.7548065
 30
0.0
 11
96.15815789473691
 21
37.15580649999999
 31
0.0
  0
LINE
  5
5B
330
1E
100
AcDbEntity
  8
0
100
AcDbLine
 10
11.0
 20
32.9048065
 30
0.0
 11
15.2
 21
27.7048065
 31
0.0
  0
LINE
  5
5C
330
1E
100
AcDbEntity
  8
0
100
AcDbLine
 10
95.0
 20
30.1568065
 30
0.0
 11
96.5
 21
35.8568065
 31
0.0
  0
LINE
  5
5D
330
1E
100
AcDbEntity
  8
0
100
AcDbLine
 10
103.2
 20
33.1305065
 30
0.0
 11
105.0
 21
26.33050649999999
 31
0.0
  0
LINE
  5
5E
330
1E
100
AcDbEntity
  8
0
100
AcDbLine
 10
14.4
 20
24.8568065
 30
0.0
 11
21.4
 21
20.3068065
 31
0.0
  0
LINE
  5
5F
330
1E
100
AcDbEntity
  8
0
100
AcDbLine
 10
10.0
 20
30.1568065
 30
0.0
 11
14.4
 21
24.8568065
 31
0.0
  0
LINE
  5
60
330
1E
100
AcDbEntity
  8
0
100
AcDbLine
 10
7.0
 20
13.2305065
 30
0.0
 11
15.4
 21
7.78049649999999
 31
0.0
  0
LINE
  5
61
330
1E
100
AcDbEntity
  8
0
100
AcDbLine
 10
1.8
 20
19.5305065
 30
0.0
 11
7.0
 21
13.2305065
 31
0.0
  0
LINE
  5
62
330
1E
100
AcDbEntity
  8
0
100
AcDbLine
 10
8.84184210526315
 20
37.15580649999999
 30
0.0
 11
10.0
 21
32.7548065
 31
0.0
  0
LINE
  5
63
330
1E
100
AcDbEntity
  8
0
100
AcDbLine
 10
9.5
 20
38.4548065
 30
0.0
 11
10.35138041357779
 21
41.604914030238
 31
0.0
  0
LINE
  5
64
330
1E
100
AcDbEntity
  8
0
100
AcDbLine
 10
9.5
 20
38.4548065
 30
0.0
 11
11.0
 21
32.9048065
 31
0.0
  0
LINE
  5
65
330
1E
100
AcDbEntity
  8
0
100
AcDbLine
 10
98.0
 20
39.43050649999999
 30
0.0
 11
103.2
 21
33.1305065
 31
0.0
  0
LINE
  5
66
330
1E
100
AcDbEntity
  8
0
100
AcDbLine
 10
101.7
 20
36.3946065
 30
0.0
 11
103.2
 21
33.1305065
 31
0.0
  0
LINE
  5
67
330
1E
100
AcDbEntity
  8
0
100
AcDbLine
 10
8.5
 20
35.8568065
 30
0.0
 11
9.94291953154514
 21
41.3399007198715
 31
0.0
  0
LINE
  5
68
330
1E
100
AcDbEntity
  8
0
100
AcDbLine
 10
8.5
 20
35.8568065
 30
0.0
 11
10.0
 21
30.1568065
 31
0.0
  0
LINE
  5
69
330
1E
100
AcDbEntity
  8
0
100
AcDbLine
 10
10.5
 20
46.6821065
 30
0.0
 11
12.5
 21
55.77540649999999
 31
0.0
  0
LINE
  5
6A
330
1E
100
AcDbEntity
  8
0
100
AcDbLine
 10
10.28021090355559
 20
44.8738356668233
 30
0.0
 11
10.5
 21
46.6821065
 31
0.0
  0
LINE
  5
6B
330
1E
100
AcDbEntity
  8
0
100
AcDbLine
 10
9.099999999999999
 20
43.4388065
 30
0.0
 11
13.5
 21
48.7888065
 31
0.0
  0
LINE
  5
6C
330
1E
100
AcDbEntity
  8
0
100
AcDbLine
 10
9.0582400270901
 20
43.2861215990482
 30
0.0
 11
9.099999999999999
 21
43.4388065
 31
0.0
  0
LINE
  5
6D
330
1E
100
AcDbEntity
  8
0
100
AcDbLine
 10
12.5
 20
55.77540649999999
 30
0.0
 11
13.9
 21
60.97540649999999
 31
0.0
  0
LINE
  5
6E
330
1E
100
AcDbEntity
  8
0
100
AcDbLine
 10
13.9
 20
60.97540649999999
 30
0.0
 11
16.8
 21
69.6686065
 31
0.0
  0
LINE
  5
6F
330
1E
100
AcDbEntity
  8
0
100
AcDbLine
 10
14.4
 20
49.4548065
 30
0.0
 11
21.4
 21
54.00480649999999
 31
0.0
  0
LINE
  5
70
330
1E
100
AcDbEntity
  8
0
100
AcDbLine
 10
13.5
 20
48.7888065
 30
0.0
 11
20.69999999999999
 21
53.48880649999999
 31
0.0
  0
LINE
  5
71
330
1E
100
AcDbEntity
  8
0
100
AcDbLine
 10
13.5
 20
48.7888065
 30
0.0
 11
14.4
 21
49.4548065
 31
0.0
  0
LINE
  5
72
330
1E
100
AcDbEntity
  8
0
100
AcDbLine
 10
13.5
 20
47.9228065
 30
0.0
 11
20.69999999999999
 21
52.6228065
 31
0.0
  0
LINE
  5
73
330
1E
100
AcDbEntity
  8
0
100
AcDbLine
 10
11.6894395415473
 20
45.72132957892679
 30
0.0
 11
13.5
 21
47.9228065
 31
0.0
  0
LINE
  5
74
330
1E
100
AcDbEntity
  8
0
100
AcDbLine
 10
15.0
 20
97.38050649999999
 30
0.0
 11
16.39999999999999
 21
106.9805064999999
 31
0.0
  0
LINE
  5
75
330
1E
100
AcDbEntity
  8
0
100
AcDbLine
 10
15.0
 20
97.38050649999999
 30
0.0
 11
16.39999999999999
 21
87.7805065
 31
0.0
  0
LINE
  5
76
330
1E
100
AcDbEntity
  8
0
100
AcDbLine
 10
10.9
 20
45.20870649999999
 30
0.0
 11
18.6
 21
50.20870649999999
 31
0.0
  0
LINE
  5
77
330
1E
100
AcDbEntity
  8
0
100
AcDbLine
 10
8.3
 20
42.4946065
 30
0.0
 11
10.9
 21
45.20870649999999
 31
0.0
  0
LINE
  5
78
330
1E
100
AcDbEntity
  8
0
100
AcDbLine
 10
94.6486195864222
 20
41.604914030238
 30
0.0
 11
95.5
 21
38.4548065
 31
0.0
  0
LINE
  5
79
330
1E
100
AcDbEntity
  8
0
100
AcDbLine
 10
95.90000000000001
 20
43.4388065
 30
0.0
 11
95.94175997290991
 21
43.2861215990482
 31
0.0
  0
LINE
  5
7A
330
1E
100
AcDbEntity
  8
0
100
AcDbLine
 10
95.05708046845491
 20
41.3399007198715
 30
0.0
 11
96.5
 21
35.8568065
 31
0.0
  0
LINE
  5
7B
330
1E
100
AcDbEntity
  8
0
100
AcDbLine
 10
91.5
 20
48.7888065
 30
0.0
 11
95.90000000000001
 21
43.4388065
 31
0.0
  0
LINE
  5
7C
330
1E
100
AcDbEntity
  8
0
100
AcDbLine
 10
94.50000000000001
 20
46.6821065
 30
0.0
 11
94.71978909644439
 21
44.8738356668233
 31
0.0
  0
LINE
  5
7D
330
1E
100
AcDbEntity
  8
0
100
AcDbLine
 10
91.5
 20
47.9228065
 30
0.0
 11
93.3105604584527
 21
45.72132957892679
 31
0.0
  0
LINE
  5
7E
330
1E
100
AcDbEntity
  8
0
100
AcDbLine
 10
94.1
 20
45.20870649999999
 30
0.0
 11
96.70000000000001
 21
42.4946065
 31
0.0
  0
LINE
  5
7F
330
1E
100
AcDbEntity
  8
0
100
AcDbLine
 10
78.7
 20
49.08050649999999
 30
0.0
 11
89.59999999999999
 21
44.8805065
 31
0.0
  0
LINE
  5
80
330
1E
100
AcDbEntity
  8
0
100
AcDbLine
 10
89.59999999999999
 20
44.8805065
 30
0.0
 11
98.0
 21
39.43050649999999
 31
0.0
  0
LINE
  5
81
330
1E
100
AcDbEntity
  8
0
100
AcDbLine
 10
96.70000000000001
 20
42.4946065
 30
0.0
 11
101.7
 21
36.3946065
 31
0.0
  0
LINE
  5
82
330
1E
100
AcDbEntity
  8
0
100
AcDbLine
 10
16.8
 20
69.6686065
 30
0.0
 11
20.69999999999999
 21
76.9628065
 31
0.0
  0
LINE
  5
83
330
1E
100
AcDbEntity
  8
0
100
AcDbLine
 10
16.39999999999999
 20
87.7805065
 30
0.0
 11
20.0
 21
78.7805065
 31
0.0
  0
LINE
  5
84
330
1E
100
AcDbEntity
  8
0
100
AcDbLine
 10
19.19999999999999
 20
88.48050649999999
 30
0.0
 11
22.6
 21
80.2805065
 31
0.0
  0
LINE
  5
85
330
1E
100
AcDbEntity
  8
0
100
AcDbLine
 10
20.69999999999999
 20
76.9628065
 30
0.0
 11
24.5
 21
82.0420065
 31
0.0
  0
LINE
  5
86
330
1E
100
AcDbEntity
  8
0
100
AcDbLine
 10
20.69999999999999
 20
53.48880649999999
 30
0.0
 11
30.1
 21
57.0888065
 31
0.0
  0
LINE
  5
87
330
1E
100
AcDbEntity
  8
0
100
AcDbLine
 10
21.4
 20
54.00480649999999
 30
0.0
 11
30.5
 21
57.5048065
 31
0.0
  0
LINE
  5
88
330
1E
100
AcDbEntity
  8
0
100
AcDbLine
 10
20.69999999999999
 20
52.6228065
 30
0.0
 11
30.1
 21
56.2228065
 31
0.0
  0
LINE
  5
89
330
1E
100
AcDbEntity
  8
0
100
AcDbLine
 10
20.69999999999999
 20
88.8805065
 30
0.0
 11
23.8318015691075
 21
81.1488713762659
 31
0.0
  0
LINE
  5
8A
330
1E
100
AcDbEntity
  8
0
100
AcDbLine
 10
20.0
 20
78.7805065
 30
0.0
 11
21.0527744200562
 21
77.434335930092
 31
0.0
  0
LINE
  5
8B
330
1E
100
AcDbEntity
  8
0
100
AcDbLine
 10
20.69999999999999
 20
105.8805065
 30
0.0
 11
23.9
 21
113.7805065
 31
0.0
  0
LINE
  5
8C
330
1E
100
AcDbEntity
  8
0
100
AcDbLine
 10
19.5
 20
97.38050649999999
 30
0.0
 11
20.69999999999999
 21
105.8805065
 31
0.0
  0
LINE
  5
8D
330
1E
100
AcDbEntity
  8
0
100
AcDbLine
 10
19.5
 20
97.38050649999999
 30
0.0
 11
20.69999999999999
 21
88.8805065
 31
0.0
  0
LINE
  5
8E
330
1E
100
AcDbEntity
  8
0
100
AcDbLine
 10
19.19999999999999
 20
106.2805065
 30
0.0
 11
22.6
 21
114.4805064999999
 31
0.0
  0
LINE
  5
8F
330
1E
100
AcDbEntity
  8
0
100
AcDbLine
 10
18.0
 20
97.38050649999999
 30
0.0
 11
19.19999999999999
 21
106.2805065
 31
0.0
  0
LINE
  5
90
330
1E
100
AcDbEntity
  8
0
100
AcDbLine
 10
18.0
 20
97.38050649999999
 30
0.0
 11
19.19999999999999
 21
88.48050649999999
 31
0.0
  0
LINE
  5
91
330
1E
100
AcDbEntity
  8
0
100
AcDbLine
 10
20.0
 20
115.9805065
 30
0.0
 11
26.1
 21
123.7805065
 31
0.0
  0
LINE
  5
92
330
1E
100
AcDbEntity
  8
0
100
AcDbLine
 10
16.39999999999999
 20
106.9805064999999
 30
0.0
 11
20.0
 21
115.9805065
 31
0.0
  0
LINE
  5
93
330
1E
100
AcDbEntity
  8
0
100
AcDbLine
 10
27.4
 20
85.5420065
 30
0.0
 11
31.69999999999999
 21
88.62210649999999
 31
0.0
  0
LINE
  5
94
330
1E
100
AcDbEntity
  8
0
100
AcDbLine
 10
24.5
 20
82.0420065
 30
0.0
 11
27.4
 21
85.5420065
 31
0.0
  0
LINE
  5
95
330
1E
100
AcDbEntity
  8
0
100
AcDbLine
 10
28.6536303378337
 20
86.4399848264097
 30
0.0
 11
29.3
 21
87.8872065
 31
0.0
  0
LINE
  5
96
330
1E
100
AcDbEntity
  8
0
100
AcDbLine
 10
29.3
 20
87.8872065
 30
0.0
 11
31.69999999999999
 21
90.78720649999999
 31
0.0
  0
LINE
  5
97
330
1E
100
AcDbEntity
  8
0
100
AcDbLine
 10
29.1236350167763
 20
86.7766502709704
 30
0.0
 11
30.8
 21
88.8721065
 31
0.0
  0
LINE
  5
98
330
1E
100
AcDbEntity
  8
0
100
AcDbLine
 10
30.5
 20
57.5048065
 30
0.0
 11
41.1
 21
59.70480649999999
 31
0.0
  0
LINE
  5
99
330
1E
100
AcDbEntity
  8
0
100
AcDbLine
 10
30.1
 20
57.0888065
 30
0.0
 11
40.8
 21
59.28880649999999
 31
0.0
  0
LINE
  5
9A
330
1E
100
AcDbEntity
  8
0
100
AcDbLine
 10
30.1
 20
56.2228065
 30
0.0
 11
40.8
 21
58.42280649999999
 31
0.0
  0
LINE
  5
9B
330
1E
100
AcDbEntity
  8
0
100
AcDbLine
 10
22.6
 20
80.2805065
 30
0.0
 11
22.8967190600163
 21
79.89901056569329
 31
0.0
  0
LINE
  5
9C
330
1E
100
AcDbEntity
  8
0
100
AcDbLine
 10
23.9
 20
113.7805065
 30
0.0
 11
29.19999999999999
 21
120.6805064999999
 31
0.0
  0
LINE
  5
9D
330
1E
100
AcDbEntity
  8
0
100
AcDbLine
 10
22.6
 20
114.4805064999999
 30
0.0
 11
28.2
 21
121.6805064999999
 31
0.0
  0
LINE
  5
9E
330
1E
100
AcDbEntity
  8
0
100
AcDbLine
 10
29.19999999999999
 20
120.6805064999999
 30
0.0
 11
31.0069152809641
 21
122.068426933204
 31
0.0
  0
LINE
  5
9F
330
1E
100
AcDbEntity
  8
0
100
AcDbLine
 10
28.2
 20
121.6805064999999
 30
0.0
 11
31.3466504058203
 21
124.1279012600819
 31
0.0
  0
LINE
  5
A0
330
1E
100
AcDbEntity
  8
0
100
AcDbLine
 10
26.1
 20
123.7805065
 30
0.0
 11
32.7381759371169
 21
128.971900502104
 31
0.0
  0
LINE
  5
A1
330
1E
100
AcDbEntity
  8
0
100
AcDbLine
 10
30.5
 20
89.33720649999999
 30
0.0
 11
30.5
 21
118.9955064999999
 31
0.0
  0
LINE
  5
A2
330
1E
100
AcDbEntity
  8
0
100
AcDbLine
 10
31.69999999999999
 20
90.78720649999999
 30
0.0
 11
33.39999999999999
 21
92.45230649999999
 31
0.0
  0
LINE
  5
A3
330
1E
100
AcDbEntity
  8
0
100
AcDbLine
 10
35.5
 20
91.12210649999999
 30
0.0
 11
40.49999999999999
 21
93.02210649999999
 31
0.0
  0
LINE
  5
A4
330
1E
100
AcDbEntity
  8
0
100
AcDbLine
 10
34.79999999999999
 20
91.47210649999999
 30
0.0
 11
40.0
 21
93.47210649999999
 31
0.0
  0
LINE
  5
A5
330
1E
100
AcDbEntity
  8
0
100
AcDbLine
 10
31.69999999999999
 20
88.62210649999999
 30
0.0
 11
35.5
 21
91.12210649999999
 31
0.0
  0
LINE
  5
A6
330
1E
100
AcDbEntity
  8
0
100
AcDbLine
 10
30.8
 20
88.8721065
 30
0.0
 11
34.79999999999999
 21
91.47210649999999
 31
0.0
  0
LINE
  5
A7
330
1E
100
AcDbEntity
  8
0
100
AcDbLine
 10
36.0
 20
134.5705064999999
 30
0.0
 11
39.1
 21
138.0005064999999
 31
0.0
  0
LINE
  5
A8
330
1E
100
AcDbEntity
  8
0
100
AcDbLine
 10
34.2
 20
132.2705064999999
 30
0.0
 11
36.0
 21
134.5705064999999
 31
0.0
  0
LINE
  5
A9
330
1E
100
AcDbEntity
  8
0
100
AcDbLine
 10
32.2
 20
127.7575064999999
 30
0.0
 11
34.2
 21
132.2705064999999
 31
0.0
  0
LINE
  5
AA
330
1E
100
AcDbEntity
  8
0
100
AcDbLine
 10
31.5
 20
125.0575064999999
 30
0.0
 11
32.2
 21
127.7575064999999
 31
0.0
  0
LINE
  5
AB
330
1E
100
AcDbEntity
  8
0
100
AcDbLine
 10
36.89999999999999
 20
94.75230649999998
 30
0.0
 11
41.5
 21
96.50230649999999
 31
0.0
  0
LINE
  5
AC
330
1E
100
AcDbEntity
  8
0
100
AcDbLine
 10
33.39999999999999
 20
92.45230649999999
 30
0.0
 11
36.89999999999999
 21
94.75230649999998
 31
0.0
  0
LINE
  5
AD
330
1E
100
AcDbEntity
  8
0
100
AcDbLine
 10
30.5
 20
118.9955064999999
 30
0.0
 11
30.5
 21
89.33720649999999
 31
0.0
  0
LINE
  5
AE
330
1E
100
AcDbEntity
  8
0
100
AcDbLine
 10
30.5
 20
118.9955064999999
 30
0.0
 11
31.5
 21
125.0575064999999
 31
0.0
  0
LINE
  5
AF
330
1E
100
AcDbEntity
  8
0
100
AcDbLine
 10
30.5
 20
54.90680649999999
 30
0.0
 11
41.1
 21
57.1068065
 31
0.0
  0
LINE
  5
B0
330
1E
100
AcDbEntity
  8
0
100
AcDbLine
 10
21.4
 20
51.4068065
 30
0.0
 11
30.5
 21
54.90680649999999
 31
0.0
  0
LINE
  5
B1
330
1E
100
AcDbEntity
  8
0
100
AcDbLine
 10
18.6
 20
50.20870649999999
 30
0.0
 11
21.4
 21
51.4068065
 31
0.0
  0
LINE
  5
B2
330
1E
100
AcDbEntity
  8
0
100
AcDbLine
 10
63.9
 20
57.1068065
 30
0.0
 11
74.5
 21
54.90680649999999
 31
0.0
  0
LINE
  5
B3
330
1E
100
AcDbEntity
  8
0
100
AcDbLine
 10
52.5
 20
52.58050649999999
 30
0.0
 11
66.09999999999999
 21
51.6805065
 31
0.0
  0
LINE
  5
B4
330
1E
100
AcDbEntity
  8
0
100
AcDbLine
 10
90.6
 20
49.4548065
 30
0.0
 11
91.5
 21
48.7888065
 31
0.0
  0
LINE
  5
B5
330
1E
100
AcDbEntity
  8
0
100
AcDbLine
 10
83.59999999999999
 20
54.00480649999999
 30
0.0
 11
90.6
 21
49.4548065
 31
0.0
  0
LINE
  5
B6
330
1E
100
AcDbEntity
  8
0
100
AcDbLine
 10
74.90000000000001
 20
57.0888065
 30
0.0
 11
84.29999999999999
 21
53.48880649999999
 31
0.0
  0
LINE
  5
B7
330
1E
100
AcDbEntity
  8
0
100
AcDbLine
 10
74.90000000000001
 20
56.2228065
 30
0.0
 11
84.29999999999999
 21
52.6228065
 31
0.0
  0
LINE
  5
B8
330
1E
100
AcDbEntity
  8
0
100
AcDbLine
 10
74.5
 20
54.90680649999999
 30
0.0
 11
83.59999999999999
 21
51.4068065
 31
0.0
  0
LINE
  5
B9
330
1E
100
AcDbEntity
  8
0
100
AcDbLine
 10
92.5
 20
55.77540649999999
 30
0.0
 11
94.50000000000001
 21
46.6821065
 31
0.0
  0
LINE
  5
BA
330
1E
100
AcDbEntity
  8
0
100
AcDbLine
 10
84.29999999999999
 20
53.48880649999999
 30
0.0
 11
91.5
 21
48.7888065
 31
0.0
  0
LINE
  5
BB
330
1E
100
AcDbEntity
  8
0
100
AcDbLine
 10
84.29999999999999
 20
52.6228065
 30
0.0
 11
91.5
 21
47.9228065
 31
0.0
  0
LINE
  5
BC
330
1E
100
AcDbEntity
  8
0
100
AcDbLine
 10
83.59999999999999
 20
51.4068065
 30
0.0
 11
86.4
 21
50.20870649999999
 31
0.0
  0
LINE
  5
BD
330
1E
100
AcDbEntity
  8
0
100
AcDbLine
 10
86.4
 20
50.20870649999999
 30
0.0
 11
94.1
 21
45.20870649999999
 31
0.0
  0
LINE
  5
BE
330
1E
100
AcDbEntity
  8
0
100
AcDbLine
 10
66.09999999999999
 20
51.6805065
 30
0.0
 11
78.7
 21
49.08050649999999
 31
0.0
  0
LINE
  5
BF
330
1E
100
AcDbEntity
  8
0
100
AcDbLine
 10
40.49999999999999
 20
93.02210649999999
 30
0.0
 11
46.29999999999999
 21
94.2221065
 31
0.0
  0
LINE
  5
C0
330
1E
100
AcDbEntity
  8
0
100
AcDbLine
 10
40.0
 20
93.47210649999999
 30
0.0
 11
46.0
 21
94.6721065
 31
0.0
  0
LINE
  5
C1
330
1E
100
AcDbEntity
  8
0
100
AcDbLine
 10
40.8
 20
59.28880649999999
 30
0.0
 11
52.5
 21
60.0888065
 31
0.0
  0
LINE
  5
C2
330
1E
100
AcDbEntity
  8
0
100
AcDbLine
 10
41.1
 20
59.70480649999999
 30
0.0
 11
52.5
 21
60.4548065
 31
0.0
  0
LINE
  5
C3
330
1E
100
AcDbEntity
  8
0
100
AcDbLine
 10
40.8
 20
58.42280649999999
 30
0.0
 11
52.5
 21
59.2228065
 31
0.0
  0
LINE
  5
C4
330
1E
100
AcDbEntity
  8
0
100
AcDbLine
 10
41.5
 20
139.6505065
 30
0.0
 11
44.7
 21
141.5145064999999
 31
0.0
  0
LINE
  5
C5
330
1E
100
AcDbEntity
  8
0
100
AcDbLine
 10
39.1
 20
138.0005064999999
 30
0.0
 11
41.5
 21
139.6505065
 31
0.0
  0
LINE
  5
C6
330
1E
100
AcDbEntity
  8
0
100
AcDbLine
 10
52.5
 20
94.62210650000001
 30
0.0
 11
58.7
 21
94.2221065
 31
0.0
  0
LINE
  5
C7
330
1E
100
AcDbEntity
  8
0
100
AcDbLine
 10
52.5
 20
60.4548065
 30
0.0
 11
63.9
 21
59.70480649999999
 31
0.0
  0
LINE
  5
C8
330
1E
100
AcDbEntity
  8
0
100
AcDbLine
 10
52.5
 20
60.0888065
 30
0.0
 11
64.2
 21
59.28880649999999
 31
0.0
  0
LINE
  5
C9
330
1E
100
AcDbEntity
  8
0
100
AcDbLine
 10
52.5
 20
59.2228065
 30
0.0
 11
64.2
 21
58.42280649999999
 31
0.0
  0
LINE
  5
CA
330
1E
100
AcDbEntity
  8
0
100
AcDbLine
 10
46.29999999999999
 20
94.2221065
 30
0.0
 11
52.5
 21
94.62210650000001
 31
0.0
  0
LINE
  5
CB
330
1E
100
AcDbEntity
  8
0
100
AcDbLine
 10
52.5
 20
95.1221065
 30
0.0
 11
59.0
 21
94.6721065
 31
0.0
  0
LINE
  5
CC
330
1E
100
AcDbEntity
  8
0
100
AcDbLine
 10
46.0
 20
94.6721065
 30
0.0
 11
52.5
 21
95.1221065
 31
0.0
  0
LINE
  5
CD
330
1E
100
AcDbEntity
  8
0
100
AcDbLine
 10
74.5
 20
57.5048065
 30
0.0
 11
83.59999999999999
 21
54.00480649999999
 31
0.0
  0
LINE
  5
CE
330
1E
100
AcDbEntity
  8
0
100
AcDbLine
 10
63.9
 20
59.70480649999999
 30
0.0
 11
74.5
 21
57.5048065
 31
0.0
  0
LINE
  5
CF
330
1E
100
AcDbEntity
  8
0
100
AcDbLine
 10
64.2
 20
59.28880649999999
 30
0.0
 11
74.90000000000001
 21
57.0888065
 31
0.0
  0
LINE
  5
D0
330
1E
100
AcDbEntity
  8
0
100
AcDbLine
 10
64.2
 20
58.42280649999999
 30
0.0
 11
74.90000000000001
 21
56.2228065
 31
0.0
  0
LINE
  5
D1
330
1E
100
AcDbEntity
  8
0
100
AcDbLine
 10
84.29999999999999
 20
76.9628065
 30
0.0
 11
88.2
 21
69.6686065
 31
0.0
  0
LINE
  5
D2
330
1E
100
AcDbEntity
  8
0
100
AcDbLine
 10
88.2
 20
69.6686065
 30
0.0
 11
91.09999999999999
 21
60.97540649999999
 31
0.0
  0
LINE
  5
D3
330
1E
100
AcDbEntity
  8
0
100
AcDbLine
 10
83.94722557994381
 20
77.434335930092
 30
0.0
 11
85.0
 21
78.7805065
 31
0.0
  0
LINE
  5
D4
330
1E
100
AcDbEntity
  8
0
100
AcDbLine
 10
82.1032809399837
 20
79.89901056569329
 30
0.0
 11
82.4
 21
80.2805065
 31
0.0
  0
LINE
  5
D5
330
1E
100
AcDbEntity
  8
0
100
AcDbLine
 10
73.3
 20
88.62210649999999
 30
0.0
 11
77.59999999999999
 21
85.5420065
 31
0.0
  0
LINE
  5
D6
330
1E
100
AcDbEntity
  8
0
100
AcDbLine
 10
77.59999999999999
 20
85.5420065
 30
0.0
 11
80.5
 21
82.0420065
 31
0.0
  0
LINE
  5
D7
330
1E
100
AcDbEntity
  8
0
100
AcDbLine
 10
80.5
 20
82.0420065
 30
0.0
 11
84.29999999999999
 21
76.9628065
 31
0.0
  0
LINE
  5
D8
330
1E
100
AcDbEntity
  8
0
100
AcDbLine
 10
75.7
 20
87.8872065
 30
0.0
 11
76.34636966216629
 21
86.4399848264097
 31
0.0
  0
LINE
  5
D9
330
1E
100
AcDbEntity
  8
0
100
AcDbLine
 10
74.2
 20
88.8721065
 30
0.0
 11
75.87636498322371
 21
86.7766502709704
 31
0.0
  0
LINE
  5
DA
330
1E
100
AcDbEntity
  8
0
100
AcDbLine
 10
81.16819843089258
 20
81.14887137626601
 30
0.0
 11
84.29999999999999
 21
88.8805065
 31
0.0
  0
LINE
  5
DB
330
1E
100
AcDbEntity
  8
0
100
AcDbLine
 10
84.29999999999999
 20
88.8805065
 30
0.0
 11
85.5
 21
97.38050649999999
 31
0.0
  0
LINE
  5
DC
330
1E
100
AcDbEntity
  8
0
100
AcDbLine
 10
82.4
 20
80.2805065
 30
0.0
 11
85.8
 21
88.48050649999999
 31
0.0
  0
LINE
  5
DD
330
1E
100
AcDbEntity
  8
0
100
AcDbLine
 10
85.8
 20
88.48050649999999
 30
0.0
 11
87.0
 21
97.38050649999999
 31
0.0
  0
LINE
  5
DE
330
1E
100
AcDbEntity
  8
0
100
AcDbLine
 10
85.0
 20
78.7805065
 30
0.0
 11
88.59999999999999
 21
87.7805065
 31
0.0
  0
LINE
  5
DF
330
1E
100
AcDbEntity
  8
0
100
AcDbLine
 10
91.09999999999999
 20
60.97540649999999
 30
0.0
 11
92.5
 21
55.77540649999999
 31
0.0
  0
LINE
  5
E0
330
1E
100
AcDbEntity
  8
0
100
AcDbLine
 10
88.59999999999999
 20
87.7805065
 30
0.0
 11
90.0
 21
97.38050649999999
 31
0.0
  0
LINE
  5
E1
330
1E
100
AcDbEntity
  8
0
100
AcDbLine
 10
58.7
 20
94.2221065
 30
0.0
 11
64.5
 21
93.02210649999999
 31
0.0
  0
LINE
  5
E2
330
1E
100
AcDbEntity
  8
0
100
AcDbLine
 10
59.0
 20
94.6721065
 30
0.0
 11
65.0
 21
93.47210649999999
 31
0.0
  0
LINE
  5
E3
330
1E
100
AcDbEntity
  8
0
100
AcDbLine
 10
64.5
 20
93.02210649999999
 30
0.0
 11
69.5
 21
91.12210649999999
 31
0.0
  0
LINE
  5
E4
330
1E
100
AcDbEntity
  8
0
100
AcDbLine
 10
65.0
 20
93.47210649999999
 30
0.0
 11
70.2
 21
91.47210649999999
 31
0.0
  0
LINE
  5
E5
330
1E
100
AcDbEntity
  8
0
100
AcDbLine
 10
58.2
 20
97.55230650000001
 30
0.0
 11
63.5
 21
96.50230649999999
 31
0.0
  0
LINE
  5
E6
330
1E
100
AcDbEntity
  8
0
100
AcDbLine
 10
63.5
 20
96.50230649999999
 30
0.0
 11
68.09999999999999
 21
94.75230649999998
 31
0.0
  0
LINE
  5
E7
330
1E
100
AcDbEntity
  8
0
100
AcDbLine
 10
73.3
 20
90.78720649999999
 30
0.0
 11
75.7
 21
87.8872065
 31
0.0
  0
LINE
  5
E8
330
1E
100
AcDbEntity
  8
0
100
AcDbLine
 10
69.5
 20
91.12210649999999
 30
0.0
 11
73.3
 21
88.62210649999999
 31
0.0
  0
LINE
  5
E9
330
1E
100
AcDbEntity
  8
0
100
AcDbLine
 10
71.6
 20
92.45230649999999
 30
0.0
 11
73.3
 21
90.78720649999999
 31
0.0
  0
LINE
  5
EA
330
1E
100
AcDbEntity
  8
0
100
AcDbLine
 10
70.2
 20
91.47210649999999
 30
0.0
 11
74.2
 21
88.8721065
 31
0.0
  0
LINE
  5
EB
330
1E
100
AcDbEntity
  8
0
100
AcDbLine
 10
68.09999999999999
 20
94.75230649999998
 30
0.0
 11
71.6
 21
92.45230649999999
 31
0.0
  0
LINE
  5
EC
330
1E
100
AcDbEntity
  8
0
100
AcDbLine
 10
74.5
 20
89.33720649999999
 30
0.0
 11
74.5
 21
118.9955064999999
 31
0.0
  0
LINE
  5
ED
330
1E
100
AcDbEntity
  8
0
100
AcDbLine
 10
52.5
 20
57.85680649999999
 30
0.0
 11
63.9
 21
57.1068065
 31
0.0
  0
LINE
  5
EE
330
1E
100
AcDbEntity
  8
0
100
AcDbLine
 10
43.79999999999999
 20
192.8915064999999
 30
0.0
 11
44.79999999999999
 21
196.2555065
 31
0.0
  0
LINE
  5
EF
330
1E
100
AcDbEntity
  8
0
100
AcDbLine
 10
43.5
 20
191.7415064999999
 30
0.0
 11
45.46140100750879
 21
142.480920196417
 31
0.0
  0
LINE
  5
F0
330
1E
100
AcDbEntity
  8
0
100
AcDbLine
 10
43.5
 20
191.7415064999999
 30
0.0
 11
43.79999999999999
 21
192.8915064999999
 31
0.0
  0
LINE
  5
F1
330
1E
100
AcDbEntity
  8
0
100
AcDbLine
 10
44.79999999999999
 20
141.6955064999999
 30
0.0
 11
45.6
 21
142.6455064999999
 31
0.0
  0
LINE
  5
F2
330
1E
100
AcDbEntity
  8
0
100
AcDbLine
 10
44.75398611111109
 20
141.5344578888889
 30
0.0
 11
44.79999999999999
 21
141.6955064999999
 31
0.0
  0
LINE
  5
F3
330
1E
100
AcDbEntity
  8
0
100
AcDbLine
 10
45.7995721925134
 20
141.920870136364
 30
0.0
 11
46.79999999999999
 21
142.6295064999999
 31
0.0
  0
LINE
  5
F4
330
1E
100
AcDbEntity
  8
0
100
AcDbLine
 10
73.99308471903591
 20
122.068426933204
 30
0.0
 11
75.8
 21
120.6805064999999
 31
0.0
  0
LINE
  5
F5
330
1E
100
AcDbEntity
  8
0
100
AcDbLine
 10
73.65334959417978
 20
124.1279012600819
 30
0.0
 11
76.79999999999999
 21
121.6805064999999
 31
0.0
  0
LINE
  5
F6
330
1E
100
AcDbEntity
  8
0
100
AcDbLine
 10
84.29999999999999
 20
105.8805065
 30
0.0
 11
85.5
 21
97.38050649999999
 31
0.0
  0
LINE
  5
F7
330
1E
100
AcDbEntity
  8
0
100
AcDbLine
 10
85.8
 20
106.2805065
 30
0.0
 11
87.0
 21
97.38050649999999
 31
0.0
  0
LINE
  5
F8
330
1E
100
AcDbEntity
  8
0
100
AcDbLine
 10
75.8
 20
120.6805064999999
 30
0.0
 11
81.09999999999999
 21
113.7805065
 31
0.0
  0
LINE
  5
F9
330
1E
100
AcDbEntity
  8
0
100
AcDbLine
 10
81.09999999999999
 20
113.7805065
 30
0.0
 11
84.29999999999999
 21
105.8805065
 31
0.0
  0
LINE
  5
FA
330
1E
100
AcDbEntity
  8
0
100
AcDbLine
 10
76.79999999999999
 20
121.6805064999999
 30
0.0
 11
82.4
 21
114.4805064999999
 31
0.0
  0
LINE
  5
FB
330
1E
100
AcDbEntity
  8
0
100
AcDbLine
 10
82.4
 20
114.4805064999999
 30
0.0
 11
85.8
 21
106.2805065
 31
0.0
  0
LINE
  5
FC
330
1E
100
AcDbEntity
  8
0
100
AcDbLine
 10
78.9
 20
123.7805065
 30
0.0
 11
85.0
 21
115.9805065
 31
0.0
  0
LINE
  5
FD
330
1E
100
AcDbEntity
  8
0
100
AcDbLine
 10
85.0
 20
115.9805065
 30
0.0
 11
88.59999999999999
 21
106.9805064999999
 31
0.0
  0
LINE
  5
FE
330
1E
100
AcDbEntity
  8
0
100
AcDbLine
 10
88.59999999999999
 20
106.9805064999999
 30
0.0
 11
90.0
 21
97.38050649999999
 31
0.0
  0
LINE
  5
FF
330
1E
100
AcDbEntity
  8
0
100
AcDbLine
 10
74.5
 20
118.9955064999999
 30
0.0
 11
74.5
 21
89.33720649999999
 31
0.0
  0
LINE
  5
100
330
1E
100
AcDbEntity
  8
0
100
AcDbLine
 10
72.26182406288309
 20
128.971900502104
 30
0.0
 11
78.9
 21
123.7805065
 31
0.0
  0
LINE
  5
101
330
1E
100
AcDbEntity
  8
0
100
AcDbLine
 10
60.2
 20
141.6955064999999
 30
0.0
 11
60.2460138888889
 21
141.5344578888889
 31
0.0
  0
LINE
  5
102
330
1E
100
AcDbEntity
  8
0
100
AcDbLine
 10
58.0
 20
142.3645065
 30
0.0
 11
60.3
 21
141.5145064999999
 31
0.0
  0
LINE
  5
103
330
1E
100
AcDbEntity
  8
0
100
AcDbLine
 10
60.3
 20
141.5145064999999
 30
0.0
 11
63.5
 21
139.6505065
 31
0.0
  0
LINE
  5
104
330
1E
100
AcDbEntity
  8
0
100
AcDbLine
 10
63.5
 20
139.6505065
 30
0.0
 11
65.9
 21
138.0005064999999
 31
0.0
  0
LINE
  5
105
330
1E
100
AcDbEntity
  8
0
100
AcDbLine
 10
65.9
 20
138.0005064999999
 30
0.0
 11
69.0
 21
134.5705064999999
 31
0.0
  0
LINE
  5
106
330
1E
100
AcDbEntity
  8
0
100
AcDbLine
 10
69.0
 20
134.5705064999999
 30
0.0
 11
70.8
 21
132.2705064999999
 31
0.0
  0
LINE
  5
107
330
1E
100
AcDbEntity
  8
0
100
AcDbLine
 10
70.8
 20
132.2705064999999
 30
0.0
 11
72.8
 21
127.7575064999999
 31
0.0
  0
LINE
  5
108
330
1E
100
AcDbEntity
  8
0
100
AcDbLine
 10
72.8
 20
127.7575064999999
 30
0.0
 11
73.5
 21
125.0575064999999
 31
0.0
  0
LINE
  5
109
330
1E
100
AcDbEntity
  8
0
100
AcDbLine
 10
73.5
 20
125.0575064999999
 30
0.0
 11
74.5
 21
118.9955064999999
 31
0.0
  0
LINE
  5
10A
330
1E
100
AcDbEntity
  8
0
100
AcDbLine
 10
52.5
 20
97.9523065
 30
0.0
 11
58.2
 21
97.55230650000001
 31
0.0
  0
LINE
  5
10B
330
1E
100
AcDbEntity
  8
0
100
AcDbLine
 10
45.6
 20
142.6455064999999
 30
0.0
 11
46.79999999999999
 21
143.4955065
 31
0.0
  0
LINE
  5
10C
330
1E
100
AcDbEntity
  8
0
100
AcDbLine
 10
45.6
 20
142.6455064999999
 30
0.0
 11
46.39999999999999
 21
143.2615065
 31
0.0
  0
LINE
  5
10D
330
1E
100
AcDbEntity
  8
0
100
AcDbLine
 10
48.5
 20
143.2295064999999
 30
0.0
 11
50.4
 21
143.6295064999999
 31
0.0
  0
LINE
  5
10E
330
1E
100
AcDbEntity
  8
0
100
AcDbLine
 10
46.79999999999999
 20
142.6295064999999
 30
0.0
 11
48.5
 21
143.2295064999999
 31
0.0
  0
LINE
  5
10F
330
1E
100
AcDbEntity
  8
0
100
AcDbLine
 10
46.79999999999999
 20
143.4955065
 30
0.0
 11
48.5
 21
144.0955064999999
 31
0.0
  0
LINE
  5
110
330
1E
100
AcDbEntity
  8
0
100
AcDbLine
 10
45.6
 20
197.2055064999999
 30
0.0
 11
48.6
 21
199.7695065
 31
0.0
  0
LINE
  5
111
330
1E
100
AcDbEntity
  8
0
100
AcDbLine
 10
44.79999999999999
 20
196.2555065
 30
0.0
 11
45.6
 21
197.2055064999999
 31
0.0
  0
LINE
  5
112
330
1E
100
AcDbEntity
  8
0
100
AcDbLine
 10
48.5
 20
144.0955064999999
 30
0.0
 11
50.4
 21
144.4955065
 31
0.0
  0
LINE
  5
113
330
1E
100
AcDbEntity
  8
0
100
AcDbLine
 10
49.29999999999999
 20
200.2695065
 30
0.0
 11
50.3
 21
200.6195064999999
 31
0.0
  0
LINE
  5
114
330
1E
100
AcDbEntity
  8
0
100
AcDbLine
 10
48.6
 20
199.7695065
 30
0.0
 11
49.29999999999999
 21
200.2695065
 31
0.0
  0
LINE
  5
115
330
1E
100
AcDbEntity
  8
0
100
AcDbLine
 10
49.0
 20
144.5615065
 30
0.0
 11
50.7
 21
144.9115064999999
 31
0.0
  0
LINE
  5
116
330
1E
100
AcDbEntity
  8
0
100
AcDbLine
 10
47.6
 20
143.9615064999999
 30
0.0
 11
49.0
 21
144.5615065
 31
0.0
  0
LINE
  5
117
330
1E
100
AcDbEntity
  8
0
100
AcDbLine
 10
46.39999999999999
 20
143.2615065
 30
0.0
 11
46.79466666666701
 21
143.4917287222219
 31
0.0
  0
LINE
  5
118
330
1E
100
AcDbEntity
  8
0
100
AcDbLine
 10
52.5
 20
144.6455064999999
 30
0.0
 11
54.6
 21
144.4955065
 31
0.0
  0
LINE
  5
119
330
1E
100
AcDbEntity
  8
0
100
AcDbLine
 10
52.5
 20
143.7795064999999
 30
0.0
 11
54.6
 21
143.6295064999999
 31
0.0
  0
LINE
  5
11A
330
1E
100
AcDbEntity
  8
0
100
AcDbLine
 10
50.4
 20
144.4955065
 30
0.0
 11
52.5
 21
144.6455064999999
 31
0.0
  0
LINE
  5
11B
330
1E
100
AcDbEntity
  8
0
100
AcDbLine
 10
50.4
 20
143.6295064999999
 30
0.0
 11
52.5
 21
143.7795064999999
 31
0.0
  0
LINE
  5
11C
330
1E
100
AcDbEntity
  8
0
100
AcDbLine
 10
54.6
 20
144.4955065
 30
0.0
 11
56.5
 21
144.0955064999999
 31
0.0
  0
LINE
  5
11D
330
1E
100
AcDbEntity
  8
0
100
AcDbLine
 10
54.6
 20
143.6295064999999
 30
0.0
 11
56.5
 21
143.2295064999999
 31
0.0
  0
LINE
  5
11E
330
1E
100
AcDbEntity
  8
0
100
AcDbLine
 10
54.29999999999999
 20
144.9115064999999
 30
0.0
 11
56.0
 21
144.5615065
 31
0.0
  0
LINE
  5
11F
330
1E
100
AcDbEntity
  8
0
100
AcDbLine
 10
52.5
 20
143.1145065
 30
0.0
 11
55.4
 21
142.9145064999999
 31
0.0
  0
LINE
  5
120
330
1E
100
AcDbEntity
  8
0
100
AcDbLine
 10
56.5
 20
144.0955064999999
 30
0.0
 11
58.2
 21
143.4955065
 31
0.0
  0
LINE
  5
121
330
1E
100
AcDbEntity
  8
0
100
AcDbLine
 10
58.2
 20
143.4955065
 30
0.0
 11
59.4
 21
142.6455064999999
 31
0.0
  0
LINE
  5
122
330
1E
100
AcDbEntity
  8
0
100
AcDbLine
 10
56.5
 20
143.2295064999999
 30
0.0
 11
58.2
 21
142.6295064999999
 31
0.0
  0
LINE
  5
123
330
1E
100
AcDbEntity
  8
0
100
AcDbLine
 10
58.2
 20
142.6295064999999
 30
0.0
 11
59.20042780748659
 21
141.920870136364
 31
0.0
  0
LINE
  5
124
330
1E
100
AcDbEntity
  8
0
100
AcDbLine
 10
56.0
 20
144.5615065
 30
0.0
 11
57.4
 21
143.9615064999999
 31
0.0
  0
LINE
  5
125
330
1E
100
AcDbEntity
  8
0
100
AcDbLine
 10
58.6
 20
143.2615065
 30
0.0
 11
59.4
 21
142.6455064999999
 31
0.0
  0
LINE
  5
126
330
1E
100
AcDbEntity
  8
0
100
AcDbLine
 10
59.4
 20
142.6455064999999
 30
0.0
 11
60.2
 21
141.6955064999999
 31
0.0
  0
LINE
  5
127
330
1E
100
AcDbEntity
  8
0
100
AcDbLine
 10
58.20533333333299
 20
143.4917287222219
 30
0.0
 11
58.6
 21
143.2615065
 31
0.0
  0
LINE
  5
128
330
1E
100
AcDbEntity
  8
0
100
AcDbLine
 10
59.5385989924912
 20
142.480920196417
 30
0.0
 11
61.5
 21
191.7415064999999
 31
0.0
  0
LINE
  5
129
330
1E
100
AcDbEntity
  8
0
100
AcDbLine
 10
55.4
 20
142.9145064999999
 30
0.0
 11
58.0
 21
142.3645065
 31
0.0
  0
LINE
  5
12A
330
1E
100
AcDbEntity
  8
0
100
AcDbLine
 10
53.7
 20
200.8195064999999
 30
0.0
 11
54.7
 21
200.6195064999999
 31
0.0
  0
LINE
  5
12B
330
1E
100
AcDbEntity
  8
0
100
AcDbLine
 10
54.7
 20
200.6195064999999
 30
0.0
 11
55.7
 21
200.2695065
 31
0.0
  0
LINE
  5
12C
330
1E
100
AcDbEntity
  8
0
100
AcDbLine
 10
55.7
 20
200.2695065
 30
0.0
 11
56.4
 21
199.7695065
 31
0.0
  0
LINE
  5
12D
330
1E
100
AcDbEntity
  8
0
100
AcDbLine
 10
56.4
 20
199.7695065
 30
0.0
 11
59.4
 21
197.2055064999999
 31
0.0
  0
LINE
  5
12E
330
1E
100
AcDbEntity
  8
0
100
AcDbLine
 10
59.4
 20
197.2055064999999
 30
0.0
 11
60.2
 21
196.2555065
 31
0.0
  0
LINE
  5
12F
330
1E
100
AcDbEntity
  8
0
100
AcDbLine
 10
60.2
 20
196.2555065
 30
0.0
 11
61.2
 21
192.8915064999999
 31
0.0
  0
LINE
  5
130
330
1E
100
AcDbEntity
  8
0
100
AcDbLine
 10
52.5
 20
145.0115065
 30
0.0
 11
54.29999999999999
 21
144.9115064999999
 31
0.0
  0
LINE
  5
131
330
1E
100
AcDbEntity
  8
0
100
AcDbLine
 10
61.2
 20
192.8915064999999
 30
0.0
 11
61.5
 21
191.7415064999999
 31
0.0
  0
LINE
  5
132
330
1E
100
AcDbEntity
  8
0
100
AcDbLine
 10
52.5
 20
200.9195064999999
 30
0.0
 11
53.7
 21
200.8195064999999
 31
0.0
  0
LINE
  5
133
330
1E
100
AcDbEntity
  8
0
100
AcDbLine
 10
51.29999999999999
 20
200.8195064999999
 30
0.0
 11
52.5
 21
200.9195064999999
 31
0.0
  0
LINE
  5
134
330
1E
100
AcDbEntity
  8
0
100
AcDbLine
 10
50.3
 20
200.6195064999999
 30
0.0
 11
51.29999999999999
 21
200.8195064999999
 31
0.0
  0
LINE
  5
135
330
1E
100
AcDbEntity
  8
0
100
AcDbLine
 10
50.7
 20
144.9115064999999
 30
0.0
 11
52.5
 21
145.0115065
 31
0.0
  0
LINE
  5
136
330
1E
100
AcDbEntity
  8
0
100
AcDbLine
 10
49.6
 20
142.9145064999999
 30
0.0
 11
52.5
 21
143.1145065
 31
0.0
  0
LINE
  5
137
330
1E
100
AcDbEntity
  8
0
100
AcDbLine
 10
47.0
 20
142.3645065
 30
0.0
 11
49.6
 21
142.9145064999999
 31
0.0
  0
LINE
  5
138
330
1E
100
AcDbEntity
  8
0
100
AcDbLine
 10
44.7
 20
141.5145064999999
 30
0.0
 11
47.0
 21
142.3645065
 31
0.0
  0
LINE
  5
139
330
1E
100
AcDbEntity
  8
0
100
AcDbLine
 10
46.79999999999999
 20
97.55230650000001
 30
0.0
 11
52.5
 21
97.9523065
 31
0.0
  0
LINE
  5
13A
330
1E
100
AcDbEntity
  8
0
100
AcDbLine
 10
41.5
 20
96.50230649999999
 30
0.0
 11
46.79999999999999
 21
97.55230650000001
 31
0.0
  0
LINE
  5
13B
330
1E
100
AcDbEntity
  8
0
100
AcDbLine
 10
41.1
 20
57.1068065
 30
0.0
 11
52.5
 21
57.85680649999999
 31
0.0
  0
LINE
  5
13C
330
1E
100
AcDbEntity
  8
0
100
AcDbLine
 10
38.9
 20
51.6805065
 30
0.0
 11
52.5
 21
52.58050649999999
 31
0.0
  0
LINE
  5
13D
330
1E
100
AcDbEntity
  8
0
100
AcDbLine
 10
26.3
 20
49.08050649999999
 30
0.0
 11
38.9
 21
51.6805065
 31
0.0
  0
LINE
  5
13E
330
1E
100
AcDbEntity
  8
0
100
AcDbLine
 10
15.4
 20
44.8805065
 30
0.0
 11
26.3
 21
49.08050649999999
 31
0.0
  0
LINE
  5
13F
330
1E
100
AcDbEntity
  8
0
100
AcDbLine
 10
7.0
 20
39.43050649999999
 30
0.0
 11
15.4
 21
44.8805065
 31
0.0
  0
LINE
  5
140
330
1E
100
AcDbEntity
  8
0
100
AcDbLine
 10
3.299999999999999
 20
36.3946065
 30
0.0
 11
8.3
 21
42.4946065
 31
0.0
  0
LINE
  5
141
330
1E
100
AcDbEntity
  8
0
100
AcDbLine
 10
1.8
 20
33.1305065
 30
0.0
 11
3.299999999999999
 21
36.3946065
 31
0.0
  0
LINE
  5
142
330
1E
100
AcDbEntity
  8
0
100
AcDbLine
 10
1.8
 20
33.1305065
 30
0.0
 11
7.0
 21
39.43050649999999
 31
0.0
  0
LINE
  5
143
330
1E
100
AcDbEntity
  8
0
100
AcDbLine
 10
-0.0000000000000047
 20
26.33050649999999
 30
0.0
 11
1.8
 21
33.1305065
 31
0.0
  0
LINE
  5
144
330
1E
100
AcDbEntity
  8
0
100
AcDbLine
 10
-0.0000000000000047
 20
26.33050649999999
 30
0.0
 11
1.8
 21
19.5305065
 31
0.0
  0
ENDSEC
  0
SECTION
  2
OBJECTS
  0
DICTIONARY
  5
C
330
0
100
AcDbDictionary
281
     1
  3
ACAD_GROUP
350
D
  3
ACAD_LAYOUT
350
19
  3
ACAD_MLINESTYLE
350
16
  3
ACAD_PLOTSETTINGS
350
18
  3
ACAD_PLOTSTYLENAME
350
E
  3
AcDbVariableDictionary
350
149
  0
DICTIONARY
  5
D
102
{ACAD_REACTORS
330
C
102
}
330
C
100
AcDbDictionary
281
     1
  0
DICTIONARY
  5
19
102
{ACAD_REACTORS
330
C
102
}
330
C
100
AcDbDictionary
281
     1
  3
Layout1
350
1D
  3
Model
350
21
  0
DICTIONARY
  5
16
102
{ACAD_REACTORS
330
C
102
}
330
C
100
AcDbDictionary
281
     1
  3
Standard
350
17
  0
DICTIONARY
  5
18
102
{ACAD_REACTORS
330
C
102
}
330
C
100
AcDbDictionary
281
     1
  0
ACDBDICTIONARYWDFLT
  5
E
102
{ACAD_REACTORS
330
C
102
}
330
C
100
AcDbDictionary
281
     1
  3
Normal
350
F
100
AcDbDictionaryWithDefault
340
F
  0
DICTIONARY
  5
149
102
{ACAD_REACTORS
330
C
102
}
330
C
100
AcDbDictionary
281
     1
  3
DIMASSOC
350
14A
  0
LAYOUT
  5
1D
102
{ACAD_REACTORS
330
19
102
}
330
19
100
AcDbPlotSettings
  1

  2
hp deskjet 980c series
  4

  6

 40
0.0
 41
0.0
 42
0.0
 43
0.0
 44
0.0
 45
0.0
 46
0.0
 47
0.0
 48
0.0
 49
0.0
140
0.0
141
0.0
142
1.0
143
1.0
 70
   688
 72
     0
 73
     0
 74
     5
  7

 75
    16
147
1.0
148
0.0
149
0.0
100
AcDbLayout
  1
Layout1
 70
     1
 71
     1
 10
0.0
 20
0.0
 11
12.0
 21
9.0
 12
0.0
 22
0.0
 32
0.0
 14
1.000000000000000E+20
 24
1.000000000000000E+20
 34
1.000000000000000E+20
 15
-1.000000000000000E+20
 25
-1.000000000000000E+20
 35
-1.000000000000000E+20
146
0.0
 13
0.0
 23
0.0
 33
0.0
 16
1.0
 26
0.0
 36
0.0
 17
0.0
 27
1.0
 37
0.0
 76
     0
330
1A
  0
LAYOUT
  5
21
102
{ACAD_REACTORS
330
19
102
}
330
19
100
AcDbPlotSettings
  1

  2
hp deskjet 980c series
  4

  6

 40
0.0
 41
0.0
 42
0.0
 43
0.0
 44
0.0
 45
0.0
 46
0.0
 47
0.0
 48
0.0
 49
0.0
140
0.0
141
0.0
142
1.0
143
1.0
 70
  1712
 72
     0
 73
     0
 74
     0
  7

 75
     0
147
1.0
148
0.0
149
0.0
100
AcDbLayout
  1
Model
 70
     1
 71
     0
 10
0.0
 20
0.0
 11
12.0
 21
9.0
 12
0.0
 22
0.0
 32
0.0
 14
0.0
 24
0.0
 34
0.0
 15
0.0
 25
0.0
 35
0.0
146
0.0
 13
0.0
 23
0.0
 33
0.0
 16
1.0
 26
0.0
 36
0.0
 17
0.0
 27
1.0
 37
0.0
 76
     0
330
1E
  0
MLINESTYLE
  5
17
102
{ACAD_REACTORS
330
16
102
}
330
16
100
AcDbMlineStyle
  2
STANDARD
 70
     0
  3

 62
   256
 51
90.0
 52
90.0
 71
     2
 49
0.5
 62
   256
  6
BYLAYER
 49
-0.5
 62
   256
  6
BYLAYER
  0
ACDBPLACEHOLDER
  5
F
102
{ACAD_REACTORS
330
E
102
}
330
E
  0
DICTIONARYVAR
  5
14A
102
{ACAD_REACTORS
330
149
102
}
330
149
100
DictionaryVariables
280
     0
  1
1
  0
ENDSEC
  0
EOF
