  0
SECTION
  2
HEADER
  9
$ACADVER
  1
AC1009
  9
$INSBASE
 10
0.0
 20
0.0
 30
0.0
  9
$EXTMIN
 10
-0.003204
 20
-0.006641
 30
-0.006142
  9
$EXTMAX
 10
105.003205
 20
217.458537
 30
200.845172
  9
$LIMMIN
 10
0.0
 20
0.0
  9
$LIMMAX
 10
12.0
 20
9.0
  9
$ORTHOMODE
 70
     0
  9
$REGENMODE
 70
     1
  9
$FILLMODE
 70
     1
  9
$QTEXTMODE
 70
     0
  9
$MIRRTEXT
 70
     1
  9
$DRAGMODE
 70
     2
  9
$LTSCALE
 40
1.0
  9
$OSMODE
 70
     0
  9
$ATTMODE
 70
     1
  9
$TEXTSIZE
 40
0.2
  9
$TRACEWID
 40
0.05
  9
$TEXTSTYLE
  7
STANDARD
  9
$CLAYER
  8
0
  9
$CELTYPE
  6
BYLAYER
  9
$CECOLOR
 62
   256
  9
$DIMSCALE
 40
1.0
  9
$DIMASZ
 40
0.18
  9
$DIMEXO
 40
0.0625
  9
$DIMDLI
 40
0.38
  9
$DIMRND
 40
0.0
  9
$DIMDLE
 40
0.0
  9
$DIMEXE
 40
0.18
  9
$DIMTP
 40
0.0
  9
$DIMTM
 40
0.0
  9
$DIMTXT
 40
0.18
  9
$DIMCEN
 40
0.09
  9
$DIMTSZ
 40
0.0
  9
$DIMTOL
 70
     0
  9
$DIMLIM
 70
     0
  9
$DIMTIH
 70
     1
  9
$DIMTOH
 70
     1
  9
$DIMSE1
 70
     0
  9
$DIMSE2
 70
     0
  9
$DIMTAD
 70
     0
  9
$DIMZIN
 70
     0
  9
$DIMBLK
  1

  9
$DIMASO
 70
     1
  9
$DIMSHO
 70
     1
  9
$DIMPOST
  1

  9
$DIMAPOST
  1

  9
$DIMALT
 70
     0
  9
$DIMALTD
 70
     2
  9
$DIMALTF
 40
25.4
  9
$DIMLFAC
 40
1.0
  9
$DIMTOFL
 70
     0
  9
$DIMTVP
 40
0.0
  9
$DIMTIX
 70
     0
  9
$DIMSOXD
 70
     0
  9
$DIMSAH
 70
     0
  9
$DIMBLK1
  1

  9
$DIMBLK2
  1

  9
$DIMSTYLE
  2
STANDARD
  9
$DIMCLRD
 70
     0
  9
$DIMCLRE
 70
     0
  9
$DIMCLRT
 70
     0
  9
$DIMTFAC
 40
1.0
  9
$DIMGAP
 40
0.09
  9
$LUNITS
 70
     2
  9
$LUPREC
 70
     4
  9
$SKETCHINC
 40
0.1
  9
$FILLETRAD
 40
0.5
  9
$AUNITS
 70
     0
  9
$AUPREC
 70
     0
  9
$MENU
  1
.
  9
$ELEVATION
 40
0.0
  9
$PELEVATION
 40
0.0
  9
$THICKNESS
 40
0.0
  9
$LIMCHECK
 70
     0
  9
$BLIPMODE
 70
     0
  9
$CHAMFERA
 40
0.5
  9
$CHAMFERB
 40
0.5
  9
$SKPOLY
 70
     1
  9
$TDCREATE
 40
2451533.827461
  9
$TDUPDATE
 40
2451711.371916
  9
$TDINDWG
 40
0.315789
  9
$TDUSRTIMER
 40
0.315789
  9
$USRTIMER
 70
     1
  9
$ANGBASE
 50
0.0
  9
$ANGDIR
 70
     0
  9
$PDMODE
 70
     0
  9
$PDSIZE
 40
0.0
  9
$PLINEWID
 40
0.0
  9
$COORDS
 70
     1
  9
$SPLFRAME
 70
     0
  9
$SPLINETYPE
 70
     6
  9
$SPLINESEGS
 70
     8
  9
$ATTDIA
 70
     0
  9
$ATTREQ
 70
     1
  9
$HANDLING
 70
     1
  9
$HANDSEED
  5
39AE
  9
$SURFTAB1
 70
     6
  9
$SURFTAB2
 70
     6
  9
$SURFTYPE
 70
     6
  9
$SURFU
 70
     6
  9
$SURFV
 70
     6
  9
$UCSNAME
  2

  9
$UCSORG
 10
0.0
 20
0.0
 30
0.0
  9
$UCSXDIR
 10
1.0
 20
0.0
 30
0.0
  9
$UCSYDIR
 10
0.0
 20
1.0
 30
0.0
  9
$PUCSNAME
  2

  9
$PUCSORG
 10
0.0
 20
0.0
 30
0.0
  9
$PUCSXDIR
 10
1.0
 20
0.0
 30
0.0
  9
$PUCSYDIR
 10
0.0
 20
1.0
 30
0.0
  9
$USERI1
 70
     0
  9
$USERI2
 70
     0
  9
$USERI3
 70
     0
  9
$USERI4
 70
     0
  9
$USERI5
 70
     0
  9
$USERR1
 40
0.0
  9
$USERR2
 40
0.0
  9
$USERR3
 40
0.0
  9
$USERR4
 40
0.0
  9
$USERR5
 40
0.0
  9
$WORLDVIEW
 70
     1
  9
$SHADEDGE
 70
     3
  9
$SHADEDIF
 70
    70
  9
$TILEMODE
 70
     1
  9
$MAXACTVP
 70
    48
  9
$PLIMCHECK
 70
     0
  9
$PEXTMIN
 10
1.000000E+020
 20
1.000000E+020
 30
1.000000E+020
  9
$PEXTMAX
 10
-1.000000E+020
 20
-1.000000E+020
 30
-1.000000E+020
  9
$PLIMMIN
 10
0.0
 20
0.0
  9
$PLIMMAX
 10
12.0
 20
9.0
  9
$UNITMODE
 70
     0
  9
$VISRETAIN
 70
     1
  9
$PLINEGEN
 70
     0
  9
$PSLTSCALE
 70
     1
  0
ENDSEC
  0
SECTION
  2
TABLES
  0
TABLE
  2
VPORT
 70
     6
  0
VPORT
  2
*ACTIVE
 70
     0
 10
0.0
 20
0.0
 11
1.0
 21
1.0
 12
-39.757749
 22
147.812408
 13
0.0
 23
0.0
 14
0.5
 24
0.5
 15
0.5
 25
0.5
 16
-1.0
 26
-1.0
 36
1.0
 17
0.0
 27
0.0
 37
0.0
 40
299.315467
 41
1.991701
 42
50.0
 43
0.0
 44
0.0
 50
0.0
 51
0.0
 71
     0
 72
   100
 73
     1
 74
     1
 75
     0
 76
     0
 77
     0
 78
     0
  0
ENDTAB
  0
TABLE
  2
LTYPE
 70
     1
  0
LTYPE
  2
CONTINUOUS
 70
     0
  3
Solid line
 72
    65
 73
     0
 40
0.0
  0
ENDTAB
  0
TABLE
  2
LAYER
 70
     3
  0
LAYER
  2
0
 70
     0
 62
     7
  6
CONTINUOUS
  0
LAYER
  2
ASHADE
 70
     4
 62
     7
  6
CONTINUOUS
  0
LAYER
  2
OBJEKTINTWEISS
 70
     0
 62
     7
  6
CONTINUOUS
  0
ENDTAB
  0
TABLE
  2
STYLE
 70
     2
  0
STYLE
  2
STANDARD
 70
     0
 40
0.0
 41
1.0
 50
0.0
 71
     0
 42
0.2
  3
txt
  4

  0
STYLE
  2
ASHADE
 70
     0
 40
0.2
 41
1.0
 50
0.0
 71
     0
 42
0.2
  3
simplex.shx
  4

  0
ENDTAB
  0
TABLE
  2
VIEW
 70
     0
  0
ENDTAB
  0
TABLE
  2
UCS
 70
     0
  0
ENDTAB
  0
TABLE
  2
APPID
 70
     6
  0
APPID
  2
ACAD
 70
     0
  0
APPID
  2
AVE_RENDER
 70
     0
  0
APPID
  2
AVE_ENTITY_MATERIAL
 70
     0
  0
APPID
  2
AVE_FINISH
 70
     0
  0
APPID
  2
AVE_MATERIAL
 70
     0
  0
APPID
  2
AVE_GLOBAL
 70
     0
  0
ENDTAB
  0
TABLE
  2
DIMSTYLE
 70
     1
  0
DIMSTYLE
  2
STANDARD
 70
     0
  3

  4

  5

  6

  7

 40
1.0
 41
0.18
 42
0.0625
 43
0.38
 44
0.18
 45
0.0
 46
0.0
 47
0.0
 48
0.0
140
0.18
141
0.09
142
0.0
143
25.4
144
1.0
145
0.0
146
1.0
147
0.09
 71
     0
 72
     0
 73
     1
 74
     1
 75
     0
 76
     0
 77
     0
 78
     0
170
     0
171
     2
172
     0
173
     0
174
     0
175
     0
176
     0
177
     0
178
     0
  0
ENDTAB
  0
ENDSEC
  0
SECTION
  2
BLOCKS
  0
BLOCK
  8
0
  2
$MODEL_SPACE
 70
     0
 10
0.0
 20
0.0
 30
0.0
  3
$MODEL_SPACE
  1

  0
ENDBLK
  5
1B
  8
0
  0
BLOCK
 67
     1
  8
0
  2
$PAPER_SPACE
 70
     0
 10
0.0
 20
0.0
 30
0.0
  3
$PAPER_SPACE
  1

  0
ENDBLK
  5
18
 67
     1
  8
0
  0
BLOCK
  8
ASHADE
  2
AVE_RENDER
 70
     0
 10
0.0
 20
0.0
 30
0.0
  3
AVE_RENDER
  1
AVE_RENDER
  0
ENDBLK
  5
24F
  8
0
  0
BLOCK
  8
ASHADE
  2
AVE_GLOBAL
 70
     0
 10
0.0
 20
0.0
 30
0.0
  3
AVE_GLOBAL
  1
AVE_GLOBAL
  0
ENDBLK
  5
25D
  8
0
  0
ENDSEC
  0
SECTION
  2
ENTITIES
  0
INSERT
  5
250
  8
ASHADE
 62
     1
  2
AVE_RENDER
 10
0.0
 20
0.0
 30
0.0
1001
AVE_RENDER
1002
{
1070
     7
1000
Pref
1070
    30
1070
    20
1070
     1
1070
     0
1000

1070
    10
1070
     1
1070
    10
1040
1.0
1070
     1
1040
0.3
1040
0.7
1040
0.0
1040
10.0
1010
-1.0
1020
-1.0
1030
-1.0
1040
0.3
1070
    49
1070
     0
1070
     0
1010
1.0
1020
1.0
1030
1.0
1040
45.0
1070
     1
1070
     0
1000
WCS
1040
0.0
1070
     0
1040
10.0
1002
}
  0
INSERT
  5
251
  8
ASHADE
 62
     3
  2
AVE_RENDER
 10
0.0
 20
0.0
 30
0.0
1001
AVE_RENDER
1002
{
1070
     0
1000
Full Opt
1070
     0
1070
     1
1070
     1
1070
     1
1070
     0
1070
     0
1070
     0
1070
     1
1070
     1
1040
0.0001
1040
0.0001
1002
}
  0
INSERT
  5
252
  8
ASHADE
 62
     4
  2
AVE_RENDER
 10
0.0
 20
0.0
 30
0.0
1001
AVE_RENDER
1002
{
1070
     0
1000
Quick Opt
1070
     0
1070
     1
1070
     1
1070
     1
1070
     0
1070
     0
1070
     1
1002
}
  0
INSERT
  5
253
  8
ASHADE
 62
     5
  2
AVE_RENDER
 10
0.0
 20
0.0
 30
0.0
1001
AVE_RENDER
1002
{
1070
     1
1000
Scanl Opt
1070
     2
1070
     0
1070
     2
1040
2.0
1040
4.0
1070
     0
1070
     1
1070
     0
1040
0.03
1002
}
  0
INSERT
  5
254
  8
ASHADE
 62
     6
  2
AVE_RENDER
 10
0.0
 20
0.0
 30
0.0
1001
AVE_RENDER
1002
{
1070
     2
1000
Raytr Opt
1070
     2
1070
     0
1070
     2
1040
2.0
1040
4.0
1070
     0
1070
     1
1070
     1
1040
0.03
1070
     3
1040
0.03
1002
}
  0
INSERT
  5
255
  8
ASHADE
 62
     7
  2
AVE_RENDER
 10
0.0
 20
0.0
 30
0.0
1001
AVE_RENDER
1002
{
1070
     0
1000
RFile Opt
1070
     1
1070
   640
1070
   480
1070
 10000
1070
     1
1070
     8
1070
     8
1070
     0
1070
     0
1070
     0
1070
     0
1070
     0
1070
     0
1070
     0
1002
}
  0
INSERT
  5
256
  8
ASHADE
 62
     8
  2
AVE_RENDER
 10
0.0
 20
0.0
 30
0.0
1001
AVE_RENDER
1002
{
1070
     0
1000
Fog Opt
1070
     0
1070
     0
1040
0.0
1040
1.0
1040
0.0
1040
1.0
1010
0.5
1020
0.5
1030
0.5
1002
}
  0
INSERT
  5
257
  8
ASHADE
 62
     9
  2
AVE_RENDER
 10
0.0
 20
0.0
 30
0.0
1001
AVE_RENDER
1002
{
1070
     0
1000
BG Opt
1070
     0
1070
     1
1010
0.0
1020
0.0
1030
0.0
1010
1.0
1020
0.0
1030
0.0
1010
0.0
1020
1.0
1030
0.0
1010
0.0
1020
0.0
1030
1.0
1040
0.5
1040
0.33
1040
0.0
1000

1070
     1
1000

1070
     1
1070
     1
1040
1.0
1040
1.0
1040
0.0
1040
0.0
1070
     0
1002
}
  0
INSERT
  5
25E
  8
ASHADE
 62
     1
  2
AVE_GLOBAL
 10
0.0
 20
0.0
 30
0.0
1001
AVE_MATERIAL
1002
{
1000
*GLOBAL*
1000
1
1000
Global finish.
1002
{
1002
}
1002
{
1070
    63
1002
{
1002
{
1010
-1.0
1020
-1.0
1030
-1.0
1002
}
1040
0.1
1000

1040
0.0
1002
{
1002
}
1040
0.0
1002
{
1002
}
1040
0.0
1002
}
1002
{
1002
{
1010
-1.0
1020
-1.0
1030
-1.0
1002
}
1040
0.7
1000

1040
0.0
1002
{
1002
}
1040
0.0
1002
{
1002
}
1040
0.0
1002
}
1002
{
1002
{
1010
-1.0
1020
-1.0
1030
-1.0
1002
}
1040
0.2
1000

1040
0.0
1002
{
1002
}
1040
0.0
1002
{
1002
}
1040
0.0
1002
}
1002
{
1070
     0
1002
{
1070
     1
1002
{
1040
1.0
1040
1.0
1000

1040
0.0
1002
{
1002
}
1040
0.0
1002
{
1002
}
1040
0.0
1002
}
1002
}
1040
1.0
1040
0.0
1040
0.0
1002
}
1002
{
1040
1.0
1040
1.0
1000

1040
0.0
1002
{
1002
}
1040
0.0
1002
{
1002
}
1040
0.0
1002
}
1002
{
1040
0.5
1040
1.0
1000

1040
0.0
1002
{
1002
}
1040
0.0
1002
{
1002
}
1040
0.0
1002
}
1002
{
1070
     0
1040
0.0
1002
{
1002
}
1040
1.0
1002
{
1002
}
1040
0.0
1002
}
1002
{
1040
0.0
1002
{
1002
{
1010
0.0
1020
0.0
1030
0.0
1002
}
1040
1.0
1000

1040
0.0
1002
{
1002
}
1040
0.0
1002
{
1002
}
1040
0.0
1002
}
1002
}
1002
{
1002
{
1070
     1
1002
{
1040
0.0
1040
1.0
1000

1040
0.0
1002
{
1002
}
1040
0.0
1002
{
1002
}
1040
0.0
1002
}
1002
}
1040
0.0
1002
{
1002
}
1010
1.0
1020
0.0
1030
0.0
1010
0.0
1020
1.0
1030
0.0
1010
0.0
1020
0.0
1030
1.0
1070
     0
1002
}
1002
{
1002
{
1040
1.0
1040
1.0
1002
{
1070
     1
1002
{
1040
1.0
1040
1.0
1000

1040
0.0
1002
{
1002
}
1040
0.0
1002
{
1002
}
1040
0.0
1002
}
1002
}
1002
}
1070
     0
1040
0.0
1002
{
1002
}
1002
}
1002
{
1002
}
1002
}
1002
{
1071
        3
1070
     3
1070
     0
1002
{
1070
     2
1070
     0
1070
     0
1040
0.0
1002
}
1070
     0
1070
     2
1002
{
1002
}
1002
}
1002
{
1040
8030.0
1040
190.300003
1040
0.305
1040
228.0
1040
545.0
1040
14.0
1040
17.4
1040
0.456
1002
}
1002
}
  0
INSERT
  5
5C8
  8
ASHADE
 62
     1
  2
AVE_GLOBAL
 10
0.0
 20
0.0
 30
0.0
1001
AVE_MATERIAL
1002
{
1000
*GLOBAL*
1000
1
1000
Global finish.
1002
{
1002
}
1002
{
1070
    63
1002
{
1002
{
1010
-1.0
1020
-1.0
1030
-1.0
1002
}
1040
0.1
1000

1040
0.0
1002
{
1002
}
1040
0.0
1002
{
1002
}
1040
0.0
1002
}
1002
{
1002
{
1010
-1.0
1020
-1.0
1030
-1.0
1002
}
1040
0.7
1000

1040
0.0
1002
{
1002
}
1040
0.0
1002
{
1002
}
1040
0.0
1002
}
1002
{
1002
{
1010
-1.0
1020
-1.0
1030
-1.0
1002
}
1040
0.2
1000

1040
0.0
1002
{
1002
}
1040
0.0
1002
{
1002
}
1040
0.0
1002
}
1002
{
1070
     0
1002
{
1070
     1
1002
{
1040
1.0
1040
1.0
1000

1040
0.0
1002
{
1002
}
1040
0.0
1002
{
1002
}
1040
0.0
1002
}
1002
}
1040
1.0
1040
0.0
1040
0.0
1002
}
1002
{
1040
1.0
1040
1.0
1000

1040
0.0
1002
{
1002
}
1040
0.0
1002
{
1002
}
1040
0.0
1002
}
1002
{
1040
0.5
1040
1.0
1000

1040
0.0
1002
{
1002
}
1040
0.0
1002
{
1002
}
1040
0.0
1002
}
1002
{
1070
     0
1040
0.0
1002
{
1002
}
1040
1.0
1002
{
1002
}
1040
0.0
1002
}
1002
{
1040
0.0
1002
{
1002
{
1010
0.0
1020
0.0
1030
0.0
1002
}
1040
1.0
1000

1040
0.0
1002
{
1002
}
1040
0.0
1002
{
1002
}
1040
0.0
1002
}
1002
}
1002
{
1002
{
1070
     1
1002
{
1040
0.0
1040
1.0
1000

1040
0.0
1002
{
1002
}
1040
0.0
1002
{
1002
}
1040
0.0
1002
}
1002
}
1040
0.0
1002
{
1002
}
1010
1.0
1020
0.0
1030
0.0
1010
0.0
1020
1.0
1030
0.0
1010
0.0
1020
0.0
1030
1.0
1070
     0
1002
}
1002
{
1002
{
1040
1.0
1040
1.0
1002
{
1070
     1
1002
{
1040
1.0
1040
1.0
1000

1040
0.0
1002
{
1002
}
1040
0.0
1002
{
1002
}
1040
0.0
1002
}
1002
}
1002
}
1070
     0
1040
0.0
1002
{
1002
}
1002
}
1002
{
1002
}
1002
}
1002
{
1071
        3
1070
     3
1070
     0
1002
{
1070
     2
1070
     0
1070
     0
1040
0.0
1002
}
1070
     0
1070
     2
1002
{
1002
}
1002
}
1002
{
1040
8030.0
1040
190.300003
1040
0.305
1040
228.0
1040
545.0
1040
14.0
1040
17.4
1040
0.456
1002
}
1002
}
  0
INSERT
  5
956
  8
ASHADE
 62
     1
  2
AVE_GLOBAL
 10
0.0
 20
0.0
 30
0.0
1001
AVE_MATERIAL
1002
{
1000
*GLOBAL*
1000
1
1000
Global finish.
1002
{
1002
}
1002
{
1070
    63
1002
{
1002
{
1010
-1.0
1020
-1.0
1030
-1.0
1002
}
1040
0.1
1000

1040
0.0
1002
{
1002
}
1040
0.0
1002
{
1002
}
1040
0.0
1002
}
1002
{
1002
{
1010
-1.0
1020
-1.0
1030
-1.0
1002
}
1040
0.7
1000

1040
0.0
1002
{
1002
}
1040
0.0
1002
{
1002
}
1040
0.0
1002
}
1002
{
1002
{
1010
-1.0
1020
-1.0
1030
-1.0
1002
}
1040
0.2
1000

1040
0.0
1002
{
1002
}
1040
0.0
1002
{
1002
}
1040
0.0
1002
}
1002
{
1070
     0
1002
{
1070
     1
1002
{
1040
1.0
1040
1.0
1000

1040
0.0
1002
{
1002
}
1040
0.0
1002
{
1002
}
1040
0.0
1002
}
1002
}
1040
1.0
1040
0.0
1040
0.0
1002
}
1002
{
1040
1.0
1040
1.0
1000

1040
0.0
1002
{
1002
}
1040
0.0
1002
{
1002
}
1040
0.0
1002
}
1002
{
1040
0.5
1040
1.0
1000

1040
0.0
1002
{
1002
}
1040
0.0
1002
{
1002
}
1040
0.0
1002
}
1002
{
1070
     0
1040
0.0
1002
{
1002
}
1040
1.0
1002
{
1002
}
1040
0.0
1002
}
1002
{
1040
0.0
1002
{
1002
{
1010
0.0
1020
0.0
1030
0.0
1002
}
1040
1.0
1000

1040
0.0
1002
{
1002
}
1040
0.0
1002
{
1002
}
1040
0.0
1002
}
1002
}
1002
{
1002
{
1070
     1
1002
{
1040
0.0
1040
1.0
1000

1040
0.0
1002
{
1002
}
1040
0.0
1002
{
1002
}
1040
0.0
1002
}
1002
}
1040
0.0
1002
{
1002
}
1010
1.0
1020
0.0
1030
0.0
1010
0.0
1020
1.0
1030
0.0
1010
0.0
1020
0.0
1030
1.0
1070
     0
1002
}
1002
{
1002
{
1040
1.0
1040
1.0
1002
{
1070
     1
1002
{
1040
1.0
1040
1.0
1000

1040
0.0
1002
{
1002
}
1040
0.0
1002
{
1002
}
1040
0.0
1002
}
1002
}
1002
}
1070
     0
1040
0.0
1002
{
1002
}
1002
}
1002
{
1002
}
1002
}
1002
{
1071
        3
1070
     3
1070
     0
1002
{
1070
     2
1070
     0
1070
     0
1040
0.0
1002
}
1070
     0
1070
     2
1002
{
1002
}
1002
}
1002
{
1040
8030.0
1040
190.300003
1040
0.305
1040
228.0
1040
545.0
1040
14.0
1040
17.4
1040
0.456
1002
}
1002
}
  0
INSERT
  5
D40
  8
ASHADE
 62
     1
  2
AVE_GLOBAL
 10
0.0
 20
0.0
 30
0.0
1001
AVE_MATERIAL
1002
{
1000
*GLOBAL*
1000
1
1000
Global finish.
1002
{
1002
}
1002
{
1070
    63
1002
{
1002
{
1010
-1.0
1020
-1.0
1030
-1.0
1002
}
1040
0.1
1000

1040
0.0
1002
{
1002
}
1040
0.0
1002
{
1002
}
1040
0.0
1002
}
1002
{
1002
{
1010
-1.0
1020
-1.0
1030
-1.0
1002
}
1040
0.7
1000

1040
0.0
1002
{
1002
}
1040
0.0
1002
{
1002
}
1040
0.0
1002
}
1002
{
1002
{
1010
-1.0
1020
-1.0
1030
-1.0
1002
}
1040
0.2
1000

1040
0.0
1002
{
1002
}
1040
0.0
1002
{
1002
}
1040
0.0
1002
}
1002
{
1070
     0
1002
{
1070
     1
1002
{
1040
1.0
1040
1.0
1000

1040
0.0
1002
{
1002
}
1040
0.0
1002
{
1002
}
1040
0.0
1002
}
1002
}
1040
1.0
1040
0.0
1040
0.0
1002
}
1002
{
1040
1.0
1040
1.0
1000

1040
0.0
1002
{
1002
}
1040
0.0
1002
{
1002
}
1040
0.0
1002
}
1002
{
1040
0.5
1040
1.0
1000

1040
0.0
1002
{
1002
}
1040
0.0
1002
{
1002
}
1040
0.0
1002
}
1002
{
1070
     0
1040
0.0
1002
{
1002
}
1040
1.0
1002
{
1002
}
1040
0.0
1002
}
1002
{
1040
0.0
1002
{
1002
{
1010
0.0
1020
0.0
1030
0.0
1002
}
1040
1.0
1000

1040
0.0
1002
{
1002
}
1040
0.0
1002
{
1002
}
1040
0.0
1002
}
1002
}
1002
{
1002
{
1070
     1
1002
{
1040
0.0
1040
1.0
1000

1040
0.0
1002
{
1002
}
1040
0.0
1002
{
1002
}
1040
0.0
1002
}
1002
}
1040
0.0
1002
{
1002
}
1010
1.0
1020
0.0
1030
0.0
1010
0.0
1020
1.0
1030
0.0
1010
0.0
1020
0.0
1030
1.0
1070
     0
1002
}
1002
{
1002
{
1040
1.0
1040
1.0
1002
{
1070
     1
1002
{
1040
1.0
1040
1.0
1000

1040
0.0
1002
{
1002
}
1040
0.0
1002
{
1002
}
1040
0.0
1002
}
1002
}
1002
}
1070
     0
1040
0.0
1002
{
1002
}
1002
}
1002
{
1002
}
1002
}
1002
{
1071
        3
1070
     3
1070
     0
1002
{
1070
     2
1070
     0
1070
     0
1040
0.0
1002
}
1070
     0
1070
     2
1002
{
1002
}
1002
}
1002
{
1040
8030.0
1040
190.300003
1040
0.305
1040
228.0
1040
545.0
1040
14.0
1040
17.4
1040
0.456
1002
}
1002
}
  0
INSERT
  5
D41
  8
ASHADE
 62
     1
  2
AVE_GLOBAL
 10
0.0
 20
0.0
 30
0.0
1001
AVE_MATERIAL
1002
{
1000
*GLOBAL*
1000
1
1000
Global finish.
1002
{
1002
}
1002
{
1070
    63
1002
{
1002
{
1010
-1.0
1020
-1.0
1030
-1.0
1002
}
1040
0.1
1000

1040
0.0
1002
{
1002
}
1040
0.0
1002
{
1002
}
1040
0.0
1002
}
1002
{
1002
{
1010
-1.0
1020
-1.0
1030
-1.0
1002
}
1040
0.7
1000

1040
0.0
1002
{
1002
}
1040
0.0
1002
{
1002
}
1040
0.0
1002
}
1002
{
1002
{
1010
-1.0
1020
-1.0
1030
-1.0
1002
}
1040
0.2
1000

1040
0.0
1002
{
1002
}
1040
0.0
1002
{
1002
}
1040
0.0
1002
}
1002
{
1070
     0
1002
{
1070
     1
1002
{
1040
1.0
1040
1.0
1000

1040
0.0
1002
{
1002
}
1040
0.0
1002
{
1002
}
1040
0.0
1002
}
1002
}
1040
1.0
1040
0.0
1040
0.0
1002
}
1002
{
1040
1.0
1040
1.0
1000

1040
0.0
1002
{
1002
}
1040
0.0
1002
{
1002
}
1040
0.0
1002
}
1002
{
1040
0.5
1040
1.0
1000

1040
0.0
1002
{
1002
}
1040
0.0
1002
{
1002
}
1040
0.0
1002
}
1002
{
1070
     0
1040
0.0
1002
{
1002
}
1040
1.0
1002
{
1002
}
1040
0.0
1002
}
1002
{
1040
0.0
1002
{
1002
{
1010
0.0
1020
0.0
1030
0.0
1002
}
1040
1.0
1000

1040
0.0
1002
{
1002
}
1040
0.0
1002
{
1002
}
1040
0.0
1002
}
1002
}
1002
{
1002
{
1070
     1
1002
{
1040
0.0
1040
1.0
1000

1040
0.0
1002
{
1002
}
1040
0.0
1002
{
1002
}
1040
0.0
1002
}
1002
}
1040
0.0
1002
{
1002
}
1010
1.0
1020
0.0
1030
0.0
1010
0.0
1020
1.0
1030
0.0
1010
0.0
1020
0.0
1030
1.0
1070
     0
1002
}
1002
{
1002
{
1040
1.0
1040
1.0
1002
{
1070
     1
1002
{
1040
1.0
1040
1.0
1000

1040
0.0
1002
{
1002
}
1040
0.0
1002
{
1002
}
1040
0.0
1002
}
1002
}
1002
}
1070
     0
1040
0.0
1002
{
1002
}
1002
}
1002
{
1002
}
1002
}
1002
{
1071
        3
1070
     3
1070
     0
1002
{
1070
     2
1070
     0
1070
     0
1040
0.0
1002
}
1070
     0
1070
     2
1002
{
1002
}
1002
}
1002
{
1040
8030.0
1040
190.300003
1040
0.305
1040
228.0
1040
545.0
1040
14.0
1040
17.4
1040
0.456
1002
}
1002
}
  0
INSERT
  5
1472
  8
ASHADE
 62
     1
  2
AVE_GLOBAL
 10
0.0
 20
0.0
 30
0.0
1001
AVE_MATERIAL
1002
{
1000
*GLOBAL*
1000
1
1000
Global finish.
1002
{
1002
}
1002
{
1070
    63
1002
{
1002
{
1010
-1.0
1020
-1.0
1030
-1.0
1002
}
1040
0.1
1000

1040
0.0
1002
{
1002
}
1040
0.0
1002
{
1002
}
1040
0.0
1002
}
1002
{
1002
{
1010
-1.0
1020
-1.0
1030
-1.0
1002
}
1040
0.7
1000

1040
0.0
1002
{
1002
}
1040
0.0
1002
{
1002
}
1040
0.0
1002
}
1002
{
1002
{
1010
-1.0
1020
-1.0
1030
-1.0
1002
}
1040
0.2
1000

1040
0.0
1002
{
1002
}
1040
0.0
1002
{
1002
}
1040
0.0
1002
}
1002
{
1070
     0
1002
{
1070
     1
1002
{
1040
1.0
1040
1.0
1000

1040
0.0
1002
{
1002
}
1040
0.0
1002
{
1002
}
1040
0.0
1002
}
1002
}
1040
1.0
1040
0.0
1040
0.0
1002
}
1002
{
1040
1.0
1040
1.0
1000

1040
0.0
1002
{
1002
}
1040
0.0
1002
{
1002
}
1040
0.0
1002
}
1002
{
1040
0.5
1040
1.0
1000

1040
0.0
1002
{
1002
}
1040
0.0
1002
{
1002
}
1040
0.0
1002
}
1002
{
1070
     0
1040
0.0
1002
{
1002
}
1040
1.0
1002
{
1002
}
1040
0.0
1002
}
1002
{
1040
0.0
1002
{
1002
{
1010
0.0
1020
0.0
1030
0.0
1002
}
1040
1.0
1000

1040
0.0
1002
{
1002
}
1040
0.0
1002
{
1002
}
1040
0.0
1002
}
1002
}
1002
{
1002
{
1070
     1
1002
{
1040
0.0
1040
1.0
1000

1040
0.0
1002
{
1002
}
1040
0.0
1002
{
1002
}
1040
0.0
1002
}
1002
}
1040
0.0
1002
{
1002
}
1010
1.0
1020
0.0
1030
0.0
1010
0.0
1020
1.0
1030
0.0
1010
0.0
1020
0.0
1030
1.0
1070
     0
1002
}
1002
{
1002
{
1040
1.0
1040
1.0
1002
{
1070
     1
1002
{
1040
1.0
1040
1.0
1000

1040
0.0
1002
{
1002
}
1040
0.0
1002
{
1002
}
1040
0.0
1002
}
1002
}
1002
}
1070
     0
1040
0.0
1002
{
1002
}
1002
}
1002
{
1002
}
1002
}
1002
{
1071
        3
1070
     3
1070
     0
1002
{
1070
     2
1070
     0
1070
     0
1040
0.0
1002
}
1070
     0
1070
     2
1002
{
1002
}
1002
}
1002
{
1040
8030.0
1040
190.300003
1040
0.305
1040
228.0
1040
545.0
1040
14.0
1040
17.4
1040
0.456
1002
}
1002
}
  0
INSERT
  5
1473
  8
ASHADE
 62
     1
  2
AVE_GLOBAL
 10
0.0
 20
0.0
 30
0.0
1001
AVE_MATERIAL
1002
{
1000
*GLOBAL*
1000
1
1000
Global finish.
1002
{
1002
}
1002
{
1070
    63
1002
{
1002
{
1010
-1.0
1020
-1.0
1030
-1.0
1002
}
1040
0.1
1000

1040
0.0
1002
{
1002
}
1040
0.0
1002
{
1002
}
1040
0.0
1002
}
1002
{
1002
{
1010
-1.0
1020
-1.0
1030
-1.0
1002
}
1040
0.7
1000

1040
0.0
1002
{
1002
}
1040
0.0
1002
{
1002
}
1040
0.0
1002
}
1002
{
1002
{
1010
-1.0
1020
-1.0
1030
-1.0
1002
}
1040
0.2
1000

1040
0.0
1002
{
1002
}
1040
0.0
1002
{
1002
}
1040
0.0
1002
}
1002
{
1070
     0
1002
{
1070
     1
1002
{
1040
1.0
1040
1.0
1000

1040
0.0
1002
{
1002
}
1040
0.0
1002
{
1002
}
1040
0.0
1002
}
1002
}
1040
1.0
1040
0.0
1040
0.0
1002
}
1002
{
1040
1.0
1040
1.0
1000

1040
0.0
1002
{
1002
}
1040
0.0
1002
{
1002
}
1040
0.0
1002
}
1002
{
1040
0.5
1040
1.0
1000

1040
0.0
1002
{
1002
}
1040
0.0
1002
{
1002
}
1040
0.0
1002
}
1002
{
1070
     0
1040
0.0
1002
{
1002
}
1040
1.0
1002
{
1002
}
1040
0.0
1002
}
1002
{
1040
0.0
1002
{
1002
{
1010
0.0
1020
0.0
1030
0.0
1002
}
1040
1.0
1000

1040
0.0
1002
{
1002
}
1040
0.0
1002
{
1002
}
1040
0.0
1002
}
1002
}
1002
{
1002
{
1070
     1
1002
{
1040
0.0
1040
1.0
1000

1040
0.0
1002
{
1002
}
1040
0.0
1002
{
1002
}
1040
0.0
1002
}
1002
}
1040
0.0
1002
{
1002
}
1010
1.0
1020
0.0
1030
0.0
1010
0.0
1020
1.0
1030
0.0
1010
0.0
1020
0.0
1030
1.0
1070
     0
1002
}
1002
{
1002
{
1040
1.0
1040
1.0
1002
{
1070
     1
1002
{
1040
1.0
1040
1.0
1000

1040
0.0
1002
{
1002
}
1040
0.0
1002
{
1002
}
1040
0.0
1002
}
1002
}
1002
}
1070
     0
1040
0.0
1002
{
1002
}
1002
}
1002
{
1002
}
1002
}
1002
{
1071
        3
1070
     3
1070
     0
1002
{
1070
     2
1070
     0
1070
     0
1040
0.0
1002
}
1070
     0
1070
     2
1002
{
1002
}
1002
}
1002
{
1040
8030.0
1040
190.300003
1040
0.305
1040
228.0
1040
545.0
1040
14.0
1040
17.4
1040
0.456
1002
}
1002
}
  0
INSERT
  5
1474
  8
ASHADE
 62
     1
  2
AVE_GLOBAL
 10
0.0
 20
0.0
 30
0.0
1001
AVE_MATERIAL
1002
{
1000
*GLOBAL*
1000
1
1000
Global finish.
1002
{
1002
}
1002
{
1070
    63
1002
{
1002
{
1010
-1.0
1020
-1.0
1030
-1.0
1002
}
1040
0.1
1000

1040
0.0
1002
{
1002
}
1040
0.0
1002
{
1002
}
1040
0.0
1002
}
1002
{
1002
{
1010
-1.0
1020
-1.0
1030
-1.0
1002
}
1040
0.7
1000

1040
0.0
1002
{
1002
}
1040
0.0
1002
{
1002
}
1040
0.0
1002
}
1002
{
1002
{
1010
-1.0
1020
-1.0
1030
-1.0
1002
}
1040
0.2
1000

1040
0.0
1002
{
1002
}
1040
0.0
1002
{
1002
}
1040
0.0
1002
}
1002
{
1070
     0
1002
{
1070
     1
1002
{
1040
1.0
1040
1.0
1000

1040
0.0
1002
{
1002
}
1040
0.0
1002
{
1002
}
1040
0.0
1002
}
1002
}
1040
1.0
1040
0.0
1040
0.0
1002
}
1002
{
1040
1.0
1040
1.0
1000

1040
0.0
1002
{
1002
}
1040
0.0
1002
{
1002
}
1040
0.0
1002
}
1002
{
1040
0.5
1040
1.0
1000

1040
0.0
1002
{
1002
}
1040
0.0
1002
{
1002
}
1040
0.0
1002
}
1002
{
1070
     0
1040
0.0
1002
{
1002
}
1040
1.0
1002
{
1002
}
1040
0.0
1002
}
1002
{
1040
0.0
1002
{
1002
{
1010
0.0
1020
0.0
1030
0.0
1002
}
1040
1.0
1000

1040
0.0
1002
{
1002
}
1040
0.0
1002
{
1002
}
1040
0.0
1002
}
1002
}
1002
{
1002
{
1070
     1
1002
{
1040
0.0
1040
1.0
1000

1040
0.0
1002
{
1002
}
1040
0.0
1002
{
1002
}
1040
0.0
1002
}
1002
}
1040
0.0
1002
{
1002
}
1010
1.0
1020
0.0
1030
0.0
1010
0.0
1020
1.0
1030
0.0
1010
0.0
1020
0.0
1030
1.0
1070
     0
1002
}
1002
{
1002
{
1040
1.0
1040
1.0
1002
{
1070
     1
1002
{
1040
1.0
1040
1.0
1000

1040
0.0
1002
{
1002
}
1040
0.0
1002
{
1002
}
1040
0.0
1002
}
1002
}
1002
}
1070
     0
1040
0.0
1002
{
1002
}
1002
}
1002
{
1002
}
1002
}
1002
{
1071
        3
1070
     3
1070
     0
1002
{
1070
     2
1070
     0
1070
     0
1040
0.0
1002
}
1070
     0
1070
     2
1002
{
1002
}
1002
}
1002
{
1040
8030.0
1040
190.300003
1040
0.305
1040
228.0
1040
545.0
1040
14.0
1040
17.4
1040
0.456
1002
}
1002
}
  0
INSERT
  5
1475
  8
ASHADE
 62
     1
  2
AVE_GLOBAL
 10
0.0
 20
0.0
 30
0.0
1001
AVE_MATERIAL
1002
{
1000
*GLOBAL*
1000
1
1000
Global finish.
1002
{
1002
}
1002
{
1070
    63
1002
{
1002
{
1010
-1.0
1020
-1.0
1030
-1.0
1002
}
1040
0.1
1000

1040
0.0
1002
{
1002
}
1040
0.0
1002
{
1002
}
1040
0.0
1002
}
1002
{
1002
{
1010
-1.0
1020
-1.0
1030
-1.0
1002
}
1040
0.7
1000

1040
0.0
1002
{
1002
}
1040
0.0
1002
{
1002
}
1040
0.0
1002
}
1002
{
1002
{
1010
-1.0
1020
-1.0
1030
-1.0
1002
}
1040
0.2
1000

1040
0.0
1002
{
1002
}
1040
0.0
1002
{
1002
}
1040
0.0
1002
}
1002
{
1070
     0
1002
{
1070
     1
1002
{
1040
1.0
1040
1.0
1000

1040
0.0
1002
{
1002
}
1040
0.0
1002
{
1002
}
1040
0.0
1002
}
1002
}
1040
1.0
1040
0.0
1040
0.0
1002
}
1002
{
1040
1.0
1040
1.0
1000

1040
0.0
1002
{
1002
}
1040
0.0
1002
{
1002
}
1040
0.0
1002
}
1002
{
1040
0.5
1040
1.0
1000

1040
0.0
1002
{
1002
}
1040
0.0
1002
{
1002
}
1040
0.0
1002
}
1002
{
1070
     0
1040
0.0
1002
{
1002
}
1040
1.0
1002
{
1002
}
1040
0.0
1002
}
1002
{
1040
0.0
1002
{
1002
{
1010
0.0
1020
0.0
1030
0.0
1002
}
1040
1.0
1000

1040
0.0
1002
{
1002
}
1040
0.0
1002
{
1002
}
1040
0.0
1002
}
1002
}
1002
{
1002
{
1070
     1
1002
{
1040
0.0
1040
1.0
1000

1040
0.0
1002
{
1002
}
1040
0.0
1002
{
1002
}
1040
0.0
1002
}
1002
}
1040
0.0
1002
{
1002
}
1010
1.0
1020
0.0
1030
0.0
1010
0.0
1020
1.0
1030
0.0
1010
0.0
1020
0.0
1030
1.0
1070
     0
1002
}
1002
{
1002
{
1040
1.0
1040
1.0
1002
{
1070
     1
1002
{
1040
1.0
1040
1.0
1000

1040
0.0
1002
{
1002
}
1040
0.0
1002
{
1002
}
1040
0.0
1002
}
1002
}
1002
}
1070
     0
1040
0.0
1002
{
1002
}
1002
}
1002
{
1002
}
1002
}
1002
{
1071
        3
1070
     3
1070
     0
1002
{
1070
     2
1070
     0
1070
     0
1040
0.0
1002
}
1070
     0
1070
     2
1002
{
1002
}
1002
}
1002
{
1040
8030.0
1040
190.300003
1040
0.305
1040
228.0
1040
545.0
1040
14.0
1040
17.4
1040
0.456
1002
}
1002
}
  0
INSERT
  5
1476
  8
ASHADE
 62
     1
  2
AVE_GLOBAL
 10
0.0
 20
0.0
 30
0.0
1001
AVE_MATERIAL
1002
{
1000
*GLOBAL*
1000
1
1000
Global finish.
1002
{
1002
}
1002
{
1070
    63
1002
{
1002
{
1010
-1.0
1020
-1.0
1030
-1.0
1002
}
1040
0.1
1000

1040
0.0
1002
{
1002
}
1040
0.0
1002
{
1002
}
1040
0.0
1002
}
1002
{
1002
{
1010
-1.0
1020
-1.0
1030
-1.0
1002
}
1040
0.7
1000

1040
0.0
1002
{
1002
}
1040
0.0
1002
{
1002
}
1040
0.0
1002
}
1002
{
1002
{
1010
-1.0
1020
-1.0
1030
-1.0
1002
}
1040
0.2
1000

1040
0.0
1002
{
1002
}
1040
0.0
1002
{
1002
}
1040
0.0
1002
}
1002
{
1070
     0
1002
{
1070
     1
1002
{
1040
1.0
1040
1.0
1000

1040
0.0
1002
{
1002
}
1040
0.0
1002
{
1002
}
1040
0.0
1002
}
1002
}
1040
1.0
1040
0.0
1040
0.0
1002
}
1002
{
1040
1.0
1040
1.0
1000

1040
0.0
1002
{
1002
}
1040
0.0
1002
{
1002
}
1040
0.0
1002
}
1002
{
1040
0.5
1040
1.0
1000

1040
0.0
1002
{
1002
}
1040
0.0
1002
{
1002
}
1040
0.0
1002
}
1002
{
1070
     0
1040
0.0
1002
{
1002
}
1040
1.0
1002
{
1002
}
1040
0.0
1002
}
1002
{
1040
0.0
1002
{
1002
{
1010
0.0
1020
0.0
1030
0.0
1002
}
1040
1.0
1000

1040
0.0
1002
{
1002
}
1040
0.0
1002
{
1002
}
1040
0.0
1002
}
1002
}
1002
{
1002
{
1070
     1
1002
{
1040
0.0
1040
1.0
1000

1040
0.0
1002
{
1002
}
1040
0.0
1002
{
1002
}
1040
0.0
1002
}
1002
}
1040
0.0
1002
{
1002
}
1010
1.0
1020
0.0
1030
0.0
1010
0.0
1020
1.0
1030
0.0
1010
0.0
1020
0.0
1030
1.0
1070
     0
1002
}
1002
{
1002
{
1040
1.0
1040
1.0
1002
{
1070
     1
1002
{
1040
1.0
1040
1.0
1000

1040
0.0
1002
{
1002
}
1040
0.0
1002
{
1002
}
1040
0.0
1002
}
1002
}
1002
}
1070
     0
1040
0.0
1002
{
1002
}
1002
}
1002
{
1002
}
1002
}
1002
{
1071
        3
1070
     3
1070
     0
1002
{
1070
     2
1070
     0
1070
     0
1040
0.0
1002
}
1070
     0
1070
     2
1002
{
1002
}
1002
}
1002
{
1040
8030.0
1040
190.300003
1040
0.305
1040
228.0
1040
545.0
1040
14.0
1040
17.4
1040
0.456
1002
}
1002
}
  0
INSERT
  5
1477
  8
ASHADE
  6
CONTINUOUS
 62
     1
  2
AVE_GLOBAL
 10
0.0
 20
0.0
 30
0.0
1001
AVE_MATERIAL
1002
{
1000
*GLOBAL*
1000
1
1000
Global finish.
1002
{
1002
}
1002
{
1070
    63
1002
{
1002
{
1010
-1.0
1020
-1.0
1030
-1.0
1002
}
1040
0.1
1000

1040
0.0
1002
{
1002
}
1040
0.0
1002
{
1002
}
1040
0.0
1002
}
1002
{
1002
{
1010
-1.0
1020
-1.0
1030
-1.0
1002
}
1040
0.7
1000

1040
0.0
1002
{
1002
}
1040
0.0
1002
{
1002
}
1040
0.0
1002
}
1002
{
1002
{
1010
-1.0
1020
-1.0
1030
-1.0
1002
}
1040
0.2
1000

1040
0.0
1002
{
1002
}
1040
0.0
1002
{
1002
}
1040
0.0
1002
}
1002
{
1070
     0
1002
{
1070
     1
1002
{
1040
1.0
1040
1.0
1000

1040
0.0
1002
{
1002
}
1040
0.0
1002
{
1002
}
1040
0.0
1002
}
1002
}
1040
1.0
1040
0.0
1040
0.0
1002
}
1002
{
1040
1.0
1040
1.0
1000

1040
0.0
1002
{
1002
}
1040
0.0
1002
{
1002
}
1040
0.0
1002
}
1002
{
1040
0.5
1040
1.0
1000

1040
0.0
1002
{
1002
}
1040
0.0
1002
{
1002
}
1040
0.0
1002
}
1002
{
1070
     0
1040
0.0
1002
{
1002
}
1040
1.0
1002
{
1002
}
1040
0.0
1002
}
1002
{
1040
0.0
1002
{
1002
{
1010
0.0
1020
0.0
1030
0.0
1002
}
1040
1.0
1000

1040
0.0
1002
{
1002
}
1040
0.0
1002
{
1002
}
1040
0.0
1002
}
1002
}
1002
{
1002
{
1070
     1
1002
{
1040
0.0
1040
1.0
1000

1040
0.0
1002
{
1002
}
1040
0.0
1002
{
1002
}
1040
0.0
1002
}
1002
}
1040
0.0
1002
{
1002
}
1010
1.0
1020
0.0
1030
0.0
1010
0.0
1020
1.0
1030
0.0
1010
0.0
1020
0.0
1030
1.0
1070
     0
1002
}
1002
{
1002
{
1040
1.0
1040
1.0
1002
{
1070
     1
1002
{
1040
1.0
1040
1.0
1000

1040
0.0
1002
{
1002
}
1040
0.0
1002
{
1002
}
1040
0.0
1002
}
1002
}
1002
}
1070
     0
1040
0.0
1002
{
1002
}
1002
}
1002
{
1002
}
1002
}
1002
{
1071
        3
1070
     3
1070
     0
1002
{
1070
     2
1070
     0
1070
     0
1040
0.0
1002
}
1070
     0
1070
     2
1002
{
1002
}
1002
}
1002
{
1040
8030.0
1040
190.300003
1040
0.305
1040
228.0
1040
545.0
1040
14.0
1040
17.4
1040
0.456
1002
}
1002
}
  0
INSERT
  5
1478
  8
ASHADE
 62
     1
  2
AVE_GLOBAL
 10
0.0
 20
0.0
 30
0.0
1001
AVE_MATERIAL
1002
{
1000
*GLOBAL*
1000
1
1000
Global finish.
1002
{
1002
}
1002
{
1070
    63
1002
{
1002
{
1010
-1.0
1020
-1.0
1030
-1.0
1002
}
1040
0.1
1000

1040
0.0
1002
{
1002
}
1040
0.0
1002
{
1002
}
1040
0.0
1002
}
1002
{
1002
{
1010
-1.0
1020
-1.0
1030
-1.0
1002
}
1040
0.7
1000

1040
0.0
1002
{
1002
}
1040
0.0
1002
{
1002
}
1040
0.0
1002
}
1002
{
1002
{
1010
-1.0
1020
-1.0
1030
-1.0
1002
}
1040
0.2
1000

1040
0.0
1002
{
1002
}
1040
0.0
1002
{
1002
}
1040
0.0
1002
}
1002
{
1070
     0
1002
{
1070
     1
1002
{
1040
1.0
1040
1.0
1000

1040
0.0
1002
{
1002
}
1040
0.0
1002
{
1002
}
1040
0.0
1002
}
1002
}
1040
1.0
1040
0.0
1040
0.0
1002
}
1002
{
1040
1.0
1040
1.0
1000

1040
0.0
1002
{
1002
}
1040
0.0
1002
{
1002
}
1040
0.0
1002
}
1002
{
1040
0.5
1040
1.0
1000

1040
0.0
1002
{
1002
}
1040
0.0
1002
{
1002
}
1040
0.0
1002
}
1002
{
1070
     0
1040
0.0
1002
{
1002
}
1040
1.0
1002
{
1002
}
1040
0.0
1002
}
1002
{
1040
0.0
1002
{
1002
{
1010
0.0
1020
0.0
1030
0.0
1002
}
1040
1.0
1000

1040
0.0
1002
{
1002
}
1040
0.0
1002
{
1002
}
1040
0.0
1002
}
1002
}
1002
{
1002
{
1070
     1
1002
{
1040
0.0
1040
1.0
1000

1040
0.0
1002
{
1002
}
1040
0.0
1002
{
1002
}
1040
0.0
1002
}
1002
}
1040
0.0
1002
{
1002
}
1010
1.0
1020
0.0
1030
0.0
1010
0.0
1020
1.0
1030
0.0
1010
0.0
1020
0.0
1030
1.0
1070
     0
1002
}
1002
{
1002
{
1040
1.0
1040
1.0
1002
{
1070
     1
1002
{
1040
1.0
1040
1.0
1000

1040
0.0
1002
{
1002
}
1040
0.0
1002
{
1002
}
1040
0.0
1002
}
1002
}
1002
}
1070
     0
1040
0.0
1002
{
1002
}
1002
}
1002
{
1002
}
1002
}
1002
{
1071
        3
1070
     3
1070
     0
1002
{
1070
     2
1070
     0
1070
     0
1040
0.0
1002
}
1070
     0
1070
     2
1002
{
1002
}
1002
}
1002
{
1040
8030.0
1040
190.300003
1040
0.305
1040
228.0
1040
545.0
1040
14.0
1040
17.4
1040
0.456
1002
}
1002
}
  0
INSERT
  5
1479
  8
ASHADE
 62
     1
  2
AVE_GLOBAL
 10
0.0
 20
0.0
 30
0.0
1001
AVE_MATERIAL
1002
{
1000
*GLOBAL*
1000
1
1000
Global finish.
1002
{
1002
}
1002
{
1070
    63
1002
{
1002
{
1010
-1.0
1020
-1.0
1030
-1.0
1002
}
1040
0.1
1000

1040
0.0
1002
{
1002
}
1040
0.0
1002
{
1002
}
1040
0.0
1002
}
1002
{
1002
{
1010
-1.0
1020
-1.0
1030
-1.0
1002
}
1040
0.7
1000

1040
0.0
1002
{
1002
}
1040
0.0
1002
{
1002
}
1040
0.0
1002
}
1002
{
1002
{
1010
-1.0
1020
-1.0
1030
-1.0
1002
}
1040
0.2
1000

1040
0.0
1002
{
1002
}
1040
0.0
1002
{
1002
}
1040
0.0
1002
}
1002
{
1070
     0
1002
{
1070
     1
1002
{
1040
1.0
1040
1.0
1000

1040
0.0
1002
{
1002
}
1040
0.0
1002
{
1002
}
1040
0.0
1002
}
1002
}
1040
1.0
1040
0.0
1040
0.0
1002
}
1002
{
1040
1.0
1040
1.0
1000

1040
0.0
1002
{
1002
}
1040
0.0
1002
{
1002
}
1040
0.0
1002
}
1002
{
1040
0.5
1040
1.0
1000

1040
0.0
1002
{
1002
}
1040
0.0
1002
{
1002
}
1040
0.0
1002
}
1002
{
1070
     0
1040
0.0
1002
{
1002
}
1040
1.0
1002
{
1002
}
1040
0.0
1002
}
1002
{
1040
0.0
1002
{
1002
{
1010
0.0
1020
0.0
1030
0.0
1002
}
1040
1.0
1000

1040
0.0
1002
{
1002
}
1040
0.0
1002
{
1002
}
1040
0.0
1002
}
1002
}
1002
{
1002
{
1070
     1
1002
{
1040
0.0
1040
1.0
1000

1040
0.0
1002
{
1002
}
1040
0.0
1002
{
1002
}
1040
0.0
1002
}
1002
}
1040
0.0
1002
{
1002
}
1010
1.0
1020
0.0
1030
0.0
1010
0.0
1020
1.0
1030
0.0
1010
0.0
1020
0.0
1030
1.0
1070
     0
1002
}
1002
{
1002
{
1040
1.0
1040
1.0
1002
{
1070
     1
1002
{
1040
1.0
1040
1.0
1000

1040
0.0
1002
{
1002
}
1040
0.0
1002
{
1002
}
1040
0.0
1002
}
1002
}
1002
}
1070
     0
1040
0.0
1002
{
1002
}
1002
}
1002
{
1002
}
1002
}
1002
{
1071
        3
1070
     3
1070
     0
1002
{
1070
     2
1070
     0
1070
     0
1040
0.0
1002
}
1070
     0
1070
     2
1002
{
1002
}
1002
}
1002
{
1040
8030.0
1040
190.300003
1040
0.305
1040
228.0
1040
545.0
1040
14.0
1040
17.4
1040
0.456
1002
}
1002
}
  0
INSERT
  5
147A
  8
ASHADE
 62
     1
  2
AVE_GLOBAL
 10
0.0
 20
0.0
 30
0.0
1001
AVE_MATERIAL
1002
{
1000
*GLOBAL*
1000
1
1000
Global finish.
1002
{
1002
}
1002
{
1070
    63
1002
{
1002
{
1010
-1.0
1020
-1.0
1030
-1.0
1002
}
1040
0.1
1000

1040
0.0
1002
{
1002
}
1040
0.0
1002
{
1002
}
1040
0.0
1002
}
1002
{
1002
{
1010
-1.0
1020
-1.0
1030
-1.0
1002
}
1040
0.7
1000

1040
0.0
1002
{
1002
}
1040
0.0
1002
{
1002
}
1040
0.0
1002
}
1002
{
1002
{
1010
-1.0
1020
-1.0
1030
-1.0
1002
}
1040
0.2
1000

1040
0.0
1002
{
1002
}
1040
0.0
1002
{
1002
}
1040
0.0
1002
}
1002
{
1070
     0
1002
{
1070
     1
1002
{
1040
1.0
1040
1.0
1000

1040
0.0
1002
{
1002
}
1040
0.0
1002
{
1002
}
1040
0.0
1002
}
1002
}
1040
1.0
1040
0.0
1040
0.0
1002
}
1002
{
1040
1.0
1040
1.0
1000

1040
0.0
1002
{
1002
}
1040
0.0
1002
{
1002
}
1040
0.0
1002
}
1002
{
1040
0.5
1040
1.0
1000

1040
0.0
1002
{
1002
}
1040
0.0
1002
{
1002
}
1040
0.0
1002
}
1002
{
1070
     0
1040
0.0
1002
{
1002
}
1040
1.0
1002
{
1002
}
1040
0.0
1002
}
1002
{
1040
0.0
1002
{
1002
{
1010
0.0
1020
0.0
1030
0.0
1002
}
1040
1.0
1000

1040
0.0
1002
{
1002
}
1040
0.0
1002
{
1002
}
1040
0.0
1002
}
1002
}
1002
{
1002
{
1070
     1
1002
{
1040
0.0
1040
1.0
1000

1040
0.0
1002
{
1002
}
1040
0.0
1002
{
1002
}
1040
0.0
1002
}
1002
}
1040
0.0
1002
{
1002
}
1010
1.0
1020
0.0
1030
0.0
1010
0.0
1020
1.0
1030
0.0
1010
0.0
1020
0.0
1030
1.0
1070
     0
1002
}
1002
{
1002
{
1040
1.0
1040
1.0
1002
{
1070
     1
1002
{
1040
1.0
1040
1.0
1000

1040
0.0
1002
{
1002
}
1040
0.0
1002
{
1002
}
1040
0.0
1002
}
1002
}
1002
}
1070
     0
1040
0.0
1002
{
1002
}
1002
}
1002
{
1002
}
1002
}
1002
{
1071
        3
1070
     3
1070
     0
1002
{
1070
     2
1070
     0
1070
     0
1040
0.0
1002
}
1070
     0
1070
     2
1002
{
1002
}
1002
}
1002
{
1040
8030.0
1040
190.300003
1040
0.305
1040
228.0
1040
545.0
1040
14.0
1040
17.4
1040
0.456
1002
}
1002
}
  0
INSERT
  5
147B
  8
ASHADE
 62
     1
  2
AVE_GLOBAL
 10
0.0
 20
0.0
 30
0.0
1001
AVE_MATERIAL
1002
{
1000
*GLOBAL*
1000
1
1000
Global finish.
1002
{
1002
}
1002
{
1070
    63
1002
{
1002
{
1010
-1.0
1020
-1.0
1030
-1.0
1002
}
1040
0.1
1000

1040
0.0
1002
{
1002
}
1040
0.0
1002
{
1002
}
1040
0.0
1002
}
1002
{
1002
{
1010
-1.0
1020
-1.0
1030
-1.0
1002
}
1040
0.7
1000

1040
0.0
1002
{
1002
}
1040
0.0
1002
{
1002
}
1040
0.0
1002
}
1002
{
1002
{
1010
-1.0
1020
-1.0
1030
-1.0
1002
}
1040
0.2
1000

1040
0.0
1002
{
1002
}
1040
0.0
1002
{
1002
}
1040
0.0
1002
}
1002
{
1070
     0
1002
{
1070
     1
1002
{
1040
1.0
1040
1.0
1000

1040
0.0
1002
{
1002
}
1040
0.0
1002
{
1002
}
1040
0.0
1002
}
1002
}
1040
1.0
1040
0.0
1040
0.0
1002
}
1002
{
1040
1.0
1040
1.0
1000

1040
0.0
1002
{
1002
}
1040
0.0
1002
{
1002
}
1040
0.0
1002
}
1002
{
1040
0.5
1040
1.0
1000

1040
0.0
1002
{
1002
}
1040
0.0
1002
{
1002
}
1040
0.0
1002
}
1002
{
1070
     0
1040
0.0
1002
{
1002
}
1040
1.0
1002
{
1002
}
1040
0.0
1002
}
1002
{
1040
0.0
1002
{
1002
{
1010
0.0
1020
0.0
1030
0.0
1002
}
1040
1.0
1000

1040
0.0
1002
{
1002
}
1040
0.0
1002
{
1002
}
1040
0.0
1002
}
1002
}
1002
{
1002
{
1070
     1
1002
{
1040
0.0
1040
1.0
1000

1040
0.0
1002
{
1002
}
1040
0.0
1002
{
1002
}
1040
0.0
1002
}
1002
}
1040
0.0
1002
{
1002
}
1010
1.0
1020
0.0
1030
0.0
1010
0.0
1020
1.0
1030
0.0
1010
0.0
1020
0.0
1030
1.0
1070
     0
1002
}
1002
{
1002
{
1040
1.0
1040
1.0
1002
{
1070
     1
1002
{
1040
1.0
1040
1.0
1000

1040
0.0
1002
{
1002
}
1040
0.0
1002
{
1002
}
1040
0.0
1002
}
1002
}
1002
}
1070
     0
1040
0.0
1002
{
1002
}
1002
}
1002
{
1002
}
1002
}
1002
{
1071
        3
1070
     3
1070
     0
1002
{
1070
     2
1070
     0
1070
     0
1040
0.0
1002
}
1070
     0
1070
     2
1002
{
1002
}
1002
}
1002
{
1040
8030.0
1040
190.300003
1040
0.305
1040
228.0
1040
545.0
1040
14.0
1040
17.4
1040
0.456
1002
}
1002
}
  0
INSERT
  5
147C
  8
ASHADE
 62
     1
  2
AVE_GLOBAL
 10
0.0
 20
0.0
 30
0.0
1001
AVE_MATERIAL
1002
{
1000
*GLOBAL*
1000
1
1000
Global finish.
1002
{
1002
}
1002
{
1070
    63
1002
{
1002
{
1010
-1.0
1020
-1.0
1030
-1.0
1002
}
1040
0.1
1000

1040
0.0
1002
{
1002
}
1040
0.0
1002
{
1002
}
1040
0.0
1002
}
1002
{
1002
{
1010
-1.0
1020
-1.0
1030
-1.0
1002
}
1040
0.7
1000

1040
0.0
1002
{
1002
}
1040
0.0
1002
{
1002
}
1040
0.0
1002
}
1002
{
1002
{
1010
-1.0
1020
-1.0
1030
-1.0
1002
}
1040
0.2
1000

1040
0.0
1002
{
1002
}
1040
0.0
1002
{
1002
}
1040
0.0
1002
}
1002
{
1070
     0
1002
{
1070
     1
1002
{
1040
1.0
1040
1.0
1000

1040
0.0
1002
{
1002
}
1040
0.0
1002
{
1002
}
1040
0.0
1002
}
1002
}
1040
1.0
1040
0.0
1040
0.0
1002
}
1002
{
1040
1.0
1040
1.0
1000

1040
0.0
1002
{
1002
}
1040
0.0
1002
{
1002
}
1040
0.0
1002
}
1002
{
1040
0.5
1040
1.0
1000

1040
0.0
1002
{
1002
}
1040
0.0
1002
{
1002
}
1040
0.0
1002
}
1002
{
1070
     0
1040
0.0
1002
{
1002
}
1040
1.0
1002
{
1002
}
1040
0.0
1002
}
1002
{
1040
0.0
1002
{
1002
{
1010
0.0
1020
0.0
1030
0.0
1002
}
1040
1.0
1000

1040
0.0
1002
{
1002
}
1040
0.0
1002
{
1002
}
1040
0.0
1002
}
1002
}
1002
{
1002
{
1070
     1
1002
{
1040
0.0
1040
1.0
1000

1040
0.0
1002
{
1002
}
1040
0.0
1002
{
1002
}
1040
0.0
1002
}
1002
}
1040
0.0
1002
{
1002
}
1010
1.0
1020
0.0
1030
0.0
1010
0.0
1020
1.0
1030
0.0
1010
0.0
1020
0.0
1030
1.0
1070
     0
1002
}
1002
{
1002
{
1040
1.0
1040
1.0
1002
{
1070
     1
1002
{
1040
1.0
1040
1.0
1000

1040
0.0
1002
{
1002
}
1040
0.0
1002
{
1002
}
1040
0.0
1002
}
1002
}
1002
}
1070
     0
1040
0.0
1002
{
1002
}
1002
}
1002
{
1002
}
1002
}
1002
{
1071
        3
1070
     3
1070
     0
1002
{
1070
     2
1070
     0
1070
     0
1040
0.0
1002
}
1070
     0
1070
     2
1002
{
1002
}
1002
}
1002
{
1040
8030.0
1040
190.300003
1040
0.305
1040
228.0
1040
545.0
1040
14.0
1040
17.4
1040
0.456
1002
}
1002
}
  0
INSERT
  5
147D
  8
ASHADE
 62
     1
  2
AVE_GLOBAL
 10
0.0
 20
0.0
 30
0.0
1001
AVE_MATERIAL
1002
{
1000
*GLOBAL*
1000
1
1000
Global finish.
1002
{
1002
}
1002
{
1070
    63
1002
{
1002
{
1010
-1.0
1020
-1.0
1030
-1.0
1002
}
1040
0.1
1000

1040
0.0
1002
{
1002
}
1040
0.0
1002
{
1002
}
1040
0.0
1002
}
1002
{
1002
{
1010
-1.0
1020
-1.0
1030
-1.0
1002
}
1040
0.7
1000

1040
0.0
1002
{
1002
}
1040
0.0
1002
{
1002
}
1040
0.0
1002
}
1002
{
1002
{
1010
-1.0
1020
-1.0
1030
-1.0
1002
}
1040
0.2
1000

1040
0.0
1002
{
1002
}
1040
0.0
1002
{
1002
}
1040
0.0
1002
}
1002
{
1070
     0
1002
{
1070
     1
1002
{
1040
1.0
1040
1.0
1000

1040
0.0
1002
{
1002
}
1040
0.0
1002
{
1002
}
1040
0.0
1002
}
1002
}
1040
1.0
1040
0.0
1040
0.0
1002
}
1002
{
1040
1.0
1040
1.0
1000

1040
0.0
1002
{
1002
}
1040
0.0
1002
{
1002
}
1040
0.0
1002
}
1002
{
1040
0.5
1040
1.0
1000

1040
0.0
1002
{
1002
}
1040
0.0
1002
{
1002
}
1040
0.0
1002
}
1002
{
1070
     0
1040
0.0
1002
{
1002
}
1040
1.0
1002
{
1002
}
1040
0.0
1002
}
1002
{
1040
0.0
1002
{
1002
{
1010
0.0
1020
0.0
1030
0.0
1002
}
1040
1.0
1000

1040
0.0
1002
{
1002
}
1040
0.0
1002
{
1002
}
1040
0.0
1002
}
1002
}
1002
{
1002
{
1070
     1
1002
{
1040
0.0
1040
1.0
1000

1040
0.0
1002
{
1002
}
1040
0.0
1002
{
1002
}
1040
0.0
1002
}
1002
}
1040
0.0
1002
{
1002
}
1010
1.0
1020
0.0
1030
0.0
1010
0.0
1020
1.0
1030
0.0
1010
0.0
1020
0.0
1030
1.0
1070
     0
1002
}
1002
{
1002
{
1040
1.0
1040
1.0
1002
{
1070
     1
1002
{
1040
1.0
1040
1.0
1000

1040
0.0
1002
{
1002
}
1040
0.0
1002
{
1002
}
1040
0.0
1002
}
1002
}
1002
}
1070
     0
1040
0.0
1002
{
1002
}
1002
}
1002
{
1002
}
1002
}
1002
{
1071
        3
1070
     3
1070
     0
1002
{
1070
     2
1070
     0
1070
     0
1040
0.0
1002
}
1070
     0
1070
     2
1002
{
1002
}
1002
}
1002
{
1040
8030.0
1040
190.300003
1040
0.305
1040
228.0
1040
545.0
1040
14.0
1040
17.4
1040
0.456
1002
}
1002
}
  0
INSERT
  5
147E
  8
ASHADE
  6
CONTINUOUS
 62
     1
  2
AVE_GLOBAL
 10
0.0
 20
0.0
 30
0.0
1001
AVE_MATERIAL
1002
{
1000
*GLOBAL*
1000
1
1000
Global finish.
1002
{
1002
}
1002
{
1070
    63
1002
{
1002
{
1010
-1.0
1020
-1.0
1030
-1.0
1002
}
1040
0.1
1000

1040
0.0
1002
{
1002
}
1040
0.0
1002
{
1002
}
1040
0.0
1002
}
1002
{
1002
{
1010
-1.0
1020
-1.0
1030
-1.0
1002
}
1040
0.7
1000

1040
0.0
1002
{
1002
}
1040
0.0
1002
{
1002
}
1040
0.0
1002
}
1002
{
1002
{
1010
-1.0
1020
-1.0
1030
-1.0
1002
}
1040
0.2
1000

1040
0.0
1002
{
1002
}
1040
0.0
1002
{
1002
}
1040
0.0
1002
}
1002
{
1070
     0
1002
{
1070
     1
1002
{
1040
1.0
1040
1.0
1000

1040
0.0
1002
{
1002
}
1040
0.0
1002
{
1002
}
1040
0.0
1002
}
1002
}
1040
1.0
1040
0.0
1040
0.0
1002
}
1002
{
1040
1.0
1040
1.0
1000

1040
0.0
1002
{
1002
}
1040
0.0
1002
{
1002
}
1040
0.0
1002
}
1002
{
1040
0.5
1040
1.0
1000

1040
0.0
1002
{
1002
}
1040
0.0
1002
{
1002
}
1040
0.0
1002
}
1002
{
1070
     0
1040
0.0
1002
{
1002
}
1040
1.0
1002
{
1002
}
1040
0.0
1002
}
1002
{
1040
0.0
1002
{
1002
{
1010
0.0
1020
0.0
1030
0.0
1002
}
1040
1.0
1000

1040
0.0
1002
{
1002
}
1040
0.0
1002
{
1002
}
1040
0.0
1002
}
1002
}
1002
{
1002
{
1070
     1
1002
{
1040
0.0
1040
1.0
1000

1040
0.0
1002
{
1002
}
1040
0.0
1002
{
1002
}
1040
0.0
1002
}
1002
}
1040
0.0
1002
{
1002
}
1010
1.0
1020
0.0
1030
0.0
1010
0.0
1020
1.0
1030
0.0
1010
0.0
1020
0.0
1030
1.0
1070
     0
1002
}
1002
{
1002
{
1040
1.0
1040
1.0
1002
{
1070
     1
1002
{
1040
1.0
1040
1.0
1000

1040
0.0
1002
{
1002
}
1040
0.0
1002
{
1002
}
1040
0.0
1002
}
1002
}
1002
}
1070
     0
1040
0.0
1002
{
1002
}
1002
}
1002
{
1002
}
1002
}
1002
{
1071
        3
1070
     3
1070
     0
1002
{
1070
     2
1070
     0
1070
     0
1040
0.0
1002
}
1070
     0
1070
     2
1002
{
1002
}
1002
}
1002
{
1040
8030.0
1040
190.300003
1040
0.305
1040
228.0
1040
545.0
1040
14.0
1040
17.4
1040
0.456
1002
}
1002
}
  0
INSERT
  5
147F
  8
ASHADE
 62
     1
  2
AVE_GLOBAL
 10
0.0
 20
0.0
 30
0.0
1001
AVE_MATERIAL
1002
{
1000
*GLOBAL*
1000
1
1000
Global finish.
1002
{
1002
}
1002
{
1070
    63
1002
{
1002
{
1010
-1.0
1020
-1.0
1030
-1.0
1002
}
1040
0.1
1000

1040
0.0
1002
{
1002
}
1040
0.0
1002
{
1002
}
1040
0.0
1002
}
1002
{
1002
{
1010
-1.0
1020
-1.0
1030
-1.0
1002
}
1040
0.7
1000

1040
0.0
1002
{
1002
}
1040
0.0
1002
{
1002
}
1040
0.0
1002
}
1002
{
1002
{
1010
-1.0
1020
-1.0
1030
-1.0
1002
}
1040
0.2
1000

1040
0.0
1002
{
1002
}
1040
0.0
1002
{
1002
}
1040
0.0
1002
}
1002
{
1070
     0
1002
{
1070
     1
1002
{
1040
1.0
1040
1.0
1000

1040
0.0
1002
{
1002
}
1040
0.0
1002
{
1002
}
1040
0.0
1002
}
1002
}
1040
1.0
1040
0.0
1040
0.0
1002
}
1002
{
1040
1.0
1040
1.0
1000

1040
0.0
1002
{
1002
}
1040
0.0
1002
{
1002
}
1040
0.0
1002
}
1002
{
1040
0.5
1040
1.0
1000

1040
0.0
1002
{
1002
}
1040
0.0
1002
{
1002
}
1040
0.0
1002
}
1002
{
1070
     0
1040
0.0
1002
{
1002
}
1040
1.0
1002
{
1002
}
1040
0.0
1002
}
1002
{
1040
0.0
1002
{
1002
{
1010
0.0
1020
0.0
1030
0.0
1002
}
1040
1.0
1000

1040
0.0
1002
{
1002
}
1040
0.0
1002
{
1002
}
1040
0.0
1002
}
1002
}
1002
{
1002
{
1070
     1
1002
{
1040
0.0
1040
1.0
1000

1040
0.0
1002
{
1002
}
1040
0.0
1002
{
1002
}
1040
0.0
1002
}
1002
}
1040
0.0
1002
{
1002
}
1010
1.0
1020
0.0
1030
0.0
1010
0.0
1020
1.0
1030
0.0
1010
0.0
1020
0.0
1030
1.0
1070
     0
1002
}
1002
{
1002
{
1040
1.0
1040
1.0
1002
{
1070
     1
1002
{
1040
1.0
1040
1.0
1000

1040
0.0
1002
{
1002
}
1040
0.0
1002
{
1002
}
1040
0.0
1002
}
1002
}
1002
}
1070
     0
1040
0.0
1002
{
1002
}
1002
}
1002
{
1002
}
1002
}
1002
{
1071
        3
1070
     3
1070
     0
1002
{
1070
     2
1070
     0
1070
     0
1040
0.0
1002
}
1070
     0
1070
     2
1002
{
1002
}
1002
}
1002
{
1040
8030.0
1040
190.300003
1040
0.305
1040
228.0
1040
545.0
1040
14.0
1040
17.4
1040
0.456
1002
}
1002
}
  0
INSERT
  5
1480
  8
ASHADE
 62
     1
  2
AVE_GLOBAL
 10
0.0
 20
0.0
 30
0.0
1001
AVE_MATERIAL
1002
{
1000
*GLOBAL*
1000
1
1000
Global finish.
1002
{
1002
}
1002
{
1070
    63
1002
{
1002
{
1010
-1.0
1020
-1.0
1030
-1.0
1002
}
1040
0.1
1000

1040
0.0
1002
{
1002
}
1040
0.0
1002
{
1002
}
1040
0.0
1002
}
1002
{
1002
{
1010
-1.0
1020
-1.0
1030
-1.0
1002
}
1040
0.7
1000

1040
0.0
1002
{
1002
}
1040
0.0
1002
{
1002
}
1040
0.0
1002
}
1002
{
1002
{
1010
-1.0
1020
-1.0
1030
-1.0
1002
}
1040
0.2
1000

1040
0.0
1002
{
1002
}
1040
0.0
1002
{
1002
}
1040
0.0
1002
}
1002
{
1070
     0
1002
{
1070
     1
1002
{
1040
1.0
1040
1.0
1000

1040
0.0
1002
{
1002
}
1040
0.0
1002
{
1002
}
1040
0.0
1002
}
1002
}
1040
1.0
1040
0.0
1040
0.0
1002
}
1002
{
1040
1.0
1040
1.0
1000

1040
0.0
1002
{
1002
}
1040
0.0
1002
{
1002
}
1040
0.0
1002
}
1002
{
1040
0.5
1040
1.0
1000

1040
0.0
1002
{
1002
}
1040
0.0
1002
{
1002
}
1040
0.0
1002
}
1002
{
1070
     0
1040
0.0
1002
{
1002
}
1040
1.0
1002
{
1002
}
1040
0.0
1002
}
1002
{
1040
0.0
1002
{
1002
{
1010
0.0
1020
0.0
1030
0.0
1002
}
1040
1.0
1000

1040
0.0
1002
{
1002
}
1040
0.0
1002
{
1002
}
1040
0.0
1002
}
1002
}
1002
{
1002
{
1070
     1
1002
{
1040
0.0
1040
1.0
1000

1040
0.0
1002
{
1002
}
1040
0.0
1002
{
1002
}
1040
0.0
1002
}
1002
}
1040
0.0
1002
{
1002
}
1010
1.0
1020
0.0
1030
0.0
1010
0.0
1020
1.0
1030
0.0
1010
0.0
1020
0.0
1030
1.0
1070
     0
1002
}
1002
{
1002
{
1040
1.0
1040
1.0
1002
{
1070
     1
1002
{
1040
1.0
1040
1.0
1000

1040
0.0
1002
{
1002
}
1040
0.0
1002
{
1002
}
1040
0.0
1002
}
1002
}
1002
}
1070
     0
1040
0.0
1002
{
1002
}
1002
}
1002
{
1002
}
1002
}
1002
{
1071
        3
1070
     3
1070
     0
1002
{
1070
     2
1070
     0
1070
     0
1040
0.0
1002
}
1070
     0
1070
     2
1002
{
1002
}
1002
}
1002
{
1040
8030.0
1040
190.300003
1040
0.305
1040
228.0
1040
545.0
1040
14.0
1040
17.4
1040
0.456
1002
}
1002
}
  0
INSERT
  5
1481
  8
ASHADE
 62
     1
  2
AVE_GLOBAL
 10
0.0
 20
0.0
 30
0.0
1001
AVE_MATERIAL
1002
{
1000
*GLOBAL*
1000
1
1000
Global finish.
1002
{
1002
}
1002
{
1070
    63
1002
{
1002
{
1010
-1.0
1020
-1.0
1030
-1.0
1002
}
1040
0.1
1000

1040
0.0
1002
{
1002
}
1040
0.0
1002
{
1002
}
1040
0.0
1002
}
1002
{
1002
{
1010
-1.0
1020
-1.0
1030
-1.0
1002
}
1040
0.7
1000

1040
0.0
1002
{
1002
}
1040
0.0
1002
{
1002
}
1040
0.0
1002
}
1002
{
1002
{
1010
-1.0
1020
-1.0
1030
-1.0
1002
}
1040
0.2
1000

1040
0.0
1002
{
1002
}
1040
0.0
1002
{
1002
}
1040
0.0
1002
}
1002
{
1070
     0
1002
{
1070
     1
1002
{
1040
1.0
1040
1.0
1000

1040
0.0
1002
{
1002
}
1040
0.0
1002
{
1002
}
1040
0.0
1002
}
1002
}
1040
1.0
1040
0.0
1040
0.0
1002
}
1002
{
1040
1.0
1040
1.0
1000

1040
0.0
1002
{
1002
}
1040
0.0
1002
{
1002
}
1040
0.0
1002
}
1002
{
1040
0.5
1040
1.0
1000

1040
0.0
1002
{
1002
}
1040
0.0
1002
{
1002
}
1040
0.0
1002
}
1002
{
1070
     0
1040
0.0
1002
{
1002
}
1040
1.0
1002
{
1002
}
1040
0.0
1002
}
1002
{
1040
0.0
1002
{
1002
{
1010
0.0
1020
0.0
1030
0.0
1002
}
1040
1.0
1000

1040
0.0
1002
{
1002
}
1040
0.0
1002
{
1002
}
1040
0.0
1002
}
1002
}
1002
{
1002
{
1070
     1
1002
{
1040
0.0
1040
1.0
1000

1040
0.0
1002
{
1002
}
1040
0.0
1002
{
1002
}
1040
0.0
1002
}
1002
}
1040
0.0
1002
{
1002
}
1010
1.0
1020
0.0
1030
0.0
1010
0.0
1020
1.0
1030
0.0
1010
0.0
1020
0.0
1030
1.0
1070
     0
1002
}
1002
{
1002
{
1040
1.0
1040
1.0
1002
{
1070
     1
1002
{
1040
1.0
1040
1.0
1000

1040
0.0
1002
{
1002
}
1040
0.0
1002
{
1002
}
1040
0.0
1002
}
1002
}
1002
}
1070
     0
1040
0.0
1002
{
1002
}
1002
}
1002
{
1002
}
1002
}
1002
{
1071
        3
1070
     3
1070
     0
1002
{
1070
     2
1070
     0
1070
     0
1040
0.0
1002
}
1070
     0
1070
     2
1002
{
1002
}
1002
}
1002
{
1040
8030.0
1040
190.300003
1040
0.305
1040
228.0
1040
545.0
1040
14.0
1040
17.4
1040
0.456
1002
}
1002
}
  0
INSERT
  5
1482
  8
ASHADE
 62
     1
  2
AVE_GLOBAL
 10
0.0
 20
0.0
 30
0.0
1001
AVE_MATERIAL
1002
{
1000
*GLOBAL*
1000
1
1000
Global finish.
1002
{
1002
}
1002
{
1070
    63
1002
{
1002
{
1010
-1.0
1020
-1.0
1030
-1.0
1002
}
1040
0.1
1000

1040
0.0
1002
{
1002
}
1040
0.0
1002
{
1002
}
1040
0.0
1002
}
1002
{
1002
{
1010
-1.0
1020
-1.0
1030
-1.0
1002
}
1040
0.7
1000

1040
0.0
1002
{
1002
}
1040
0.0
1002
{
1002
}
1040
0.0
1002
}
1002
{
1002
{
1010
-1.0
1020
-1.0
1030
-1.0
1002
}
1040
0.2
1000

1040
0.0
1002
{
1002
}
1040
0.0
1002
{
1002
}
1040
0.0
1002
}
1002
{
1070
     0
1002
{
1070
     1
1002
{
1040
1.0
1040
1.0
1000

1040
0.0
1002
{
1002
}
1040
0.0
1002
{
1002
}
1040
0.0
1002
}
1002
}
1040
1.0
1040
0.0
1040
0.0
1002
}
1002
{
1040
1.0
1040
1.0
1000

1040
0.0
1002
{
1002
}
1040
0.0
1002
{
1002
}
1040
0.0
1002
}
1002
{
1040
0.5
1040
1.0
1000

1040
0.0
1002
{
1002
}
1040
0.0
1002
{
1002
}
1040
0.0
1002
}
1002
{
1070
     0
1040
0.0
1002
{
1002
}
1040
1.0
1002
{
1002
}
1040
0.0
1002
}
1002
{
1040
0.0
1002
{
1002
{
1010
0.0
1020
0.0
1030
0.0
1002
}
1040
1.0
1000

1040
0.0
1002
{
1002
}
1040
0.0
1002
{
1002
}
1040
0.0
1002
}
1002
}
1002
{
1002
{
1070
     1
1002
{
1040
0.0
1040
1.0
1000

1040
0.0
1002
{
1002
}
1040
0.0
1002
{
1002
}
1040
0.0
1002
}
1002
}
1040
0.0
1002
{
1002
}
1010
1.0
1020
0.0
1030
0.0
1010
0.0
1020
1.0
1030
0.0
1010
0.0
1020
0.0
1030
1.0
1070
     0
1002
}
1002
{
1002
{
1040
1.0
1040
1.0
1002
{
1070
     1
1002
{
1040
1.0
1040
1.0
1000

1040
0.0
1002
{
1002
}
1040
0.0
1002
{
1002
}
1040
0.0
1002
}
1002
}
1002
}
1070
     0
1040
0.0
1002
{
1002
}
1002
}
1002
{
1002
}
1002
}
1002
{
1071
        3
1070
     3
1070
     0
1002
{
1070
     2
1070
     0
1070
     0
1040
0.0
1002
}
1070
     0
1070
     2
1002
{
1002
}
1002
}
1002
{
1040
8030.0
1040
190.300003
1040
0.305
1040
228.0
1040
545.0
1040
14.0
1040
17.4
1040
0.456
1002
}
1002
}
  0
INSERT
  5
1483
  8
ASHADE
 62
     1
  2
AVE_GLOBAL
 10
0.0
 20
0.0
 30
0.0
1001
AVE_MATERIAL
1002
{
1000
*GLOBAL*
1000
1
1000
Global finish.
1002
{
1002
}
1002
{
1070
    63
1002
{
1002
{
1010
-1.0
1020
-1.0
1030
-1.0
1002
}
1040
0.1
1000

1040
0.0
1002
{
1002
}
1040
0.0
1002
{
1002
}
1040
0.0
1002
}
1002
{
1002
{
1010
-1.0
1020
-1.0
1030
-1.0
1002
}
1040
0.7
1000

1040
0.0
1002
{
1002
}
1040
0.0
1002
{
1002
}
1040
0.0
1002
}
1002
{
1002
{
1010
-1.0
1020
-1.0
1030
-1.0
1002
}
1040
0.2
1000

1040
0.0
1002
{
1002
}
1040
0.0
1002
{
1002
}
1040
0.0
1002
}
1002
{
1070
     0
1002
{
1070
     1
1002
{
1040
1.0
1040
1.0
1000

1040
0.0
1002
{
1002
}
1040
0.0
1002
{
1002
}
1040
0.0
1002
}
1002
}
1040
1.0
1040
0.0
1040
0.0
1002
}
1002
{
1040
1.0
1040
1.0
1000

1040
0.0
1002
{
1002
}
1040
0.0
1002
{
1002
}
1040
0.0
1002
}
1002
{
1040
0.5
1040
1.0
1000

1040
0.0
1002
{
1002
}
1040
0.0
1002
{
1002
}
1040
0.0
1002
}
1002
{
1070
     0
1040
0.0
1002
{
1002
}
1040
1.0
1002
{
1002
}
1040
0.0
1002
}
1002
{
1040
0.0
1002
{
1002
{
1010
0.0
1020
0.0
1030
0.0
1002
}
1040
1.0
1000

1040
0.0
1002
{
1002
}
1040
0.0
1002
{
1002
}
1040
0.0
1002
}
1002
}
1002
{
1002
{
1070
     1
1002
{
1040
0.0
1040
1.0
1000

1040
0.0
1002
{
1002
}
1040
0.0
1002
{
1002
}
1040
0.0
1002
}
1002
}
1040
0.0
1002
{
1002
}
1010
1.0
1020
0.0
1030
0.0
1010
0.0
1020
1.0
1030
0.0
1010
0.0
1020
0.0
1030
1.0
1070
     0
1002
}
1002
{
1002
{
1040
1.0
1040
1.0
1002
{
1070
     1
1002
{
1040
1.0
1040
1.0
1000

1040
0.0
1002
{
1002
}
1040
0.0
1002
{
1002
}
1040
0.0
1002
}
1002
}
1002
}
1070
     0
1040
0.0
1002
{
1002
}
1002
}
1002
{
1002
}
1002
}
1002
{
1071
        3
1070
     3
1070
     0
1002
{
1070
     2
1070
     0
1070
     0
1040
0.0
1002
}
1070
     0
1070
     2
1002
{
1002
}
1002
}
1002
{
1040
8030.0
1040
190.300003
1040
0.305
1040
228.0
1040
545.0
1040
14.0
1040
17.4
1040
0.456
1002
}
1002
}
  0
INSERT
  5
1484
  8
ASHADE
 62
     1
  2
AVE_GLOBAL
 10
0.0
 20
0.0
 30
0.0
1001
AVE_MATERIAL
1002
{
1000
*GLOBAL*
1000
1
1000
Global finish.
1002
{
1002
}
1002
{
1070
    63
1002
{
1002
{
1010
-1.0
1020
-1.0
1030
-1.0
1002
}
1040
0.1
1000

1040
0.0
1002
{
1002
}
1040
0.0
1002
{
1002
}
1040
0.0
1002
}
1002
{
1002
{
1010
-1.0
1020
-1.0
1030
-1.0
1002
}
1040
0.7
1000

1040
0.0
1002
{
1002
}
1040
0.0
1002
{
1002
}
1040
0.0
1002
}
1002
{
1002
{
1010
-1.0
1020
-1.0
1030
-1.0
1002
}
1040
0.2
1000

1040
0.0
1002
{
1002
}
1040
0.0
1002
{
1002
}
1040
0.0
1002
}
1002
{
1070
     0
1002
{
1070
     1
1002
{
1040
1.0
1040
1.0
1000

1040
0.0
1002
{
1002
}
1040
0.0
1002
{
1002
}
1040
0.0
1002
}
1002
}
1040
1.0
1040
0.0
1040
0.0
1002
}
1002
{
1040
1.0
1040
1.0
1000

1040
0.0
1002
{
1002
}
1040
0.0
1002
{
1002
}
1040
0.0
1002
}
1002
{
1040
0.5
1040
1.0
1000

1040
0.0
1002
{
1002
}
1040
0.0
1002
{
1002
}
1040
0.0
1002
}
1002
{
1070
     0
1040
0.0
1002
{
1002
}
1040
1.0
1002
{
1002
}
1040
0.0
1002
}
1002
{
1040
0.0
1002
{
1002
{
1010
0.0
1020
0.0
1030
0.0
1002
}
1040
1.0
1000

1040
0.0
1002
{
1002
}
1040
0.0
1002
{
1002
}
1040
0.0
1002
}
1002
}
1002
{
1002
{
1070
     1
1002
{
1040
0.0
1040
1.0
1000

1040
0.0
1002
{
1002
}
1040
0.0
1002
{
1002
}
1040
0.0
1002
}
1002
}
1040
0.0
1002
{
1002
}
1010
1.0
1020
0.0
1030
0.0
1010
0.0
1020
1.0
1030
0.0
1010
0.0
1020
0.0
1030
1.0
1070
     0
1002
}
1002
{
1002
{
1040
1.0
1040
1.0
1002
{
1070
     1
1002
{
1040
1.0
1040
1.0
1000

1040
0.0
1002
{
1002
}
1040
0.0
1002
{
1002
}
1040
0.0
1002
}
1002
}
1002
}
1070
     0
1040
0.0
1002
{
1002
}
1002
}
1002
{
1002
}
1002
}
1002
{
1071
        3
1070
     3
1070
     0
1002
{
1070
     2
1070
     0
1070
     0
1040
0.0
1002
}
1070
     0
1070
     2
1002
{
1002
}
1002
}
1002
{
1040
8030.0
1040
190.300003
1040
0.305
1040
228.0
1040
545.0
1040
14.0
1040
17.4
1040
0.456
1002
}
1002
}
  0
INSERT
  5
1485
  8
ASHADE
 62
     1
  2
AVE_GLOBAL
 10
0.0
 20
0.0
 30
0.0
1001
AVE_MATERIAL
1002
{
1000
*GLOBAL*
1000
1
1000
Global finish.
1002
{
1002
}
1002
{
1070
    63
1002
{
1002
{
1010
-1.0
1020
-1.0
1030
-1.0
1002
}
1040
0.1
1000

1040
0.0
1002
{
1002
}
1040
0.0
1002
{
1002
}
1040
0.0
1002
}
1002
{
1002
{
1010
-1.0
1020
-1.0
1030
-1.0
1002
}
1040
0.7
1000

1040
0.0
1002
{
1002
}
1040
0.0
1002
{
1002
}
1040
0.0
1002
}
1002
{
1002
{
1010
-1.0
1020
-1.0
1030
-1.0
1002
}
1040
0.2
1000

1040
0.0
1002
{
1002
}
1040
0.0
1002
{
1002
}
1040
0.0
1002
}
1002
{
1070
     0
1002
{
1070
     1
1002
{
1040
1.0
1040
1.0
1000

1040
0.0
1002
{
1002
}
1040
0.0
1002
{
1002
}
1040
0.0
1002
}
1002
}
1040
1.0
1040
0.0
1040
0.0
1002
}
1002
{
1040
1.0
1040
1.0
1000

1040
0.0
1002
{
1002
}
1040
0.0
1002
{
1002
}
1040
0.0
1002
}
1002
{
1040
0.5
1040
1.0
1000

1040
0.0
1002
{
1002
}
1040
0.0
1002
{
1002
}
1040
0.0
1002
}
1002
{
1070
     0
1040
0.0
1002
{
1002
}
1040
1.0
1002
{
1002
}
1040
0.0
1002
}
1002
{
1040
0.0
1002
{
1002
{
1010
0.0
1020
0.0
1030
0.0
1002
}
1040
1.0
1000

1040
0.0
1002
{
1002
}
1040
0.0
1002
{
1002
}
1040
0.0
1002
}
1002
}
1002
{
1002
{
1070
     1
1002
{
1040
0.0
1040
1.0
1000

1040
0.0
1002
{
1002
}
1040
0.0
1002
{
1002
}
1040
0.0
1002
}
1002
}
1040
0.0
1002
{
1002
}
1010
1.0
1020
0.0
1030
0.0
1010
0.0
1020
1.0
1030
0.0
1010
0.0
1020
0.0
1030
1.0
1070
     0
1002
}
1002
{
1002
{
1040
1.0
1040
1.0
1002
{
1070
     1
1002
{
1040
1.0
1040
1.0
1000

1040
0.0
1002
{
1002
}
1040
0.0
1002
{
1002
}
1040
0.0
1002
}
1002
}
1002
}
1070
     0
1040
0.0
1002
{
1002
}
1002
}
1002
{
1002
}
1002
}
1002
{
1071
        3
1070
     3
1070
     0
1002
{
1070
     2
1070
     0
1070
     0
1040
0.0
1002
}
1070
     0
1070
     2
1002
{
1002
}
1002
}
1002
{
1040
8030.0
1040
190.300003
1040
0.305
1040
228.0
1040
545.0
1040
14.0
1040
17.4
1040
0.456
1002
}
1002
}
  0
INSERT
  5
1486
  8
ASHADE
 62
     1
  2
AVE_GLOBAL
 10
0.0
 20
0.0
 30
0.0
1001
AVE_MATERIAL
1002
{
1000
*GLOBAL*
1000
1
1000
Global finish.
1002
{
1002
}
1002
{
1070
    63
1002
{
1002
{
1010
-1.0
1020
-1.0
1030
-1.0
1002
}
1040
0.1
1000

1040
0.0
1002
{
1002
}
1040
0.0
1002
{
1002
}
1040
0.0
1002
}
1002
{
1002
{
1010
-1.0
1020
-1.0
1030
-1.0
1002
}
1040
0.7
1000

1040
0.0
1002
{
1002
}
1040
0.0
1002
{
1002
}
1040
0.0
1002
}
1002
{
1002
{
1010
-1.0
1020
-1.0
1030
-1.0
1002
}
1040
0.2
1000

1040
0.0
1002
{
1002
}
1040
0.0
1002
{
1002
}
1040
0.0
1002
}
1002
{
1070
     0
1002
{
1070
     1
1002
{
1040
1.0
1040
1.0
1000

1040
0.0
1002
{
1002
}
1040
0.0
1002
{
1002
}
1040
0.0
1002
}
1002
}
1040
1.0
1040
0.0
1040
0.0
1002
}
1002
{
1040
1.0
1040
1.0
1000

1040
0.0
1002
{
1002
}
1040
0.0
1002
{
1002
}
1040
0.0
1002
}
1002
{
1040
0.5
1040
1.0
1000

1040
0.0
1002
{
1002
}
1040
0.0
1002
{
1002
}
1040
0.0
1002
}
1002
{
1070
     0
1040
0.0
1002
{
1002
}
1040
1.0
1002
{
1002
}
1040
0.0
1002
}
1002
{
1040
0.0
1002
{
1002
{
1010
0.0
1020
0.0
1030
0.0
1002
}
1040
1.0
1000

1040
0.0
1002
{
1002
}
1040
0.0
1002
{
1002
}
1040
0.0
1002
}
1002
}
1002
{
1002
{
1070
     1
1002
{
1040
0.0
1040
1.0
1000

1040
0.0
1002
{
1002
}
1040
0.0
1002
{
1002
}
1040
0.0
1002
}
1002
}
1040
0.0
1002
{
1002
}
1010
1.0
1020
0.0
1030
0.0
1010
0.0
1020
1.0
1030
0.0
1010
0.0
1020
0.0
1030
1.0
1070
     0
1002
}
1002
{
1002
{
1040
1.0
1040
1.0
1002
{
1070
     1
1002
{
1040
1.0
1040
1.0
1000

1040
0.0
1002
{
1002
}
1040
0.0
1002
{
1002
}
1040
0.0
1002
}
1002
}
1002
}
1070
     0
1040
0.0
1002
{
1002
}
1002
}
1002
{
1002
}
1002
}
1002
{
1071
        3
1070
     3
1070
     0
1002
{
1070
     2
1070
     0
1070
     0
1040
0.0
1002
}
1070
     0
1070
     2
1002
{
1002
}
1002
}
1002
{
1040
8030.0
1040
190.300003
1040
0.305
1040
228.0
1040
545.0
1040
14.0
1040
17.4
1040
0.456
1002
}
1002
}
  0
INSERT
  5
1487
  8
ASHADE
  6
CONTINUOUS
 62
     1
  2
AVE_GLOBAL
 10
0.0
 20
0.0
 30
0.0
1001
AVE_MATERIAL
1002
{
1000
*GLOBAL*
1000
1
1000
Global finish.
1002
{
1002
}
1002
{
1070
    63
1002
{
1002
{
1010
-1.0
1020
-1.0
1030
-1.0
1002
}
1040
0.1
1000

1040
0.0
1002
{
1002
}
1040
0.0
1002
{
1002
}
1040
0.0
1002
}
1002
{
1002
{
1010
-1.0
1020
-1.0
1030
-1.0
1002
}
1040
0.7
1000

1040
0.0
1002
{
1002
}
1040
0.0
1002
{
1002
}
1040
0.0
1002
}
1002
{
1002
{
1010
-1.0
1020
-1.0
1030
-1.0
1002
}
1040
0.2
1000

1040
0.0
1002
{
1002
}
1040
0.0
1002
{
1002
}
1040
0.0
1002
}
1002
{
1070
     0
1002
{
1070
     1
1002
{
1040
1.0
1040
1.0
1000

1040
0.0
1002
{
1002
}
1040
0.0
1002
{
1002
}
1040
0.0
1002
}
1002
}
1040
1.0
1040
0.0
1040
0.0
1002
}
1002
{
1040
1.0
1040
1.0
1000

1040
0.0
1002
{
1002
}
1040
0.0
1002
{
1002
}
1040
0.0
1002
}
1002
{
1040
0.5
1040
1.0
1000

1040
0.0
1002
{
1002
}
1040
0.0
1002
{
1002
}
1040
0.0
1002
}
1002
{
1070
     0
1040
0.0
1002
{
1002
}
1040
1.0
1002
{
1002
}
1040
0.0
1002
}
1002
{
1040
0.0
1002
{
1002
{
1010
0.0
1020
0.0
1030
0.0
1002
}
1040
1.0
1000

1040
0.0
1002
{
1002
}
1040
0.0
1002
{
1002
}
1040
0.0
1002
}
1002
}
1002
{
1002
{
1070
     1
1002
{
1040
0.0
1040
1.0
1000

1040
0.0
1002
{
1002
}
1040
0.0
1002
{
1002
}
1040
0.0
1002
}
1002
}
1040
0.0
1002
{
1002
}
1010
1.0
1020
0.0
1030
0.0
1010
0.0
1020
1.0
1030
0.0
1010
0.0
1020
0.0
1030
1.0
1070
     0
1002
}
1002
{
1002
{
1040
1.0
1040
1.0
1002
{
1070
     1
1002
{
1040
1.0
1040
1.0
1000

1040
0.0
1002
{
1002
}
1040
0.0
1002
{
1002
}
1040
0.0
1002
}
1002
}
1002
}
1070
     0
1040
0.0
1002
{
1002
}
1002
}
1002
{
1002
}
1002
}
1002
{
1071
        3
1070
     3
1070
     0
1002
{
1070
     2
1070
     0
1070
     0
1040
0.0
1002
}
1070
     0
1070
     2
1002
{
1002
}
1002
}
1002
{
1040
8030.0
1040
190.300003
1040
0.305
1040
228.0
1040
545.0
1040
14.0
1040
17.4
1040
0.456
1002
}
1002
}
  0
INSERT
  5
1488
  8
ASHADE
 62
     1
  2
AVE_GLOBAL
 10
0.0
 20
0.0
 30
0.0
1001
AVE_MATERIAL
1002
{
1000
*GLOBAL*
1000
1
1000
Global finish.
1002
{
1002
}
1002
{
1070
    63
1002
{
1002
{
1010
-1.0
1020
-1.0
1030
-1.0
1002
}
1040
0.1
1000

1040
0.0
1002
{
1002
}
1040
0.0
1002
{
1002
}
1040
0.0
1002
}
1002
{
1002
{
1010
-1.0
1020
-1.0
1030
-1.0
1002
}
1040
0.7
1000

1040
0.0
1002
{
1002
}
1040
0.0
1002
{
1002
}
1040
0.0
1002
}
1002
{
1002
{
1010
-1.0
1020
-1.0
1030
-1.0
1002
}
1040
0.2
1000

1040
0.0
1002
{
1002
}
1040
0.0
1002
{
1002
}
1040
0.0
1002
}
1002
{
1070
     0
1002
{
1070
     1
1002
{
1040
1.0
1040
1.0
1000

1040
0.0
1002
{
1002
}
1040
0.0
1002
{
1002
}
1040
0.0
1002
}
1002
}
1040
1.0
1040
0.0
1040
0.0
1002
}
1002
{
1040
1.0
1040
1.0
1000

1040
0.0
1002
{
1002
}
1040
0.0
1002
{
1002
}
1040
0.0
1002
}
1002
{
1040
0.5
1040
1.0
1000

1040
0.0
1002
{
1002
}
1040
0.0
1002
{
1002
}
1040
0.0
1002
}
1002
{
1070
     0
1040
0.0
1002
{
1002
}
1040
1.0
1002
{
1002
}
1040
0.0
1002
}
1002
{
1040
0.0
1002
{
1002
{
1010
0.0
1020
0.0
1030
0.0
1002
}
1040
1.0
1000

1040
0.0
1002
{
1002
}
1040
0.0
1002
{
1002
}
1040
0.0
1002
}
1002
}
1002
{
1002
{
1070
     1
1002
{
1040
0.0
1040
1.0
1000

1040
0.0
1002
{
1002
}
1040
0.0
1002
{
1002
}
1040
0.0
1002
}
1002
}
1040
0.0
1002
{
1002
}
1010
1.0
1020
0.0
1030
0.0
1010
0.0
1020
1.0
1030
0.0
1010
0.0
1020
0.0
1030
1.0
1070
     0
1002
}
1002
{
1002
{
1040
1.0
1040
1.0
1002
{
1070
     1
1002
{
1040
1.0
1040
1.0
1000

1040
0.0
1002
{
1002
}
1040
0.0
1002
{
1002
}
1040
0.0
1002
}
1002
}
1002
}
1070
     0
1040
0.0
1002
{
1002
}
1002
}
1002
{
1002
}
1002
}
1002
{
1071
        3
1070
     3
1070
     0
1002
{
1070
     2
1070
     0
1070
     0
1040
0.0
1002
}
1070
     0
1070
     2
1002
{
1002
}
1002
}
1002
{
1040
8030.0
1040
190.300003
1040
0.305
1040
228.0
1040
545.0
1040
14.0
1040
17.4
1040
0.456
1002
}
1002
}
  0
INSERT
  5
1489
  8
ASHADE
 62
     1
  2
AVE_GLOBAL
 10
0.0
 20
0.0
 30
0.0
1001
AVE_MATERIAL
1002
{
1000
*GLOBAL*
1000
1
1000
Global finish.
1002
{
1002
}
1002
{
1070
    63
1002
{
1002
{
1010
-1.0
1020
-1.0
1030
-1.0
1002
}
1040
0.1
1000

1040
0.0
1002
{
1002
}
1040
0.0
1002
{
1002
}
1040
0.0
1002
}
1002
{
1002
{
1010
-1.0
1020
-1.0
1030
-1.0
1002
}
1040
0.7
1000

1040
0.0
1002
{
1002
}
1040
0.0
1002
{
1002
}
1040
0.0
1002
}
1002
{
1002
{
1010
-1.0
1020
-1.0
1030
-1.0
1002
}
1040
0.2
1000

1040
0.0
1002
{
1002
}
1040
0.0
1002
{
1002
}
1040
0.0
1002
}
1002
{
1070
     0
1002
{
1070
     1
1002
{
1040
1.0
1040
1.0
1000

1040
0.0
1002
{
1002
}
1040
0.0
1002
{
1002
}
1040
0.0
1002
}
1002
}
1040
1.0
1040
0.0
1040
0.0
1002
}
1002
{
1040
1.0
1040
1.0
1000

1040
0.0
1002
{
1002
}
1040
0.0
1002
{
1002
}
1040
0.0
1002
}
1002
{
1040
0.5
1040
1.0
1000

1040
0.0
1002
{
1002
}
1040
0.0
1002
{
1002
}
1040
0.0
1002
}
1002
{
1070
     0
1040
0.0
1002
{
1002
}
1040
1.0
1002
{
1002
}
1040
0.0
1002
}
1002
{
1040
0.0
1002
{
1002
{
1010
0.0
1020
0.0
1030
0.0
1002
}
1040
1.0
1000

1040
0.0
1002
{
1002
}
1040
0.0
1002
{
1002
}
1040
0.0
1002
}
1002
}
1002
{
1002
{
1070
     1
1002
{
1040
0.0
1040
1.0
1000

1040
0.0
1002
{
1002
}
1040
0.0
1002
{
1002
}
1040
0.0
1002
}
1002
}
1040
0.0
1002
{
1002
}
1010
1.0
1020
0.0
1030
0.0
1010
0.0
1020
1.0
1030
0.0
1010
0.0
1020
0.0
1030
1.0
1070
     0
1002
}
1002
{
1002
{
1040
1.0
1040
1.0
1002
{
1070
     1
1002
{
1040
1.0
1040
1.0
1000

1040
0.0
1002
{
1002
}
1040
0.0
1002
{
1002
}
1040
0.0
1002
}
1002
}
1002
}
1070
     0
1040
0.0
1002
{
1002
}
1002
}
1002
{
1002
}
1002
}
1002
{
1071
        3
1070
     3
1070
     0
1002
{
1070
     2
1070
     0
1070
     0
1040
0.0
1002
}
1070
     0
1070
     2
1002
{
1002
}
1002
}
1002
{
1040
8030.0
1040
190.300003
1040
0.305
1040
228.0
1040
545.0
1040
14.0
1040
17.4
1040
0.456
1002
}
1002
}
  0
INSERT
  5
148A
  8
ASHADE
 62
     1
  2
AVE_GLOBAL
 10
0.0
 20
0.0
 30
0.0
1001
AVE_MATERIAL
1002
{
1000
*GLOBAL*
1000
1
1000
Global finish.
1002
{
1002
}
1002
{
1070
    63
1002
{
1002
{
1010
-1.0
1020
-1.0
1030
-1.0
1002
}
1040
0.1
1000

1040
0.0
1002
{
1002
}
1040
0.0
1002
{
1002
}
1040
0.0
1002
}
1002
{
1002
{
1010
-1.0
1020
-1.0
1030
-1.0
1002
}
1040
0.7
1000

1040
0.0
1002
{
1002
}
1040
0.0
1002
{
1002
}
1040
0.0
1002
}
1002
{
1002
{
1010
-1.0
1020
-1.0
1030
-1.0
1002
}
1040
0.2
1000

1040
0.0
1002
{
1002
}
1040
0.0
1002
{
1002
}
1040
0.0
1002
}
1002
{
1070
     0
1002
{
1070
     1
1002
{
1040
1.0
1040
1.0
1000

1040
0.0
1002
{
1002
}
1040
0.0
1002
{
1002
}
1040
0.0
1002
}
1002
}
1040
1.0
1040
0.0
1040
0.0
1002
}
1002
{
1040
1.0
1040
1.0
1000

1040
0.0
1002
{
1002
}
1040
0.0
1002
{
1002
}
1040
0.0
1002
}
1002
{
1040
0.5
1040
1.0
1000

1040
0.0
1002
{
1002
}
1040
0.0
1002
{
1002
}
1040
0.0
1002
}
1002
{
1070
     0
1040
0.0
1002
{
1002
}
1040
1.0
1002
{
1002
}
1040
0.0
1002
}
1002
{
1040
0.0
1002
{
1002
{
1010
0.0
1020
0.0
1030
0.0
1002
}
1040
1.0
1000

1040
0.0
1002
{
1002
}
1040
0.0
1002
{
1002
}
1040
0.0
1002
}
1002
}
1002
{
1002
{
1070
     1
1002
{
1040
0.0
1040
1.0
1000

1040
0.0
1002
{
1002
}
1040
0.0
1002
{
1002
}
1040
0.0
1002
}
1002
}
1040
0.0
1002
{
1002
}
1010
1.0
1020
0.0
1030
0.0
1010
0.0
1020
1.0
1030
0.0
1010
0.0
1020
0.0
1030
1.0
1070
     0
1002
}
1002
{
1002
{
1040
1.0
1040
1.0
1002
{
1070
     1
1002
{
1040
1.0
1040
1.0
1000

1040
0.0
1002
{
1002
}
1040
0.0
1002
{
1002
}
1040
0.0
1002
}
1002
}
1002
}
1070
     0
1040
0.0
1002
{
1002
}
1002
}
1002
{
1002
}
1002
}
1002
{
1071
        3
1070
     3
1070
     0
1002
{
1070
     2
1070
     0
1070
     0
1040
0.0
1002
}
1070
     0
1070
     2
1002
{
1002
}
1002
}
1002
{
1040
8030.0
1040
190.300003
1040
0.305
1040
228.0
1040
545.0
1040
14.0
1040
17.4
1040
0.456
1002
}
1002
}
  0
INSERT
  5
148B
  8
ASHADE
 62
     1
  2
AVE_GLOBAL
 10
0.0
 20
0.0
 30
0.0
1001
AVE_MATERIAL
1002
{
1000
*GLOBAL*
1000
1
1000
Global finish.
1002
{
1002
}
1002
{
1070
    63
1002
{
1002
{
1010
-1.0
1020
-1.0
1030
-1.0
1002
}
1040
0.1
1000

1040
0.0
1002
{
1002
}
1040
0.0
1002
{
1002
}
1040
0.0
1002
}
1002
{
1002
{
1010
-1.0
1020
-1.0
1030
-1.0
1002
}
1040
0.7
1000

1040
0.0
1002
{
1002
}
1040
0.0
1002
{
1002
}
1040
0.0
1002
}
1002
{
1002
{
1010
-1.0
1020
-1.0
1030
-1.0
1002
}
1040
0.2
1000

1040
0.0
1002
{
1002
}
1040
0.0
1002
{
1002
}
1040
0.0
1002
}
1002
{
1070
     0
1002
{
1070
     1
1002
{
1040
1.0
1040
1.0
1000

1040
0.0
1002
{
1002
}
1040
0.0
1002
{
1002
}
1040
0.0
1002
}
1002
}
1040
1.0
1040
0.0
1040
0.0
1002
}
1002
{
1040
1.0
1040
1.0
1000

1040
0.0
1002
{
1002
}
1040
0.0
1002
{
1002
}
1040
0.0
1002
}
1002
{
1040
0.5
1040
1.0
1000

1040
0.0
1002
{
1002
}
1040
0.0
1002
{
1002
}
1040
0.0
1002
}
1002
{
1070
     0
1040
0.0
1002
{
1002
}
1040
1.0
1002
{
1002
}
1040
0.0
1002
}
1002
{
1040
0.0
1002
{
1002
{
1010
0.0
1020
0.0
1030
0.0
1002
}
1040
1.0
1000

1040
0.0
1002
{
1002
}
1040
0.0
1002
{
1002
}
1040
0.0
1002
}
1002
}
1002
{
1002
{
1070
     1
1002
{
1040
0.0
1040
1.0
1000

1040
0.0
1002
{
1002
}
1040
0.0
1002
{
1002
}
1040
0.0
1002
}
1002
}
1040
0.0
1002
{
1002
}
1010
1.0
1020
0.0
1030
0.0
1010
0.0
1020
1.0
1030
0.0
1010
0.0
1020
0.0
1030
1.0
1070
     0
1002
}
1002
{
1002
{
1040
1.0
1040
1.0
1002
{
1070
     1
1002
{
1040
1.0
1040
1.0
1000

1040
0.0
1002
{
1002
}
1040
0.0
1002
{
1002
}
1040
0.0
1002
}
1002
}
1002
}
1070
     0
1040
0.0
1002
{
1002
}
1002
}
1002
{
1002
}
1002
}
1002
{
1071
        3
1070
     3
1070
     0
1002
{
1070
     2
1070
     0
1070
     0
1040
0.0
1002
}
1070
     0
1070
     2
1002
{
1002
}
1002
}
1002
{
1040
8030.0
1040
190.300003
1040
0.305
1040
228.0
1040
545.0
1040
14.0
1040
17.4
1040
0.456
1002
}
1002
}
  0
INSERT
  5
148C
  8
ASHADE
 62
     1
  2
AVE_GLOBAL
 10
0.0
 20
0.0
 30
0.0
1001
AVE_MATERIAL
1002
{
1000
*GLOBAL*
1000
1
1000
Global finish.
1002
{
1002
}
1002
{
1070
    63
1002
{
1002
{
1010
-1.0
1020
-1.0
1030
-1.0
1002
}
1040
0.1
1000

1040
0.0
1002
{
1002
}
1040
0.0
1002
{
1002
}
1040
0.0
1002
}
1002
{
1002
{
1010
-1.0
1020
-1.0
1030
-1.0
1002
}
1040
0.7
1000

1040
0.0
1002
{
1002
}
1040
0.0
1002
{
1002
}
1040
0.0
1002
}
1002
{
1002
{
1010
-1.0
1020
-1.0
1030
-1.0
1002
}
1040
0.2
1000

1040
0.0
1002
{
1002
}
1040
0.0
1002
{
1002
}
1040
0.0
1002
}
1002
{
1070
     0
1002
{
1070
     1
1002
{
1040
1.0
1040
1.0
1000

1040
0.0
1002
{
1002
}
1040
0.0
1002
{
1002
}
1040
0.0
1002
}
1002
}
1040
1.0
1040
0.0
1040
0.0
1002
}
1002
{
1040
1.0
1040
1.0
1000

1040
0.0
1002
{
1002
}
1040
0.0
1002
{
1002
}
1040
0.0
1002
}
1002
{
1040
0.5
1040
1.0
1000

1040
0.0
1002
{
1002
}
1040
0.0
1002
{
1002
}
1040
0.0
1002
}
1002
{
1070
     0
1040
0.0
1002
{
1002
}
1040
1.0
1002
{
1002
}
1040
0.0
1002
}
1002
{
1040
0.0
1002
{
1002
{
1010
0.0
1020
0.0
1030
0.0
1002
}
1040
1.0
1000

1040
0.0
1002
{
1002
}
1040
0.0
1002
{
1002
}
1040
0.0
1002
}
1002
}
1002
{
1002
{
1070
     1
1002
{
1040
0.0
1040
1.0
1000

1040
0.0
1002
{
1002
}
1040
0.0
1002
{
1002
}
1040
0.0
1002
}
1002
}
1040
0.0
1002
{
1002
}
1010
1.0
1020
0.0
1030
0.0
1010
0.0
1020
1.0
1030
0.0
1010
0.0
1020
0.0
1030
1.0
1070
     0
1002
}
1002
{
1002
{
1040
1.0
1040
1.0
1002
{
1070
     1
1002
{
1040
1.0
1040
1.0
1000

1040
0.0
1002
{
1002
}
1040
0.0
1002
{
1002
}
1040
0.0
1002
}
1002
}
1002
}
1070
     0
1040
0.0
1002
{
1002
}
1002
}
1002
{
1002
}
1002
}
1002
{
1071
        3
1070
     3
1070
     0
1002
{
1070
     2
1070
     0
1070
     0
1040
0.0
1002
}
1070
     0
1070
     2
1002
{
1002
}
1002
}
1002
{
1040
8030.0
1040
190.300003
1040
0.305
1040
228.0
1040
545.0
1040
14.0
1040
17.4
1040
0.456
1002
}
1002
}
  0
INSERT
  5
148D
  8
ASHADE
 62
     1
  2
AVE_GLOBAL
 10
0.0
 20
0.0
 30
0.0
1001
AVE_MATERIAL
1002
{
1000
*GLOBAL*
1000
1
1000
Global finish.
1002
{
1002
}
1002
{
1070
    63
1002
{
1002
{
1010
-1.0
1020
-1.0
1030
-1.0
1002
}
1040
0.1
1000

1040
0.0
1002
{
1002
}
1040
0.0
1002
{
1002
}
1040
0.0
1002
}
1002
{
1002
{
1010
-1.0
1020
-1.0
1030
-1.0
1002
}
1040
0.7
1000

1040
0.0
1002
{
1002
}
1040
0.0
1002
{
1002
}
1040
0.0
1002
}
1002
{
1002
{
1010
-1.0
1020
-1.0
1030
-1.0
1002
}
1040
0.2
1000

1040
0.0
1002
{
1002
}
1040
0.0
1002
{
1002
}
1040
0.0
1002
}
1002
{
1070
     0
1002
{
1070
     1
1002
{
1040
1.0
1040
1.0
1000

1040
0.0
1002
{
1002
}
1040
0.0
1002
{
1002
}
1040
0.0
1002
}
1002
}
1040
1.0
1040
0.0
1040
0.0
1002
}
1002
{
1040
1.0
1040
1.0
1000

1040
0.0
1002
{
1002
}
1040
0.0
1002
{
1002
}
1040
0.0
1002
}
1002
{
1040
0.5
1040
1.0
1000

1040
0.0
1002
{
1002
}
1040
0.0
1002
{
1002
}
1040
0.0
1002
}
1002
{
1070
     0
1040
0.0
1002
{
1002
}
1040
1.0
1002
{
1002
}
1040
0.0
1002
}
1002
{
1040
0.0
1002
{
1002
{
1010
0.0
1020
0.0
1030
0.0
1002
}
1040
1.0
1000

1040
0.0
1002
{
1002
}
1040
0.0
1002
{
1002
}
1040
0.0
1002
}
1002
}
1002
{
1002
{
1070
     1
1002
{
1040
0.0
1040
1.0
1000

1040
0.0
1002
{
1002
}
1040
0.0
1002
{
1002
}
1040
0.0
1002
}
1002
}
1040
0.0
1002
{
1002
}
1010
1.0
1020
0.0
1030
0.0
1010
0.0
1020
1.0
1030
0.0
1010
0.0
1020
0.0
1030
1.0
1070
     0
1002
}
1002
{
1002
{
1040
1.0
1040
1.0
1002
{
1070
     1
1002
{
1040
1.0
1040
1.0
1000

1040
0.0
1002
{
1002
}
1040
0.0
1002
{
1002
}
1040
0.0
1002
}
1002
}
1002
}
1070
     0
1040
0.0
1002
{
1002
}
1002
}
1002
{
1002
}
1002
}
1002
{
1071
        3
1070
     3
1070
     0
1002
{
1070
     2
1070
     0
1070
     0
1040
0.0
1002
}
1070
     0
1070
     2
1002
{
1002
}
1002
}
1002
{
1040
8030.0
1040
190.300003
1040
0.305
1040
228.0
1040
545.0
1040
14.0
1040
17.4
1040
0.456
1002
}
1002
}
  0
INSERT
  5
148E
  8
ASHADE
 62
     1
  2
AVE_GLOBAL
 10
0.0
 20
0.0
 30
0.0
1001
AVE_MATERIAL
1002
{
1000
*GLOBAL*
1000
1
1000
Global finish.
1002
{
1002
}
1002
{
1070
    63
1002
{
1002
{
1010
-1.0
1020
-1.0
1030
-1.0
1002
}
1040
0.1
1000

1040
0.0
1002
{
1002
}
1040
0.0
1002
{
1002
}
1040
0.0
1002
}
1002
{
1002
{
1010
-1.0
1020
-1.0
1030
-1.0
1002
}
1040
0.7
1000

1040
0.0
1002
{
1002
}
1040
0.0
1002
{
1002
}
1040
0.0
1002
}
1002
{
1002
{
1010
-1.0
1020
-1.0
1030
-1.0
1002
}
1040
0.2
1000

1040
0.0
1002
{
1002
}
1040
0.0
1002
{
1002
}
1040
0.0
1002
}
1002
{
1070
     0
1002
{
1070
     1
1002
{
1040
1.0
1040
1.0
1000

1040
0.0
1002
{
1002
}
1040
0.0
1002
{
1002
}
1040
0.0
1002
}
1002
}
1040
1.0
1040
0.0
1040
0.0
1002
}
1002
{
1040
1.0
1040
1.0
1000

1040
0.0
1002
{
1002
}
1040
0.0
1002
{
1002
}
1040
0.0
1002
}
1002
{
1040
0.5
1040
1.0
1000

1040
0.0
1002
{
1002
}
1040
0.0
1002
{
1002
}
1040
0.0
1002
}
1002
{
1070
     0
1040
0.0
1002
{
1002
}
1040
1.0
1002
{
1002
}
1040
0.0
1002
}
1002
{
1040
0.0
1002
{
1002
{
1010
0.0
1020
0.0
1030
0.0
1002
}
1040
1.0
1000

1040
0.0
1002
{
1002
}
1040
0.0
1002
{
1002
}
1040
0.0
1002
}
1002
}
1002
{
1002
{
1070
     1
1002
{
1040
0.0
1040
1.0
1000

1040
0.0
1002
{
1002
}
1040
0.0
1002
{
1002
}
1040
0.0
1002
}
1002
}
1040
0.0
1002
{
1002
}
1010
1.0
1020
0.0
1030
0.0
1010
0.0
1020
1.0
1030
0.0
1010
0.0
1020
0.0
1030
1.0
1070
     0
1002
}
1002
{
1002
{
1040
1.0
1040
1.0
1002
{
1070
     1
1002
{
1040
1.0
1040
1.0
1000

1040
0.0
1002
{
1002
}
1040
0.0
1002
{
1002
}
1040
0.0
1002
}
1002
}
1002
}
1070
     0
1040
0.0
1002
{
1002
}
1002
}
1002
{
1002
}
1002
}
1002
{
1071
        3
1070
     3
1070
     0
1002
{
1070
     2
1070
     0
1070
     0
1040
0.0
1002
}
1070
     0
1070
     2
1002
{
1002
}
1002
}
1002
{
1040
8030.0
1040
190.300003
1040
0.305
1040
228.0
1040
545.0
1040
14.0
1040
17.4
1040
0.456
1002
}
1002
}
  0
INSERT
  5
148F
  8
ASHADE
 62
     1
  2
AVE_GLOBAL
 10
0.0
 20
0.0
 30
0.0
1001
AVE_MATERIAL
1002
{
1000
*GLOBAL*
1000
1
1000
Global finish.
1002
{
1002
}
1002
{
1070
    63
1002
{
1002
{
1010
-1.0
1020
-1.0
1030
-1.0
1002
}
1040
0.1
1000

1040
0.0
1002
{
1002
}
1040
0.0
1002
{
1002
}
1040
0.0
1002
}
1002
{
1002
{
1010
-1.0
1020
-1.0
1030
-1.0
1002
}
1040
0.7
1000

1040
0.0
1002
{
1002
}
1040
0.0
1002
{
1002
}
1040
0.0
1002
}
1002
{
1002
{
1010
-1.0
1020
-1.0
1030
-1.0
1002
}
1040
0.2
1000

1040
0.0
1002
{
1002
}
1040
0.0
1002
{
1002
}
1040
0.0
1002
}
1002
{
1070
     0
1002
{
1070
     1
1002
{
1040
1.0
1040
1.0
1000

1040
0.0
1002
{
1002
}
1040
0.0
1002
{
1002
}
1040
0.0
1002
}
1002
}
1040
1.0
1040
0.0
1040
0.0
1002
}
1002
{
1040
1.0
1040
1.0
1000

1040
0.0
1002
{
1002
}
1040
0.0
1002
{
1002
}
1040
0.0
1002
}
1002
{
1040
0.5
1040
1.0
1000

1040
0.0
1002
{
1002
}
1040
0.0
1002
{
1002
}
1040
0.0
1002
}
1002
{
1070
     0
1040
0.0
1002
{
1002
}
1040
1.0
1002
{
1002
}
1040
0.0
1002
}
1002
{
1040
0.0
1002
{
1002
{
1010
0.0
1020
0.0
1030
0.0
1002
}
1040
1.0
1000

1040
0.0
1002
{
1002
}
1040
0.0
1002
{
1002
}
1040
0.0
1002
}
1002
}
1002
{
1002
{
1070
     1
1002
{
1040
0.0
1040
1.0
1000

1040
0.0
1002
{
1002
}
1040
0.0
1002
{
1002
}
1040
0.0
1002
}
1002
}
1040
0.0
1002
{
1002
}
1010
1.0
1020
0.0
1030
0.0
1010
0.0
1020
1.0
1030
0.0
1010
0.0
1020
0.0
1030
1.0
1070
     0
1002
}
1002
{
1002
{
1040
1.0
1040
1.0
1002
{
1070
     1
1002
{
1040
1.0
1040
1.0
1000

1040
0.0
1002
{
1002
}
1040
0.0
1002
{
1002
}
1040
0.0
1002
}
1002
}
1002
}
1070
     0
1040
0.0
1002
{
1002
}
1002
}
1002
{
1002
}
1002
}
1002
{
1071
        3
1070
     3
1070
     0
1002
{
1070
     2
1070
     0
1070
     0
1040
0.0
1002
}
1070
     0
1070
     2
1002
{
1002
}
1002
}
1002
{
1040
8030.0
1040
190.300003
1040
0.305
1040
228.0
1040
545.0
1040
14.0
1040
17.4
1040
0.456
1002
}
1002
}
  0
INSERT
  5
1490
  8
ASHADE
 62
     1
  2
AVE_GLOBAL
 10
0.0
 20
0.0
 30
0.0
1001
AVE_MATERIAL
1002
{
1000
*GLOBAL*
1000
1
1000
Global finish.
1002
{
1002
}
1002
{
1070
    63
1002
{
1002
{
1010
-1.0
1020
-1.0
1030
-1.0
1002
}
1040
0.1
1000

1040
0.0
1002
{
1002
}
1040
0.0
1002
{
1002
}
1040
0.0
1002
}
1002
{
1002
{
1010
-1.0
1020
-1.0
1030
-1.0
1002
}
1040
0.7
1000

1040
0.0
1002
{
1002
}
1040
0.0
1002
{
1002
}
1040
0.0
1002
}
1002
{
1002
{
1010
-1.0
1020
-1.0
1030
-1.0
1002
}
1040
0.2
1000

1040
0.0
1002
{
1002
}
1040
0.0
1002
{
1002
}
1040
0.0
1002
}
1002
{
1070
     0
1002
{
1070
     1
1002
{
1040
1.0
1040
1.0
1000

1040
0.0
1002
{
1002
}
1040
0.0
1002
{
1002
}
1040
0.0
1002
}
1002
}
1040
1.0
1040
0.0
1040
0.0
1002
}
1002
{
1040
1.0
1040
1.0
1000

1040
0.0
1002
{
1002
}
1040
0.0
1002
{
1002
}
1040
0.0
1002
}
1002
{
1040
0.5
1040
1.0
1000

1040
0.0
1002
{
1002
}
1040
0.0
1002
{
1002
}
1040
0.0
1002
}
1002
{
1070
     0
1040
0.0
1002
{
1002
}
1040
1.0
1002
{
1002
}
1040
0.0
1002
}
1002
{
1040
0.0
1002
{
1002
{
1010
0.0
1020
0.0
1030
0.0
1002
}
1040
1.0
1000

1040
0.0
1002
{
1002
}
1040
0.0
1002
{
1002
}
1040
0.0
1002
}
1002
}
1002
{
1002
{
1070
     1
1002
{
1040
0.0
1040
1.0
1000

1040
0.0
1002
{
1002
}
1040
0.0
1002
{
1002
}
1040
0.0
1002
}
1002
}
1040
0.0
1002
{
1002
}
1010
1.0
1020
0.0
1030
0.0
1010
0.0
1020
1.0
1030
0.0
1010
0.0
1020
0.0
1030
1.0
1070
     0
1002
}
1002
{
1002
{
1040
1.0
1040
1.0
1002
{
1070
     1
1002
{
1040
1.0
1040
1.0
1000

1040
0.0
1002
{
1002
}
1040
0.0
1002
{
1002
}
1040
0.0
1002
}
1002
}
1002
}
1070
     0
1040
0.0
1002
{
1002
}
1002
}
1002
{
1002
}
1002
}
1002
{
1071
        3
1070
     3
1070
     0
1002
{
1070
     2
1070
     0
1070
     0
1040
0.0
1002
}
1070
     0
1070
     2
1002
{
1002
}
1002
}
1002
{
1040
8030.0
1040
190.300003
1040
0.305
1040
228.0
1040
545.0
1040
14.0
1040
17.4
1040
0.456
1002
}
1002
}
  0
INSERT
  5
1491
  8
ASHADE
 62
     1
  2
AVE_GLOBAL
 10
0.0
 20
0.0
 30
0.0
1001
AVE_MATERIAL
1002
{
1000
*GLOBAL*
1000
1
1000
Global finish.
1002
{
1002
}
1002
{
1070
    63
1002
{
1002
{
1010
-1.0
1020
-1.0
1030
-1.0
1002
}
1040
0.1
1000

1040
0.0
1002
{
1002
}
1040
0.0
1002
{
1002
}
1040
0.0
1002
}
1002
{
1002
{
1010
-1.0
1020
-1.0
1030
-1.0
1002
}
1040
0.7
1000

1040
0.0
1002
{
1002
}
1040
0.0
1002
{
1002
}
1040
0.0
1002
}
1002
{
1002
{
1010
-1.0
1020
-1.0
1030
-1.0
1002
}
1040
0.2
1000

1040
0.0
1002
{
1002
}
1040
0.0
1002
{
1002
}
1040
0.0
1002
}
1002
{
1070
     0
1002
{
1070
     1
1002
{
1040
1.0
1040
1.0
1000

1040
0.0
1002
{
1002
}
1040
0.0
1002
{
1002
}
1040
0.0
1002
}
1002
}
1040
1.0
1040
0.0
1040
0.0
1002
}
1002
{
1040
1.0
1040
1.0
1000

1040
0.0
1002
{
1002
}
1040
0.0
1002
{
1002
}
1040
0.0
1002
}
1002
{
1040
0.5
1040
1.0
1000

1040
0.0
1002
{
1002
}
1040
0.0
1002
{
1002
}
1040
0.0
1002
}
1002
{
1070
     0
1040
0.0
1002
{
1002
}
1040
1.0
1002
{
1002
}
1040
0.0
1002
}
1002
{
1040
0.0
1002
{
1002
{
1010
0.0
1020
0.0
1030
0.0
1002
}
1040
1.0
1000

1040
0.0
1002
{
1002
}
1040
0.0
1002
{
1002
}
1040
0.0
1002
}
1002
}
1002
{
1002
{
1070
     1
1002
{
1040
0.0
1040
1.0
1000

1040
0.0
1002
{
1002
}
1040
0.0
1002
{
1002
}
1040
0.0
1002
}
1002
}
1040
0.0
1002
{
1002
}
1010
1.0
1020
0.0
1030
0.0
1010
0.0
1020
1.0
1030
0.0
1010
0.0
1020
0.0
1030
1.0
1070
     0
1002
}
1002
{
1002
{
1040
1.0
1040
1.0
1002
{
1070
     1
1002
{
1040
1.0
1040
1.0
1000

1040
0.0
1002
{
1002
}
1040
0.0
1002
{
1002
}
1040
0.0
1002
}
1002
}
1002
}
1070
     0
1040
0.0
1002
{
1002
}
1002
}
1002
{
1002
}
1002
}
1002
{
1071
        3
1070
     3
1070
     0
1002
{
1070
     2
1070
     0
1070
     0
1040
0.0
1002
}
1070
     0
1070
     2
1002
{
1002
}
1002
}
1002
{
1040
8030.0
1040
190.300003
1040
0.305
1040
228.0
1040
545.0
1040
14.0
1040
17.4
1040
0.456
1002
}
1002
}
  0
INSERT
  5
1E7C
  8
ASHADE
 62
     1
  2
AVE_GLOBAL
 10
0.0
 20
0.0
 30
0.0
1001
AVE_MATERIAL
1002
{
1000
*GLOBAL*
1000
1
1000
Global finish.
1002
{
1002
}
1002
{
1070
    63
1002
{
1002
{
1010
-1.0
1020
-1.0
1030
-1.0
1002
}
1040
0.1
1000

1040
0.0
1002
{
1002
}
1040
0.0
1002
{
1002
}
1040
0.0
1002
}
1002
{
1002
{
1010
-1.0
1020
-1.0
1030
-1.0
1002
}
1040
0.7
1000

1040
0.0
1002
{
1002
}
1040
0.0
1002
{
1002
}
1040
0.0
1002
}
1002
{
1002
{
1010
-1.0
1020
-1.0
1030
-1.0
1002
}
1040
0.2
1000

1040
0.0
1002
{
1002
}
1040
0.0
1002
{
1002
}
1040
0.0
1002
}
1002
{
1070
     0
1002
{
1070
     1
1002
{
1040
1.0
1040
1.0
1000

1040
0.0
1002
{
1002
}
1040
0.0
1002
{
1002
}
1040
0.0
1002
}
1002
}
1040
1.0
1040
0.0
1040
0.0
1002
}
1002
{
1040
1.0
1040
1.0
1000

1040
0.0
1002
{
1002
}
1040
0.0
1002
{
1002
}
1040
0.0
1002
}
1002
{
1040
0.5
1040
1.0
1000

1040
0.0
1002
{
1002
}
1040
0.0
1002
{
1002
}
1040
0.0
1002
}
1002
{
1070
     0
1040
0.0
1002
{
1002
}
1040
1.0
1002
{
1002
}
1040
0.0
1002
}
1002
{
1040
0.0
1002
{
1002
{
1010
0.0
1020
0.0
1030
0.0
1002
}
1040
1.0
1000

1040
0.0
1002
{
1002
}
1040
0.0
1002
{
1002
}
1040
0.0
1002
}
1002
}
1002
{
1002
{
1070
     1
1002
{
1040
0.0
1040
1.0
1000

1040
0.0
1002
{
1002
}
1040
0.0
1002
{
1002
}
1040
0.0
1002
}
1002
}
1040
0.0
1002
{
1002
}
1010
1.0
1020
0.0
1030
0.0
1010
0.0
1020
1.0
1030
0.0
1010
0.0
1020
0.0
1030
1.0
1070
     0
1002
}
1002
{
1002
{
1040
1.0
1040
1.0
1002
{
1070
     1
1002
{
1040
1.0
1040
1.0
1000

1040
0.0
1002
{
1002
}
1040
0.0
1002
{
1002
}
1040
0.0
1002
}
1002
}
1002
}
1070
     0
1040
0.0
1002
{
1002
}
1002
}
1002
{
1002
}
1002
}
1002
{
1071
        3
1070
     3
1070
     0
1002
{
1070
     2
1070
     0
1070
     0
1040
0.0
1002
}
1070
     0
1070
     2
1002
{
1002
}
1002
}
1002
{
1040
8030.0
1040
190.300003
1040
0.305
1040
228.0
1040
545.0
1040
14.0
1040
17.4
1040
0.456
1002
}
1002
}
  0
INSERT
  5
25F1
  8
ASHADE
 62
     1
  2
AVE_GLOBAL
 10
0.0
 20
0.0
 30
0.0
1001
AVE_MATERIAL
1002
{
1000
*GLOBAL*
1000
1
1000
Global finish.
1002
{
1002
}
1002
{
1070
    63
1002
{
1002
{
1010
-1.0
1020
-1.0
1030
-1.0
1002
}
1040
0.1
1000

1040
0.0
1002
{
1002
}
1040
0.0
1002
{
1002
}
1040
0.0
1002
}
1002
{
1002
{
1010
-1.0
1020
-1.0
1030
-1.0
1002
}
1040
0.7
1000

1040
0.0
1002
{
1002
}
1040
0.0
1002
{
1002
}
1040
0.0
1002
}
1002
{
1002
{
1010
-1.0
1020
-1.0
1030
-1.0
1002
}
1040
0.2
1000

1040
0.0
1002
{
1002
}
1040
0.0
1002
{
1002
}
1040
0.0
1002
}
1002
{
1070
     0
1002
{
1070
     1
1002
{
1040
1.0
1040
1.0
1000

1040
0.0
1002
{
1002
}
1040
0.0
1002
{
1002
}
1040
0.0
1002
}
1002
}
1040
1.0
1040
0.0
1040
0.0
1002
}
1002
{
1040
1.0
1040
1.0
1000

1040
0.0
1002
{
1002
}
1040
0.0
1002
{
1002
}
1040
0.0
1002
}
1002
{
1040
0.5
1040
1.0
1000

1040
0.0
1002
{
1002
}
1040
0.0
1002
{
1002
}
1040
0.0
1002
}
1002
{
1070
     0
1040
0.0
1002
{
1002
}
1040
1.0
1002
{
1002
}
1040
0.0
1002
}
1002
{
1040
0.0
1002
{
1002
{
1010
0.0
1020
0.0
1030
0.0
1002
}
1040
1.0
1000

1040
0.0
1002
{
1002
}
1040
0.0
1002
{
1002
}
1040
0.0
1002
}
1002
}
1002
{
1002
{
1070
     1
1002
{
1040
0.0
1040
1.0
1000

1040
0.0
1002
{
1002
}
1040
0.0
1002
{
1002
}
1040
0.0
1002
}
1002
}
1040
0.0
1002
{
1002
}
1010
1.0
1020
0.0
1030
0.0
1010
0.0
1020
1.0
1030
0.0
1010
0.0
1020
0.0
1030
1.0
1070
     0
1002
}
1002
{
1002
{
1040
1.0
1040
1.0
1002
{
1070
     1
1002
{
1040
1.0
1040
1.0
1000

1040
0.0
1002
{
1002
}
1040
0.0
1002
{
1002
}
1040
0.0
1002
}
1002
}
1002
}
1070
     0
1040
0.0
1002
{
1002
}
1002
}
1002
{
1002
}
1002
}
1002
{
1071
        3
1070
     3
1070
     0
1002
{
1070
     2
1070
     0
1070
     0
1040
0.0
1002
}
1070
     0
1070
     2
1002
{
1002
}
1002
}
1002
{
1040
8030.0
1040
190.300003
1040
0.305
1040
228.0
1040
545.0
1040
14.0
1040
17.4
1040
0.456
1002
}
1002
}
  0
INSERT
  5
2C34
  8
ASHADE
 62
     1
  2
AVE_GLOBAL
 10
0.0
 20
0.0
 30
0.0
1001
AVE_MATERIAL
1002
{
1000
*GLOBAL*
1000
1
1000
Global finish.
1002
{
1002
}
1002
{
1070
    63
1002
{
1002
{
1010
-1.0
1020
-1.0
1030
-1.0
1002
}
1040
0.1
1000

1040
0.0
1002
{
1002
}
1040
0.0
1002
{
1002
}
1040
0.0
1002
}
1002
{
1002
{
1010
-1.0
1020
-1.0
1030
-1.0
1002
}
1040
0.7
1000

1040
0.0
1002
{
1002
}
1040
0.0
1002
{
1002
}
1040
0.0
1002
}
1002
{
1002
{
1010
-1.0
1020
-1.0
1030
-1.0
1002
}
1040
0.2
1000

1040
0.0
1002
{
1002
}
1040
0.0
1002
{
1002
}
1040
0.0
1002
}
1002
{
1070
     0
1002
{
1070
     1
1002
{
1040
1.0
1040
1.0
1000

1040
0.0
1002
{
1002
}
1040
0.0
1002
{
1002
}
1040
0.0
1002
}
1002
}
1040
1.0
1040
0.0
1040
0.0
1002
}
1002
{
1040
1.0
1040
1.0
1000

1040
0.0
1002
{
1002
}
1040
0.0
1002
{
1002
}
1040
0.0
1002
}
1002
{
1040
0.5
1040
1.0
1000

1040
0.0
1002
{
1002
}
1040
0.0
1002
{
1002
}
1040
0.0
1002
}
1002
{
1070
     0
1040
0.0
1002
{
1002
}
1040
1.0
1002
{
1002
}
1040
0.0
1002
}
1002
{
1040
0.0
1002
{
1002
{
1010
0.0
1020
0.0
1030
0.0
1002
}
1040
1.0
1000

1040
0.0
1002
{
1002
}
1040
0.0
1002
{
1002
}
1040
0.0
1002
}
1002
}
1002
{
1002
{
1070
     1
1002
{
1040
0.0
1040
1.0
1000

1040
0.0
1002
{
1002
}
1040
0.0
1002
{
1002
}
1040
0.0
1002
}
1002
}
1040
0.0
1002
{
1002
}
1010
1.0
1020
0.0
1030
0.0
1010
0.0
1020
1.0
1030
0.0
1010
0.0
1020
0.0
1030
1.0
1070
     0
1002
}
1002
{
1002
{
1040
1.0
1040
1.0
1002
{
1070
     1
1002
{
1040
1.0
1040
1.0
1000

1040
0.0
1002
{
1002
}
1040
0.0
1002
{
1002
}
1040
0.0
1002
}
1002
}
1002
}
1070
     0
1040
0.0
1002
{
1002
}
1002
}
1002
{
1002
}
1002
}
1002
{
1071
        3
1070
     3
1070
     0
1002
{
1070
     2
1070
     0
1070
     0
1040
0.0
1002
}
1070
     0
1070
     2
1002
{
1002
}
1002
}
1002
{
1040
8030.0
1040
190.300003
1040
0.305
1040
228.0
1040
545.0
1040
14.0
1040
17.4
1040
0.456
1002
}
1002
}
  0
INSERT
  5
2C35
  8
ASHADE
 62
     1
  2
AVE_GLOBAL
 10
0.0
 20
0.0
 30
0.0
1001
AVE_MATERIAL
1002
{
1000
*GLOBAL*
1000
1
1000
Global finish.
1002
{
1002
}
1002
{
1070
    63
1002
{
1002
{
1010
-1.0
1020
-1.0
1030
-1.0
1002
}
1040
0.1
1000

1040
0.0
1002
{
1002
}
1040
0.0
1002
{
1002
}
1040
0.0
1002
}
1002
{
1002
{
1010
-1.0
1020
-1.0
1030
-1.0
1002
}
1040
0.7
1000

1040
0.0
1002
{
1002
}
1040
0.0
1002
{
1002
}
1040
0.0
1002
}
1002
{
1002
{
1010
-1.0
1020
-1.0
1030
-1.0
1002
}
1040
0.2
1000

1040
0.0
1002
{
1002
}
1040
0.0
1002
{
1002
}
1040
0.0
1002
}
1002
{
1070
     0
1002
{
1070
     1
1002
{
1040
1.0
1040
1.0
1000

1040
0.0
1002
{
1002
}
1040
0.0
1002
{
1002
}
1040
0.0
1002
}
1002
}
1040
1.0
1040
0.0
1040
0.0
1002
}
1002
{
1040
1.0
1040
1.0
1000

1040
0.0
1002
{
1002
}
1040
0.0
1002
{
1002
}
1040
0.0
1002
}
1002
{
1040
0.5
1040
1.0
1000

1040
0.0
1002
{
1002
}
1040
0.0
1002
{
1002
}
1040
0.0
1002
}
1002
{
1070
     0
1040
0.0
1002
{
1002
}
1040
1.0
1002
{
1002
}
1040
0.0
1002
}
1002
{
1040
0.0
1002
{
1002
{
1010
0.0
1020
0.0
1030
0.0
1002
}
1040
1.0
1000

1040
0.0
1002
{
1002
}
1040
0.0
1002
{
1002
}
1040
0.0
1002
}
1002
}
1002
{
1002
{
1070
     1
1002
{
1040
0.0
1040
1.0
1000

1040
0.0
1002
{
1002
}
1040
0.0
1002
{
1002
}
1040
0.0
1002
}
1002
}
1040
0.0
1002
{
1002
}
1010
1.0
1020
0.0
1030
0.0
1010
0.0
1020
1.0
1030
0.0
1010
0.0
1020
0.0
1030
1.0
1070
     0
1002
}
1002
{
1002
{
1040
1.0
1040
1.0
1002
{
1070
     1
1002
{
1040
1.0
1040
1.0
1000

1040
0.0
1002
{
1002
}
1040
0.0
1002
{
1002
}
1040
0.0
1002
}
1002
}
1002
}
1070
     0
1040
0.0
1002
{
1002
}
1002
}
1002
{
1002
}
1002
}
1002
{
1071
        3
1070
     3
1070
     0
1002
{
1070
     2
1070
     0
1070
     0
1040
0.0
1002
}
1070
     0
1070
     2
1002
{
1002
}
1002
}
1002
{
1040
8030.0
1040
190.300003
1040
0.305
1040
228.0
1040
545.0
1040
14.0
1040
17.4
1040
0.456
1002
}
1002
}
  0
INSERT
  5
2C36
  8
ASHADE
 62
     1
  2
AVE_GLOBAL
 10
0.0
 20
0.0
 30
0.0
1001
AVE_MATERIAL
1002
{
1000
*GLOBAL*
1000
1
1000
Global finish.
1002
{
1002
}
1002
{
1070
    63
1002
{
1002
{
1010
-1.0
1020
-1.0
1030
-1.0
1002
}
1040
0.1
1000

1040
0.0
1002
{
1002
}
1040
0.0
1002
{
1002
}
1040
0.0
1002
}
1002
{
1002
{
1010
-1.0
1020
-1.0
1030
-1.0
1002
}
1040
0.7
1000

1040
0.0
1002
{
1002
}
1040
0.0
1002
{
1002
}
1040
0.0
1002
}
1002
{
1002
{
1010
-1.0
1020
-1.0
1030
-1.0
1002
}
1040
0.2
1000

1040
0.0
1002
{
1002
}
1040
0.0
1002
{
1002
}
1040
0.0
1002
}
1002
{
1070
     0
1002
{
1070
     1
1002
{
1040
1.0
1040
1.0
1000

1040
0.0
1002
{
1002
}
1040
0.0
1002
{
1002
}
1040
0.0
1002
}
1002
}
1040
1.0
1040
0.0
1040
0.0
1002
}
1002
{
1040
1.0
1040
1.0
1000

1040
0.0
1002
{
1002
}
1040
0.0
1002
{
1002
}
1040
0.0
1002
}
1002
{
1040
0.5
1040
1.0
1000

1040
0.0
1002
{
1002
}
1040
0.0
1002
{
1002
}
1040
0.0
1002
}
1002
{
1070
     0
1040
0.0
1002
{
1002
}
1040
1.0
1002
{
1002
}
1040
0.0
1002
}
1002
{
1040
0.0
1002
{
1002
{
1010
0.0
1020
0.0
1030
0.0
1002
}
1040
1.0
1000

1040
0.0
1002
{
1002
}
1040
0.0
1002
{
1002
}
1040
0.0
1002
}
1002
}
1002
{
1002
{
1070
     1
1002
{
1040
0.0
1040
1.0
1000

1040
0.0
1002
{
1002
}
1040
0.0
1002
{
1002
}
1040
0.0
1002
}
1002
}
1040
0.0
1002
{
1002
}
1010
1.0
1020
0.0
1030
0.0
1010
0.0
1020
1.0
1030
0.0
1010
0.0
1020
0.0
1030
1.0
1070
     0
1002
}
1002
{
1002
{
1040
1.0
1040
1.0
1002
{
1070
     1
1002
{
1040
1.0
1040
1.0
1000

1040
0.0
1002
{
1002
}
1040
0.0
1002
{
1002
}
1040
0.0
1002
}
1002
}
1002
}
1070
     0
1040
0.0
1002
{
1002
}
1002
}
1002
{
1002
}
1002
}
1002
{
1071
        3
1070
     3
1070
     0
1002
{
1070
     2
1070
     0
1070
     0
1040
0.0
1002
}
1070
     0
1070
     2
1002
{
1002
}
1002
}
1002
{
1040
8030.0
1040
190.300003
1040
0.305
1040
228.0
1040
545.0
1040
14.0
1040
17.4
1040
0.456
1002
}
1002
}
  0
INSERT
  5
2C37
  8
ASHADE
 62
     1
  2
AVE_GLOBAL
 10
0.0
 20
0.0
 30
0.0
1001
AVE_MATERIAL
1002
{
1000
*GLOBAL*
1000
1
1000
Global finish.
1002
{
1002
}
1002
{
1070
    63
1002
{
1002
{
1010
-1.0
1020
-1.0
1030
-1.0
1002
}
1040
0.1
1000

1040
0.0
1002
{
1002
}
1040
0.0
1002
{
1002
}
1040
0.0
1002
}
1002
{
1002
{
1010
-1.0
1020
-1.0
1030
-1.0
1002
}
1040
0.7
1000

1040
0.0
1002
{
1002
}
1040
0.0
1002
{
1002
}
1040
0.0
1002
}
1002
{
1002
{
1010
-1.0
1020
-1.0
1030
-1.0
1002
}
1040
0.2
1000

1040
0.0
1002
{
1002
}
1040
0.0
1002
{
1002
}
1040
0.0
1002
}
1002
{
1070
     0
1002
{
1070
     1
1002
{
1040
1.0
1040
1.0
1000

1040
0.0
1002
{
1002
}
1040
0.0
1002
{
1002
}
1040
0.0
1002
}
1002
}
1040
1.0
1040
0.0
1040
0.0
1002
}
1002
{
1040
1.0
1040
1.0
1000

1040
0.0
1002
{
1002
}
1040
0.0
1002
{
1002
}
1040
0.0
1002
}
1002
{
1040
0.5
1040
1.0
1000

1040
0.0
1002
{
1002
}
1040
0.0
1002
{
1002
}
1040
0.0
1002
}
1002
{
1070
     0
1040
0.0
1002
{
1002
}
1040
1.0
1002
{
1002
}
1040
0.0
1002
}
1002
{
1040
0.0
1002
{
1002
{
1010
0.0
1020
0.0
1030
0.0
1002
}
1040
1.0
1000

1040
0.0
1002
{
1002
}
1040
0.0
1002
{
1002
}
1040
0.0
1002
}
1002
}
1002
{
1002
{
1070
     1
1002
{
1040
0.0
1040
1.0
1000

1040
0.0
1002
{
1002
}
1040
0.0
1002
{
1002
}
1040
0.0
1002
}
1002
}
1040
0.0
1002
{
1002
}
1010
1.0
1020
0.0
1030
0.0
1010
0.0
1020
1.0
1030
0.0
1010
0.0
1020
0.0
1030
1.0
1070
     0
1002
}
1002
{
1002
{
1040
1.0
1040
1.0
1002
{
1070
     1
1002
{
1040
1.0
1040
1.0
1000

1040
0.0
1002
{
1002
}
1040
0.0
1002
{
1002
}
1040
0.0
1002
}
1002
}
1002
}
1070
     0
1040
0.0
1002
{
1002
}
1002
}
1002
{
1002
}
1002
}
1002
{
1071
        3
1070
     3
1070
     0
1002
{
1070
     2
1070
     0
1070
     0
1040
0.0
1002
}
1070
     0
1070
     2
1002
{
1002
}
1002
}
1002
{
1040
8030.0
1040
190.300003
1040
0.305
1040
228.0
1040
545.0
1040
14.0
1040
17.4
1040
0.456
1002
}
1002
}
  0
INSERT
  5
2C38
  8
ASHADE
 62
     1
  2
AVE_GLOBAL
 10
0.0
 20
0.0
 30
0.0
1001
AVE_MATERIAL
1002
{
1000
*GLOBAL*
1000
1
1000
Global finish.
1002
{
1002
}
1002
{
1070
    63
1002
{
1002
{
1010
-1.0
1020
-1.0
1030
-1.0
1002
}
1040
0.1
1000

1040
0.0
1002
{
1002
}
1040
0.0
1002
{
1002
}
1040
0.0
1002
}
1002
{
1002
{
1010
-1.0
1020
-1.0
1030
-1.0
1002
}
1040
0.7
1000

1040
0.0
1002
{
1002
}
1040
0.0
1002
{
1002
}
1040
0.0
1002
}
1002
{
1002
{
1010
-1.0
1020
-1.0
1030
-1.0
1002
}
1040
0.2
1000

1040
0.0
1002
{
1002
}
1040
0.0
1002
{
1002
}
1040
0.0
1002
}
1002
{
1070
     0
1002
{
1070
     1
1002
{
1040
1.0
1040
1.0
1000

1040
0.0
1002
{
1002
}
1040
0.0
1002
{
1002
}
1040
0.0
1002
}
1002
}
1040
1.0
1040
0.0
1040
0.0
1002
}
1002
{
1040
1.0
1040
1.0
1000

1040
0.0
1002
{
1002
}
1040
0.0
1002
{
1002
}
1040
0.0
1002
}
1002
{
1040
0.5
1040
1.0
1000

1040
0.0
1002
{
1002
}
1040
0.0
1002
{
1002
}
1040
0.0
1002
}
1002
{
1070
     0
1040
0.0
1002
{
1002
}
1040
1.0
1002
{
1002
}
1040
0.0
1002
}
1002
{
1040
0.0
1002
{
1002
{
1010
0.0
1020
0.0
1030
0.0
1002
}
1040
1.0
1000

1040
0.0
1002
{
1002
}
1040
0.0
1002
{
1002
}
1040
0.0
1002
}
1002
}
1002
{
1002
{
1070
     1
1002
{
1040
0.0
1040
1.0
1000

1040
0.0
1002
{
1002
}
1040
0.0
1002
{
1002
}
1040
0.0
1002
}
1002
}
1040
0.0
1002
{
1002
}
1010
1.0
1020
0.0
1030
0.0
1010
0.0
1020
1.0
1030
0.0
1010
0.0
1020
0.0
1030
1.0
1070
     0
1002
}
1002
{
1002
{
1040
1.0
1040
1.0
1002
{
1070
     1
1002
{
1040
1.0
1040
1.0
1000

1040
0.0
1002
{
1002
}
1040
0.0
1002
{
1002
}
1040
0.0
1002
}
1002
}
1002
}
1070
     0
1040
0.0
1002
{
1002
}
1002
}
1002
{
1002
}
1002
}
1002
{
1071
        3
1070
     3
1070
     0
1002
{
1070
     2
1070
     0
1070
     0
1040
0.0
1002
}
1070
     0
1070
     2
1002
{
1002
}
1002
}
1002
{
1040
8030.0
1040
190.300003
1040
0.305
1040
228.0
1040
545.0
1040
14.0
1040
17.4
1040
0.456
1002
}
1002
}
  0
INSERT
  5
2C41
  8
ASHADE
 62
     1
  2
AVE_GLOBAL
 10
0.0
 20
0.0
 30
0.0
1001
AVE_MATERIAL
1002
{
1000
*GLOBAL*
1000
1
1000
Global finish.
1002
{
1002
}
1002
{
1070
    63
1002
{
1002
{
1010
-1.0
1020
-1.0
1030
-1.0
1002
}
1040
0.1
1000

1040
0.0
1002
{
1002
}
1040
0.0
1002
{
1002
}
1040
0.0
1002
}
1002
{
1002
{
1010
-1.0
1020
-1.0
1030
-1.0
1002
}
1040
0.7
1000

1040
0.0
1002
{
1002
}
1040
0.0
1002
{
1002
}
1040
0.0
1002
}
1002
{
1002
{
1010
-1.0
1020
-1.0
1030
-1.0
1002
}
1040
0.2
1000

1040
0.0
1002
{
1002
}
1040
0.0
1002
{
1002
}
1040
0.0
1002
}
1002
{
1070
     0
1002
{
1070
     1
1002
{
1040
1.0
1040
1.0
1000

1040
0.0
1002
{
1002
}
1040
0.0
1002
{
1002
}
1040
0.0
1002
}
1002
}
1040
1.0
1040
0.0
1040
0.0
1002
}
1002
{
1040
1.0
1040
1.0
1000

1040
0.0
1002
{
1002
}
1040
0.0
1002
{
1002
}
1040
0.0
1002
}
1002
{
1040
0.5
1040
1.0
1000

1040
0.0
1002
{
1002
}
1040
0.0
1002
{
1002
}
1040
0.0
1002
}
1002
{
1070
     0
1040
0.0
1002
{
1002
}
1040
1.0
1002
{
1002
}
1040
0.0
1002
}
1002
{
1040
0.0
1002
{
1002
{
1010
0.0
1020
0.0
1030
0.0
1002
}
1040
1.0
1000

1040
0.0
1002
{
1002
}
1040
0.0
1002
{
1002
}
1040
0.0
1002
}
1002
}
1002
{
1002
{
1070
     1
1002
{
1040
0.0
1040
1.0
1000

1040
0.0
1002
{
1002
}
1040
0.0
1002
{
1002
}
1040
0.0
1002
}
1002
}
1040
0.0
1002
{
1002
}
1010
1.0
1020
0.0
1030
0.0
1010
0.0
1020
1.0
1030
0.0
1010
0.0
1020
0.0
1030
1.0
1070
     0
1002
}
1002
{
1002
{
1040
1.0
1040
1.0
1002
{
1070
     1
1002
{
1040
1.0
1040
1.0
1000

1040
0.0
1002
{
1002
}
1040
0.0
1002
{
1002
}
1040
0.0
1002
}
1002
}
1002
}
1070
     0
1040
0.0
1002
{
1002
}
1002
}
1002
{
1002
}
1002
}
1002
{
1071
        3
1070
     3
1070
     0
1002
{
1070
     2
1070
     0
1070
     0
1040
0.0
1002
}
1070
     0
1070
     2
1002
{
1002
}
1002
}
1002
{
1040
8030.0
1040
190.300003
1040
0.305
1040
228.0
1040
545.0
1040
14.0
1040
17.4
1040
0.456
1002
}
1002
}
  0
POLYLINE
  5
2C42
  8
0
 66
     1
 10
0.0
 20
0.0
 30
0.0
 70
    16
 71
     5
 72
     7
  0
VERTEX
  5
2C43
  8
0
 10
52.5
 20
217.4519
 30
97.2724
 70
    64
  0
VERTEX
  5
2C44
  8
0
 10
52.5
 20
217.4519
 30
97.2724
 70
    64
  0
VERTEX
  5
2C45
  8
0
 10
52.5
 20
217.4519
 30
97.2724
 70
    64
  0
VERTEX
  5
2C46
  8
0
 10
52.5
 20
217.4519
 30
97.2724
 70
    64
  0
VERTEX
  5
2C47
  8
0
 10
52.5
 20
217.4519
 30
97.2724
 70
    64
  0
VERTEX
  5
2C48
  8
0
 10
52.5
 20
217.4519
 30
97.2724
 70
    64
  0
VERTEX
  5
2C49
  8
0
 10
52.5
 20
217.4519
 30
97.2724
 70
    64
  0
VERTEX
  5
2C4A
  8
0
 10
16.0
 20
217.4519
 30
97.2724
 70
    64
  0
VERTEX
  5
2C4B
  8
0
 10
17.4
 20
217.4519
 30
87.8724
 70
    64
  0
VERTEX
  5
2C4C
  8
0
 10
20.9
 20
217.4519
 30
79.1724
 70
    64
  0
VERTEX
  5
2C4D
  8
0
 10
26.8
 20
217.4519
 30
71.5724
 70
    64
  0
VERTEX
  5
2C4E
  8
0
 10
34.4
 20
217.4519
 30
65.6724
 70
    64
  0
VERTEX
  5
2C4F
  8
0
 10
43.1
 20
217.4519
 30
62.1724
 70
    64
  0
VERTEX
  5
2C50
  8
0
 10
52.5
 20
217.4519
 30
60.7724
 70
    64
  0
VERTEX
  5
2C51
  8
0
 10
15.0
 20
216.4519
 30
97.2724
 70
    64
  0
VERTEX
  5
2C52
  8
0
 10
16.3
 20
216.4519
 30
87.6724
 70
    64
  0
VERTEX
  5
2C53
  8
0
 10
20.0
 20
216.4519
 30
78.6724
 70
    64
  0
VERTEX
  5
2C54
  8
0
 10
26.0
 20
216.4519
 30
70.7724
 70
    64
  0
VERTEX
  5
2C55
  8
0
 10
33.9
 20
216.4519
 30
64.7724
 70
    64
  0
VERTEX
  5
2C56
  8
0
 10
42.9
 20
216.4519
 30
61.0724
 70
    64
  0
VERTEX
  5
2C57
  8
0
 10
52.5
 20
216.4519
 30
59.7724
 70
    64
  0
VERTEX
  5
2C58
  8
0
 10
15.0
 20
215.4519
 30
97.2724
 70
    64
  0
VERTEX
  5
2C59
  8
0
 10
16.3
 20
215.4519
 30
87.6724
 70
    64
  0
VERTEX
  5
2C5A
  8
0
 10
20.0
 20
215.4519
 30
78.6724
 70
    64
  0
VERTEX
  5
2C5B
  8
0
 10
26.0
 20
215.4519
 30
70.7724
 70
    64
  0
VERTEX
  5
2C5C
  8
0
 10
33.9
 20
215.4519
 30
64.7724
 70
    64
  0
VERTEX
  5
2C5D
  8
0
 10
42.9
 20
215.4519
 30
61.0724
 70
    64
  0
VERTEX
  5
2C5E
  8
0
 10
52.5
 20
215.4519
 30
59.7724
 70
    64
  0
VERTEX
  5
2C5F
  8
0
 10
16.0
 20
214.4519
 30
97.2724
 70
    64
  0
VERTEX
  5
2C60
  8
0
 10
17.4
 20
214.4519
 30
87.8724
 70
    64
  0
VERTEX
  5
2C61
  8
0
 10
20.9
 20
214.4519
 30
79.1724
 70
    64
  0
VERTEX
  5
2C62
  8
0
 10
26.8
 20
214.4519
 30
71.5724
 70
    64
  0
VERTEX
  5
2C63
  8
0
 10
34.4
 20
214.4519
 30
65.6724
 70
    64
  0
VERTEX
  5
2C64
  8
0
 10
43.1
 20
214.4519
 30
62.1724
 70
    64
  0
VERTEX
  5
2C65
  8
0
 10
52.5
 20
214.4519
 30
60.7724
 70
    64
  0
SEQEND
  5
2C66
  8
0
  0
POLYLINE
  5
2C67
  8
0
 66
     1
 10
0.0
 20
0.0
 30
0.0
 70
    16
 71
     5
 72
     7
  0
VERTEX
  5
2C68
  8
0
 10
52.5
 20
217.4519
 30
97.2724
 70
    64
  0
VERTEX
  5
2C69
  8
0
 10
52.5
 20
217.4519
 30
97.2724
 70
    64
  0
VERTEX
  5
2C6A
  8
0
 10
52.5
 20
217.4519
 30
97.2724
 70
    64
  0
VERTEX
  5
2C6B
  8
0
 10
52.5
 20
217.4519
 30
97.2724
 70
    64
  0
VERTEX
  5
2C6C
  8
0
 10
52.5
 20
217.4519
 30
97.2724
 70
    64
  0
VERTEX
  5
2C6D
  8
0
 10
52.5
 20
217.4519
 30
97.2724
 70
    64
  0
VERTEX
  5
2C6E
  8
0
 10
52.5
 20
217.4519
 30
97.2724
 70
    64
  0
VERTEX
  5
2C6F
  8
0
 10
16.0
 20
217.4519
 30
97.2724
 70
    64
  0
VERTEX
  5
2C70
  8
0
 10
17.4
 20
217.4519
 30
87.8724
 70
    64
  0
VERTEX
  5
2C71
  8
0
 10
20.9
 20
217.4519
 30
79.1724
 70
    64
  0
VERTEX
  5
2C72
  8
0
 10
26.8
 20
217.4519
 30
71.5724
 70
    64
  0
VERTEX
  5
2C73
  8
0
 10
34.4
 20
217.4519
 30
65.6724
 70
    64
  0
VERTEX
  5
2C74
  8
0
 10
43.1
 20
217.4519
 30
62.1724
 70
    64
  0
VERTEX
  5
2C75
  8
0
 10
52.5
 20
217.4519
 30
60.7724
 70
    64
  0
VERTEX
  5
2C76
  8
0
 10
15.0
 20
216.4519
 30
97.2724
 70
    64
  0
VERTEX
  5
2C77
  8
0
 10
16.3
 20
216.4519
 30
87.6724
 70
    64
  0
VERTEX
  5
2C78
  8
0
 10
20.0
 20
216.4519
 30
78.6724
 70
    64
  0
VERTEX
  5
2C79
  8
0
 10
26.0
 20
216.4519
 30
70.7724
 70
    64
  0
VERTEX
  5
2C7A
  8
0
 10
33.9
 20
216.4519
 30
64.7724
 70
    64
  0
VERTEX
  5
2C7B
  8
0
 10
42.9
 20
216.4519
 30
61.0724
 70
    64
  0
VERTEX
  5
2C7C
  8
0
 10
52.5
 20
216.4519
 30
59.7724
 70
    64
  0
VERTEX
  5
2C7D
  8
0
 10
15.0
 20
215.4519
 30
97.2724
 70
    64
  0
VERTEX
  5
2C7E
  8
0
 10
16.3
 20
215.4519
 30
87.6724
 70
    64
  0
VERTEX
  5
2C7F
  8
0
 10
20.0
 20
215.4519
 30
78.6724
 70
    64
  0
VERTEX
  5
2C80
  8
0
 10
26.0
 20
215.4519
 30
70.7724
 70
    64
  0
VERTEX
  5
2C81
  8
0
 10
33.9
 20
215.4519
 30
64.7724
 70
    64
  0
VERTEX
  5
2C82
  8
0
 10
42.9
 20
215.4519
 30
61.0724
 70
    64
  0
VERTEX
  5
2C83
  8
0
 10
52.5
 20
215.4519
 30
59.7724
 70
    64
  0
VERTEX
  5
2C84
  8
0
 10
16.0
 20
214.4519
 30
97.2724
 70
    64
  0
VERTEX
  5
2C85
  8
0
 10
17.4
 20
214.4519
 30
87.8724
 70
    64
  0
VERTEX
  5
2C86
  8
0
 10
20.9
 20
214.4519
 30
79.1724
 70
    64
  0
VERTEX
  5
2C87
  8
0
 10
26.8
 20
214.4519
 30
71.5724
 70
    64
  0
VERTEX
  5
2C88
  8
0
 10
34.4
 20
214.4519
 30
65.6724
 70
    64
  0
VERTEX
  5
2C89
  8
0
 10
43.1
 20
214.4519
 30
62.1724
 70
    64
  0
VERTEX
  5
2C8A
  8
0
 10
52.5
 20
214.4519
 30
60.7724
 70
    64
  0
SEQEND
  5
2C8B
  8
0
  0
POLYLINE
  5
2C8C
  8
0
 66
     1
 10
0.0
 20
0.0
 30
0.0
 70
    16
 71
     5
 72
     7
  0
VERTEX
  5
2C8D
  8
0
 10
16.0
 20
214.4519
 30
97.2724
 70
    64
  0
VERTEX
  5
2C8E
  8
0
 10
17.4
 20
214.4519
 30
87.8724
 70
    64
  0
VERTEX
  5
2C8F
  8
0
 10
20.9
 20
214.4519
 30
79.1724
 70
    64
  0
VERTEX
  5
2C90
  8
0
 10
26.8
 20
214.4519
 30
71.5724
 70
    64
  0
VERTEX
  5
2C91
  8
0
 10
34.4
 20
214.4519
 30
65.6724
 70
    64
  0
VERTEX
  5
2C92
  8
0
 10
43.1
 20
214.4519
 30
62.1724
 70
    64
  0
VERTEX
  5
2C93
  8
0
 10
52.5
 20
214.4519
 30
60.7724
 70
    64
  0
VERTEX
  5
2C94
  8
0
 10
15.0
 20
213.4519
 30
97.2724
 70
    64
  0
VERTEX
  5
2C95
  8
0
 10
16.3
 20
213.4519
 30
87.6724
 70
    64
  0
VERTEX
  5
2C96
  8
0
 10
20.0
 20
213.4519
 30
78.6724
 70
    64
  0
VERTEX
  5
2C97
  8
0
 10
26.0
 20
213.4519
 30
70.7724
 70
    64
  0
VERTEX
  5
2C98
  8
0
 10
33.9
 20
213.4519
 30
64.7724
 70
    64
  0
VERTEX
  5
2C99
  8
0
 10
42.9
 20
213.4519
 30
61.0724
 70
    64
  0
VERTEX
  5
2C9A
  8
0
 10
52.5
 20
213.4519
 30
59.7724
 70
    64
  0
VERTEX
  5
2C9B
  8
0
 10
15.0
 20
212.4519
 30
97.2724
 70
    64
  0
VERTEX
  5
2C9C
  8
0
 10
16.3
 20
212.4519
 30
87.6724
 70
    64
  0
VERTEX
  5
2C9D
  8
0
 10
20.0
 20
212.4519
 30
78.6724
 70
    64
  0
VERTEX
  5
2C9E
  8
0
 10
26.0
 20
212.4519
 30
70.7724
 70
    64
  0
VERTEX
  5
2C9F
  8
0
 10
33.9
 20
212.4519
 30
64.7724
 70
    64
  0
VERTEX
  5
2CA0
  8
0
 10
42.9
 20
212.4519
 30
61.0724
 70
    64
  0
VERTEX
  5
2CA1
  8
0
 10
52.5
 20
212.4519
 30
59.7724
 70
    64
  0
VERTEX
  5
2CA2
  8
0
 10
16.0
 20
211.4519
 30
97.2724
 70
    64
  0
VERTEX
  5
2CA3
  8
0
 10
17.4
 20
211.4519
 30
87.8724
 70
    64
  0
VERTEX
  5
2CA4
  8
0
 10
20.9
 20
211.4519
 30
79.1724
 70
    64
  0
VERTEX
  5
2CA5
  8
0
 10
26.8
 20
211.4519
 30
71.5724
 70
    64
  0
VERTEX
  5
2CA6
  8
0
 10
34.4
 20
211.4519
 30
65.6724
 70
    64
  0
VERTEX
  5
2CA7
  8
0
 10
43.1
 20
211.4519
 30
62.1724
 70
    64
  0
VERTEX
  5
2CA8
  8
0
 10
52.5
 20
211.4519
 30
60.7724
 70
    64
  0
VERTEX
  5
2CA9
  8
0
 10
17.0
 20
211.4519
 30
97.2724
 70
    64
  0
VERTEX
  5
2CAA
  8
0
 10
18.3
 20
211.4519
 30
88.1724
 70
    64
  0
VERTEX
  5
2CAB
  8
0
 10
21.8
 20
211.4519
 30
79.6724
 70
    64
  0
VERTEX
  5
2CAC
  8
0
 10
27.5
 20
211.4519
 30
72.2724
 70
    64
  0
VERTEX
  5
2CAD
  8
0
 10
34.9
 20
211.4519
 30
66.5724
 70
    64
  0
VERTEX
  5
2CAE
  8
0
 10
43.4
 20
211.4519
 30
63.0724
 70
    64
  0
VERTEX
  5
2CAF
  8
0
 10
52.5
 20
211.4519
 30
61.7724
 70
    64
  0
SEQEND
  5
2CB0
  8
0
  0
POLYLINE
  5
2CB1
  8
0
 66
     1
 10
0.0
 20
0.0
 30
0.0
 70
    16
 71
     8
 72
     7
  0
VERTEX
  5
2CB2
  8
0
 10
17.0
 20
211.4519
 30
97.2724
 70
    64
  0
VERTEX
  5
2CB3
  8
0
 10
18.3
 20
211.4519
 30
88.1724
 70
    64
  0
VERTEX
  5
2CB4
  8
0
 10
21.8
 20
211.4519
 30
79.6724
 70
    64
  0
VERTEX
  5
2CB5
  8
0
 10
27.5
 20
211.4519
 30
72.2724
 70
    64
  0
VERTEX
  5
2CB6
  8
0
 10
34.9
 20
211.4519
 30
66.5724
 70
    64
  0
VERTEX
  5
2CB7
  8
0
 10
43.4
 20
211.4519
 30
63.0724
 70
    64
  0
VERTEX
  5
2CB8
  8
0
 10
52.5
 20
211.4519
 30
61.7724
 70
    64
  0
VERTEX
  5
2CB9
  8
0
 10
18.0
 20
204.4519
 30
97.2724
 70
    64
  0
VERTEX
  5
2CBA
  8
0
 10
19.3
 20
204.4519
 30
88.3724
 70
    64
  0
VERTEX
  5
2CBB
  8
0
 10
22.7
 20
204.4519
 30
80.0724
 70
    64
  0
VERTEX
  5
2CBC
  8
0
 10
28.2
 20
204.4519
 30
72.9724
 70
    64
  0
VERTEX
  5
2CBD
  8
0
 10
35.3
 20
204.4519
 30
67.4724
 70
    64
  0
VERTEX
  5
2CBE
  8
0
 10
43.6
 20
204.4519
 30
64.0724
 70
    64
  0
VERTEX
  5
2CBF
  8
0
 10
52.5
 20
204.4519
 30
62.7724
 70
    64
  0
VERTEX
  5
2CC0
  8
0
 10
21.0
 20
197.4519
 30
97.2724
 70
    64
  0
VERTEX
  5
2CC1
  8
0
 10
22.2
 20
197.4519
 30
89.1724
 70
    64
  0
VERTEX
  5
2CC2
  8
0
 10
25.3
 20
197.4519
 30
81.5724
 70
    64
  0
VERTEX
  5
2CC3
  8
0
 10
30.3
 20
197.4519
 30
75.0724
 70
    64
  0
VERTEX
  5
2CC4
  8
0
 10
36.8
 20
197.4519
 30
70.0724
 70
    64
  0
VERTEX
  5
2CC5
  8
0
 10
44.4
 20
197.4519
 30
66.9724
 70
    64
  0
VERTEX
  5
2CC6
  8
0
 10
52.5
 20
197.4519
 30
65.7724
 70
    64
  0
VERTEX
  5
2CC7
  8
0
 10
26.0
 20
191.4519
 30
97.2724
 70
    64
  0
VERTEX
  5
2CC8
  8
0
 10
27.0
 20
191.4519
 30
90.4724
 70
    64
  0
VERTEX
  5
2CC9
  8
0
 10
29.6
 20
191.4519
 30
84.0724
 70
    64
  0
VERTEX
  5
2CCA
  8
0
 10
33.8
 20
191.4519
 30
78.5724
 70
    64
  0
VERTEX
  5
2CCB
  8
0
 10
39.3
 20
191.4519
 30
74.3724
 70
    64
  0
VERTEX
  5
2CCC
  8
0
 10
45.7
 20
191.4519
 30
71.7724
 70
    64
  0
VERTEX
  5
2CCD
  8
0
 10
52.5
 20
191.4519
 30
70.7724
 70
    64
  0
VERTEX
  5
2CCE
  8
0
 10
32.0
 20
186.9519
 30
97.2724
 70
    64
  0
VERTEX
  5
2CCF
  8
0
 10
32.8
 20
186.9519
 30
91.9724
 70
    64
  0
VERTEX
  5
2CD0
  8
0
 10
34.8
 20
186.9519
 30
87.0724
 70
    64
  0
VERTEX
  5
2CD1
  8
0
 10
38.0
 20
186.9519
 30
82.7724
 70
    64
  0
VERTEX
  5
2CD2
  8
0
 10
42.3
 20
186.9519
 30
79.5724
 70
    64
  0
VERTEX
  5
2CD3
  8
0
 10
47.2
 20
186.9519
 30
77.5724
 70
    64
  0
VERTEX
  5
2CD4
  8
0
 10
52.5
 20
186.9519
 30
76.7724
 70
    64
  0
VERTEX
  5
2CD5
  8
0
 10
38.5
 20
183.9519
 30
97.2724
 70
    64
  0
VERTEX
  5
2CD6
  8
0
 10
39.0
 20
183.9519
 30
93.6724
 70
    64
  0
VERTEX
  5
2CD7
  8
0
 10
40.4
 20
183.9519
 30
90.2724
 70
    64
  0
VERTEX
  5
2CD8
  8
0
 10
42.6
 20
183.9519
 30
87.3724
 70
    64
  0
VERTEX
  5
2CD9
  8
0
 10
45.5
 20
183.9519
 30
85.1724
 70
    64
  0
VERTEX
  5
2CDA
  8
0
 10
48.9
 20
183.9519
 30
83.7724
 70
    64
  0
VERTEX
  5
2CDB
  8
0
 10
52.5
 20
183.9519
 30
83.2724
 70
    64
  0
VERTEX
  5
2CDC
  8
0
 10
44.5
 20
182.1519
 30
97.2724
 70
    64
  0
VERTEX
  5
2CDD
  8
0
 10
44.8
 20
182.1519
 30
95.1724
 70
    64
  0
VERTEX
  5
2CDE
  8
0
 10
45.6
 20
182.1519
 30
93.2724
 70
    64
  0
VERTEX
  5
2CDF
  8
0
 10
46.9
 20
182.1519
 30
91.6724
 70
    64
  0
VERTEX
  5
2CE0
  8
0
 10
48.5
 20
182.1519
 30
90.3724
 70
    64
  0
VERTEX
  5
2CE1
  8
0
 10
50.4
 20
182.1519
 30
89.5724
 70
    64
  0
VERTEX
  5
2CE2
  8
0
 10
52.5
 20
182.1519
 30
89.2724
 70
    64
  0
VERTEX
  5
2CE3
  8
0
 10
52.5
 20
181.4519
 30
97.2724
 70
    64
  0
VERTEX
  5
2CE4
  8
0
 10
52.5
 20
181.4519
 30
97.2724
 70
    64
  0
VERTEX
  5
2CE5
  8
0
 10
52.5
 20
181.4519
 30
97.2724
 70
    64
  0
VERTEX
  5
2CE6
  8
0
 10
52.5
 20
181.4519
 30
97.2724
 70
    64
  0
VERTEX
  5
2CE7
  8
0
 10
52.5
 20
181.4519
 30
97.2724
 70
    64
  0
VERTEX
  5
2CE8
  8
0
 10
52.5
 20
181.4519
 30
97.2724
 70
    64
  0
VERTEX
  5
2CE9
  8
0
 10
52.5
 20
181.4519
 30
97.2724
 70
    64
  0
SEQEND
  5
2CEA
  8
0
  0
POLYLINE
  5
2D94
  8
0
 66
     1
 10
0.0
 20
0.0
 30
0.0
 70
    16
 71
     8
 72
     7
  0
VERTEX
  5
2D95
  8
0
 10
17.0
 20
211.4519
 30
97.2724
 70
    64
  0
VERTEX
  5
2D96
  8
0
 10
18.3
 20
211.4519
 30
106.3724
 70
    64
  0
VERTEX
  5
2D97
  8
0
 10
21.8
 20
211.4519
 30
114.8724
 70
    64
  0
VERTEX
  5
2D98
  8
0
 10
27.5
 20
211.4519
 30
122.2724
 70
    64
  0
VERTEX
  5
2D99
  8
0
 10
34.9
 20
211.4519
 30
127.9724
 70
    64
  0
VERTEX
  5
2D9A
  8
0
 10
43.4
 20
211.4519
 30
131.4724
 70
    64
  0
VERTEX
  5
2D9B
  8
0
 10
52.5
 20
211.4519
 30
132.7724
 70
    64
  0
VERTEX
  5
2D9C
  8
0
 10
18.0
 20
204.4519
 30
97.2724
 70
    64
  0
VERTEX
  5
2D9D
  8
0
 10
19.3
 20
204.4519
 30
106.1724
 70
    64
  0
VERTEX
  5
2D9E
  8
0
 10
22.7
 20
204.4519
 30
114.4724
 70
    64
  0
VERTEX
  5
2D9F
  8
0
 10
28.2
 20
204.4519
 30
121.5724
 70
    64
  0
VERTEX
  5
2DA0
  8
0
 10
35.3
 20
204.4519
 30
127.0724
 70
    64
  0
VERTEX
  5
2DA1
  8
0
 10
43.6
 20
204.4519
 30
130.4724
 70
    64
  0
VERTEX
  5
2DA2
  8
0
 10
52.5
 20
204.4519
 30
131.7724
 70
    64
  0
VERTEX
  5
2DA3
  8
0
 10
21.0
 20
197.4519
 30
97.2724
 70
    64
  0
VERTEX
  5
2DA4
  8
0
 10
22.2
 20
197.4519
 30
105.3724
 70
    64
  0
VERTEX
  5
2DA5
  8
0
 10
25.3
 20
197.4519
 30
112.9724
 70
    64
  0
VERTEX
  5
2DA6
  8
0
 10
30.3
 20
197.4519
 30
119.4724
 70
    64
  0
VERTEX
  5
2DA7
  8
0
 10
36.8
 20
197.4519
 30
124.4724
 70
    64
  0
VERTEX
  5
2DA8
  8
0
 10
44.4
 20
197.4519
 30
127.5724
 70
    64
  0
VERTEX
  5
2DA9
  8
0
 10
52.5
 20
197.4519
 30
128.7724
 70
    64
  0
VERTEX
  5
2DAA
  8
0
 10
26.0
 20
191.4519
 30
97.2724
 70
    64
  0
VERTEX
  5
2DAB
  8
0
 10
27.0
 20
191.4519
 30
104.0724
 70
    64
  0
VERTEX
  5
2DAC
  8
0
 10
29.6
 20
191.4519
 30
110.4724
 70
    64
  0
VERTEX
  5
2DAD
  8
0
 10
33.8
 20
191.4519
 30
115.9724
 70
    64
  0
VERTEX
  5
2DAE
  8
0
 10
39.3
 20
191.4519
 30
120.1724
 70
    64
  0
VERTEX
  5
2DAF
  8
0
 10
45.7
 20
191.4519
 30
122.7724
 70
    64
  0
VERTEX
  5
2DB0
  8
0
 10
52.5
 20
191.4519
 30
123.7724
 70
    64
  0
VERTEX
  5
2DB1
  8
0
 10
32.0
 20
186.9519
 30
97.2724
 70
    64
  0
VERTEX
  5
2DB2
  8
0
 10
32.8
 20
186.9519
 30
102.5724
 70
    64
  0
VERTEX
  5
2DB3
  8
0
 10
34.8
 20
186.9519
 30
107.4724
 70
    64
  0
VERTEX
  5
2DB4
  8
0
 10
38.0
 20
186.9519
 30
111.7724
 70
    64
  0
VERTEX
  5
2DB5
  8
0
 10
42.3
 20
186.9519
 30
114.9724
 70
    64
  0
VERTEX
  5
2DB6
  8
0
 10
47.2
 20
186.9519
 30
116.9724
 70
    64
  0
VERTEX
  5
2DB7
  8
0
 10
52.5
 20
186.9519
 30
117.7724
 70
    64
  0
VERTEX
  5
2DB8
  8
0
 10
38.5
 20
183.9519
 30
97.2724
 70
    64
  0
VERTEX
  5
2DB9
  8
0
 10
39.0
 20
183.9519
 30
100.8724
 70
    64
  0
VERTEX
  5
2DBA
  8
0
 10
40.4
 20
183.9519
 30
104.2724
 70
    64
  0
VERTEX
  5
2DBB
  8
0
 10
42.6
 20
183.9519
 30
107.1724
 70
    64
  0
VERTEX
  5
2DBC
  8
0
 10
45.5
 20
183.9519
 30
109.3724
 70
    64
  0
VERTEX
  5
2DBD
  8
0
 10
48.9
 20
183.9519
 30
110.7724
 70
    64
  0
VERTEX
  5
2DBE
  8
0
 10
52.5
 20
183.9519
 30
111.2724
 70
    64
  0
VERTEX
  5
2DBF
  8
0
 10
44.5
 20
182.1519
 30
97.2724
 70
    64
  0
VERTEX
  5
2DC0
  8
0
 10
44.8
 20
182.1519
 30
99.3724
 70
    64
  0
VERTEX
  5
2DC1
  8
0
 10
45.6
 20
182.1519
 30
101.2724
 70
    64
  0
VERTEX
  5
2DC2
  8
0
 10
46.9
 20
182.1519
 30
102.8724
 70
    64
  0
VERTEX
  5
2DC3
  8
0
 10
48.5
 20
182.1519
 30
104.1724
 70
    64
  0
VERTEX
  5
2DC4
  8
0
 10
50.4
 20
182.1519
 30
104.9724
 70
    64
  0
VERTEX
  5
2DC5
  8
0
 10
52.5
 20
182.1519
 30
105.2724
 70
    64
  0
VERTEX
  5
2DC6
  8
0
 10
52.5
 20
181.4519
 30
97.2724
 70
    64
  0
VERTEX
  5
2DC7
  8
0
 10
52.5
 20
181.4519
 30
97.2724
 70
    64
  0
VERTEX
  5
2DC8
  8
0
 10
52.5
 20
181.4519
 30
97.2724
 70
    64
  0
VERTEX
  5
2DC9
  8
0
 10
52.5
 20
181.4519
 30
97.2724
 70
    64
  0
VERTEX
  5
2DCA
  8
0
 10
52.5
 20
181.4519
 30
97.2724
 70
    64
  0
VERTEX
  5
2DCB
  8
0
 10
52.5
 20
181.4519
 30
97.2724
 70
    64
  0
VERTEX
  5
2DCC
  8
0
 10
52.5
 20
181.4519
 30
97.2724
 70
    64
  0
SEQEND
  5
2DCD
  8
0
  0
POLYLINE
  5
2DCE
  8
0
 66
     1
 10
0.0
 20
0.0
 30
0.0
 70
    16
 71
     5
 72
     7
  0
VERTEX
  5
2DCF
  8
0
 10
16.0
 20
214.4519
 30
97.2724
 70
    64
  0
VERTEX
  5
2DD0
  8
0
 10
17.4
 20
214.4519
 30
106.6724
 70
    64
  0
VERTEX
  5
2DD1
  8
0
 10
20.9
 20
214.4519
 30
115.3724
 70
    64
  0
VERTEX
  5
2DD2
  8
0
 10
26.8
 20
214.4519
 30
122.9724
 70
    64
  0
VERTEX
  5
2DD3
  8
0
 10
34.4
 20
214.4519
 30
128.8724
 70
    64
  0
VERTEX
  5
2DD4
  8
0
 10
43.1
 20
214.4519
 30
132.3724
 70
    64
  0
VERTEX
  5
2DD5
  8
0
 10
52.5
 20
214.4519
 30
133.7724
 70
    64
  0
VERTEX
  5
2DD6
  8
0
 10
15.0
 20
213.4519
 30
97.2724
 70
    64
  0
VERTEX
  5
2DD7
  8
0
 10
16.3
 20
213.4519
 30
106.8724
 70
    64
  0
VERTEX
  5
2DD8
  8
0
 10
20.0
 20
213.4519
 30
115.8724
 70
    64
  0
VERTEX
  5
2DD9
  8
0
 10
26.0
 20
213.4519
 30
123.7724
 70
    64
  0
VERTEX
  5
2DDA
  8
0
 10
33.9
 20
213.4519
 30
129.7724
 70
    64
  0
VERTEX
  5
2DDB
  8
0
 10
42.9
 20
213.4519
 30
133.4724
 70
    64
  0
VERTEX
  5
2DDC
  8
0
 10
52.5
 20
213.4519
 30
134.7724
 70
    64
  0
VERTEX
  5
2DDD
  8
0
 10
15.0
 20
212.4519
 30
97.2724
 70
    64
  0
VERTEX
  5
2DDE
  8
0
 10
16.3
 20
212.4519
 30
106.8724
 70
    64
  0
VERTEX
  5
2DDF
  8
0
 10
20.0
 20
212.4519
 30
115.8724
 70
    64
  0
VERTEX
  5
2DE0
  8
0
 10
26.0
 20
212.4519
 30
123.7724
 70
    64
  0
VERTEX
  5
2DE1
  8
0
 10
33.9
 20
212.4519
 30
129.7724
 70
    64
  0
VERTEX
  5
2DE2
  8
0
 10
42.9
 20
212.4519
 30
133.4724
 70
    64
  0
VERTEX
  5
2DE3
  8
0
 10
52.5
 20
212.4519
 30
134.7724
 70
    64
  0
VERTEX
  5
2DE4
  8
0
 10
16.0
 20
211.4519
 30
97.2724
 70
    64
  0
VERTEX
  5
2DE5
  8
0
 10
17.4
 20
211.4519
 30
106.6724
 70
    64
  0
VERTEX
  5
2DE6
  8
0
 10
20.9
 20
211.4519
 30
115.3724
 70
    64
  0
VERTEX
  5
2DE7
  8
0
 10
26.8
 20
211.4519
 30
122.9724
 70
    64
  0
VERTEX
  5
2DE8
  8
0
 10
34.4
 20
211.4519
 30
128.8724
 70
    64
  0
VERTEX
  5
2DE9
  8
0
 10
43.1
 20
211.4519
 30
132.3724
 70
    64
  0
VERTEX
  5
2DEA
  8
0
 10
52.5
 20
211.4519
 30
133.7724
 70
    64
  0
VERTEX
  5
2DEB
  8
0
 10
17.0
 20
211.4519
 30
97.2724
 70
    64
  0
VERTEX
  5
2DEC
  8
0
 10
18.3
 20
211.4519
 30
106.3724
 70
    64
  0
VERTEX
  5
2DED
  8
0
 10
21.8
 20
211.4519
 30
114.8724
 70
    64
  0
VERTEX
  5
2DEE
  8
0
 10
27.5
 20
211.4519
 30
122.2724
 70
    64
  0
VERTEX
  5
2DEF
  8
0
 10
34.9
 20
211.4519
 30
127.9724
 70
    64
  0
VERTEX
  5
2DF0
  8
0
 10
43.4
 20
211.4519
 30
131.4724
 70
    64
  0
VERTEX
  5
2DF1
  8
0
 10
52.5
 20
211.4519
 30
132.7724
 70
    64
  0
SEQEND
  5
2DF2
  8
0
  0
POLYLINE
  5
2DF3
  8
0
 66
     1
 10
0.0
 20
0.0
 30
0.0
 70
    16
 71
     5
 72
     7
  0
VERTEX
  5
2DF4
  8
0
 10
52.5
 20
217.4519
 30
97.2724
 70
    64
  0
VERTEX
  5
2DF5
  8
0
 10
52.5
 20
217.4519
 30
97.2724
 70
    64
  0
VERTEX
  5
2DF6
  8
0
 10
52.5
 20
217.4519
 30
97.2724
 70
    64
  0
VERTEX
  5
2DF7
  8
0
 10
52.5
 20
217.4519
 30
97.2724
 70
    64
  0
VERTEX
  5
2DF8
  8
0
 10
52.5
 20
217.4519
 30
97.2724
 70
    64
  0
VERTEX
  5
2DF9
  8
0
 10
52.5
 20
217.4519
 30
97.2724
 70
    64
  0
VERTEX
  5
2DFA
  8
0
 10
52.5
 20
217.4519
 30
97.2724
 70
    64
  0
VERTEX
  5
2DFB
  8
0
 10
16.0
 20
217.4519
 30
97.2724
 70
    64
  0
VERTEX
  5
2DFC
  8
0
 10
17.4
 20
217.4519
 30
106.6724
 70
    64
  0
VERTEX
  5
2DFD
  8
0
 10
20.9
 20
217.4519
 30
115.3724
 70
    64
  0
VERTEX
  5
2DFE
  8
0
 10
26.8
 20
217.4519
 30
122.9724
 70
    64
  0
VERTEX
  5
2DFF
  8
0
 10
34.4
 20
217.4519
 30
128.8724
 70
    64
  0
VERTEX
  5
2E00
  8
0
 10
43.1
 20
217.4519
 30
132.3724
 70
    64
  0
VERTEX
  5
2E01
  8
0
 10
52.5
 20
217.4519
 30
133.7724
 70
    64
  0
VERTEX
  5
2E02
  8
0
 10
15.0
 20
216.4519
 30
97.2724
 70
    64
  0
VERTEX
  5
2E03
  8
0
 10
16.3
 20
216.4519
 30
106.8724
 70
    64
  0
VERTEX
  5
2E04
  8
0
 10
20.0
 20
216.4519
 30
115.8724
 70
    64
  0
VERTEX
  5
2E05
  8
0
 10
26.0
 20
216.4519
 30
123.7724
 70
    64
  0
VERTEX
  5
2E06
  8
0
 10
33.9
 20
216.4519
 30
129.7724
 70
    64
  0
VERTEX
  5
2E07
  8
0
 10
42.9
 20
216.4519
 30
133.4724
 70
    64
  0
VERTEX
  5
2E08
  8
0
 10
52.5
 20
216.4519
 30
134.7724
 70
    64
  0
VERTEX
  5
2E09
  8
0
 10
15.0
 20
215.4519
 30
97.2724
 70
    64
  0
VERTEX
  5
2E0A
  8
0
 10
16.3
 20
215.4519
 30
106.8724
 70
    64
  0
VERTEX
  5
2E0B
  8
0
 10
20.0
 20
215.4519
 30
115.8724
 70
    64
  0
VERTEX
  5
2E0C
  8
0
 10
26.0
 20
215.4519
 30
123.7724
 70
    64
  0
VERTEX
  5
2E0D
  8
0
 10
33.9
 20
215.4519
 30
129.7724
 70
    64
  0
VERTEX
  5
2E0E
  8
0
 10
42.9
 20
215.4519
 30
133.4724
 70
    64
  0
VERTEX
  5
2E0F
  8
0
 10
52.5
 20
215.4519
 30
134.7724
 70
    64
  0
VERTEX
  5
2E10
  8
0
 10
16.0
 20
214.4519
 30
97.2724
 70
    64
  0
VERTEX
  5
2E11
  8
0
 10
17.4
 20
214.4519
 30
106.6724
 70
    64
  0
VERTEX
  5
2E12
  8
0
 10
20.9
 20
214.4519
 30
115.3724
 70
    64
  0
VERTEX
  5
2E13
  8
0
 10
26.8
 20
214.4519
 30
122.9724
 70
    64
  0
VERTEX
  5
2E14
  8
0
 10
34.4
 20
214.4519
 30
128.8724
 70
    64
  0
VERTEX
  5
2E15
  8
0
 10
43.1
 20
214.4519
 30
132.3724
 70
    64
  0
VERTEX
  5
2E16
  8
0
 10
52.5
 20
214.4519
 30
133.7724
 70
    64
  0
SEQEND
  5
2E17
  8
0
  0
POLYLINE
  5
2E18
  8
0
 66
     1
 10
0.0
 20
0.0
 30
0.0
 70
    16
 71
     5
 72
     7
  0
VERTEX
  5
2E19
  8
0
 10
52.5
 20
217.4519
 30
97.2724
 70
    64
  0
VERTEX
  5
2E1A
  8
0
 10
52.5
 20
217.4519
 30
97.2724
 70
    64
  0
VERTEX
  5
2E1B
  8
0
 10
52.5
 20
217.4519
 30
97.2724
 70
    64
  0
VERTEX
  5
2E1C
  8
0
 10
52.5
 20
217.4519
 30
97.2724
 70
    64
  0
VERTEX
  5
2E1D
  8
0
 10
52.5
 20
217.4519
 30
97.2724
 70
    64
  0
VERTEX
  5
2E1E
  8
0
 10
52.5
 20
217.4519
 30
97.2724
 70
    64
  0
VERTEX
  5
2E1F
  8
0
 10
52.5
 20
217.4519
 30
97.2724
 70
    64
  0
VERTEX
  5
2E20
  8
0
 10
16.0
 20
217.4519
 30
97.2724
 70
    64
  0
VERTEX
  5
2E21
  8
0
 10
17.4
 20
217.4519
 30
106.6724
 70
    64
  0
VERTEX
  5
2E22
  8
0
 10
20.9
 20
217.4519
 30
115.3724
 70
    64
  0
VERTEX
  5
2E23
  8
0
 10
26.8
 20
217.4519
 30
122.9724
 70
    64
  0
VERTEX
  5
2E24
  8
0
 10
34.4
 20
217.4519
 30
128.8724
 70
    64
  0
VERTEX
  5
2E25
  8
0
 10
43.1
 20
217.4519
 30
132.3724
 70
    64
  0
VERTEX
  5
2E26
  8
0
 10
52.5
 20
217.4519
 30
133.7724
 70
    64
  0
VERTEX
  5
2E27
  8
0
 10
15.0
 20
216.4519
 30
97.2724
 70
    64
  0
VERTEX
  5
2E28
  8
0
 10
16.3
 20
216.4519
 30
106.8724
 70
    64
  0
VERTEX
  5
2E29
  8
0
 10
20.0
 20
216.4519
 30
115.8724
 70
    64
  0
VERTEX
  5
2E2A
  8
0
 10
26.0
 20
216.4519
 30
123.7724
 70
    64
  0
VERTEX
  5
2E2B
  8
0
 10
33.9
 20
216.4519
 30
129.7724
 70
    64
  0
VERTEX
  5
2E2C
  8
0
 10
42.9
 20
216.4519
 30
133.4724
 70
    64
  0
VERTEX
  5
2E2D
  8
0
 10
52.5
 20
216.4519
 30
134.7724
 70
    64
  0
VERTEX
  5
2E2E
  8
0
 10
15.0
 20
215.4519
 30
97.2724
 70
    64
  0
VERTEX
  5
2E2F
  8
0
 10
16.3
 20
215.4519
 30
106.8724
 70
    64
  0
VERTEX
  5
2E30
  8
0
 10
20.0
 20
215.4519
 30
115.8724
 70
    64
  0
VERTEX
  5
2E31
  8
0
 10
26.0
 20
215.4519
 30
123.7724
 70
    64
  0
VERTEX
  5
2E32
  8
0
 10
33.9
 20
215.4519
 30
129.7724
 70
    64
  0
VERTEX
  5
2E33
  8
0
 10
42.9
 20
215.4519
 30
133.4724
 70
    64
  0
VERTEX
  5
2E34
  8
0
 10
52.5
 20
215.4519
 30
134.7724
 70
    64
  0
VERTEX
  5
2E35
  8
0
 10
16.0
 20
214.4519
 30
97.2724
 70
    64
  0
VERTEX
  5
2E36
  8
0
 10
17.4
 20
214.4519
 30
106.6724
 70
    64
  0
VERTEX
  5
2E37
  8
0
 10
20.9
 20
214.4519
 30
115.3724
 70
    64
  0
VERTEX
  5
2E38
  8
0
 10
26.8
 20
214.4519
 30
122.9724
 70
    64
  0
VERTEX
  5
2E39
  8
0
 10
34.4
 20
214.4519
 30
128.8724
 70
    64
  0
VERTEX
  5
2E3A
  8
0
 10
43.1
 20
214.4519
 30
132.3724
 70
    64
  0
VERTEX
  5
2E3B
  8
0
 10
52.5
 20
214.4519
 30
133.7724
 70
    64
  0
SEQEND
  5
2E3C
  8
0
  0
POLYLINE
  5
3318
  8
0
 66
     1
 10
0.0
 20
0.0
 30
0.0
 70
    16
 71
     4
 72
     7
  0
VERTEX
  5
3319
  8
0
 10
0.0
 20
45.466328
 30
26.249987
 70
    64
  0
VERTEX
  5
331A
  8
0
 10
1.8
 20
33.688383
 30
33.049987
 70
    64
  0
VERTEX
  5
331B
  8
0
 10
7.0
 20
22.776463
 30
39.349987
 70
    64
  0
VERTEX
  5
331C
  8
0
 10
15.4
 20
13.336786
 30
44.799987
 70
    64
  0
VERTEX
  5
331D
  8
0
 10
26.3
 20
6.062173
 30
48.999987
 70
    64
  0
VERTEX
  5
331E
  8
0
 10
38.9
 20
1.55884
 30
51.599987
 70
    64
  0
VERTEX
  5
331F
  8
0
 10
52.5
 20
-0.000005
 30
52.499987
 70
    64
  0
VERTEX
  5
3320
  8
0
 10
1.5
 20
47.466328
 30
29.714088
 70
    64
  0
VERTEX
  5
3321
  8
0
 10
3.3
 20
36.034793
 30
36.314088
 70
    64
  0
VERTEX
  5
3322
  8
0
 10
8.3
 20
25.469283
 30
42.414088
 70
    64
  0
VERTEX
  5
3323
  8
0
 10
16.5
 20
16.289414
 30
47.714088
 70
    64
  0
VERTEX
  5
3324
  8
0
 10
27.1
 20
9.188006
 30
51.814088
 70
    64
  0
VERTEX
  5
3325
  8
0
 10
39.3
 20
4.857879
 30
54.314088
 70
    64
  0
VERTEX
  5
3326
  8
0
 10
52.5
 20
3.299033
 30
55.214088
 70
    64
  0
VERTEX
  5
3327
  8
0
 10
4.5
 20
49.466328
 30
33.17819
 70
    64
  0
VERTEX
  5
3328
  8
0
 10
6.2
 20
38.727613
 30
39.37819
 70
    64
  0
VERTEX
  5
3329
  8
0
 10
10.9
 20
28.768321
 30
45.12819
 70
    64
  0
VERTEX
  5
332A
  8
0
 10
18.6
 20
20.108067
 30
50.12819
 70
    64
  0
VERTEX
  5
332B
  8
0
 10
28.6
 20
13.439672
 30
53.97819
 70
    64
  0
VERTEX
  5
332C
  8
0
 10
40.1
 20
9.369352
 30
56.32819
 70
    64
  0
VERTEX
  5
332D
  8
0
 10
52.5
 20
7.897109
 30
57.17819
 70
    64
  0
VERTEX
  5
332E
  8
0
 10
8.5
 20
50.966328
 30
35.776266
 70
    64
  0
VERTEX
  5
332F
  8
0
 10
10.0
 20
41.093639
 30
41.476266
 70
    64
  0
VERTEX
  5
3330
  8
0
 10
14.4
 20
31.91377
 30
46.776266
 70
    64
  0
VERTEX
  5
3331
  8
0
 10
21.4
 20
24.032938
 30
51.326266
 70
    64
  0
VERTEX
  5
3332
  8
0
 10
30.5
 20
17.970761
 30
54.826266
 70
    64
  0
VERTEX
  5
3333
  8
0
 10
41.1
 20
14.160249
 30
57.026266
 70
    64
  0
VERTEX
  5
3334
  8
0
 10
52.5
 20
12.861211
 30
57.776266
 70
    64
  0
SEQEND
  5
3335
  8
0
  0
POLYLINE
  5
3336
  8
0
 66
     1
 10
0.0
 20
0.0
 30
0.0
 70
    16
 71
     5
 72
     7
  0
VERTEX
  5
3337
  8
0
 10
8.5
 20
50.966328
 30
35.776266
 70
    64
  0
VERTEX
  5
3338
  8
0
 10
10.0
 20
41.093639
 30
41.476266
 70
    64
  0
VERTEX
  5
3339
  8
0
 10
14.4
 20
31.91377
 30
46.776266
 70
    64
  0
VERTEX
  5
333A
  8
0
 10
21.4
 20
24.032938
 30
51.326266
 70
    64
  0
VERTEX
  5
333B
  8
0
 10
30.5
 20
17.970761
 30
54.826266
 70
    64
  0
VERTEX
  5
333C
  8
0
 10
41.1
 20
14.160249
 30
57.026266
 70
    64
  0
VERTEX
  5
333D
  8
0
 10
52.5
 20
12.861211
 30
57.776266
 70
    64
  0
VERTEX
  5
333E
  8
0
 10
7.5
 20
51.466328
 30
36.642291
 70
    64
  0
VERTEX
  5
333F
  8
0
 10
9.1
 20
41.333831
 30
42.492291
 70
    64
  0
VERTEX
  5
3340
  8
0
 10
13.5
 20
32.067359
 30
47.842291
 70
    64
  0
VERTEX
  5
3341
  8
0
 10
20.7
 20
23.926721
 30
52.542291
 70
    64
  0
VERTEX
  5
3342
  8
0
 10
30.1
 20
17.691338
 30
56.142291
 70
    64
  0
VERTEX
  5
3343
  8
0
 10
40.8
 20
13.880826
 30
58.342291
 70
    64
  0
VERTEX
  5
3344
  8
0
 10
52.5
 20
12.495185
 30
59.142291
 70
    64
  0
VERTEX
  5
3345
  8
0
 10
7.5
 20
51.966328
 30
37.508317
 70
    64
  0
VERTEX
  5
3346
  8
0
 10
9.1
 20
41.833831
 30
43.358317
 70
    64
  0
VERTEX
  5
3347
  8
0
 10
13.5
 20
32.567359
 30
48.708317
 70
    64
  0
VERTEX
  5
3348
  8
0
 10
20.7
 20
24.426721
 30
53.408317
 70
    64
  0
VERTEX
  5
3349
  8
0
 10
30.1
 20
18.191338
 30
57.008317
 70
    64
  0
VERTEX
  5
334A
  8
0
 10
40.8
 20
14.380826
 30
59.208317
 70
    64
  0
VERTEX
  5
334B
  8
0
 10
52.5
 20
12.995185
 30
60.008317
 70
    64
  0
VERTEX
  5
334C
  8
0
 10
8.5
 20
52.466328
 30
38.374342
 70
    64
  0
VERTEX
  5
334D
  8
0
 10
10.0
 20
42.593639
 30
44.074342
 70
    64
  0
VERTEX
  5
334E
  8
0
 10
14.4
 20
33.41377
 30
49.374342
 70
    64
  0
VERTEX
  5
334F
  8
0
 10
21.4
 20
25.532938
 30
53.924342
 70
    64
  0
VERTEX
  5
3350
  8
0
 10
30.5
 20
19.470761
 30
57.424342
 70
    64
  0
VERTEX
  5
3351
  8
0
 10
41.1
 20
15.660249
 30
59.624342
 70
    64
  0
VERTEX
  5
3352
  8
0
 10
52.5
 20
14.361211
 30
60.374342
 70
    64
  0
VERTEX
  5
3353
  8
0
 10
9.5
 20
52.466328
 30
38.374342
 70
    64
  0
VERTEX
  5
3354
  8
0
 10
11.0
 20
42.853446
 30
43.924342
 70
    64
  0
VERTEX
  5
3355
  8
0
 10
15.2
 20
33.846782
 30
49.124342
 70
    64
  0
VERTEX
  5
3356
  8
0
 10
22.1
 20
26.139156
 30
53.574342
 70
    64
  0
VERTEX
  5
3357
  8
0
 10
31.0
 20
20.163581
 30
57.024342
 70
    64
  0
VERTEX
  5
3358
  8
0
 10
41.4
 20
16.526274
 30
59.124342
 70
    64
  0
VERTEX
  5
3359
  8
0
 10
52.5
 20
15.227236
 30
59.874342
 70
    64
  0
SEQEND
  5
335A
  8
0
  0
POLYLINE
  5
33DF
  8
0
 66
     1
 10
0.0
 20
0.0
 30
0.0
 70
    16
 71
     7
 72
     7
  0
VERTEX
  5
33E0
  8
0
 10
9.5
 20
52.466328
 30
38.374342
 70
    64
  0
VERTEX
  5
33E1
  8
0
 10
11.0
 20
42.853446
 30
43.924342
 70
    64
  0
VERTEX
  5
33E2
  8
0
 10
15.2
 20
33.846782
 30
49.124342
 70
    64
  0
VERTEX
  5
33E3
  8
0
 10
22.1
 20
26.139156
 30
53.574342
 70
    64
  0
VERTEX
  5
33E4
  8
0
 10
31.0
 20
20.163581
 30
57.024342
 70
    64
  0
VERTEX
  5
33E5
  8
0
 10
41.4
 20
16.526274
 30
59.124342
 70
    64
  0
VERTEX
  5
33E6
  8
0
 10
52.5
 20
15.227236
 30
59.874342
 70
    64
  0
VERTEX
  5
33E7
  8
0
 10
10.5
 20
57.216328
 30
46.601584
 70
    64
  0
VERTEX
  5
33E8
  8
0
 10
12.0
 20
47.776652
 30
52.051584
 70
    64
  0
VERTEX
  5
33E9
  8
0
 10
16.1
 20
39.029795
 30
57.101584
 70
    64
  0
VERTEX
  5
33EA
  8
0
 10
22.8
 20
31.495374
 30
61.451584
 70
    64
  0
VERTEX
  5
33EB
  8
0
 10
31.5
 20
25.693004
 30
64.801584
 70
    64
  0
VERTEX
  5
33EC
  8
0
 10
41.6
 20
22.1423
 30
66.851584
 70
    64
  0
VERTEX
  5
33ED
  8
0
 10
52.5
 20
20.843261
 30
67.601584
 70
    64
  0
VERTEX
  5
33EE
  8
0
 10
12.5
 20
62.466328
 30
55.69485
 70
    64
  0
VERTEX
  5
33EF
  8
0
 10
13.9
 20
53.459664
 30
60.89485
 70
    64
  0
VERTEX
  5
33F0
  8
0
 10
17.8
 20
45.14582
 30
65.69485
 70
    64
  0
VERTEX
  5
33F1
  8
0
 10
24.2
 20
37.957809
 30
69.84485
 70
    64
  0
VERTEX
  5
33F2
  8
0
 10
32.5
 20
32.415247
 30
73.04485
 70
    64
  0
VERTEX
  5
33F3
  8
0
 10
42.1
 20
29.037748
 30
74.99485
 70
    64
  0
VERTEX
  5
33F4
  8
0
 10
52.5
 20
27.825312
 30
75.69485
 70
    64
  0
VERTEX
  5
33F5
  8
0
 10
15.5
 20
67.716328
 30
64.788117
 70
    64
  0
VERTEX
  5
33F6
  8
0
 10
16.8
 20
59.402485
 30
69.588117
 70
    64
  0
VERTEX
  5
33F7
  8
0
 10
20.4
 20
51.694858
 30
74.038117
 70
    64
  0
VERTEX
  5
33F8
  8
0
 10
26.3
 20
45.026463
 30
77.888117
 70
    64
  0
VERTEX
  5
33F9
  8
0
 10
34.0
 20
39.916913
 30
80.838117
 70
    64
  0
VERTEX
  5
33FA
  8
0
 10
42.9
 20
36.799221
 30
82.638117
 70
    64
  0
VERTEX
  5
33FB
  8
0
 10
52.5
 20
35.673388
 30
83.288117
 70
    64
  0
VERTEX
  5
33FC
  8
0
 10
19.5
 20
72.216328
 30
72.582346
 70
    64
  0
VERTEX
  5
33FD
  8
0
 10
20.7
 20
64.76851
 30
76.882346
 70
    64
  0
VERTEX
  5
33FE
  8
0
 10
23.9
 20
57.926909
 30
80.832346
 70
    64
  0
VERTEX
  5
33FF
  8
0
 10
29.2
 20
52.037937
 30
84.232346
 70
    64
  0
VERTEX
  5
3400
  8
0
 10
36.0
 20
47.448002
 30
86.882346
 70
    64
  0
VERTEX
  5
3401
  8
0
 10
43.9
 20
44.676721
 30
88.482346
 70
    64
  0
VERTEX
  5
3402
  8
0
 10
52.5
 20
43.63749
 30
89.082346
 70
    64
  0
VERTEX
  5
3403
  8
0
 10
23.5
 20
75.466328
 30
78.211511
 70
    64
  0
VERTEX
  5
3404
  8
0
 10
24.5
 20
68.971138
 30
81.961511
 70
    64
  0
VERTEX
  5
3405
  8
0
 10
27.4
 20
62.90896
 30
85.461511
 70
    64
  0
VERTEX
  5
3406
  8
0
 10
32.0
 20
57.712808
 30
88.461511
 70
    64
  0
VERTEX
  5
3407
  8
0
 10
38.0
 20
53.729091
 30
90.761511
 70
    64
  0
VERTEX
  5
3408
  8
0
 10
45.0
 20
51.217617
 30
92.211511
 70
    64
  0
VERTEX
  5
3409
  8
0
 10
52.5
 20
50.351592
 30
92.711511
 70
    64
  0
VERTEX
  5
340A
  8
0
 10
28.5
 20
77.966328
 30
82.541638
 70
    64
  0
VERTEX
  5
340B
  8
0
 10
29.3
 20
72.596971
 30
85.641638
 70
    64
  0
VERTEX
  5
340C
  8
0
 10
31.7
 20
67.574024
 30
88.541638
 70
    64
  0
VERTEX
  5
340D
  8
0
 10
35.5
 20
63.243897
 30
91.041638
 70
    64
  0
VERTEX
  5
340E
  8
0
 10
40.5
 20
59.953
 30
92.941638
 70
    64
  0
VERTEX
  5
340F
  8
0
 10
46.3
 20
57.874539
 30
94.141638
 70
    64
  0
VERTEX
  5
3410
  8
0
 10
52.5
 20
57.181719
 30
94.541638
 70
    64
  0
SEQEND
  5
3411
  8
0
  0
POLYLINE
  5
3412
  8
0
 66
     1
 10
0.0
 20
0.0
 30
0.0
 70
    16
 71
     4
 72
     7
  0
VERTEX
  5
3413
  8
0
 10
28.5
 20
77.100303
 30
83.041638
 70
    64
  0
VERTEX
  5
3414
  8
0
 10
29.3
 20
72.596971
 30
85.641638
 70
    64
  0
VERTEX
  5
3415
  8
0
 10
31.7
 20
67.574024
 30
88.541638
 70
    64
  0
VERTEX
  5
3416
  8
0
 10
35.5
 20
63.243897
 30
91.041638
 70
    64
  0
VERTEX
  5
3417
  8
0
 10
40.5
 20
59.953
 30
92.941638
 70
    64
  0
VERTEX
  5
3418
  8
0
 10
46.3
 20
57.874539
 30
94.141638
 70
    64
  0
VERTEX
  5
3419
  8
0
 10
52.5
 20
57.181719
 30
94.541638
 70
    64
  0
VERTEX
  5
341A
  8
0
 10
27.5
 20
77.966328
 30
82.541638
 70
    64
  0
VERTEX
  5
341B
  8
0
 10
28.4
 20
72.337163
 30
85.791638
 70
    64
  0
VERTEX
  5
341C
  8
0
 10
30.8
 20
67.141011
 30
88.791638
 70
    64
  0
VERTEX
  5
341D
  8
0
 10
34.8
 20
62.637679
 30
91.391638
 70
    64
  0
VERTEX
  5
341E
  8
0
 10
40.0
 20
59.173577
 30
93.391638
 70
    64
  0
VERTEX
  5
341F
  8
0
 10
46.0
 20
57.095116
 30
94.591638
 70
    64
  0
VERTEX
  5
3420
  8
0
 10
52.5
 20
56.315693
 30
95.041638
 70
    64
  0
VERTEX
  5
3421
  8
0
 10
28.5
 20
79.216328
 30
84.706701
 70
    64
  0
VERTEX
  5
3422
  8
0
 10
29.3
 20
73.846971
 30
87.806701
 70
    64
  0
VERTEX
  5
3423
  8
0
 10
31.7
 20
68.824024
 30
90.706701
 70
    64
  0
VERTEX
  5
3424
  8
0
 10
35.5
 20
64.493897
 30
93.206701
 70
    64
  0
VERTEX
  5
3425
  8
0
 10
40.5
 20
61.203
 30
95.106701
 70
    64
  0
VERTEX
  5
3426
  8
0
 10
46.3
 20
59.124539
 30
96.306701
 70
    64
  0
VERTEX
  5
3427
  8
0
 10
52.5
 20
58.431719
 30
96.706701
 70
    64
  0
VERTEX
  5
3428
  8
0
 10
30.5
 20
80.466328
 30
86.871765
 70
    64
  0
VERTEX
  5
3429
  8
0
 10
31.3
 20
75.529984
 30
89.721765
 70
    64
  0
VERTEX
  5
342A
  8
0
 10
33.4
 20
70.940049
 30
92.371765
 70
    64
  0
VERTEX
  5
342B
  8
0
 10
36.9
 20
66.956332
 30
94.671765
 70
    64
  0
VERTEX
  5
342C
  8
0
 10
41.5
 20
63.925243
 30
96.421765
 70
    64
  0
VERTEX
  5
342D
  8
0
 10
46.8
 20
62.10659
 30
97.471765
 70
    64
  0
VERTEX
  5
342E
  8
0
 10
52.5
 20
61.41377
 30
97.871765
 70
    64
  0
SEQEND
  5
342F
  8
0
  0
POLYLINE
  5
3432
  8
0
 66
     1
 10
0.0
 20
0.0
 30
0.0
 70
    16
 71
     7
 72
     7
  0
VERTEX
  5
3433
  8
0
 10
30.5
 20
80.466328
 30
86.871765
 70
    64
  0
VERTEX
  5
3434
  8
0
 10
31.3
 20
75.529984
 30
89.721765
 70
    64
  0
VERTEX
  5
3435
  8
0
 10
33.4
 20
70.940049
 30
92.371765
 70
    64
  0
VERTEX
  5
3436
  8
0
 10
36.9
 20
66.956332
 30
94.671765
 70
    64
  0
VERTEX
  5
3437
  8
0
 10
41.5
 20
63.925243
 30
96.421765
 70
    64
  0
VERTEX
  5
3438
  8
0
 10
46.8
 20
62.10659
 30
97.471765
 70
    64
  0
VERTEX
  5
3439
  8
0
 10
52.5
 20
61.41377
 30
97.871765
 70
    64
  0
VERTEX
  5
343A
  8
0
 10
30.5
 20
98.966328
 30
118.914705
 70
    64
  0
VERTEX
  5
343B
  8
0
 10
31.3
 20
94.029984
 30
121.764705
 70
    64
  0
VERTEX
  5
343C
  8
0
 10
33.4
 20
89.440049
 30
124.414705
 70
    64
  0
VERTEX
  5
343D
  8
0
 10
36.9
 20
85.456332
 30
126.714705
 70
    64
  0
VERTEX
  5
343E
  8
0
 10
41.5
 20
82.425243
 30
128.464705
 70
    64
  0
VERTEX
  5
343F
  8
0
 10
46.8
 20
80.60659
 30
129.514705
 70
    64
  0
VERTEX
  5
3440
  8
0
 10
52.5
 20
79.91377
 30
129.914705
 70
    64
  0
VERTEX
  5
3441
  8
0
 10
31.5
 20
102.466328
 30
124.976883
 70
    64
  0
VERTEX
  5
3442
  8
0
 10
32.2
 20
97.789791
 30
127.676883
 70
    64
  0
VERTEX
  5
3443
  8
0
 10
34.3
 20
93.373062
 30
130.226883
 70
    64
  0
VERTEX
  5
3444
  8
0
 10
37.7
 20
89.649152
 30
132.376883
 70
    64
  0
VERTEX
  5
3445
  8
0
 10
42.0
 20
86.704666
 30
134.076883
 70
    64
  0
VERTEX
  5
3446
  8
0
 10
47.1
 20
84.886013
 30
135.126883
 70
    64
  0
VERTEX
  5
3447
  8
0
 10
52.5
 20
84.279795
 30
135.476883
 70
    64
  0
VERTEX
  5
3448
  8
0
 10
33.5
 20
105.216328
 30
129.740022
 70
    64
  0
VERTEX
  5
3449
  8
0
 10
34.2
 20
100.972804
 30
132.190022
 70
    64
  0
VERTEX
  5
344A
  8
0
 10
36.0
 20
96.989087
 30
134.490022
 70
    64
  0
VERTEX
  5
344B
  8
0
 10
39.1
 20
93.611588
 30
136.440022
 70
    64
  0
VERTEX
  5
344C
  8
0
 10
43.0
 20
90.926909
 30
137.990022
 70
    64
  0
VERTEX
  5
344D
  8
0
 10
47.6
 20
89.368064
 30
138.890022
 70
    64
  0
VERTEX
  5
344E
  8
0
 10
52.5
 20
88.761846
 30
139.240022
 70
    64
  0
VERTEX
  5
344F
  8
0
 10
37.0
 20
107.716328
 30
134.070149
 70
    64
  0
VERTEX
  5
3450
  8
0
 10
37.5
 20
104.252227
 30
136.070149
 70
    64
  0
VERTEX
  5
3451
  8
0
 10
39.1
 20
101.047933
 30
137.920149
 70
    64
  0
VERTEX
  5
3452
  8
0
 10
41.5
 20
98.190049
 30
139.570149
 70
    64
  0
VERTEX
  5
3453
  8
0
 10
44.8
 20
96.111588
 30
140.770149
 70
    64
  0
VERTEX
  5
3454
  8
0
 10
48.5
 20
94.725947
 30
141.570149
 70
    64
  0
VERTEX
  5
3455
  8
0
 10
52.5
 20
94.292935
 30
141.820149
 70
    64
  0
VERTEX
  5
3456
  8
0
 10
41.5
 20
109.716328
 30
137.534251
 70
    64
  0
VERTEX
  5
3457
  8
0
 10
41.9
 20
107.204855
 30
138.984251
 70
    64
  0
VERTEX
  5
3458
  8
0
 10
43.0
 20
104.953189
 30
140.284251
 70
    64
  0
VERTEX
  5
3459
  8
0
 10
44.7
 20
102.96133
 30
141.434251
 70
    64
  0
VERTEX
  5
345A
  8
0
 10
47.0
 20
101.489087
 30
142.284251
 70
    64
  0
VERTEX
  5
345B
  8
0
 10
49.6
 20
100.536459
 30
142.834251
 70
    64
  0
VERTEX
  5
345C
  8
0
 10
52.5
 20
100.190049
 30
143.034251
 70
    64
  0
VERTEX
  5
345D
  8
0
 10
45.5
 20
110.466328
 30
138.833289
 70
    64
  0
VERTEX
  5
345E
  8
0
 10
45.7
 20
108.907483
 30
139.733289
 70
    64
  0
VERTEX
  5
345F
  8
0
 10
46.4
 20
107.43524
 30
140.583289
 70
    64
  0
VERTEX
  5
3460
  8
0
 10
47.6
 20
106.222804
 30
141.283289
 70
    64
  0
VERTEX
  5
3461
  8
0
 10
49.0
 20
105.183573
 30
141.883289
 70
    64
  0
VERTEX
  5
3462
  8
0
 10
50.7
 20
104.577356
 30
142.233289
 70
    64
  0
VERTEX
  5
3463
  8
0
 10
52.5
 20
104.404151
 30
142.333289
 70
    64
  0
SEQEND
  5
3464
  8
0
  0
POLYLINE
  5
3465
  8
0
 66
     1
 10
0.0
 20
0.0
 30
0.0
 70
    16
 71
     4
 72
     7
  0
VERTEX
  5
3466
  8
0
 10
45.5
 20
110.466328
 30
138.833289
 70
    64
  0
VERTEX
  5
3467
  8
0
 10
45.7
 20
108.907483
 30
139.733289
 70
    64
  0
VERTEX
  5
3468
  8
0
 10
46.4
 20
107.43524
 30
140.583289
 70
    64
  0
VERTEX
  5
3469
  8
0
 10
47.6
 20
106.222804
 30
141.283289
 70
    64
  0
VERTEX
  5
346A
  8
0
 10
49.0
 20
105.183573
 30
141.883289
 70
    64
  0
VERTEX
  5
346B
  8
0
 10
50.7
 20
104.577356
 30
142.233289
 70
    64
  0
VERTEX
  5
346C
  8
0
 10
52.5
 20
104.404151
 30
142.333289
 70
    64
  0
VERTEX
  5
346D
  8
0
 10
44.5
 20
110.966328
 30
139.699315
 70
    64
  0
VERTEX
  5
346E
  8
0
 10
44.8
 20
109.147675
 30
140.749315
 70
    64
  0
VERTEX
  5
346F
  8
0
 10
45.6
 20
107.502227
 30
141.699315
 70
    64
  0
VERTEX
  5
3470
  8
0
 10
46.8
 20
106.029984
 30
142.549315
 70
    64
  0
VERTEX
  5
3471
  8
0
 10
48.5
 20
104.990753
 30
143.149315
 70
    64
  0
VERTEX
  5
3472
  8
0
 10
50.4
 20
104.297933
 30
143.549315
 70
    64
  0
VERTEX
  5
3473
  8
0
 10
52.5
 20
104.038125
 30
143.699315
 70
    64
  0
VERTEX
  5
3474
  8
0
 10
44.5
 20
111.466328
 30
140.56534
 70
    64
  0
VERTEX
  5
3475
  8
0
 10
44.8
 20
109.647675
 30
141.61534
 70
    64
  0
VERTEX
  5
3476
  8
0
 10
45.6
 20
108.002227
 30
142.56534
 70
    64
  0
VERTEX
  5
3477
  8
0
 10
46.8
 20
106.529984
 30
143.41534
 70
    64
  0
VERTEX
  5
3478
  8
0
 10
48.5
 20
105.490753
 30
144.01534
 70
    64
  0
VERTEX
  5
3479
  8
0
 10
50.4
 20
104.797933
 30
144.41534
 70
    64
  0
VERTEX
  5
347A
  8
0
 10
52.5
 20
104.538125
 30
144.56534
 70
    64
  0
VERTEX
  5
347B
  8
0
 10
45.5
 20
111.966328
 30
141.431365
 70
    64
  0
VERTEX
  5
347C
  8
0
 10
45.7
 20
110.407483
 30
142.331365
 70
    64
  0
VERTEX
  5
347D
  8
0
 10
46.4
 20
108.93524
 30
143.181365
 70
    64
  0
VERTEX
  5
347E
  8
0
 10
47.6
 20
107.722804
 30
143.881365
 70
    64
  0
VERTEX
  5
347F
  8
0
 10
49.0
 20
106.683573
 30
144.481365
 70
    64
  0
VERTEX
  5
3480
  8
0
 10
50.7
 20
106.077356
 30
144.831365
 70
    64
  0
VERTEX
  5
3481
  8
0
 10
52.5
 20
105.904151
 30
144.931365
 70
    64
  0
SEQEND
  5
3482
  8
0
  0
POLYLINE
  5
3483
  8
0
 66
     1
 10
0.0
 20
0.0
 30
0.0
 70
    16
 71
     5
 72
     7
  0
VERTEX
  5
3484
  8
0
 10
45.5
 20
111.966328
 30
141.431365
 70
    64
  0
VERTEX
  5
3485
  8
0
 10
45.7
 20
110.407483
 30
142.331365
 70
    64
  0
VERTEX
  5
3486
  8
0
 10
46.4
 20
108.93524
 30
143.181365
 70
    64
  0
VERTEX
  5
3487
  8
0
 10
47.6
 20
107.722804
 30
143.881365
 70
    64
  0
VERTEX
  5
3488
  8
0
 10
49.0
 20
106.683573
 30
144.481365
 70
    64
  0
VERTEX
  5
3489
  8
0
 10
50.7
 20
106.077356
 30
144.831365
 70
    64
  0
VERTEX
  5
348A
  8
0
 10
52.5
 20
105.904151
 30
144.931365
 70
    64
  0
VERTEX
  5
348B
  8
0
 10
43.5
 20
140.966328
 30
191.660839
 70
    64
  0
VERTEX
  5
348C
  8
0
 10
43.8
 20
138.97447
 30
192.810839
 70
    64
  0
VERTEX
  5
348D
  8
0
 10
44.7
 20
137.069214
 30
193.910839
 70
    64
  0
VERTEX
  5
348E
  8
0
 10
46.1
 20
135.423766
 30
194.860839
 70
    64
  0
VERTEX
  5
348F
  8
0
 10
48.0
 20
134.21133
 30
195.560839
 70
    64
  0
VERTEX
  5
3490
  8
0
 10
50.2
 20
133.431907
 30
196.010839
 70
    64
  0
VERTEX
  5
3491
  8
0
 10
52.5
 20
133.1721
 30
196.160839
 70
    64
  0
VERTEX
  5
3492
  8
0
 10
44.5
 20
142.966328
 30
195.12494
 70
    64
  0
VERTEX
  5
3493
  8
0
 10
44.8
 20
141.147675
 30
196.17494
 70
    64
  0
VERTEX
  5
3494
  8
0
 10
45.6
 20
139.502227
 30
197.12494
 70
    64
  0
VERTEX
  5
3495
  8
0
 10
46.8
 20
138.029984
 30
197.97494
 70
    64
  0
VERTEX
  5
3496
  8
0
 10
48.5
 20
136.990753
 30
198.57494
 70
    64
  0
VERTEX
  5
3497
  8
0
 10
50.4
 20
136.297933
 30
198.97494
 70
    64
  0
VERTEX
  5
3498
  8
0
 10
52.5
 20
136.038125
 30
199.12494
 70
    64
  0
VERTEX
  5
3499
  8
0
 10
48.0
 20
144.966328
 30
198.589042
 70
    64
  0
VERTEX
  5
349A
  8
0
 10
48.2
 20
143.927098
 30
199.189042
 70
    64
  0
VERTEX
  5
349B
  8
0
 10
48.6
 20
143.061073
 30
199.689042
 70
    64
  0
VERTEX
  5
349C
  8
0
 10
49.3
 20
142.195047
 30
200.189042
 70
    64
  0
VERTEX
  5
349D
  8
0
 10
50.3
 20
141.588829
 30
200.539042
 70
    64
  0
VERTEX
  5
349E
  8
0
 10
51.3
 20
141.242419
 30
200.739042
 70
    64
  0
VERTEX
  5
349F
  8
0
 10
52.5
 20
141.069214
 30
200.839042
 70
    64
  0
VERTEX
  5
34A0
  8
0
 10
52.5
 20
145.466328
 30
199.455067
 70
    64
  0
VERTEX
  5
34A1
  8
0
 10
52.5
 20
145.466328
 30
199.455067
 70
    64
  0
VERTEX
  5
34A2
  8
0
 10
52.5
 20
145.466328
 30
199.455067
 70
    64
  0
VERTEX
  5
34A3
  8
0
 10
52.5
 20
145.466328
 30
199.455067
 70
    64
  0
VERTEX
  5
34A4
  8
0
 10
52.5
 20
145.466328
 30
199.455067
 70
    64
  0
VERTEX
  5
34A5
  8
0
 10
52.5
 20
145.466328
 30
199.455067
 70
    64
  0
VERTEX
  5
34A6
  8
0
 10
52.5
 20
145.466328
 30
199.455067
 70
    64
  0
SEQEND
  5
34A7
  8
0
  0
POLYLINE
  5
34A8
  8
0
 66
     1
 10
0.0
 20
0.0
 30
0.0
 70
    16
 71
     5
 72
     7
  0
VERTEX
  5
34A9
  8
0
 10
45.5
 20
111.966328
 30
141.431365
 70
    64
  0
VERTEX
  5
34AA
  8
0
 10
45.7
 20
113.525174
 30
140.531365
 70
    64
  0
VERTEX
  5
34AB
  8
0
 10
46.4
 20
114.997417
 30
139.681365
 70
    64
  0
VERTEX
  5
34AC
  8
0
 10
47.6
 20
116.209853
 30
138.981365
 70
    64
  0
VERTEX
  5
34AD
  8
0
 10
49.0
 20
117.249083
 30
138.381365
 70
    64
  0
VERTEX
  5
34AE
  8
0
 10
50.7
 20
117.855301
 30
138.031365
 70
    64
  0
VERTEX
  5
34AF
  8
0
 10
52.5
 20
118.028506
 30
137.931365
 70
    64
  0
VERTEX
  5
34B0
  8
0
 10
43.5
 20
140.966328
 30
191.660839
 70
    64
  0
VERTEX
  5
34B1
  8
0
 10
43.8
 20
142.958187
 30
190.510839
 70
    64
  0
VERTEX
  5
34B2
  8
0
 10
44.7
 20
144.863443
 30
189.410839
 70
    64
  0
VERTEX
  5
34B3
  8
0
 10
46.1
 20
146.508891
 30
188.460839
 70
    64
  0
VERTEX
  5
34B4
  8
0
 10
48.0
 20
147.721327
 30
187.760839
 70
    64
  0
VERTEX
  5
34B5
  8
0
 10
50.2
 20
148.500749
 30
187.310839
 70
    64
  0
VERTEX
  5
34B6
  8
0
 10
52.5
 20
148.760557
 30
187.160839
 70
    64
  0
VERTEX
  5
34B7
  8
0
 10
44.5
 20
142.966328
 30
195.12494
 70
    64
  0
VERTEX
  5
34B8
  8
0
 10
44.8
 20
144.784982
 30
194.07494
 70
    64
  0
VERTEX
  5
34B9
  8
0
 10
45.6
 20
146.43043
 30
193.12494
 70
    64
  0
VERTEX
  5
34BA
  8
0
 10
46.8
 20
147.902673
 30
192.27494
 70
    64
  0
VERTEX
  5
34BB
  8
0
 10
48.5
 20
148.941904
 30
191.67494
 70
    64
  0
VERTEX
  5
34BC
  8
0
 10
50.4
 20
149.634724
 30
191.27494
 70
    64
  0
VERTEX
  5
34BD
  8
0
 10
52.5
 20
149.894532
 30
191.12494
 70
    64
  0
VERTEX
  5
34BE
  8
0
 10
48.0
 20
144.966328
 30
198.589042
 70
    64
  0
VERTEX
  5
34BF
  8
0
 10
48.2
 20
146.005559
 30
197.989042
 70
    64
  0
VERTEX
  5
34C0
  8
0
 10
48.6
 20
146.871584
 30
197.489042
 70
    64
  0
VERTEX
  5
34C1
  8
0
 10
49.3
 20
147.73761
 30
196.989042
 70
    64
  0
VERTEX
  5
34C2
  8
0
 10
50.3
 20
148.343827
 30
196.639042
 70
    64
  0
VERTEX
  5
34C3
  8
0
 10
51.3
 20
148.690238
 30
196.439042
 70
    64
  0
VERTEX
  5
34C4
  8
0
 10
52.5
 20
148.863443
 30
196.339042
 70
    64
  0
VERTEX
  5
34C5
  8
0
 10
52.5
 20
145.466328
 30
199.455067
 70
    64
  0
VERTEX
  5
34C6
  8
0
 10
52.5
 20
145.466328
 30
199.455067
 70
    64
  0
VERTEX
  5
34C7
  8
0
 10
52.5
 20
145.466328
 30
199.455067
 70
    64
  0
VERTEX
  5
34C8
  8
0
 10
52.5
 20
145.466328
 30
199.455067
 70
    64
  0
VERTEX
  5
34C9
  8
0
 10
52.5
 20
145.466328
 30
199.455067
 70
    64
  0
VERTEX
  5
34CA
  8
0
 10
52.5
 20
145.466328
 30
199.455067
 70
    64
  0
VERTEX
  5
34CB
  8
0
 10
52.5
 20
145.466328
 30
199.455067
 70
    64
  0
SEQEND
  5
34CC
  8
0
  0
POLYLINE
  5
34CD
  8
0
 66
     1
 10
0.0
 20
0.0
 30
0.0
 70
    16
 71
     4
 72
     7
  0
VERTEX
  5
34CE
  8
0
 10
45.5
 20
110.466328
 30
138.833289
 70
    64
  0
VERTEX
  5
34CF
  8
0
 10
45.7
 20
112.025174
 30
137.933289
 70
    64
  0
VERTEX
  5
34D0
  8
0
 10
46.4
 20
113.497417
 30
137.083289
 70
    64
  0
VERTEX
  5
34D1
  8
0
 10
47.6
 20
114.709853
 30
136.383289
 70
    64
  0
VERTEX
  5
34D2
  8
0
 10
49.0
 20
115.749083
 30
135.783289
 70
    64
  0
VERTEX
  5
34D3
  8
0
 10
50.7
 20
116.355301
 30
135.433289
 70
    64
  0
VERTEX
  5
34D4
  8
0
 10
52.5
 20
116.528506
 30
135.333289
 70
    64
  0
VERTEX
  5
34D5
  8
0
 10
44.5
 20
110.966328
 30
139.699315
 70
    64
  0
VERTEX
  5
34D6
  8
0
 10
44.8
 20
112.784982
 30
138.649315
 70
    64
  0
VERTEX
  5
34D7
  8
0
 10
45.6
 20
114.43043
 30
137.699315
 70
    64
  0
VERTEX
  5
34D8
  8
0
 10
46.8
 20
115.902673
 30
136.849315
 70
    64
  0
VERTEX
  5
34D9
  8
0
 10
48.5
 20
116.941904
 30
136.249315
 70
    64
  0
VERTEX
  5
34DA
  8
0
 10
50.4
 20
117.634724
 30
135.849315
 70
    64
  0
VERTEX
  5
34DB
  8
0
 10
52.5
 20
117.894532
 30
135.699315
 70
    64
  0
VERTEX
  5
34DC
  8
0
 10
44.5
 20
111.466328
 30
140.56534
 70
    64
  0
VERTEX
  5
34DD
  8
0
 10
44.8
 20
113.284982
 30
139.51534
 70
    64
  0
VERTEX
  5
34DE
  8
0
 10
45.6
 20
114.93043
 30
138.56534
 70
    64
  0
VERTEX
  5
34DF
  8
0
 10
46.8
 20
116.402673
 30
137.71534
 70
    64
  0
VERTEX
  5
34E0
  8
0
 10
48.5
 20
117.441904
 30
137.11534
 70
    64
  0
VERTEX
  5
34E1
  8
0
 10
50.4
 20
118.134724
 30
136.71534
 70
    64
  0
VERTEX
  5
34E2
  8
0
 10
52.5
 20
118.394532
 30
136.56534
 70
    64
  0
VERTEX
  5
34E3
  8
0
 10
45.5
 20
111.966328
 30
141.431365
 70
    64
  0
VERTEX
  5
34E4
  8
0
 10
45.7
 20
113.525174
 30
140.531365
 70
    64
  0
VERTEX
  5
34E5
  8
0
 10
46.4
 20
114.997417
 30
139.681365
 70
    64
  0
VERTEX
  5
34E6
  8
0
 10
47.6
 20
116.209853
 30
138.981365
 70
    64
  0
VERTEX
  5
34E7
  8
0
 10
49.0
 20
117.249083
 30
138.381365
 70
    64
  0
VERTEX
  5
34E8
  8
0
 10
50.7
 20
117.855301
 30
138.031365
 70
    64
  0
VERTEX
  5
34E9
  8
0
 10
52.5
 20
118.028506
 30
137.931365
 70
    64
  0
SEQEND
  5
34EA
  8
0
  0
POLYLINE
  5
34EB
  8
0
 66
     1
 10
0.0
 20
0.0
 30
0.0
 70
    16
 71
     7
 72
     7
  0
VERTEX
  5
34EC
  8
0
 10
30.5
 20
80.466328
 30
86.871765
 70
    64
  0
VERTEX
  5
34ED
  8
0
 10
31.3
 20
85.402673
 30
84.021765
 70
    64
  0
VERTEX
  5
34EE
  8
0
 10
33.4
 20
89.992608
 30
81.371765
 70
    64
  0
VERTEX
  5
34EF
  8
0
 10
36.9
 20
93.976325
 30
79.071765
 70
    64
  0
VERTEX
  5
34F0
  8
0
 10
41.5
 20
97.007414
 30
77.321765
 70
    64
  0
VERTEX
  5
34F1
  8
0
 10
46.8
 20
98.826067
 30
76.271765
 70
    64
  0
VERTEX
  5
34F2
  8
0
 10
52.5
 20
99.518887
 30
75.871765
 70
    64
  0
VERTEX
  5
34F3
  8
0
 10
30.5
 20
98.966328
 30
118.914705
 70
    64
  0
VERTEX
  5
34F4
  8
0
 10
31.3
 20
103.902673
 30
116.064705
 70
    64
  0
VERTEX
  5
34F5
  8
0
 10
33.4
 20
108.492608
 30
113.414705
 70
    64
  0
VERTEX
  5
34F6
  8
0
 10
36.9
 20
112.476325
 30
111.114705
 70
    64
  0
VERTEX
  5
34F7
  8
0
 10
41.5
 20
115.507414
 30
109.364705
 70
    64
  0
VERTEX
  5
34F8
  8
0
 10
46.8
 20
117.326067
 30
108.314705
 70
    64
  0
VERTEX
  5
34F9
  8
0
 10
52.5
 20
118.018887
 30
107.914705
 70
    64
  0
VERTEX
  5
34FA
  8
0
 10
31.5
 20
102.466328
 30
124.976883
 70
    64
  0
VERTEX
  5
34FB
  8
0
 10
32.2
 20
107.142866
 30
122.276883
 70
    64
  0
VERTEX
  5
34FC
  8
0
 10
34.3
 20
111.559595
 30
119.726883
 70
    64
  0
VERTEX
  5
34FD
  8
0
 10
37.7
 20
115.283504
 30
117.576883
 70
    64
  0
VERTEX
  5
34FE
  8
0
 10
42.0
 20
118.227991
 30
115.876883
 70
    64
  0
VERTEX
  5
34FF
  8
0
 10
47.1
 20
120.046644
 30
114.826883
 70
    64
  0
VERTEX
  5
3500
  8
0
 10
52.5
 20
120.652862
 30
114.476883
 70
    64
  0
VERTEX
  5
3501
  8
0
 10
33.5
 20
105.216328
 30
129.740022
 70
    64
  0
VERTEX
  5
3502
  8
0
 10
34.2
 20
109.459853
 30
127.290022
 70
    64
  0
VERTEX
  5
3503
  8
0
 10
36.0
 20
113.44357
 30
124.990022
 70
    64
  0
VERTEX
  5
3504
  8
0
 10
39.1
 20
116.821069
 30
123.040022
 70
    64
  0
VERTEX
  5
3505
  8
0
 10
43.0
 20
119.505748
 30
121.490022
 70
    64
  0
VERTEX
  5
3506
  8
0
 10
47.6
 20
121.064593
 30
120.590022
 70
    64
  0
VERTEX
  5
3507
  8
0
 10
52.5
 20
121.670811
 30
120.240022
 70
    64
  0
VERTEX
  5
3508
  8
0
 10
37.0
 20
107.716328
 30
134.070149
 70
    64
  0
VERTEX
  5
3509
  8
0
 10
37.5
 20
111.18043
 30
132.070149
 70
    64
  0
VERTEX
  5
350A
  8
0
 10
39.1
 20
114.384724
 30
130.220149
 70
    64
  0
VERTEX
  5
350B
  8
0
 10
41.5
 20
117.242608
 30
128.570149
 70
    64
  0
VERTEX
  5
350C
  8
0
 10
44.8
 20
119.321069
 30
127.370149
 70
    64
  0
VERTEX
  5
350D
  8
0
 10
48.5
 20
120.706709
 30
126.570149
 70
    64
  0
VERTEX
  5
350E
  8
0
 10
52.5
 20
121.139722
 30
126.320149
 70
    64
  0
VERTEX
  5
350F
  8
0
 10
41.5
 20
109.716328
 30
137.534251
 70
    64
  0
VERTEX
  5
3510
  8
0
 10
41.9
 20
112.227802
 30
136.084251
 70
    64
  0
VERTEX
  5
3511
  8
0
 10
43.0
 20
114.479468
 30
134.784251
 70
    64
  0
VERTEX
  5
3512
  8
0
 10
44.7
 20
116.471327
 30
133.634251
 70
    64
  0
VERTEX
  5
3513
  8
0
 10
47.0
 20
117.94357
 30
132.784251
 70
    64
  0
VERTEX
  5
3514
  8
0
 10
49.6
 20
118.896198
 30
132.234251
 70
    64
  0
VERTEX
  5
3515
  8
0
 10
52.5
 20
119.242608
 30
132.034251
 70
    64
  0
VERTEX
  5
3516
  8
0
 10
45.5
 20
110.466328
 30
138.833289
 70
    64
  0
VERTEX
  5
3517
  8
0
 10
45.7
 20
112.025174
 30
137.933289
 70
    64
  0
VERTEX
  5
3518
  8
0
 10
46.4
 20
113.497417
 30
137.083289
 70
    64
  0
VERTEX
  5
3519
  8
0
 10
47.6
 20
114.709853
 30
136.383289
 70
    64
  0
VERTEX
  5
351A
  8
0
 10
49.0
 20
115.749083
 30
135.783289
 70
    64
  0
VERTEX
  5
351B
  8
0
 10
50.7
 20
116.355301
 30
135.433289
 70
    64
  0
VERTEX
  5
351C
  8
0
 10
52.5
 20
116.528506
 30
135.333289
 70
    64
  0
SEQEND
  5
351D
  8
0
  0
POLYLINE
  5
351E
  8
0
 66
     1
 10
0.0
 20
0.0
 30
0.0
 70
    16
 71
     7
 72
     7
  0
VERTEX
  5
351F
  8
0
 10
9.5
 20
52.466328
 30
38.374342
 70
    64
  0
VERTEX
  5
3520
  8
0
 10
11.0
 20
62.07921
 30
32.824342
 70
    64
  0
VERTEX
  5
3521
  8
0
 10
15.2
 20
71.085875
 30
27.624342
 70
    64
  0
VERTEX
  5
3522
  8
0
 10
22.1
 20
78.793501
 30
23.174342
 70
    64
  0
VERTEX
  5
3523
  8
0
 10
31.0
 20
84.769076
 30
19.724342
 70
    64
  0
VERTEX
  5
3524
  8
0
 10
41.4
 20
88.406383
 30
17.624342
 70
    64
  0
VERTEX
  5
3525
  8
0
 10
52.5
 20
89.705421
 30
16.874342
 70
    64
  0
VERTEX
  5
3526
  8
0
 10
10.5
 20
57.216328
 30
46.601584
 70
    64
  0
VERTEX
  5
3527
  8
0
 10
12.0
 20
66.656005
 30
41.151584
 70
    64
  0
VERTEX
  5
3528
  8
0
 10
16.1
 20
75.402862
 30
36.101584
 70
    64
  0
VERTEX
  5
3529
  8
0
 10
22.8
 20
82.937283
 30
31.751584
 70
    64
  0
VERTEX
  5
352A
  8
0
 10
31.5
 20
88.739653
 30
28.401584
 70
    64
  0
VERTEX
  5
352B
  8
0
 10
41.6
 20
92.290357
 30
26.351584
 70
    64
  0
VERTEX
  5
352C
  8
0
 10
52.5
 20
93.589395
 30
25.601584
 70
    64
  0
VERTEX
  5
352D
  8
0
 10
12.5
 20
62.466328
 30
55.69485
 70
    64
  0
VERTEX
  5
352E
  8
0
 10
13.9
 20
71.472993
 30
50.49485
 70
    64
  0
VERTEX
  5
352F
  8
0
 10
17.8
 20
79.786836
 30
45.69485
 70
    64
  0
VERTEX
  5
3530
  8
0
 10
24.2
 20
86.974847
 30
41.54485
 70
    64
  0
VERTEX
  5
3531
  8
0
 10
32.5
 20
92.51741
 30
38.34485
 70
    64
  0
VERTEX
  5
3532
  8
0
 10
42.1
 20
95.894909
 30
36.39485
 70
    64
  0
VERTEX
  5
3533
  8
0
 10
52.5
 20
97.107345
 30
35.69485
 70
    64
  0
VERTEX
  5
3534
  8
0
 10
15.5
 20
67.716328
 30
64.788117
 70
    64
  0
VERTEX
  5
3535
  8
0
 10
16.8
 20
76.030172
 30
59.988117
 70
    64
  0
VERTEX
  5
3536
  8
0
 10
20.4
 20
83.737798
 30
55.538117
 70
    64
  0
VERTEX
  5
3537
  8
0
 10
26.3
 20
90.406194
 30
51.688117
 70
    64
  0
VERTEX
  5
3538
  8
0
 10
34.0
 20
95.515744
 30
48.738117
 70
    64
  0
VERTEX
  5
3539
  8
0
 10
42.9
 20
98.633435
 30
46.938117
 70
    64
  0
VERTEX
  5
353A
  8
0
 10
52.5
 20
99.759268
 30
46.288117
 70
    64
  0
VERTEX
  5
353B
  8
0
 10
19.5
 20
72.216328
 30
72.582346
 70
    64
  0
VERTEX
  5
353C
  8
0
 10
20.7
 20
79.664147
 30
68.282346
 70
    64
  0
VERTEX
  5
353D
  8
0
 10
23.9
 20
86.505748
 30
64.332346
 70
    64
  0
VERTEX
  5
353E
  8
0
 10
29.2
 20
92.39472
 30
60.932346
 70
    64
  0
VERTEX
  5
353F
  8
0
 10
36.0
 20
96.984655
 30
58.282346
 70
    64
  0
VERTEX
  5
3540
  8
0
 10
43.9
 20
99.755936
 30
56.682346
 70
    64
  0
VERTEX
  5
3541
  8
0
 10
52.5
 20
100.795167
 30
56.082346
 70
    64
  0
VERTEX
  5
3542
  8
0
 10
23.5
 20
75.466328
 30
78.211511
 70
    64
  0
VERTEX
  5
3543
  8
0
 10
24.5
 20
81.961519
 30
74.461511
 70
    64
  0
VERTEX
  5
3544
  8
0
 10
27.4
 20
88.023697
 30
70.961511
 70
    64
  0
VERTEX
  5
3545
  8
0
 10
32.0
 20
93.219849
 30
67.961511
 70
    64
  0
VERTEX
  5
3546
  8
0
 10
38.0
 20
97.203566
 30
65.661511
 70
    64
  0
VERTEX
  5
3547
  8
0
 10
45.0
 20
99.71504
 30
64.211511
 70
    64
  0
VERTEX
  5
3548
  8
0
 10
52.5
 20
100.581065
 30
63.711511
 70
    64
  0
VERTEX
  5
3549
  8
0
 10
28.5
 20
77.966328
 30
82.541638
 70
    64
  0
VERTEX
  5
354A
  8
0
 10
29.3
 20
83.335686
 30
79.441638
 70
    64
  0
VERTEX
  5
354B
  8
0
 10
31.7
 20
88.358633
 30
76.541638
 70
    64
  0
VERTEX
  5
354C
  8
0
 10
35.5
 20
92.68876
 30
74.041638
 70
    64
  0
VERTEX
  5
354D
  8
0
 10
40.5
 20
95.979657
 30
72.141638
 70
    64
  0
VERTEX
  5
354E
  8
0
 10
46.3
 20
98.058118
 30
70.941638
 70
    64
  0
VERTEX
  5
354F
  8
0
 10
52.5
 20
98.750938
 30
70.541638
 70
    64
  0
SEQEND
  5
3550
  8
0
  0
POLYLINE
  5
3551
  8
0
 66
     1
 10
0.0
 20
0.0
 30
0.0
 70
    16
 71
     4
 72
     7
  0
VERTEX
  5
3552
  8
0
 10
28.5
 20
78.832354
 30
82.041638
 70
    64
  0
VERTEX
  5
3553
  8
0
 10
29.3
 20
83.335686
 30
79.441638
 70
    64
  0
VERTEX
  5
3554
  8
0
 10
31.7
 20
88.358633
 30
76.541638
 70
    64
  0
VERTEX
  5
3555
  8
0
 10
35.5
 20
92.68876
 30
74.041638
 70
    64
  0
VERTEX
  5
3556
  8
0
 10
40.5
 20
95.979657
 30
72.141638
 70
    64
  0
VERTEX
  5
3557
  8
0
 10
46.3
 20
98.058118
 30
70.941638
 70
    64
  0
VERTEX
  5
3558
  8
0
 10
52.5
 20
98.750938
 30
70.541638
 70
    64
  0
VERTEX
  5
3559
  8
0
 10
27.5
 20
77.966328
 30
82.541638
 70
    64
  0
VERTEX
  5
355A
  8
0
 10
28.4
 20
83.595494
 30
79.291638
 70
    64
  0
VERTEX
  5
355B
  8
0
 10
30.8
 20
88.791646
 30
76.291638
 70
    64
  0
VERTEX
  5
355C
  8
0
 10
34.8
 20
93.294978
 30
73.691638
 70
    64
  0
VERTEX
  5
355D
  8
0
 10
40.0
 20
96.75908
 30
71.691638
 70
    64
  0
VERTEX
  5
355E
  8
0
 10
46.0
 20
98.837541
 30
70.491638
 70
    64
  0
VERTEX
  5
355F
  8
0
 10
52.5
 20
99.616964
 30
70.041638
 70
    64
  0
VERTEX
  5
3560
  8
0
 10
28.5
 20
79.216328
 30
84.706701
 70
    64
  0
VERTEX
  5
3561
  8
0
 10
29.3
 20
84.585686
 30
81.606701
 70
    64
  0
VERTEX
  5
3562
  8
0
 10
31.7
 20
89.608633
 30
78.706701
 70
    64
  0
VERTEX
  5
3563
  8
0
 10
35.5
 20
93.93876
 30
76.206701
 70
    64
  0
VERTEX
  5
3564
  8
0
 10
40.5
 20
97.229657
 30
74.306701
 70
    64
  0
VERTEX
  5
3565
  8
0
 10
46.3
 20
99.308118
 30
73.106701
 70
    64
  0
VERTEX
  5
3566
  8
0
 10
52.5
 20
100.000938
 30
72.706701
 70
    64
  0
VERTEX
  5
3567
  8
0
 10
30.5
 20
80.466328
 30
86.871765
 70
    64
  0
VERTEX
  5
3568
  8
0
 10
31.3
 20
85.402673
 30
84.021765
 70
    64
  0
VERTEX
  5
3569
  8
0
 10
33.4
 20
89.992608
 30
81.371765
 70
    64
  0
VERTEX
  5
356A
  8
0
 10
36.9
 20
93.976325
 30
79.071765
 70
    64
  0
VERTEX
  5
356B
  8
0
 10
41.5
 20
97.007414
 30
77.321765
 70
    64
  0
VERTEX
  5
356C
  8
0
 10
46.8
 20
98.826067
 30
76.271765
 70
    64
  0
VERTEX
  5
356D
  8
0
 10
52.5
 20
99.518887
 30
75.871765
 70
    64
  0
SEQEND
  5
356E
  8
0
  0
POLYLINE
  5
356F
  8
0
 66
     1
 10
0.0
 20
0.0
 30
0.0
 70
    16
 71
     5
 72
     7
  0
VERTEX
  5
3570
  8
0
 10
8.5
 20
50.966328
 30
35.776266
 70
    64
  0
VERTEX
  5
3571
  8
0
 10
10.0
 20
60.839018
 30
30.076266
 70
    64
  0
VERTEX
  5
3572
  8
0
 10
14.4
 20
70.018887
 30
24.776266
 70
    64
  0
VERTEX
  5
3573
  8
0
 10
21.4
 20
77.899718
 30
20.226266
 70
    64
  0
VERTEX
  5
3574
  8
0
 10
30.5
 20
83.961896
 30
16.726266
 70
    64
  0
VERTEX
  5
3575
  8
0
 10
41.1
 20
87.772408
 30
14.526266
 70
    64
  0
VERTEX
  5
3576
  8
0
 10
52.5
 20
89.071446
 30
13.776266
 70
    64
  0
VERTEX
  5
3577
  8
0
 10
7.5
 20
51.466328
 30
36.642291
 70
    64
  0
VERTEX
  5
3578
  8
0
 10
9.1
 20
61.598826
 30
30.792291
 70
    64
  0
VERTEX
  5
3579
  8
0
 10
13.5
 20
70.865297
 30
25.442291
 70
    64
  0
VERTEX
  5
357A
  8
0
 10
20.7
 20
79.005936
 30
20.742291
 70
    64
  0
VERTEX
  5
357B
  8
0
 10
30.1
 20
85.241319
 30
17.142291
 70
    64
  0
VERTEX
  5
357C
  8
0
 10
40.8
 20
89.051831
 30
14.942291
 70
    64
  0
VERTEX
  5
357D
  8
0
 10
52.5
 20
90.437472
 30
14.142291
 70
    64
  0
VERTEX
  5
357E
  8
0
 10
7.5
 20
51.966328
 30
37.508317
 70
    64
  0
VERTEX
  5
357F
  8
0
 10
9.1
 20
62.098826
 30
31.658317
 70
    64
  0
VERTEX
  5
3580
  8
0
 10
13.5
 20
71.365297
 30
26.308317
 70
    64
  0
VERTEX
  5
3581
  8
0
 10
20.7
 20
79.505936
 30
21.608317
 70
    64
  0
VERTEX
  5
3582
  8
0
 10
30.1
 20
85.741319
 30
18.008317
 70
    64
  0
VERTEX
  5
3583
  8
0
 10
40.8
 20
89.551831
 30
15.808317
 70
    64
  0
VERTEX
  5
3584
  8
0
 10
52.5
 20
90.937472
 30
15.008317
 70
    64
  0
VERTEX
  5
3585
  8
0
 10
8.5
 20
52.466328
 30
38.374342
 70
    64
  0
VERTEX
  5
3586
  8
0
 10
10.0
 20
62.339018
 30
32.674342
 70
    64
  0
VERTEX
  5
3587
  8
0
 10
14.4
 20
71.518887
 30
27.374342
 70
    64
  0
VERTEX
  5
3588
  8
0
 10
21.4
 20
79.399718
 30
22.824342
 70
    64
  0
VERTEX
  5
3589
  8
0
 10
30.5
 20
85.461896
 30
19.324342
 70
    64
  0
VERTEX
  5
358A
  8
0
 10
41.1
 20
89.272408
 30
17.124342
 70
    64
  0
VERTEX
  5
358B
  8
0
 10
52.5
 20
90.571446
 30
16.374342
 70
    64
  0
VERTEX
  5
358C
  8
0
 10
9.5
 20
52.466328
 30
38.374342
 70
    64
  0
VERTEX
  5
358D
  8
0
 10
11.0
 20
62.07921
 30
32.824342
 70
    64
  0
VERTEX
  5
358E
  8
0
 10
15.2
 20
71.085875
 30
27.624342
 70
    64
  0
VERTEX
  5
358F
  8
0
 10
22.1
 20
78.793501
 30
23.174342
 70
    64
  0
VERTEX
  5
3590
  8
0
 10
31.0
 20
84.769076
 30
19.724342
 70
    64
  0
VERTEX
  5
3591
  8
0
 10
41.4
 20
88.406383
 30
17.624342
 70
    64
  0
VERTEX
  5
3592
  8
0
 10
52.5
 20
89.705421
 30
16.874342
 70
    64
  0
SEQEND
  5
3593
  8
0
  0
POLYLINE
  5
3594
  8
0
 66
     1
 10
0.0
 20
0.0
 30
0.0
 70
    16
 71
     4
 72
     7
  0
VERTEX
  5
3595
  8
0
 10
0.0
 20
45.466328
 30
26.249987
 70
    64
  0
VERTEX
  5
3596
  8
0
 10
1.8
 20
57.244274
 30
19.449987
 70
    64
  0
VERTEX
  5
3597
  8
0
 10
7.0
 20
68.156194
 30
13.149987
 70
    64
  0
VERTEX
  5
3598
  8
0
 10
15.4
 20
77.595871
 30
7.699987
 70
    64
  0
VERTEX
  5
3599
  8
0
 10
26.3
 20
84.870484
 30
3.499987
 70
    64
  0
VERTEX
  5
359A
  8
0
 10
38.9
 20
89.373816
 30
0.899987
 70
    64
  0
VERTEX
  5
359B
  8
0
 10
52.5
 20
90.932662
 30
-0.000013
 70
    64
  0
VERTEX
  5
359C
  8
0
 10
1.5
 20
47.466328
 30
29.714088
 70
    64
  0
VERTEX
  5
359D
  8
0
 10
3.3
 20
58.897864
 30
23.114088
 70
    64
  0
VERTEX
  5
359E
  8
0
 10
8.3
 20
69.463374
 30
17.014088
 70
    64
  0
VERTEX
  5
359F
  8
0
 10
16.5
 20
78.643243
 30
11.714088
 70
    64
  0
VERTEX
  5
35A0
  8
0
 10
27.1
 20
85.744651
 30
7.614088
 70
    64
  0
VERTEX
  5
35A1
  8
0
 10
39.3
 20
90.074778
 30
5.114088
 70
    64
  0
VERTEX
  5
35A2
  8
0
 10
52.5
 20
91.633624
 30
4.214088
 70
    64
  0
VERTEX
  5
35A3
  8
0
 10
4.5
 20
49.466328
 30
33.17819
 70
    64
  0
VERTEX
  5
35A4
  8
0
 10
6.2
 20
60.205043
 30
26.97819
 70
    64
  0
VERTEX
  5
35A5
  8
0
 10
10.9
 20
70.164336
 30
21.22819
 70
    64
  0
VERTEX
  5
35A6
  8
0
 10
18.6
 20
78.82459
 30
16.22819
 70
    64
  0
VERTEX
  5
35A7
  8
0
 10
28.6
 20
85.492985
 30
12.37819
 70
    64
  0
VERTEX
  5
35A8
  8
0
 10
40.1
 20
89.563305
 30
10.02819
 70
    64
  0
VERTEX
  5
35A9
  8
0
 10
52.5
 20
91.035548
 30
9.17819
 70
    64
  0
VERTEX
  5
35AA
  8
0
 10
8.5
 20
50.966328
 30
35.776266
 70
    64
  0
VERTEX
  5
35AB
  8
0
 10
10.0
 20
60.839018
 30
30.076266
 70
    64
  0
VERTEX
  5
35AC
  8
0
 10
14.4
 20
70.018887
 30
24.776266
 70
    64
  0
VERTEX
  5
35AD
  8
0
 10
21.4
 20
77.899718
 30
20.226266
 70
    64
  0
VERTEX
  5
35AE
  8
0
 10
30.5
 20
83.961896
 30
16.726266
 70
    64
  0
VERTEX
  5
35AF
  8
0
 10
41.1
 20
87.772408
 30
14.526266
 70
    64
  0
VERTEX
  5
35B0
  8
0
 10
52.5
 20
89.071446
 30
13.776266
 70
    64
  0
SEQEND
  5
35B1
  8
0
  0
POLYLINE
  5
35B2
  8
0
 66
     1
 10
0.0
 20
0.0
 30
0.0
 70
    16
 71
     5
 72
     7
  0
VERTEX
  5
35B3
  8
0
 10
45.5
 20
183.4519
 30
97.2724
 70
    64
  0
VERTEX
  5
35B4
  8
0
 10
45.7
 20
183.4519
 30
95.4724
 70
    64
  0
VERTEX
  5
35B5
  8
0
 10
46.4
 20
183.4519
 30
93.7724
 70
    64
  0
VERTEX
  5
35B6
  8
0
 10
47.6
 20
183.4519
 30
92.3724
 70
    64
  0
VERTEX
  5
35B7
  8
0
 10
49.0
 20
183.4519
 30
91.1724
 70
    64
  0
VERTEX
  5
35B8
  8
0
 10
50.7
 20
183.4519
 30
90.4724
 70
    64
  0
VERTEX
  5
35B9
  8
0
 10
52.5
 20
183.4519
 30
90.2724
 70
    64
  0
VERTEX
  5
35BA
  8
0
 10
45.5
 20
163.4519
 30
97.2724
 70
    64
  0
VERTEX
  5
35BB
  8
0
 10
45.7
 20
163.4519
 30
95.4724
 70
    64
  0
VERTEX
  5
35BC
  8
0
 10
46.4
 20
163.4519
 30
93.7724
 70
    64
  0
VERTEX
  5
35BD
  8
0
 10
47.6
 20
163.4519
 30
92.3724
 70
    64
  0
VERTEX
  5
35BE
  8
0
 10
49.0
 20
163.4519
 30
91.1724
 70
    64
  0
VERTEX
  5
35BF
  8
0
 10
50.7
 20
163.4519
 30
90.4724
 70
    64
  0
VERTEX
  5
35C0
  8
0
 10
52.5
 20
163.4519
 30
90.2724
 70
    64
  0
VERTEX
  5
35C1
  8
0
 10
46.5
 20
162.9519
 30
97.2724
 70
    64
  0
VERTEX
  5
35C2
  8
0
 10
46.7
 20
162.9519
 30
95.6724
 70
    64
  0
VERTEX
  5
35C3
  8
0
 10
47.3
 20
162.9519
 30
94.2724
 70
    64
  0
VERTEX
  5
35C4
  8
0
 10
48.3
 20
162.9519
 30
93.0724
 70
    64
  0
VERTEX
  5
35C5
  8
0
 10
49.5
 20
162.9519
 30
92.0724
 70
    64
  0
VERTEX
  5
35C6
  8
0
 10
50.9
 20
162.9519
 30
91.4724
 70
    64
  0
VERTEX
  5
35C7
  8
0
 10
52.5
 20
162.9519
 30
91.2724
 70
    64
  0
VERTEX
  5
35C8
  8
0
 10
45.5
 20
162.4519
 30
97.2724
 70
    64
  0
VERTEX
  5
35C9
  8
0
 10
45.7
 20
162.4519
 30
95.4724
 70
    64
  0
VERTEX
  5
35CA
  8
0
 10
46.4
 20
162.4519
 30
93.7724
 70
    64
  0
VERTEX
  5
35CB
  8
0
 10
47.6
 20
162.4519
 30
92.3724
 70
    64
  0
VERTEX
  5
35CC
  8
0
 10
49.0
 20
162.4519
 30
91.1724
 70
    64
  0
VERTEX
  5
35CD
  8
0
 10
50.7
 20
162.4519
 30
90.4724
 70
    64
  0
VERTEX
  5
35CE
  8
0
 10
52.5
 20
162.4519
 30
90.2724
 70
    64
  0
VERTEX
  5
35CF
  8
0
 10
45.5
 20
112.4519
 30
97.2724
 70
    64
  0
VERTEX
  5
35D0
  8
0
 10
45.7
 20
112.4519
 30
95.4724
 70
    64
  0
VERTEX
  5
35D1
  8
0
 10
46.4
 20
112.4519
 30
93.7724
 70
    64
  0
VERTEX
  5
35D2
  8
0
 10
47.6
 20
112.4519
 30
92.3724
 70
    64
  0
VERTEX
  5
35D3
  8
0
 10
49.0
 20
112.4519
 30
91.1724
 70
    64
  0
VERTEX
  5
35D4
  8
0
 10
50.7
 20
112.4519
 30
90.4724
 70
    64
  0
VERTEX
  5
35D5
  8
0
 10
52.5
 20
112.4519
 30
90.2724
 70
    64
  0
SEQEND
  5
35D6
  8
0
  0
POLYLINE
  5
35D7
  8
0
 66
     1
 10
0.0
 20
0.0
 30
0.0
 70
    16
 71
     5
 72
     7
  0
VERTEX
  5
35D8
  8
0
 10
45.5
 20
183.4519
 30
97.2724
 70
    64
  0
VERTEX
  5
35D9
  8
0
 10
45.7
 20
183.4519
 30
99.0724
 70
    64
  0
VERTEX
  5
35DA
  8
0
 10
46.4
 20
183.4519
 30
100.7724
 70
    64
  0
VERTEX
  5
35DB
  8
0
 10
47.6
 20
183.4519
 30
102.1724
 70
    64
  0
VERTEX
  5
35DC
  8
0
 10
49.0
 20
183.4519
 30
103.3724
 70
    64
  0
VERTEX
  5
35DD
  8
0
 10
50.7
 20
183.4519
 30
104.0724
 70
    64
  0
VERTEX
  5
35DE
  8
0
 10
52.5
 20
183.4519
 30
104.2724
 70
    64
  0
VERTEX
  5
35DF
  8
0
 10
45.5
 20
163.4519
 30
97.2724
 70
    64
  0
VERTEX
  5
35E0
  8
0
 10
45.7
 20
163.4519
 30
99.0724
 70
    64
  0
VERTEX
  5
35E1
  8
0
 10
46.4
 20
163.4519
 30
100.7724
 70
    64
  0
VERTEX
  5
35E2
  8
0
 10
47.6
 20
163.4519
 30
102.1724
 70
    64
  0
VERTEX
  5
35E3
  8
0
 10
49.0
 20
163.4519
 30
103.3724
 70
    64
  0
VERTEX
  5
35E4
  8
0
 10
50.7
 20
163.4519
 30
104.0724
 70
    64
  0
VERTEX
  5
35E5
  8
0
 10
52.5
 20
163.4519
 30
104.2724
 70
    64
  0
VERTEX
  5
35E6
  8
0
 10
46.5
 20
162.9519
 30
97.2724
 70
    64
  0
VERTEX
  5
35E7
  8
0
 10
46.7
 20
162.9519
 30
98.8724
 70
    64
  0
VERTEX
  5
35E8
  8
0
 10
47.3
 20
162.9519
 30
100.2724
 70
    64
  0
VERTEX
  5
35E9
  8
0
 10
48.3
 20
162.9519
 30
101.4724
 70
    64
  0
VERTEX
  5
35EA
  8
0
 10
49.5
 20
162.9519
 30
102.4724
 70
    64
  0
VERTEX
  5
35EB
  8
0
 10
50.9
 20
162.9519
 30
103.0724
 70
    64
  0
VERTEX
  5
35EC
  8
0
 10
52.5
 20
162.9519
 30
103.2724
 70
    64
  0
VERTEX
  5
35ED
  8
0
 10
45.5
 20
162.4519
 30
97.2724
 70
    64
  0
VERTEX
  5
35EE
  8
0
 10
45.7
 20
162.4519
 30
99.0724
 70
    64
  0
VERTEX
  5
35EF
  8
0
 10
46.4
 20
162.4519
 30
100.7724
 70
    64
  0
VERTEX
  5
35F0
  8
0
 10
47.6
 20
162.4519
 30
102.1724
 70
    64
  0
VERTEX
  5
35F1
  8
0
 10
49.0
 20
162.4519
 30
103.3724
 70
    64
  0
VERTEX
  5
35F2
  8
0
 10
50.7
 20
162.4519
 30
104.0724
 70
    64
  0
VERTEX
  5
35F3
  8
0
 10
52.5
 20
162.4519
 30
104.2724
 70
    64
  0
VERTEX
  5
35F4
  8
0
 10
45.5
 20
112.4519
 30
97.2724
 70
    64
  0
VERTEX
  5
35F5
  8
0
 10
45.7
 20
112.4519
 30
99.0724
 70
    64
  0
VERTEX
  5
35F6
  8
0
 10
46.4
 20
112.4519
 30
100.7724
 70
    64
  0
VERTEX
  5
35F7
  8
0
 10
47.6
 20
112.4519
 30
102.1724
 70
    64
  0
VERTEX
  5
35F8
  8
0
 10
49.0
 20
112.4519
 30
103.3724
 70
    64
  0
VERTEX
  5
35F9
  8
0
 10
50.7
 20
112.4519
 30
104.0724
 70
    64
  0
VERTEX
  5
35FA
  8
0
 10
52.5
 20
112.4519
 30
104.2724
 70
    64
  0
SEQEND
  5
35FB
  8
0
  0
POLYLINE
  5
35FC
  8
0
 66
     1
 10
0.0
 20
0.0
 30
0.0
 70
    16
 71
     4
 72
     7
  0
VERTEX
  5
35FD
  8
0
 10
105.0
 20
45.466328
 30
26.249987
 70
    64
  0
VERTEX
  5
35FE
  8
0
 10
103.2
 20
33.688383
 30
33.049987
 70
    64
  0
VERTEX
  5
35FF
  8
0
 10
98.0
 20
22.776463
 30
39.349987
 70
    64
  0
VERTEX
  5
3600
  8
0
 10
89.6
 20
13.336786
 30
44.799987
 70
    64
  0
VERTEX
  5
3601
  8
0
 10
78.7
 20
6.062173
 30
48.999987
 70
    64
  0
VERTEX
  5
3602
  8
0
 10
66.1
 20
1.55884
 30
51.599987
 70
    64
  0
VERTEX
  5
3603
  8
0
 10
52.5
 20
-0.000005
 30
52.499987
 70
    64
  0
VERTEX
  5
3604
  8
0
 10
103.5
 20
47.466328
 30
29.714088
 70
    64
  0
VERTEX
  5
3605
  8
0
 10
101.7
 20
36.034793
 30
36.314088
 70
    64
  0
VERTEX
  5
3606
  8
0
 10
96.7
 20
25.469283
 30
42.414088
 70
    64
  0
VERTEX
  5
3607
  8
0
 10
88.5
 20
16.289414
 30
47.714088
 70
    64
  0
VERTEX
  5
3608
  8
0
 10
77.9
 20
9.188006
 30
51.814088
 70
    64
  0
VERTEX
  5
3609
  8
0
 10
65.7
 20
4.857879
 30
54.314088
 70
    64
  0
VERTEX
  5
360A
  8
0
 10
52.5
 20
3.299033
 30
55.214088
 70
    64
  0
VERTEX
  5
360B
  8
0
 10
100.5
 20
49.466328
 30
33.17819
 70
    64
  0
VERTEX
  5
360C
  8
0
 10
98.8
 20
38.727613
 30
39.37819
 70
    64
  0
VERTEX
  5
360D
  8
0
 10
94.1
 20
28.768321
 30
45.12819
 70
    64
  0
VERTEX
  5
360E
  8
0
 10
86.4
 20
20.108067
 30
50.12819
 70
    64
  0
VERTEX
  5
360F
  8
0
 10
76.4
 20
13.439672
 30
53.97819
 70
    64
  0
VERTEX
  5
3610
  8
0
 10
64.9
 20
9.369352
 30
56.32819
 70
    64
  0
VERTEX
  5
3611
  8
0
 10
52.5
 20
7.897109
 30
57.17819
 70
    64
  0
VERTEX
  5
3612
  8
0
 10
96.5
 20
50.966328
 30
35.776266
 70
    64
  0
VERTEX
  5
3613
  8
0
 10
95.0
 20
41.093639
 30
41.476266
 70
    64
  0
VERTEX
  5
3614
  8
0
 10
90.6
 20
31.91377
 30
46.776266
 70
    64
  0
VERTEX
  5
3615
  8
0
 10
83.6
 20
24.032938
 30
51.326266
 70
    64
  0
VERTEX
  5
3616
  8
0
 10
74.5
 20
17.970761
 30
54.826266
 70
    64
  0
VERTEX
  5
3617
  8
0
 10
63.9
 20
14.160249
 30
57.026266
 70
    64
  0
VERTEX
  5
3618
  8
0
 10
52.5
 20
12.861211
 30
57.776266
 70
    64
  0
SEQEND
  5
3619
  8
0
  0
POLYLINE
  5
361A
  8
0
 66
     1
 10
0.0
 20
0.0
 30
0.0
 70
    16
 71
     5
 72
     7
  0
VERTEX
  5
361B
  8
0
 10
96.5
 20
50.966328
 30
35.776266
 70
    64
  0
VERTEX
  5
361C
  8
0
 10
95.0
 20
41.093639
 30
41.476266
 70
    64
  0
VERTEX
  5
361D
  8
0
 10
90.6
 20
31.91377
 30
46.776266
 70
    64
  0
VERTEX
  5
361E
  8
0
 10
83.6
 20
24.032938
 30
51.326266
 70
    64
  0
VERTEX
  5
361F
  8
0
 10
74.5
 20
17.970761
 30
54.826266
 70
    64
  0
VERTEX
  5
3620
  8
0
 10
63.9
 20
14.160249
 30
57.026266
 70
    64
  0
VERTEX
  5
3621
  8
0
 10
52.5
 20
12.861211
 30
57.776266
 70
    64
  0
VERTEX
  5
3622
  8
0
 10
97.5
 20
51.466328
 30
36.642291
 70
    64
  0
VERTEX
  5
3623
  8
0
 10
95.9
 20
41.333831
 30
42.492291
 70
    64
  0
VERTEX
  5
3624
  8
0
 10
91.5
 20
32.067359
 30
47.842291
 70
    64
  0
VERTEX
  5
3625
  8
0
 10
84.3
 20
23.926721
 30
52.542291
 70
    64
  0
VERTEX
  5
3626
  8
0
 10
74.9
 20
17.691338
 30
56.142291
 70
    64
  0
VERTEX
  5
3627
  8
0
 10
64.2
 20
13.880826
 30
58.342291
 70
    64
  0
VERTEX
  5
3628
  8
0
 10
52.5
 20
12.495185
 30
59.142291
 70
    64
  0
VERTEX
  5
3629
  8
0
 10
97.5
 20
51.966328
 30
37.508317
 70
    64
  0
VERTEX
  5
362A
  8
0
 10
95.9
 20
41.833831
 30
43.358317
 70
    64
  0
VERTEX
  5
362B
  8
0
 10
91.5
 20
32.567359
 30
48.708317
 70
    64
  0
VERTEX
  5
362C
  8
0
 10
84.3
 20
24.426721
 30
53.408317
 70
    64
  0
VERTEX
  5
362D
  8
0
 10
74.9
 20
18.191338
 30
57.008317
 70
    64
  0
VERTEX
  5
362E
  8
0
 10
64.2
 20
14.380826
 30
59.208317
 70
    64
  0
VERTEX
  5
362F
  8
0
 10
52.5
 20
12.995185
 30
60.008317
 70
    64
  0
VERTEX
  5
3630
  8
0
 10
96.5
 20
52.466328
 30
38.374342
 70
    64
  0
VERTEX
  5
3631
  8
0
 10
95.0
 20
42.593639
 30
44.074342
 70
    64
  0
VERTEX
  5
3632
  8
0
 10
90.6
 20
33.41377
 30
49.374342
 70
    64
  0
VERTEX
  5
3633
  8
0
 10
83.6
 20
25.532938
 30
53.924342
 70
    64
  0
VERTEX
  5
3634
  8
0
 10
74.5
 20
19.470761
 30
57.424342
 70
    64
  0
VERTEX
  5
3635
  8
0
 10
63.9
 20
15.660249
 30
59.624342
 70
    64
  0
VERTEX
  5
3636
  8
0
 10
52.5
 20
14.361211
 30
60.374342
 70
    64
  0
VERTEX
  5
3637
  8
0
 10
95.5
 20
52.466328
 30
38.374342
 70
    64
  0
VERTEX
  5
3638
  8
0
 10
94.0
 20
42.853446
 30
43.924342
 70
    64
  0
VERTEX
  5
3639
  8
0
 10
89.8
 20
33.846782
 30
49.124342
 70
    64
  0
VERTEX
  5
363A
  8
0
 10
82.9
 20
26.139156
 30
53.574342
 70
    64
  0
VERTEX
  5
363B
  8
0
 10
74.0
 20
20.163581
 30
57.024342
 70
    64
  0
VERTEX
  5
363C
  8
0
 10
63.6
 20
16.526274
 30
59.124342
 70
    64
  0
VERTEX
  5
363D
  8
0
 10
52.5
 20
15.227236
 30
59.874342
 70
    64
  0
SEQEND
  5
363E
  8
0
  0
POLYLINE
  5
363F
  8
0
 66
     1
 10
0.0
 20
0.0
 30
0.0
 70
    16
 71
     7
 72
     7
  0
VERTEX
  5
3640
  8
0
 10
95.5
 20
52.466328
 30
38.374342
 70
    64
  0
VERTEX
  5
3641
  8
0
 10
94.0
 20
42.853446
 30
43.924342
 70
    64
  0
VERTEX
  5
3642
  8
0
 10
89.8
 20
33.846782
 30
49.124342
 70
    64
  0
VERTEX
  5
3643
  8
0
 10
82.9
 20
26.139156
 30
53.574342
 70
    64
  0
VERTEX
  5
3644
  8
0
 10
74.0
 20
20.163581
 30
57.024342
 70
    64
  0
VERTEX
  5
3645
  8
0
 10
63.6
 20
16.526274
 30
59.124342
 70
    64
  0
VERTEX
  5
3646
  8
0
 10
52.5
 20
15.227236
 30
59.874342
 70
    64
  0
VERTEX
  5
3647
  8
0
 10
94.5
 20
57.216328
 30
46.601584
 70
    64
  0
VERTEX
  5
3648
  8
0
 10
93.0
 20
47.776652
 30
52.051584
 70
    64
  0
VERTEX
  5
3649
  8
0
 10
88.9
 20
39.029795
 30
57.101584
 70
    64
  0
VERTEX
  5
364A
  8
0
 10
82.2
 20
31.495374
 30
61.451584
 70
    64
  0
VERTEX
  5
364B
  8
0
 10
73.5
 20
25.693004
 30
64.801584
 70
    64
  0
VERTEX
  5
364C
  8
0
 10
63.4
 20
22.1423
 30
66.851584
 70
    64
  0
VERTEX
  5
364D
  8
0
 10
52.5
 20
20.843261
 30
67.601584
 70
    64
  0
VERTEX
  5
364E
  8
0
 10
92.5
 20
62.466328
 30
55.69485
 70
    64
  0
VERTEX
  5
364F
  8
0
 10
91.1
 20
53.459664
 30
60.89485
 70
    64
  0
VERTEX
  5
3650
  8
0
 10
87.2
 20
45.14582
 30
65.69485
 70
    64
  0
VERTEX
  5
3651
  8
0
 10
80.8
 20
37.957809
 30
69.84485
 70
    64
  0
VERTEX
  5
3652
  8
0
 10
72.5
 20
32.415247
 30
73.04485
 70
    64
  0
VERTEX
  5
3653
  8
0
 10
62.9
 20
29.037748
 30
74.99485
 70
    64
  0
VERTEX
  5
3654
  8
0
 10
52.5
 20
27.825312
 30
75.69485
 70
    64
  0
VERTEX
  5
3655
  8
0
 10
89.5
 20
67.716328
 30
64.788117
 70
    64
  0
VERTEX
  5
3656
  8
0
 10
88.2
 20
59.402485
 30
69.588117
 70
    64
  0
VERTEX
  5
3657
  8
0
 10
84.6
 20
51.694858
 30
74.038117
 70
    64
  0
VERTEX
  5
3658
  8
0
 10
78.7
 20
45.026463
 30
77.888117
 70
    64
  0
VERTEX
  5
3659
  8
0
 10
71.0
 20
39.916913
 30
80.838117
 70
    64
  0
VERTEX
  5
365A
  8
0
 10
62.1
 20
36.799221
 30
82.638117
 70
    64
  0
VERTEX
  5
365B
  8
0
 10
52.5
 20
35.673388
 30
83.288117
 70
    64
  0
VERTEX
  5
365C
  8
0
 10
85.5
 20
72.216328
 30
72.582346
 70
    64
  0
VERTEX
  5
365D
  8
0
 10
84.3
 20
64.76851
 30
76.882346
 70
    64
  0
VERTEX
  5
365E
  8
0
 10
81.1
 20
57.926909
 30
80.832346
 70
    64
  0
VERTEX
  5
365F
  8
0
 10
75.8
 20
52.037937
 30
84.232346
 70
    64
  0
VERTEX
  5
3660
  8
0
 10
69.0
 20
47.448002
 30
86.882346
 70
    64
  0
VERTEX
  5
3661
  8
0
 10
61.1
 20
44.676721
 30
88.482346
 70
    64
  0
VERTEX
  5
3662
  8
0
 10
52.5
 20
43.63749
 30
89.082346
 70
    64
  0
VERTEX
  5
3663
  8
0
 10
81.5
 20
75.466328
 30
78.211511
 70
    64
  0
VERTEX
  5
3664
  8
0
 10
80.5
 20
68.971138
 30
81.961511
 70
    64
  0
VERTEX
  5
3665
  8
0
 10
77.6
 20
62.90896
 30
85.461511
 70
    64
  0
VERTEX
  5
3666
  8
0
 10
73.0
 20
57.712808
 30
88.461511
 70
    64
  0
VERTEX
  5
3667
  8
0
 10
67.0
 20
53.729091
 30
90.761511
 70
    64
  0
VERTEX
  5
3668
  8
0
 10
60.0
 20
51.217617
 30
92.211511
 70
    64
  0
VERTEX
  5
3669
  8
0
 10
52.5
 20
50.351592
 30
92.711511
 70
    64
  0
VERTEX
  5
366A
  8
0
 10
76.5
 20
77.966328
 30
82.541638
 70
    64
  0
VERTEX
  5
366B
  8
0
 10
75.7
 20
72.596971
 30
85.641638
 70
    64
  0
VERTEX
  5
366C
  8
0
 10
73.3
 20
67.574024
 30
88.541638
 70
    64
  0
VERTEX
  5
366D
  8
0
 10
69.5
 20
63.243897
 30
91.041638
 70
    64
  0
VERTEX
  5
366E
  8
0
 10
64.5
 20
59.953
 30
92.941638
 70
    64
  0
VERTEX
  5
366F
  8
0
 10
58.7
 20
57.874539
 30
94.141638
 70
    64
  0
VERTEX
  5
3670
  8
0
 10
52.5
 20
57.181719
 30
94.541638
 70
    64
  0
SEQEND
  5
3671
  8
0
  0
POLYLINE
  5
3672
  8
0
 66
     1
 10
0.0
 20
0.0
 30
0.0
 70
    16
 71
     7
 72
     7
  0
VERTEX
  5
3673
  8
0
 10
95.5
 20
52.466328
 30
38.374342
 70
    64
  0
VERTEX
  5
3674
  8
0
 10
94.0
 20
62.07921
 30
32.824342
 70
    64
  0
VERTEX
  5
3675
  8
0
 10
89.8
 20
71.085875
 30
27.624342
 70
    64
  0
VERTEX
  5
3676
  8
0
 10
82.9
 20
78.793501
 30
23.174342
 70
    64
  0
VERTEX
  5
3677
  8
0
 10
74.0
 20
84.769076
 30
19.724342
 70
    64
  0
VERTEX
  5
3678
  8
0
 10
63.6
 20
88.406383
 30
17.624342
 70
    64
  0
VERTEX
  5
3679
  8
0
 10
52.5
 20
89.705421
 30
16.874342
 70
    64
  0
VERTEX
  5
367A
  8
0
 10
94.5
 20
57.216328
 30
46.601584
 70
    64
  0
VERTEX
  5
367B
  8
0
 10
93.0
 20
66.656005
 30
41.151584
 70
    64
  0
VERTEX
  5
367C
  8
0
 10
88.9
 20
75.402862
 30
36.101584
 70
    64
  0
VERTEX
  5
367D
  8
0
 10
82.2
 20
82.937283
 30
31.751584
 70
    64
  0
VERTEX
  5
367E
  8
0
 10
73.5
 20
88.739653
 30
28.401584
 70
    64
  0
VERTEX
  5
367F
  8
0
 10
63.4
 20
92.290357
 30
26.351584
 70
    64
  0
VERTEX
  5
3680
  8
0
 10
52.5
 20
93.589395
 30
25.601584
 70
    64
  0
VERTEX
  5
3681
  8
0
 10
92.5
 20
62.466328
 30
55.69485
 70
    64
  0
VERTEX
  5
3682
  8
0
 10
91.1
 20
71.472993
 30
50.49485
 70
    64
  0
VERTEX
  5
3683
  8
0
 10
87.2
 20
79.786836
 30
45.69485
 70
    64
  0
VERTEX
  5
3684
  8
0
 10
80.8
 20
86.974847
 30
41.54485
 70
    64
  0
VERTEX
  5
3685
  8
0
 10
72.5
 20
92.51741
 30
38.34485
 70
    64
  0
VERTEX
  5
3686
  8
0
 10
62.9
 20
95.894909
 30
36.39485
 70
    64
  0
VERTEX
  5
3687
  8
0
 10
52.5
 20
97.107345
 30
35.69485
 70
    64
  0
VERTEX
  5
3688
  8
0
 10
89.5
 20
67.716328
 30
64.788117
 70
    64
  0
VERTEX
  5
3689
  8
0
 10
88.2
 20
76.030172
 30
59.988117
 70
    64
  0
VERTEX
  5
368A
  8
0
 10
84.6
 20
83.737798
 30
55.538117
 70
    64
  0
VERTEX
  5
368B
  8
0
 10
78.7
 20
90.406194
 30
51.688117
 70
    64
  0
VERTEX
  5
368C
  8
0
 10
71.0
 20
95.515744
 30
48.738117
 70
    64
  0
VERTEX
  5
368D
  8
0
 10
62.1
 20
98.633435
 30
46.938117
 70
    64
  0
VERTEX
  5
368E
  8
0
 10
52.5
 20
99.759268
 30
46.288117
 70
    64
  0
VERTEX
  5
368F
  8
0
 10
85.5
 20
72.216328
 30
72.582346
 70
    64
  0
VERTEX
  5
3690
  8
0
 10
84.3
 20
79.664147
 30
68.282346
 70
    64
  0
VERTEX
  5
3691
  8
0
 10
81.1
 20
86.505748
 30
64.332346
 70
    64
  0
VERTEX
  5
3692
  8
0
 10
75.8
 20
92.39472
 30
60.932346
 70
    64
  0
VERTEX
  5
3693
  8
0
 10
69.0
 20
96.984655
 30
58.282346
 70
    64
  0
VERTEX
  5
3694
  8
0
 10
61.1
 20
99.755936
 30
56.682346
 70
    64
  0
VERTEX
  5
3695
  8
0
 10
52.5
 20
100.795167
 30
56.082346
 70
    64
  0
VERTEX
  5
3696
  8
0
 10
81.5
 20
75.466328
 30
78.211511
 70
    64
  0
VERTEX
  5
3697
  8
0
 10
80.5
 20
81.961519
 30
74.461511
 70
    64
  0
VERTEX
  5
3698
  8
0
 10
77.6
 20
88.023697
 30
70.961511
 70
    64
  0
VERTEX
  5
3699
  8
0
 10
73.0
 20
93.219849
 30
67.961511
 70
    64
  0
VERTEX
  5
369A
  8
0
 10
67.0
 20
97.203566
 30
65.661511
 70
    64
  0
VERTEX
  5
369B
  8
0
 10
60.0
 20
99.71504
 30
64.211511
 70
    64
  0
VERTEX
  5
369C
  8
0
 10
52.5
 20
100.581065
 30
63.711511
 70
    64
  0
VERTEX
  5
369D
  8
0
 10
76.5
 20
77.966328
 30
82.541638
 70
    64
  0
VERTEX
  5
369E
  8
0
 10
75.7
 20
83.335686
 30
79.441638
 70
    64
  0
VERTEX
  5
369F
  8
0
 10
73.3
 20
88.358633
 30
76.541638
 70
    64
  0
VERTEX
  5
36A0
  8
0
 10
69.5
 20
92.68876
 30
74.041638
 70
    64
  0
VERTEX
  5
36A1
  8
0
 10
64.5
 20
95.979657
 30
72.141638
 70
    64
  0
VERTEX
  5
36A2
  8
0
 10
58.7
 20
98.058118
 30
70.941638
 70
    64
  0
VERTEX
  5
36A3
  8
0
 10
52.5
 20
98.750938
 30
70.541638
 70
    64
  0
SEQEND
  5
36A4
  8
0
  0
POLYLINE
  5
36A5
  8
0
 66
     1
 10
0.0
 20
0.0
 30
0.0
 70
    16
 71
     5
 72
     7
  0
VERTEX
  5
36A6
  8
0
 10
96.5
 20
50.966328
 30
35.776266
 70
    64
  0
VERTEX
  5
36A7
  8
0
 10
95.0
 20
60.839018
 30
30.076266
 70
    64
  0
VERTEX
  5
36A8
  8
0
 10
90.6
 20
70.018887
 30
24.776266
 70
    64
  0
VERTEX
  5
36A9
  8
0
 10
83.6
 20
77.899718
 30
20.226266
 70
    64
  0
VERTEX
  5
36AA
  8
0
 10
74.5
 20
83.961896
 30
16.726266
 70
    64
  0
VERTEX
  5
36AB
  8
0
 10
63.9
 20
87.772408
 30
14.526266
 70
    64
  0
VERTEX
  5
36AC
  8
0
 10
52.5
 20
89.071446
 30
13.776266
 70
    64
  0
VERTEX
  5
36AD
  8
0
 10
97.5
 20
51.466328
 30
36.642291
 70
    64
  0
VERTEX
  5
36AE
  8
0
 10
95.9
 20
61.598826
 30
30.792291
 70
    64
  0
VERTEX
  5
36AF
  8
0
 10
91.5
 20
70.865297
 30
25.442291
 70
    64
  0
VERTEX
  5
36B0
  8
0
 10
84.3
 20
79.005936
 30
20.742291
 70
    64
  0
VERTEX
  5
36B1
  8
0
 10
74.9
 20
85.241319
 30
17.142291
 70
    64
  0
VERTEX
  5
36B2
  8
0
 10
64.2
 20
89.051831
 30
14.942291
 70
    64
  0
VERTEX
  5
36B3
  8
0
 10
52.5
 20
90.437472
 30
14.142291
 70
    64
  0
VERTEX
  5
36B4
  8
0
 10
97.5
 20
51.966328
 30
37.508317
 70
    64
  0
VERTEX
  5
36B5
  8
0
 10
95.9
 20
62.098826
 30
31.658317
 70
    64
  0
VERTEX
  5
36B6
  8
0
 10
91.5
 20
71.365297
 30
26.308317
 70
    64
  0
VERTEX
  5
36B7
  8
0
 10
84.3
 20
79.505936
 30
21.608317
 70
    64
  0
VERTEX
  5
36B8
  8
0
 10
74.9
 20
85.741319
 30
18.008317
 70
    64
  0
VERTEX
  5
36B9
  8
0
 10
64.2
 20
89.551831
 30
15.808317
 70
    64
  0
VERTEX
  5
36BA
  8
0
 10
52.5
 20
90.937472
 30
15.008317
 70
    64
  0
VERTEX
  5
36BB
  8
0
 10
96.5
 20
52.466328
 30
38.374342
 70
    64
  0
VERTEX
  5
36BC
  8
0
 10
95.0
 20
62.339018
 30
32.674342
 70
    64
  0
VERTEX
  5
36BD
  8
0
 10
90.6
 20
71.518887
 30
27.374342
 70
    64
  0
VERTEX
  5
36BE
  8
0
 10
83.6
 20
79.399718
 30
22.824342
 70
    64
  0
VERTEX
  5
36BF
  8
0
 10
74.5
 20
85.461896
 30
19.324342
 70
    64
  0
VERTEX
  5
36C0
  8
0
 10
63.9
 20
89.272408
 30
17.124342
 70
    64
  0
VERTEX
  5
36C1
  8
0
 10
52.5
 20
90.571446
 30
16.374342
 70
    64
  0
VERTEX
  5
36C2
  8
0
 10
95.5
 20
52.466328
 30
38.374342
 70
    64
  0
VERTEX
  5
36C3
  8
0
 10
94.0
 20
62.07921
 30
32.824342
 70
    64
  0
VERTEX
  5
36C4
  8
0
 10
89.8
 20
71.085875
 30
27.624342
 70
    64
  0
VERTEX
  5
36C5
  8
0
 10
82.9
 20
78.793501
 30
23.174342
 70
    64
  0
VERTEX
  5
36C6
  8
0
 10
74.0
 20
84.769076
 30
19.724342
 70
    64
  0
VERTEX
  5
36C7
  8
0
 10
63.6
 20
88.406383
 30
17.624342
 70
    64
  0
VERTEX
  5
36C8
  8
0
 10
52.5
 20
89.705421
 30
16.874342
 70
    64
  0
SEQEND
  5
36C9
  8
0
  0
POLYLINE
  5
36CA
  8
0
 66
     1
 10
0.0
 20
0.0
 30
0.0
 70
    16
 71
     4
 72
     7
  0
VERTEX
  5
36CB
  8
0
 10
105.0
 20
45.466328
 30
26.249987
 70
    64
  0
VERTEX
  5
36CC
  8
0
 10
103.2
 20
57.244274
 30
19.449987
 70
    64
  0
VERTEX
  5
36CD
  8
0
 10
98.0
 20
68.156194
 30
13.149987
 70
    64
  0
VERTEX
  5
36CE
  8
0
 10
89.6
 20
77.595871
 30
7.699987
 70
    64
  0
VERTEX
  5
36CF
  8
0
 10
78.7
 20
84.870484
 30
3.499987
 70
    64
  0
VERTEX
  5
36D0
  8
0
 10
66.1
 20
89.373816
 30
0.899987
 70
    64
  0
VERTEX
  5
36D1
  8
0
 10
52.5
 20
90.932662
 30
-0.000013
 70
    64
  0
VERTEX
  5
36D2
  8
0
 10
103.5
 20
47.466328
 30
29.714088
 70
    64
  0
VERTEX
  5
36D3
  8
0
 10
101.7
 20
58.897864
 30
23.114088
 70
    64
  0
VERTEX
  5
36D4
  8
0
 10
96.7
 20
69.463374
 30
17.014088
 70
    64
  0
VERTEX
  5
36D5
  8
0
 10
88.5
 20
78.643243
 30
11.714088
 70
    64
  0
VERTEX
  5
36D6
  8
0
 10
77.9
 20
85.744651
 30
7.614088
 70
    64
  0
VERTEX
  5
36D7
  8
0
 10
65.7
 20
90.074778
 30
5.114088
 70
    64
  0
VERTEX
  5
36D8
  8
0
 10
52.5
 20
91.633624
 30
4.214088
 70
    64
  0
VERTEX
  5
36D9
  8
0
 10
100.5
 20
49.466328
 30
33.17819
 70
    64
  0
VERTEX
  5
36DA
  8
0
 10
98.8
 20
60.205043
 30
26.97819
 70
    64
  0
VERTEX
  5
36DB
  8
0
 10
94.1
 20
70.164336
 30
21.22819
 70
    64
  0
VERTEX
  5
36DC
  8
0
 10
86.4
 20
78.82459
 30
16.22819
 70
    64
  0
VERTEX
  5
36DD
  8
0
 10
76.4
 20
85.492985
 30
12.37819
 70
    64
  0
VERTEX
  5
36DE
  8
0
 10
64.9
 20
89.563305
 30
10.02819
 70
    64
  0
VERTEX
  5
36DF
  8
0
 10
52.5
 20
91.035548
 30
9.17819
 70
    64
  0
VERTEX
  5
36E0
  8
0
 10
96.5
 20
50.966328
 30
35.776266
 70
    64
  0
VERTEX
  5
36E1
  8
0
 10
95.0
 20
60.839018
 30
30.076266
 70
    64
  0
VERTEX
  5
36E2
  8
0
 10
90.6
 20
70.018887
 30
24.776266
 70
    64
  0
VERTEX
  5
36E3
  8
0
 10
83.6
 20
77.899718
 30
20.226266
 70
    64
  0
VERTEX
  5
36E4
  8
0
 10
74.5
 20
83.961896
 30
16.726266
 70
    64
  0
VERTEX
  5
36E5
  8
0
 10
63.9
 20
87.772408
 30
14.526266
 70
    64
  0
VERTEX
  5
36E6
  8
0
 10
52.5
 20
89.071446
 30
13.776266
 70
    64
  0
SEQEND
  5
36E7
  8
0
  0
POLYLINE
  5
36E8
  8
0
 66
     1
 10
0.0
 20
0.0
 30
0.0
 70
    16
 71
     8
 72
     7
  0
VERTEX
  5
36E9
  8
0
 10
88.0
 20
211.4519
 30
97.2724
 70
    64
  0
VERTEX
  5
36EA
  8
0
 10
86.7
 20
211.4519
 30
106.3724
 70
    64
  0
VERTEX
  5
36EB
  8
0
 10
83.2
 20
211.4519
 30
114.8724
 70
    64
  0
VERTEX
  5
36EC
  8
0
 10
77.5
 20
211.4519
 30
122.2724
 70
    64
  0
VERTEX
  5
36ED
  8
0
 10
70.1
 20
211.4519
 30
127.9724
 70
    64
  0
VERTEX
  5
36EE
  8
0
 10
61.6
 20
211.4519
 30
131.4724
 70
    64
  0
VERTEX
  5
36EF
  8
0
 10
52.5
 20
211.4519
 30
132.7724
 70
    64
  0
VERTEX
  5
36F0
  8
0
 10
87.0
 20
204.4519
 30
97.2724
 70
    64
  0
VERTEX
  5
36F1
  8
0
 10
85.7
 20
204.4519
 30
106.1724
 70
    64
  0
VERTEX
  5
36F2
  8
0
 10
82.3
 20
204.4519
 30
114.4724
 70
    64
  0
VERTEX
  5
36F3
  8
0
 10
76.8
 20
204.4519
 30
121.5724
 70
    64
  0
VERTEX
  5
36F4
  8
0
 10
69.7
 20
204.4519
 30
127.0724
 70
    64
  0
VERTEX
  5
36F5
  8
0
 10
61.4
 20
204.4519
 30
130.4724
 70
    64
  0
VERTEX
  5
36F6
  8
0
 10
52.5
 20
204.4519
 30
131.7724
 70
    64
  0
VERTEX
  5
36F7
  8
0
 10
84.0
 20
197.4519
 30
97.2724
 70
    64
  0
VERTEX
  5
36F8
  8
0
 10
82.8
 20
197.4519
 30
105.3724
 70
    64
  0
VERTEX
  5
36F9
  8
0
 10
79.7
 20
197.4519
 30
112.9724
 70
    64
  0
VERTEX
  5
36FA
  8
0
 10
74.7
 20
197.4519
 30
119.4724
 70
    64
  0
VERTEX
  5
36FB
  8
0
 10
68.2
 20
197.4519
 30
124.4724
 70
    64
  0
VERTEX
  5
36FC
  8
0
 10
60.6
 20
197.4519
 30
127.5724
 70
    64
  0
VERTEX
  5
36FD
  8
0
 10
52.5
 20
197.4519
 30
128.7724
 70
    64
  0
VERTEX
  5
36FE
  8
0
 10
79.0
 20
191.4519
 30
97.2724
 70
    64
  0
VERTEX
  5
36FF
  8
0
 10
78.0
 20
191.4519
 30
104.0724
 70
    64
  0
VERTEX
  5
3700
  8
0
 10
75.4
 20
191.4519
 30
110.4724
 70
    64
  0
VERTEX
  5
3701
  8
0
 10
71.2
 20
191.4519
 30
115.9724
 70
    64
  0
VERTEX
  5
3702
  8
0
 10
65.7
 20
191.4519
 30
120.1724
 70
    64
  0
VERTEX
  5
3703
  8
0
 10
59.3
 20
191.4519
 30
122.7724
 70
    64
  0
VERTEX
  5
3704
  8
0
 10
52.5
 20
191.4519
 30
123.7724
 70
    64
  0
VERTEX
  5
3705
  8
0
 10
73.0
 20
186.9519
 30
97.2724
 70
    64
  0
VERTEX
  5
3706
  8
0
 10
72.2
 20
186.9519
 30
102.5724
 70
    64
  0
VERTEX
  5
3707
  8
0
 10
70.2
 20
186.9519
 30
107.4724
 70
    64
  0
VERTEX
  5
3708
  8
0
 10
67.0
 20
186.9519
 30
111.7724
 70
    64
  0
VERTEX
  5
3709
  8
0
 10
62.7
 20
186.9519
 30
114.9724
 70
    64
  0
VERTEX
  5
370A
  8
0
 10
57.8
 20
186.9519
 30
116.9724
 70
    64
  0
VERTEX
  5
370B
  8
0
 10
52.5
 20
186.9519
 30
117.7724
 70
    64
  0
VERTEX
  5
370C
  8
0
 10
66.5
 20
183.9519
 30
97.2724
 70
    64
  0
VERTEX
  5
370D
  8
0
 10
66.0
 20
183.9519
 30
100.8724
 70
    64
  0
VERTEX
  5
370E
  8
0
 10
64.6
 20
183.9519
 30
104.2724
 70
    64
  0
VERTEX
  5
370F
  8
0
 10
62.4
 20
183.9519
 30
107.1724
 70
    64
  0
VERTEX
  5
3710
  8
0
 10
59.5
 20
183.9519
 30
109.3724
 70
    64
  0
VERTEX
  5
3711
  8
0
 10
56.1
 20
183.9519
 30
110.7724
 70
    64
  0
VERTEX
  5
3712
  8
0
 10
52.5
 20
183.9519
 30
111.2724
 70
    64
  0
VERTEX
  5
3713
  8
0
 10
60.5
 20
182.1519
 30
97.2724
 70
    64
  0
VERTEX
  5
3714
  8
0
 10
60.2
 20
182.1519
 30
99.3724
 70
    64
  0
VERTEX
  5
3715
  8
0
 10
59.4
 20
182.1519
 30
101.2724
 70
    64
  0
VERTEX
  5
3716
  8
0
 10
58.1
 20
182.1519
 30
102.8724
 70
    64
  0
VERTEX
  5
3717
  8
0
 10
56.5
 20
182.1519
 30
104.1724
 70
    64
  0
VERTEX
  5
3718
  8
0
 10
54.6
 20
182.1519
 30
104.9724
 70
    64
  0
VERTEX
  5
3719
  8
0
 10
52.5
 20
182.1519
 30
105.2724
 70
    64
  0
VERTEX
  5
371A
  8
0
 10
52.5
 20
181.4519
 30
97.2724
 70
    64
  0
VERTEX
  5
371B
  8
0
 10
52.5
 20
181.4519
 30
97.2724
 70
    64
  0
VERTEX
  5
371C
  8
0
 10
52.5
 20
181.4519
 30
97.2724
 70
    64
  0
VERTEX
  5
371D
  8
0
 10
52.5
 20
181.4519
 30
97.2724
 70
    64
  0
VERTEX
  5
371E
  8
0
 10
52.5
 20
181.4519
 30
97.2724
 70
    64
  0
VERTEX
  5
371F
  8
0
 10
52.5
 20
181.4519
 30
97.2724
 70
    64
  0
VERTEX
  5
3720
  8
0
 10
52.5
 20
181.4519
 30
97.2724
 70
    64
  0
SEQEND
  5
3721
  8
0
  0
POLYLINE
  5
3722
  8
0
 66
     1
 10
0.0
 20
0.0
 30
0.0
 70
    16
 71
     5
 72
     7
  0
VERTEX
  5
3723
  8
0
 10
89.0
 20
214.4519
 30
97.2724
 70
    64
  0
VERTEX
  5
3724
  8
0
 10
87.6
 20
214.4519
 30
106.6724
 70
    64
  0
VERTEX
  5
3725
  8
0
 10
84.1
 20
214.4519
 30
115.3724
 70
    64
  0
VERTEX
  5
3726
  8
0
 10
78.2
 20
214.4519
 30
122.9724
 70
    64
  0
VERTEX
  5
3727
  8
0
 10
70.6
 20
214.4519
 30
128.8724
 70
    64
  0
VERTEX
  5
3728
  8
0
 10
61.9
 20
214.4519
 30
132.3724
 70
    64
  0
VERTEX
  5
3729
  8
0
 10
52.5
 20
214.4519
 30
133.7724
 70
    64
  0
VERTEX
  5
372A
  8
0
 10
90.0
 20
213.4519
 30
97.2724
 70
    64
  0
VERTEX
  5
372B
  8
0
 10
88.7
 20
213.4519
 30
106.8724
 70
    64
  0
VERTEX
  5
372C
  8
0
 10
85.0
 20
213.4519
 30
115.8724
 70
    64
  0
VERTEX
  5
372D
  8
0
 10
79.0
 20
213.4519
 30
123.7724
 70
    64
  0
VERTEX
  5
372E
  8
0
 10
71.1
 20
213.4519
 30
129.7724
 70
    64
  0
VERTEX
  5
372F
  8
0
 10
62.1
 20
213.4519
 30
133.4724
 70
    64
  0
VERTEX
  5
3730
  8
0
 10
52.5
 20
213.4519
 30
134.7724
 70
    64
  0
VERTEX
  5
3731
  8
0
 10
90.0
 20
212.4519
 30
97.2724
 70
    64
  0
VERTEX
  5
3732
  8
0
 10
88.7
 20
212.4519
 30
106.8724
 70
    64
  0
VERTEX
  5
3733
  8
0
 10
85.0
 20
212.4519
 30
115.8724
 70
    64
  0
VERTEX
  5
3734
  8
0
 10
79.0
 20
212.4519
 30
123.7724
 70
    64
  0
VERTEX
  5
3735
  8
0
 10
71.1
 20
212.4519
 30
129.7724
 70
    64
  0
VERTEX
  5
3736
  8
0
 10
62.1
 20
212.4519
 30
133.4724
 70
    64
  0
VERTEX
  5
3737
  8
0
 10
52.5
 20
212.4519
 30
134.7724
 70
    64
  0
VERTEX
  5
3738
  8
0
 10
89.0
 20
211.4519
 30
97.2724
 70
    64
  0
VERTEX
  5
3739
  8
0
 10
87.6
 20
211.4519
 30
106.6724
 70
    64
  0
VERTEX
  5
373A
  8
0
 10
84.1
 20
211.4519
 30
115.3724
 70
    64
  0
VERTEX
  5
373B
  8
0
 10
78.2
 20
211.4519
 30
122.9724
 70
    64
  0
VERTEX
  5
373C
  8
0
 10
70.6
 20
211.4519
 30
128.8724
 70
    64
  0
VERTEX
  5
373D
  8
0
 10
61.9
 20
211.4519
 30
132.3724
 70
    64
  0
VERTEX
  5
373E
  8
0
 10
52.5
 20
211.4519
 30
133.7724
 70
    64
  0
VERTEX
  5
373F
  8
0
 10
88.0
 20
211.4519
 30
97.2724
 70
    64
  0
VERTEX
  5
3740
  8
0
 10
86.7
 20
211.4519
 30
106.3724
 70
    64
  0
VERTEX
  5
3741
  8
0
 10
83.2
 20
211.4519
 30
114.8724
 70
    64
  0
VERTEX
  5
3742
  8
0
 10
77.5
 20
211.4519
 30
122.2724
 70
    64
  0
VERTEX
  5
3743
  8
0
 10
70.1
 20
211.4519
 30
127.9724
 70
    64
  0
VERTEX
  5
3744
  8
0
 10
61.6
 20
211.4519
 30
131.4724
 70
    64
  0
VERTEX
  5
3745
  8
0
 10
52.5
 20
211.4519
 30
132.7724
 70
    64
  0
SEQEND
  5
3746
  8
0
  0
POLYLINE
  5
3747
  8
0
 66
     1
 10
0.0
 20
0.0
 30
0.0
 70
    16
 71
     5
 72
     7
  0
VERTEX
  5
3748
  8
0
 10
52.5
 20
217.4519
 30
97.2724
 70
    64
  0
VERTEX
  5
3749
  8
0
 10
52.5
 20
217.4519
 30
97.2724
 70
    64
  0
VERTEX
  5
374A
  8
0
 10
52.5
 20
217.4519
 30
97.2724
 70
    64
  0
VERTEX
  5
374B
  8
0
 10
52.5
 20
217.4519
 30
97.2724
 70
    64
  0
VERTEX
  5
374C
  8
0
 10
52.5
 20
217.4519
 30
97.2724
 70
    64
  0
VERTEX
  5
374D
  8
0
 10
52.5
 20
217.4519
 30
97.2724
 70
    64
  0
VERTEX
  5
374E
  8
0
 10
52.5
 20
217.4519
 30
97.2724
 70
    64
  0
VERTEX
  5
374F
  8
0
 10
89.0
 20
217.4519
 30
97.2724
 70
    64
  0
VERTEX
  5
3750
  8
0
 10
87.6
 20
217.4519
 30
106.6724
 70
    64
  0
VERTEX
  5
3751
  8
0
 10
84.1
 20
217.4519
 30
115.3724
 70
    64
  0
VERTEX
  5
3752
  8
0
 10
78.2
 20
217.4519
 30
122.9724
 70
    64
  0
VERTEX
  5
3753
  8
0
 10
70.6
 20
217.4519
 30
128.8724
 70
    64
  0
VERTEX
  5
3754
  8
0
 10
61.9
 20
217.4519
 30
132.3724
 70
    64
  0
VERTEX
  5
3755
  8
0
 10
52.5
 20
217.4519
 30
133.7724
 70
    64
  0
VERTEX
  5
3756
  8
0
 10
90.0
 20
216.4519
 30
97.2724
 70
    64
  0
VERTEX
  5
3757
  8
0
 10
88.7
 20
216.4519
 30
106.8724
 70
    64
  0
VERTEX
  5
3758
  8
0
 10
85.0
 20
216.4519
 30
115.8724
 70
    64
  0
VERTEX
  5
3759
  8
0
 10
79.0
 20
216.4519
 30
123.7724
 70
    64
  0
VERTEX
  5
375A
  8
0
 10
71.1
 20
216.4519
 30
129.7724
 70
    64
  0
VERTEX
  5
375B
  8
0
 10
62.1
 20
216.4519
 30
133.4724
 70
    64
  0
VERTEX
  5
375C
  8
0
 10
52.5
 20
216.4519
 30
134.7724
 70
    64
  0
VERTEX
  5
375D
  8
0
 10
90.0
 20
215.4519
 30
97.2724
 70
    64
  0
VERTEX
  5
375E
  8
0
 10
88.7
 20
215.4519
 30
106.8724
 70
    64
  0
VERTEX
  5
375F
  8
0
 10
85.0
 20
215.4519
 30
115.8724
 70
    64
  0
VERTEX
  5
3760
  8
0
 10
79.0
 20
215.4519
 30
123.7724
 70
    64
  0
VERTEX
  5
3761
  8
0
 10
71.1
 20
215.4519
 30
129.7724
 70
    64
  0
VERTEX
  5
3762
  8
0
 10
62.1
 20
215.4519
 30
133.4724
 70
    64
  0
VERTEX
  5
3763
  8
0
 10
52.5
 20
215.4519
 30
134.7724
 70
    64
  0
VERTEX
  5
3764
  8
0
 10
89.0
 20
214.4519
 30
97.2724
 70
    64
  0
VERTEX
  5
3765
  8
0
 10
87.6
 20
214.4519
 30
106.6724
 70
    64
  0
VERTEX
  5
3766
  8
0
 10
84.1
 20
214.4519
 30
115.3724
 70
    64
  0
VERTEX
  5
3767
  8
0
 10
78.2
 20
214.4519
 30
122.9724
 70
    64
  0
VERTEX
  5
3768
  8
0
 10
70.6
 20
214.4519
 30
128.8724
 70
    64
  0
VERTEX
  5
3769
  8
0
 10
61.9
 20
214.4519
 30
132.3724
 70
    64
  0
VERTEX
  5
376A
  8
0
 10
52.5
 20
214.4519
 30
133.7724
 70
    64
  0
SEQEND
  5
376B
  8
0
  0
POLYLINE
  5
376C
  8
0
 66
     1
 10
0.0
 20
0.0
 30
0.0
 70
    16
 71
     5
 72
     7
  0
VERTEX
  5
376D
  8
0
 10
52.5
 20
217.4519
 30
97.2724
 70
    64
  0
VERTEX
  5
376E
  8
0
 10
52.5
 20
217.4519
 30
97.2724
 70
    64
  0
VERTEX
  5
376F
  8
0
 10
52.5
 20
217.4519
 30
97.2724
 70
    64
  0
VERTEX
  5
3770
  8
0
 10
52.5
 20
217.4519
 30
97.2724
 70
    64
  0
VERTEX
  5
3771
  8
0
 10
52.5
 20
217.4519
 30
97.2724
 70
    64
  0
VERTEX
  5
3772
  8
0
 10
52.5
 20
217.4519
 30
97.2724
 70
    64
  0
VERTEX
  5
3773
  8
0
 10
52.5
 20
217.4519
 30
97.2724
 70
    64
  0
VERTEX
  5
3774
  8
0
 10
89.0
 20
217.4519
 30
97.2724
 70
    64
  0
VERTEX
  5
3775
  8
0
 10
87.6
 20
217.4519
 30
106.6724
 70
    64
  0
VERTEX
  5
3776
  8
0
 10
84.1
 20
217.4519
 30
115.3724
 70
    64
  0
VERTEX
  5
3777
  8
0
 10
78.2
 20
217.4519
 30
122.9724
 70
    64
  0
VERTEX
  5
3778
  8
0
 10
70.6
 20
217.4519
 30
128.8724
 70
    64
  0
VERTEX
  5
3779
  8
0
 10
61.9
 20
217.4519
 30
132.3724
 70
    64
  0
VERTEX
  5
377A
  8
0
 10
52.5
 20
217.4519
 30
133.7724
 70
    64
  0
VERTEX
  5
377B
  8
0
 10
90.0
 20
216.4519
 30
97.2724
 70
    64
  0
VERTEX
  5
377C
  8
0
 10
88.7
 20
216.4519
 30
106.8724
 70
    64
  0
VERTEX
  5
377D
  8
0
 10
85.0
 20
216.4519
 30
115.8724
 70
    64
  0
VERTEX
  5
377E
  8
0
 10
79.0
 20
216.4519
 30
123.7724
 70
    64
  0
VERTEX
  5
377F
  8
0
 10
71.1
 20
216.4519
 30
129.7724
 70
    64
  0
VERTEX
  5
3780
  8
0
 10
62.1
 20
216.4519
 30
133.4724
 70
    64
  0
VERTEX
  5
3781
  8
0
 10
52.5
 20
216.4519
 30
134.7724
 70
    64
  0
VERTEX
  5
3782
  8
0
 10
90.0
 20
215.4519
 30
97.2724
 70
    64
  0
VERTEX
  5
3783
  8
0
 10
88.7
 20
215.4519
 30
106.8724
 70
    64
  0
VERTEX
  5
3784
  8
0
 10
85.0
 20
215.4519
 30
115.8724
 70
    64
  0
VERTEX
  5
3785
  8
0
 10
79.0
 20
215.4519
 30
123.7724
 70
    64
  0
VERTEX
  5
3786
  8
0
 10
71.1
 20
215.4519
 30
129.7724
 70
    64
  0
VERTEX
  5
3787
  8
0
 10
62.1
 20
215.4519
 30
133.4724
 70
    64
  0
VERTEX
  5
3788
  8
0
 10
52.5
 20
215.4519
 30
134.7724
 70
    64
  0
VERTEX
  5
3789
  8
0
 10
89.0
 20
214.4519
 30
97.2724
 70
    64
  0
VERTEX
  5
378A
  8
0
 10
87.6
 20
214.4519
 30
106.6724
 70
    64
  0
VERTEX
  5
378B
  8
0
 10
84.1
 20
214.4519
 30
115.3724
 70
    64
  0
VERTEX
  5
378C
  8
0
 10
78.2
 20
214.4519
 30
122.9724
 70
    64
  0
VERTEX
  5
378D
  8
0
 10
70.6
 20
214.4519
 30
128.8724
 70
    64
  0
VERTEX
  5
378E
  8
0
 10
61.9
 20
214.4519
 30
132.3724
 70
    64
  0
VERTEX
  5
378F
  8
0
 10
52.5
 20
214.4519
 30
133.7724
 70
    64
  0
SEQEND
  5
3790
  8
0
  0
POLYLINE
  5
3791
  8
0
 66
     1
 10
0.0
 20
0.0
 30
0.0
 70
    16
 71
     8
 72
     7
  0
VERTEX
  5
3792
  8
0
 10
88.0
 20
211.4519
 30
97.2724
 70
    64
  0
VERTEX
  5
3793
  8
0
 10
86.7
 20
211.4519
 30
88.1724
 70
    64
  0
VERTEX
  5
3794
  8
0
 10
83.2
 20
211.4519
 30
79.6724
 70
    64
  0
VERTEX
  5
3795
  8
0
 10
77.5
 20
211.4519
 30
72.2724
 70
    64
  0
VERTEX
  5
3796
  8
0
 10
70.1
 20
211.4519
 30
66.5724
 70
    64
  0
VERTEX
  5
3797
  8
0
 10
61.6
 20
211.4519
 30
63.0724
 70
    64
  0
VERTEX
  5
3798
  8
0
 10
52.5
 20
211.4519
 30
61.7724
 70
    64
  0
VERTEX
  5
3799
  8
0
 10
87.0
 20
204.4519
 30
97.2724
 70
    64
  0
VERTEX
  5
379A
  8
0
 10
85.7
 20
204.4519
 30
88.3724
 70
    64
  0
VERTEX
  5
379B
  8
0
 10
82.3
 20
204.4519
 30
80.0724
 70
    64
  0
VERTEX
  5
379C
  8
0
 10
76.8
 20
204.4519
 30
72.9724
 70
    64
  0
VERTEX
  5
379D
  8
0
 10
69.7
 20
204.4519
 30
67.4724
 70
    64
  0
VERTEX
  5
379E
  8
0
 10
61.4
 20
204.4519
 30
64.0724
 70
    64
  0
VERTEX
  5
379F
  8
0
 10
52.5
 20
204.4519
 30
62.7724
 70
    64
  0
VERTEX
  5
37A0
  8
0
 10
84.0
 20
197.4519
 30
97.2724
 70
    64
  0
VERTEX
  5
37A1
  8
0
 10
82.8
 20
197.4519
 30
89.1724
 70
    64
  0
VERTEX
  5
37A2
  8
0
 10
79.7
 20
197.4519
 30
81.5724
 70
    64
  0
VERTEX
  5
37A3
  8
0
 10
74.7
 20
197.4519
 30
75.0724
 70
    64
  0
VERTEX
  5
37A4
  8
0
 10
68.2
 20
197.4519
 30
70.0724
 70
    64
  0
VERTEX
  5
37A5
  8
0
 10
60.6
 20
197.4519
 30
66.9724
 70
    64
  0
VERTEX
  5
37A6
  8
0
 10
52.5
 20
197.4519
 30
65.7724
 70
    64
  0
VERTEX
  5
37A7
  8
0
 10
79.0
 20
191.4519
 30
97.2724
 70
    64
  0
VERTEX
  5
37A8
  8
0
 10
78.0
 20
191.4519
 30
90.4724
 70
    64
  0
VERTEX
  5
37A9
  8
0
 10
75.4
 20
191.4519
 30
84.0724
 70
    64
  0
VERTEX
  5
37AA
  8
0
 10
71.2
 20
191.4519
 30
78.5724
 70
    64
  0
VERTEX
  5
37AB
  8
0
 10
65.7
 20
191.4519
 30
74.3724
 70
    64
  0
VERTEX
  5
37AC
  8
0
 10
59.3
 20
191.4519
 30
71.7724
 70
    64
  0
VERTEX
  5
37AD
  8
0
 10
52.5
 20
191.4519
 30
70.7724
 70
    64
  0
VERTEX
  5
37AE
  8
0
 10
73.0
 20
186.9519
 30
97.2724
 70
    64
  0
VERTEX
  5
37AF
  8
0
 10
72.2
 20
186.9519
 30
91.9724
 70
    64
  0
VERTEX
  5
37B0
  8
0
 10
70.2
 20
186.9519
 30
87.0724
 70
    64
  0
VERTEX
  5
37B1
  8
0
 10
67.0
 20
186.9519
 30
82.7724
 70
    64
  0
VERTEX
  5
37B2
  8
0
 10
62.7
 20
186.9519
 30
79.5724
 70
    64
  0
VERTEX
  5
37B3
  8
0
 10
57.8
 20
186.9519
 30
77.5724
 70
    64
  0
VERTEX
  5
37B4
  8
0
 10
52.5
 20
186.9519
 30
76.7724
 70
    64
  0
VERTEX
  5
37B5
  8
0
 10
66.5
 20
183.9519
 30
97.2724
 70
    64
  0
VERTEX
  5
37B6
  8
0
 10
66.0
 20
183.9519
 30
93.6724
 70
    64
  0
VERTEX
  5
37B7
  8
0
 10
64.6
 20
183.9519
 30
90.2724
 70
    64
  0
VERTEX
  5
37B8
  8
0
 10
62.4
 20
183.9519
 30
87.3724
 70
    64
  0
VERTEX
  5
37B9
  8
0
 10
59.5
 20
183.9519
 30
85.1724
 70
    64
  0
VERTEX
  5
37BA
  8
0
 10
56.1
 20
183.9519
 30
83.7724
 70
    64
  0
VERTEX
  5
37BB
  8
0
 10
52.5
 20
183.9519
 30
83.2724
 70
    64
  0
VERTEX
  5
37BC
  8
0
 10
60.5
 20
182.1519
 30
97.2724
 70
    64
  0
VERTEX
  5
37BD
  8
0
 10
60.2
 20
182.1519
 30
95.1724
 70
    64
  0
VERTEX
  5
37BE
  8
0
 10
59.4
 20
182.1519
 30
93.2724
 70
    64
  0
VERTEX
  5
37BF
  8
0
 10
58.1
 20
182.1519
 30
91.6724
 70
    64
  0
VERTEX
  5
37C0
  8
0
 10
56.5
 20
182.1519
 30
90.3724
 70
    64
  0
VERTEX
  5
37C1
  8
0
 10
54.6
 20
182.1519
 30
89.5724
 70
    64
  0
VERTEX
  5
37C2
  8
0
 10
52.5
 20
182.1519
 30
89.2724
 70
    64
  0
VERTEX
  5
37C3
  8
0
 10
52.5
 20
181.4519
 30
97.2724
 70
    64
  0
VERTEX
  5
37C4
  8
0
 10
52.5
 20
181.4519
 30
97.2724
 70
    64
  0
VERTEX
  5
37C5
  8
0
 10
52.5
 20
181.4519
 30
97.2724
 70
    64
  0
VERTEX
  5
37C6
  8
0
 10
52.5
 20
181.4519
 30
97.2724
 70
    64
  0
VERTEX
  5
37C7
  8
0
 10
52.5
 20
181.4519
 30
97.2724
 70
    64
  0
VERTEX
  5
37C8
  8
0
 10
52.5
 20
181.4519
 30
97.2724
 70
    64
  0
VERTEX
  5
37C9
  8
0
 10
52.5
 20
181.4519
 30
97.2724
 70
    64
  0
SEQEND
  5
37CA
  8
0
  0
POLYLINE
  5
37CB
  8
0
 66
     1
 10
0.0
 20
0.0
 30
0.0
 70
    16
 71
     5
 72
     7
  0
VERTEX
  5
37CC
  8
0
 10
52.5
 20
217.4519
 30
97.2724
 70
    64
  0
VERTEX
  5
37CD
  8
0
 10
52.5
 20
217.4519
 30
97.2724
 70
    64
  0
VERTEX
  5
37CE
  8
0
 10
52.5
 20
217.4519
 30
97.2724
 70
    64
  0
VERTEX
  5
37CF
  8
0
 10
52.5
 20
217.4519
 30
97.2724
 70
    64
  0
VERTEX
  5
37D0
  8
0
 10
52.5
 20
217.4519
 30
97.2724
 70
    64
  0
VERTEX
  5
37D1
  8
0
 10
52.5
 20
217.4519
 30
97.2724
 70
    64
  0
VERTEX
  5
37D2
  8
0
 10
52.5
 20
217.4519
 30
97.2724
 70
    64
  0
VERTEX
  5
37D3
  8
0
 10
89.0
 20
217.4519
 30
97.2724
 70
    64
  0
VERTEX
  5
37D4
  8
0
 10
87.6
 20
217.4519
 30
87.8724
 70
    64
  0
VERTEX
  5
37D5
  8
0
 10
84.1
 20
217.4519
 30
79.1724
 70
    64
  0
VERTEX
  5
37D6
  8
0
 10
78.2
 20
217.4519
 30
71.5724
 70
    64
  0
VERTEX
  5
37D7
  8
0
 10
70.6
 20
217.4519
 30
65.6724
 70
    64
  0
VERTEX
  5
37D8
  8
0
 10
61.9
 20
217.4519
 30
62.1724
 70
    64
  0
VERTEX
  5
37D9
  8
0
 10
52.5
 20
217.4519
 30
60.7724
 70
    64
  0
VERTEX
  5
37DA
  8
0
 10
90.0
 20
216.4519
 30
97.2724
 70
    64
  0
VERTEX
  5
37DB
  8
0
 10
88.7
 20
216.4519
 30
87.6724
 70
    64
  0
VERTEX
  5
37DC
  8
0
 10
85.0
 20
216.4519
 30
78.6724
 70
    64
  0
VERTEX
  5
37DD
  8
0
 10
79.0
 20
216.4519
 30
70.7724
 70
    64
  0
VERTEX
  5
37DE
  8
0
 10
71.1
 20
216.4519
 30
64.7724
 70
    64
  0
VERTEX
  5
37DF
  8
0
 10
62.1
 20
216.4519
 30
61.0724
 70
    64
  0
VERTEX
  5
37E0
  8
0
 10
52.5
 20
216.4519
 30
59.7724
 70
    64
  0
VERTEX
  5
37E1
  8
0
 10
90.0
 20
215.4519
 30
97.2724
 70
    64
  0
VERTEX
  5
37E2
  8
0
 10
88.7
 20
215.4519
 30
87.6724
 70
    64
  0
VERTEX
  5
37E3
  8
0
 10
85.0
 20
215.4519
 30
78.6724
 70
    64
  0
VERTEX
  5
37E4
  8
0
 10
79.0
 20
215.4519
 30
70.7724
 70
    64
  0
VERTEX
  5
37E5
  8
0
 10
71.1
 20
215.4519
 30
64.7724
 70
    64
  0
VERTEX
  5
37E6
  8
0
 10
62.1
 20
215.4519
 30
61.0724
 70
    64
  0
VERTEX
  5
37E7
  8
0
 10
52.5
 20
215.4519
 30
59.7724
 70
    64
  0
VERTEX
  5
37E8
  8
0
 10
89.0
 20
214.4519
 30
97.2724
 70
    64
  0
VERTEX
  5
37E9
  8
0
 10
87.6
 20
214.4519
 30
87.8724
 70
    64
  0
VERTEX
  5
37EA
  8
0
 10
84.1
 20
214.4519
 30
79.1724
 70
    64
  0
VERTEX
  5
37EB
  8
0
 10
78.2
 20
214.4519
 30
71.5724
 70
    64
  0
VERTEX
  5
37EC
  8
0
 10
70.6
 20
214.4519
 30
65.6724
 70
    64
  0
VERTEX
  5
37ED
  8
0
 10
61.9
 20
214.4519
 30
62.1724
 70
    64
  0
VERTEX
  5
37EE
  8
0
 10
52.5
 20
214.4519
 30
60.7724
 70
    64
  0
SEQEND
  5
37EF
  8
0
  0
POLYLINE
  5
37F0
  8
0
 66
     1
 10
0.0
 20
0.0
 30
0.0
 70
    16
 71
     5
 72
     7
  0
VERTEX
  5
37F1
  8
0
 10
52.5
 20
217.4519
 30
97.2724
 70
    64
  0
VERTEX
  5
37F2
  8
0
 10
52.5
 20
217.4519
 30
97.2724
 70
    64
  0
VERTEX
  5
37F3
  8
0
 10
52.5
 20
217.4519
 30
97.2724
 70
    64
  0
VERTEX
  5
37F4
  8
0
 10
52.5
 20
217.4519
 30
97.2724
 70
    64
  0
VERTEX
  5
37F5
  8
0
 10
52.5
 20
217.4519
 30
97.2724
 70
    64
  0
VERTEX
  5
37F6
  8
0
 10
52.5
 20
217.4519
 30
97.2724
 70
    64
  0
VERTEX
  5
37F7
  8
0
 10
52.5
 20
217.4519
 30
97.2724
 70
    64
  0
VERTEX
  5
37F8
  8
0
 10
89.0
 20
217.4519
 30
97.2724
 70
    64
  0
VERTEX
  5
37F9
  8
0
 10
87.6
 20
217.4519
 30
87.8724
 70
    64
  0
VERTEX
  5
37FA
  8
0
 10
84.1
 20
217.4519
 30
79.1724
 70
    64
  0
VERTEX
  5
37FB
  8
0
 10
78.2
 20
217.4519
 30
71.5724
 70
    64
  0
VERTEX
  5
37FC
  8
0
 10
70.6
 20
217.4519
 30
65.6724
 70
    64
  0
VERTEX
  5
37FD
  8
0
 10
61.9
 20
217.4519
 30
62.1724
 70
    64
  0
VERTEX
  5
37FE
  8
0
 10
52.5
 20
217.4519
 30
60.7724
 70
    64
  0
VERTEX
  5
37FF
  8
0
 10
90.0
 20
216.4519
 30
97.2724
 70
    64
  0
VERTEX
  5
3800
  8
0
 10
88.7
 20
216.4519
 30
87.6724
 70
    64
  0
VERTEX
  5
3801
  8
0
 10
85.0
 20
216.4519
 30
78.6724
 70
    64
  0
VERTEX
  5
3802
  8
0
 10
79.0
 20
216.4519
 30
70.7724
 70
    64
  0
VERTEX
  5
3803
  8
0
 10
71.1
 20
216.4519
 30
64.7724
 70
    64
  0
VERTEX
  5
3804
  8
0
 10
62.1
 20
216.4519
 30
61.0724
 70
    64
  0
VERTEX
  5
3805
  8
0
 10
52.5
 20
216.4519
 30
59.7724
 70
    64
  0
VERTEX
  5
3806
  8
0
 10
90.0
 20
215.4519
 30
97.2724
 70
    64
  0
VERTEX
  5
3807
  8
0
 10
88.7
 20
215.4519
 30
87.6724
 70
    64
  0
VERTEX
  5
3808
  8
0
 10
85.0
 20
215.4519
 30
78.6724
 70
    64
  0
VERTEX
  5
3809
  8
0
 10
79.0
 20
215.4519
 30
70.7724
 70
    64
  0
VERTEX
  5
380A
  8
0
 10
71.1
 20
215.4519
 30
64.7724
 70
    64
  0
VERTEX
  5
380B
  8
0
 10
62.1
 20
215.4519
 30
61.0724
 70
    64
  0
VERTEX
  5
380C
  8
0
 10
52.5
 20
215.4519
 30
59.7724
 70
    64
  0
VERTEX
  5
380D
  8
0
 10
89.0
 20
214.4519
 30
97.2724
 70
    64
  0
VERTEX
  5
380E
  8
0
 10
87.6
 20
214.4519
 30
87.8724
 70
    64
  0
VERTEX
  5
380F
  8
0
 10
84.1
 20
214.4519
 30
79.1724
 70
    64
  0
VERTEX
  5
3810
  8
0
 10
78.2
 20
214.4519
 30
71.5724
 70
    64
  0
VERTEX
  5
3811
  8
0
 10
70.6
 20
214.4519
 30
65.6724
 70
    64
  0
VERTEX
  5
3812
  8
0
 10
61.9
 20
214.4519
 30
62.1724
 70
    64
  0
VERTEX
  5
3813
  8
0
 10
52.5
 20
214.4519
 30
60.7724
 70
    64
  0
SEQEND
  5
3814
  8
0
  0
POLYLINE
  5
3815
  8
0
 66
     1
 10
0.0
 20
0.0
 30
0.0
 70
    16
 71
     5
 72
     7
  0
VERTEX
  5
3816
  8
0
 10
89.0
 20
214.4519
 30
97.2724
 70
    64
  0
VERTEX
  5
3817
  8
0
 10
87.6
 20
214.4519
 30
87.8724
 70
    64
  0
VERTEX
  5
3818
  8
0
 10
84.1
 20
214.4519
 30
79.1724
 70
    64
  0
VERTEX
  5
3819
  8
0
 10
78.2
 20
214.4519
 30
71.5724
 70
    64
  0
VERTEX
  5
381A
  8
0
 10
70.6
 20
214.4519
 30
65.6724
 70
    64
  0
VERTEX
  5
381B
  8
0
 10
61.9
 20
214.4519
 30
62.1724
 70
    64
  0
VERTEX
  5
381C
  8
0
 10
52.5
 20
214.4519
 30
60.7724
 70
    64
  0
VERTEX
  5
381D
  8
0
 10
90.0
 20
213.4519
 30
97.2724
 70
    64
  0
VERTEX
  5
381E
  8
0
 10
88.7
 20
213.4519
 30
87.6724
 70
    64
  0
VERTEX
  5
381F
  8
0
 10
85.0
 20
213.4519
 30
78.6724
 70
    64
  0
VERTEX
  5
3820
  8
0
 10
79.0
 20
213.4519
 30
70.7724
 70
    64
  0
VERTEX
  5
3821
  8
0
 10
71.1
 20
213.4519
 30
64.7724
 70
    64
  0
VERTEX
  5
3822
  8
0
 10
62.1
 20
213.4519
 30
61.0724
 70
    64
  0
VERTEX
  5
3823
  8
0
 10
52.5
 20
213.4519
 30
59.7724
 70
    64
  0
VERTEX
  5
3824
  8
0
 10
90.0
 20
212.4519
 30
97.2724
 70
    64
  0
VERTEX
  5
3825
  8
0
 10
88.7
 20
212.4519
 30
87.6724
 70
    64
  0
VERTEX
  5
3826
  8
0
 10
85.0
 20
212.4519
 30
78.6724
 70
    64
  0
VERTEX
  5
3827
  8
0
 10
79.0
 20
212.4519
 30
70.7724
 70
    64
  0
VERTEX
  5
3828
  8
0
 10
71.1
 20
212.4519
 30
64.7724
 70
    64
  0
VERTEX
  5
3829
  8
0
 10
62.1
 20
212.4519
 30
61.0724
 70
    64
  0
VERTEX
  5
382A
  8
0
 10
52.5
 20
212.4519
 30
59.7724
 70
    64
  0
VERTEX
  5
382B
  8
0
 10
89.0
 20
211.4519
 30
97.2724
 70
    64
  0
VERTEX
  5
382C
  8
0
 10
87.6
 20
211.4519
 30
87.8724
 70
    64
  0
VERTEX
  5
382D
  8
0
 10
84.1
 20
211.4519
 30
79.1724
 70
    64
  0
VERTEX
  5
382E
  8
0
 10
78.2
 20
211.4519
 30
71.5724
 70
    64
  0
VERTEX
  5
382F
  8
0
 10
70.6
 20
211.4519
 30
65.6724
 70
    64
  0
VERTEX
  5
3830
  8
0
 10
61.9
 20
211.4519
 30
62.1724
 70
    64
  0
VERTEX
  5
3831
  8
0
 10
52.5
 20
211.4519
 30
60.7724
 70
    64
  0
VERTEX
  5
3832
  8
0
 10
88.0
 20
211.4519
 30
97.2724
 70
    64
  0
VERTEX
  5
3833
  8
0
 10
86.7
 20
211.4519
 30
88.1724
 70
    64
  0
VERTEX
  5
3834
  8
0
 10
83.2
 20
211.4519
 30
79.6724
 70
    64
  0
VERTEX
  5
3835
  8
0
 10
77.5
 20
211.4519
 30
72.2724
 70
    64
  0
VERTEX
  5
3836
  8
0
 10
70.1
 20
211.4519
 30
66.5724
 70
    64
  0
VERTEX
  5
3837
  8
0
 10
61.6
 20
211.4519
 30
63.0724
 70
    64
  0
VERTEX
  5
3838
  8
0
 10
52.5
 20
211.4519
 30
61.7724
 70
    64
  0
SEQEND
  5
3839
  8
0
  0
POLYLINE
  5
383A
  8
0
 66
     1
 10
0.0
 20
0.0
 30
0.0
 70
    16
 71
     4
 72
     7
  0
VERTEX
  5
383B
  8
0
 10
59.5
 20
110.466328
 30
138.833289
 70
    64
  0
VERTEX
  5
383C
  8
0
 10
59.3
 20
108.907483
 30
139.733289
 70
    64
  0
VERTEX
  5
383D
  8
0
 10
58.6
 20
107.43524
 30
140.583289
 70
    64
  0
VERTEX
  5
383E
  8
0
 10
57.4
 20
106.222804
 30
141.283289
 70
    64
  0
VERTEX
  5
383F
  8
0
 10
56.0
 20
105.183573
 30
141.883289
 70
    64
  0
VERTEX
  5
3840
  8
0
 10
54.3
 20
104.577356
 30
142.233289
 70
    64
  0
VERTEX
  5
3841
  8
0
 10
52.5
 20
104.404151
 30
142.333289
 70
    64
  0
VERTEX
  5
3842
  8
0
 10
60.5
 20
110.966328
 30
139.699315
 70
    64
  0
VERTEX
  5
3843
  8
0
 10
60.2
 20
109.147675
 30
140.749315
 70
    64
  0
VERTEX
  5
3844
  8
0
 10
59.4
 20
107.502227
 30
141.699315
 70
    64
  0
VERTEX
  5
3845
  8
0
 10
58.2
 20
106.029984
 30
142.549315
 70
    64
  0
VERTEX
  5
3846
  8
0
 10
56.5
 20
104.990753
 30
143.149315
 70
    64
  0
VERTEX
  5
3847
  8
0
 10
54.6
 20
104.297933
 30
143.549315
 70
    64
  0
VERTEX
  5
3848
  8
0
 10
52.5
 20
104.038125
 30
143.699315
 70
    64
  0
VERTEX
  5
3849
  8
0
 10
60.5
 20
111.466328
 30
140.56534
 70
    64
  0
VERTEX
  5
384A
  8
0
 10
60.2
 20
109.647675
 30
141.61534
 70
    64
  0
VERTEX
  5
384B
  8
0
 10
59.4
 20
108.002227
 30
142.56534
 70
    64
  0
VERTEX
  5
384C
  8
0
 10
58.2
 20
106.529984
 30
143.41534
 70
    64
  0
VERTEX
  5
384D
  8
0
 10
56.5
 20
105.490753
 30
144.01534
 70
    64
  0
VERTEX
  5
384E
  8
0
 10
54.6
 20
104.797933
 30
144.41534
 70
    64
  0
VERTEX
  5
384F
  8
0
 10
52.5
 20
104.538125
 30
144.56534
 70
    64
  0
VERTEX
  5
3850
  8
0
 10
59.5
 20
111.966328
 30
141.431365
 70
    64
  0
VERTEX
  5
3851
  8
0
 10
59.3
 20
110.407483
 30
142.331365
 70
    64
  0
VERTEX
  5
3852
  8
0
 10
58.6
 20
108.93524
 30
143.181365
 70
    64
  0
VERTEX
  5
3853
  8
0
 10
57.4
 20
107.722804
 30
143.881365
 70
    64
  0
VERTEX
  5
3854
  8
0
 10
56.0
 20
106.683573
 30
144.481365
 70
    64
  0
VERTEX
  5
3855
  8
0
 10
54.3
 20
106.077356
 30
144.831365
 70
    64
  0
VERTEX
  5
3856
  8
0
 10
52.5
 20
105.904151
 30
144.931365
 70
    64
  0
SEQEND
  5
3857
  8
0
  0
POLYLINE
  5
3858
  8
0
 66
     1
 10
0.0
 20
0.0
 30
0.0
 70
    16
 71
     7
 72
     7
  0
VERTEX
  5
3859
  8
0
 10
74.5
 20
80.466328
 30
86.871765
 70
    64
  0
VERTEX
  5
385A
  8
0
 10
73.7
 20
75.529984
 30
89.721765
 70
    64
  0
VERTEX
  5
385B
  8
0
 10
71.6
 20
70.940049
 30
92.371765
 70
    64
  0
VERTEX
  5
385C
  8
0
 10
68.1
 20
66.956332
 30
94.671765
 70
    64
  0
VERTEX
  5
385D
  8
0
 10
63.5
 20
63.925243
 30
96.421765
 70
    64
  0
VERTEX
  5
385E
  8
0
 10
58.2
 20
62.10659
 30
97.471765
 70
    64
  0
VERTEX
  5
385F
  8
0
 10
52.5
 20
61.41377
 30
97.871765
 70
    64
  0
VERTEX
  5
3860
  8
0
 10
74.5
 20
98.966328
 30
118.914705
 70
    64
  0
VERTEX
  5
3861
  8
0
 10
73.7
 20
94.029984
 30
121.764705
 70
    64
  0
VERTEX
  5
3862
  8
0
 10
71.6
 20
89.440049
 30
124.414705
 70
    64
  0
VERTEX
  5
3863
  8
0
 10
68.1
 20
85.456332
 30
126.714705
 70
    64
  0
VERTEX
  5
3864
  8
0
 10
63.5
 20
82.425243
 30
128.464705
 70
    64
  0
VERTEX
  5
3865
  8
0
 10
58.2
 20
80.60659
 30
129.514705
 70
    64
  0
VERTEX
  5
3866
  8
0
 10
52.5
 20
79.91377
 30
129.914705
 70
    64
  0
VERTEX
  5
3867
  8
0
 10
73.5
 20
102.466328
 30
124.976883
 70
    64
  0
VERTEX
  5
3868
  8
0
 10
72.8
 20
97.789791
 30
127.676883
 70
    64
  0
VERTEX
  5
3869
  8
0
 10
70.7
 20
93.373062
 30
130.226883
 70
    64
  0
VERTEX
  5
386A
  8
0
 10
67.3
 20
89.649152
 30
132.376883
 70
    64
  0
VERTEX
  5
386B
  8
0
 10
63.0
 20
86.704666
 30
134.076883
 70
    64
  0
VERTEX
  5
386C
  8
0
 10
57.9
 20
84.886013
 30
135.126883
 70
    64
  0
VERTEX
  5
386D
  8
0
 10
52.5
 20
84.279795
 30
135.476883
 70
    64
  0
VERTEX
  5
386E
  8
0
 10
71.5
 20
105.216328
 30
129.740022
 70
    64
  0
VERTEX
  5
386F
  8
0
 10
70.8
 20
100.972804
 30
132.190022
 70
    64
  0
VERTEX
  5
3870
  8
0
 10
69.0
 20
96.989087
 30
134.490022
 70
    64
  0
VERTEX
  5
3871
  8
0
 10
65.9
 20
93.611588
 30
136.440022
 70
    64
  0
VERTEX
  5
3872
  8
0
 10
62.0
 20
90.926909
 30
137.990022
 70
    64
  0
VERTEX
  5
3873
  8
0
 10
57.4
 20
89.368064
 30
138.890022
 70
    64
  0
VERTEX
  5
3874
  8
0
 10
52.5
 20
88.761846
 30
139.240022
 70
    64
  0
VERTEX
  5
3875
  8
0
 10
68.0
 20
107.716328
 30
134.070149
 70
    64
  0
VERTEX
  5
3876
  8
0
 10
67.5
 20
104.252227
 30
136.070149
 70
    64
  0
VERTEX
  5
3877
  8
0
 10
65.9
 20
101.047933
 30
137.920149
 70
    64
  0
VERTEX
  5
3878
  8
0
 10
63.5
 20
98.190049
 30
139.570149
 70
    64
  0
VERTEX
  5
3879
  8
0
 10
60.2
 20
96.111588
 30
140.770149
 70
    64
  0
VERTEX
  5
387A
  8
0
 10
56.5
 20
94.725947
 30
141.570149
 70
    64
  0
VERTEX
  5
387B
  8
0
 10
52.5
 20
94.292935
 30
141.820149
 70
    64
  0
VERTEX
  5
387C
  8
0
 10
63.5
 20
109.716328
 30
137.534251
 70
    64
  0
VERTEX
  5
387D
  8
0
 10
63.1
 20
107.204855
 30
138.984251
 70
    64
  0
VERTEX
  5
387E
  8
0
 10
62.0
 20
104.953189
 30
140.284251
 70
    64
  0
VERTEX
  5
387F
  8
0
 10
60.3
 20
102.96133
 30
141.434251
 70
    64
  0
VERTEX
  5
3880
  8
0
 10
58.0
 20
101.489087
 30
142.284251
 70
    64
  0
VERTEX
  5
3881
  8
0
 10
55.4
 20
100.536459
 30
142.834251
 70
    64
  0
VERTEX
  5
3882
  8
0
 10
52.5
 20
100.190049
 30
143.034251
 70
    64
  0
VERTEX
  5
3883
  8
0
 10
59.5
 20
110.466328
 30
138.833289
 70
    64
  0
VERTEX
  5
3884
  8
0
 10
59.3
 20
108.907483
 30
139.733289
 70
    64
  0
VERTEX
  5
3885
  8
0
 10
58.6
 20
107.43524
 30
140.583289
 70
    64
  0
VERTEX
  5
3886
  8
0
 10
57.4
 20
106.222804
 30
141.283289
 70
    64
  0
VERTEX
  5
3887
  8
0
 10
56.0
 20
105.183573
 30
141.883289
 70
    64
  0
VERTEX
  5
3888
  8
0
 10
54.3
 20
104.577356
 30
142.233289
 70
    64
  0
VERTEX
  5
3889
  8
0
 10
52.5
 20
104.404151
 30
142.333289
 70
    64
  0
SEQEND
  5
388A
  8
0
  0
POLYLINE
  5
388B
  8
0
 66
     1
 10
0.0
 20
0.0
 30
0.0
 70
    16
 71
     7
 72
     7
  0
VERTEX
  5
388C
  8
0
 10
74.5
 20
80.466328
 30
86.871765
 70
    64
  0
VERTEX
  5
388D
  8
0
 10
73.7
 20
85.402673
 30
84.021765
 70
    64
  0
VERTEX
  5
388E
  8
0
 10
71.6
 20
89.992608
 30
81.371765
 70
    64
  0
VERTEX
  5
388F
  8
0
 10
68.1
 20
93.976325
 30
79.071765
 70
    64
  0
VERTEX
  5
3890
  8
0
 10
63.5
 20
97.007414
 30
77.321765
 70
    64
  0
VERTEX
  5
3891
  8
0
 10
58.2
 20
98.826067
 30
76.271765
 70
    64
  0
VERTEX
  5
3892
  8
0
 10
52.5
 20
99.518887
 30
75.871765
 70
    64
  0
VERTEX
  5
3893
  8
0
 10
74.5
 20
98.966328
 30
118.914705
 70
    64
  0
VERTEX
  5
3894
  8
0
 10
73.7
 20
103.902673
 30
116.064705
 70
    64
  0
VERTEX
  5
3895
  8
0
 10
71.6
 20
108.492608
 30
113.414705
 70
    64
  0
VERTEX
  5
3896
  8
0
 10
68.1
 20
112.476325
 30
111.114705
 70
    64
  0
VERTEX
  5
3897
  8
0
 10
63.5
 20
115.507414
 30
109.364705
 70
    64
  0
VERTEX
  5
3898
  8
0
 10
58.2
 20
117.326067
 30
108.314705
 70
    64
  0
VERTEX
  5
3899
  8
0
 10
52.5
 20
118.018887
 30
107.914705
 70
    64
  0
VERTEX
  5
389A
  8
0
 10
73.5
 20
102.466328
 30
124.976883
 70
    64
  0
VERTEX
  5
389B
  8
0
 10
72.8
 20
107.142866
 30
122.276883
 70
    64
  0
VERTEX
  5
389C
  8
0
 10
70.7
 20
111.559595
 30
119.726883
 70
    64
  0
VERTEX
  5
389D
  8
0
 10
67.3
 20
115.283504
 30
117.576883
 70
    64
  0
VERTEX
  5
389E
  8
0
 10
63.0
 20
118.227991
 30
115.876883
 70
    64
  0
VERTEX
  5
389F
  8
0
 10
57.9
 20
120.046644
 30
114.826883
 70
    64
  0
VERTEX
  5
38A0
  8
0
 10
52.5
 20
120.652862
 30
114.476883
 70
    64
  0
VERTEX
  5
38A1
  8
0
 10
71.5
 20
105.216328
 30
129.740022
 70
    64
  0
VERTEX
  5
38A2
  8
0
 10
70.8
 20
109.459853
 30
127.290022
 70
    64
  0
VERTEX
  5
38A3
  8
0
 10
69.0
 20
113.44357
 30
124.990022
 70
    64
  0
VERTEX
  5
38A4
  8
0
 10
65.9
 20
116.821069
 30
123.040022
 70
    64
  0
VERTEX
  5
38A5
  8
0
 10
62.0
 20
119.505748
 30
121.490022
 70
    64
  0
VERTEX
  5
38A6
  8
0
 10
57.4
 20
121.064593
 30
120.590022
 70
    64
  0
VERTEX
  5
38A7
  8
0
 10
52.5
 20
121.670811
 30
120.240022
 70
    64
  0
VERTEX
  5
38A8
  8
0
 10
68.0
 20
107.716328
 30
134.070149
 70
    64
  0
VERTEX
  5
38A9
  8
0
 10
67.5
 20
111.18043
 30
132.070149
 70
    64
  0
VERTEX
  5
38AA
  8
0
 10
65.9
 20
114.384724
 30
130.220149
 70
    64
  0
VERTEX
  5
38AB
  8
0
 10
63.5
 20
117.242608
 30
128.570149
 70
    64
  0
VERTEX
  5
38AC
  8
0
 10
60.2
 20
119.321069
 30
127.370149
 70
    64
  0
VERTEX
  5
38AD
  8
0
 10
56.5
 20
120.706709
 30
126.570149
 70
    64
  0
VERTEX
  5
38AE
  8
0
 10
52.5
 20
121.139722
 30
126.320149
 70
    64
  0
VERTEX
  5
38AF
  8
0
 10
63.5
 20
109.716328
 30
137.534251
 70
    64
  0
VERTEX
  5
38B0
  8
0
 10
63.1
 20
112.227802
 30
136.084251
 70
    64
  0
VERTEX
  5
38B1
  8
0
 10
62.0
 20
114.479468
 30
134.784251
 70
    64
  0
VERTEX
  5
38B2
  8
0
 10
60.3
 20
116.471327
 30
133.634251
 70
    64
  0
VERTEX
  5
38B3
  8
0
 10
58.0
 20
117.94357
 30
132.784251
 70
    64
  0
VERTEX
  5
38B4
  8
0
 10
55.4
 20
118.896198
 30
132.234251
 70
    64
  0
VERTEX
  5
38B5
  8
0
 10
52.5
 20
119.242608
 30
132.034251
 70
    64
  0
VERTEX
  5
38B6
  8
0
 10
59.5
 20
110.466328
 30
138.833289
 70
    64
  0
VERTEX
  5
38B7
  8
0
 10
59.3
 20
112.025174
 30
137.933289
 70
    64
  0
VERTEX
  5
38B8
  8
0
 10
58.6
 20
113.497417
 30
137.083289
 70
    64
  0
VERTEX
  5
38B9
  8
0
 10
57.4
 20
114.709853
 30
136.383289
 70
    64
  0
VERTEX
  5
38BA
  8
0
 10
56.0
 20
115.749083
 30
135.783289
 70
    64
  0
VERTEX
  5
38BB
  8
0
 10
54.3
 20
116.355301
 30
135.433289
 70
    64
  0
VERTEX
  5
38BC
  8
0
 10
52.5
 20
116.528506
 30
135.333289
 70
    64
  0
SEQEND
  5
38BD
  8
0
  0
POLYLINE
  5
38BE
  8
0
 66
     1
 10
0.0
 20
0.0
 30
0.0
 70
    16
 71
     5
 72
     7
  0
VERTEX
  5
38BF
  8
0
 10
59.5
 20
111.966328
 30
141.431365
 70
    64
  0
VERTEX
  5
38C0
  8
0
 10
59.3
 20
110.407483
 30
142.331365
 70
    64
  0
VERTEX
  5
38C1
  8
0
 10
58.6
 20
108.93524
 30
143.181365
 70
    64
  0
VERTEX
  5
38C2
  8
0
 10
57.4
 20
107.722804
 30
143.881365
 70
    64
  0
VERTEX
  5
38C3
  8
0
 10
56.0
 20
106.683573
 30
144.481365
 70
    64
  0
VERTEX
  5
38C4
  8
0
 10
54.3
 20
106.077356
 30
144.831365
 70
    64
  0
VERTEX
  5
38C5
  8
0
 10
52.5
 20
105.904151
 30
144.931365
 70
    64
  0
VERTEX
  5
38C6
  8
0
 10
61.5
 20
140.966328
 30
191.660839
 70
    64
  0
VERTEX
  5
38C7
  8
0
 10
61.2
 20
138.97447
 30
192.810839
 70
    64
  0
VERTEX
  5
38C8
  8
0
 10
60.3
 20
137.069214
 30
193.910839
 70
    64
  0
VERTEX
  5
38C9
  8
0
 10
58.9
 20
135.423766
 30
194.860839
 70
    64
  0
VERTEX
  5
38CA
  8
0
 10
57.0
 20
134.21133
 30
195.560839
 70
    64
  0
VERTEX
  5
38CB
  8
0
 10
54.8
 20
133.431907
 30
196.010839
 70
    64
  0
VERTEX
  5
38CC
  8
0
 10
52.5
 20
133.1721
 30
196.160839
 70
    64
  0
VERTEX
  5
38CD
  8
0
 10
60.5
 20
142.966328
 30
195.12494
 70
    64
  0
VERTEX
  5
38CE
  8
0
 10
60.2
 20
141.147675
 30
196.17494
 70
    64
  0
VERTEX
  5
38CF
  8
0
 10
59.4
 20
139.502227
 30
197.12494
 70
    64
  0
VERTEX
  5
38D0
  8
0
 10
58.2
 20
138.029984
 30
197.97494
 70
    64
  0
VERTEX
  5
38D1
  8
0
 10
56.5
 20
136.990753
 30
198.57494
 70
    64
  0
VERTEX
  5
38D2
  8
0
 10
54.6
 20
136.297933
 30
198.97494
 70
    64
  0
VERTEX
  5
38D3
  8
0
 10
52.5
 20
136.038125
 30
199.12494
 70
    64
  0
VERTEX
  5
38D4
  8
0
 10
57.0
 20
144.966328
 30
198.589042
 70
    64
  0
VERTEX
  5
38D5
  8
0
 10
56.8
 20
143.927098
 30
199.189042
 70
    64
  0
VERTEX
  5
38D6
  8
0
 10
56.4
 20
143.061073
 30
199.689042
 70
    64
  0
VERTEX
  5
38D7
  8
0
 10
55.7
 20
142.195047
 30
200.189042
 70
    64
  0
VERTEX
  5
38D8
  8
0
 10
54.7
 20
141.588829
 30
200.539042
 70
    64
  0
VERTEX
  5
38D9
  8
0
 10
53.7
 20
141.242419
 30
200.739042
 70
    64
  0
VERTEX
  5
38DA
  8
0
 10
52.5
 20
141.069214
 30
200.839042
 70
    64
  0
VERTEX
  5
38DB
  8
0
 10
52.5
 20
145.466328
 30
199.455067
 70
    64
  0
VERTEX
  5
38DC
  8
0
 10
52.5
 20
145.466328
 30
199.455067
 70
    64
  0
VERTEX
  5
38DD
  8
0
 10
52.5
 20
145.466328
 30
199.455067
 70
    64
  0
VERTEX
  5
38DE
  8
0
 10
52.5
 20
145.466328
 30
199.455067
 70
    64
  0
VERTEX
  5
38DF
  8
0
 10
52.5
 20
145.466328
 30
199.455067
 70
    64
  0
VERTEX
  5
38E0
  8
0
 10
52.5
 20
145.466328
 30
199.455067
 70
    64
  0
VERTEX
  5
38E1
  8
0
 10
52.5
 20
145.466328
 30
199.455067
 70
    64
  0
SEQEND
  5
38E2
  8
0
  0
POLYLINE
  5
38E3
  8
0
 66
     1
 10
0.0
 20
0.0
 30
0.0
 70
    16
 71
     4
 72
     7
  0
VERTEX
  5
38E4
  8
0
 10
76.5
 20
77.100303
 30
83.041638
 70
    64
  0
VERTEX
  5
38E5
  8
0
 10
75.7
 20
72.596971
 30
85.641638
 70
    64
  0
VERTEX
  5
38E6
  8
0
 10
73.3
 20
67.574024
 30
88.541638
 70
    64
  0
VERTEX
  5
38E7
  8
0
 10
69.5
 20
63.243897
 30
91.041638
 70
    64
  0
VERTEX
  5
38E8
  8
0
 10
64.5
 20
59.953
 30
92.941638
 70
    64
  0
VERTEX
  5
38E9
  8
0
 10
58.7
 20
57.874539
 30
94.141638
 70
    64
  0
VERTEX
  5
38EA
  8
0
 10
52.5
 20
57.181719
 30
94.541638
 70
    64
  0
VERTEX
  5
38EB
  8
0
 10
77.5
 20
77.966328
 30
82.541638
 70
    64
  0
VERTEX
  5
38EC
  8
0
 10
76.6
 20
72.337163
 30
85.791638
 70
    64
  0
VERTEX
  5
38ED
  8
0
 10
74.2
 20
67.141011
 30
88.791638
 70
    64
  0
VERTEX
  5
38EE
  8
0
 10
70.2
 20
62.637679
 30
91.391638
 70
    64
  0
VERTEX
  5
38EF
  8
0
 10
65.0
 20
59.173577
 30
93.391638
 70
    64
  0
VERTEX
  5
38F0
  8
0
 10
59.0
 20
57.095116
 30
94.591638
 70
    64
  0
VERTEX
  5
38F1
  8
0
 10
52.5
 20
56.315693
 30
95.041638
 70
    64
  0
VERTEX
  5
38F2
  8
0
 10
76.5
 20
79.216328
 30
84.706701
 70
    64
  0
VERTEX
  5
38F3
  8
0
 10
75.7
 20
73.846971
 30
87.806701
 70
    64
  0
VERTEX
  5
38F4
  8
0
 10
73.3
 20
68.824024
 30
90.706701
 70
    64
  0
VERTEX
  5
38F5
  8
0
 10
69.5
 20
64.493897
 30
93.206701
 70
    64
  0
VERTEX
  5
38F6
  8
0
 10
64.5
 20
61.203
 30
95.106701
 70
    64
  0
VERTEX
  5
38F7
  8
0
 10
58.7
 20
59.124539
 30
96.306701
 70
    64
  0
VERTEX
  5
38F8
  8
0
 10
52.5
 20
58.431719
 30
96.706701
 70
    64
  0
VERTEX
  5
38F9
  8
0
 10
74.5
 20
80.466328
 30
86.871765
 70
    64
  0
VERTEX
  5
38FA
  8
0
 10
73.7
 20
75.529984
 30
89.721765
 70
    64
  0
VERTEX
  5
38FB
  8
0
 10
71.6
 20
70.940049
 30
92.371765
 70
    64
  0
VERTEX
  5
38FC
  8
0
 10
68.1
 20
66.956332
 30
94.671765
 70
    64
  0
VERTEX
  5
38FD
  8
0
 10
63.5
 20
63.925243
 30
96.421765
 70
    64
  0
VERTEX
  5
38FE
  8
0
 10
58.2
 20
62.10659
 30
97.471765
 70
    64
  0
VERTEX
  5
38FF
  8
0
 10
52.5
 20
61.41377
 30
97.871765
 70
    64
  0
SEQEND
  5
3900
  8
0
  0
POLYLINE
  5
3901
  8
0
 66
     1
 10
0.0
 20
0.0
 30
0.0
 70
    16
 71
     4
 72
     7
  0
VERTEX
  5
3902
  8
0
 10
76.5
 20
78.832354
 30
82.041638
 70
    64
  0
VERTEX
  5
3903
  8
0
 10
75.7
 20
83.335686
 30
79.441638
 70
    64
  0
VERTEX
  5
3904
  8
0
 10
73.3
 20
88.358633
 30
76.541638
 70
    64
  0
VERTEX
  5
3905
  8
0
 10
69.5
 20
92.68876
 30
74.041638
 70
    64
  0
VERTEX
  5
3906
  8
0
 10
64.5
 20
95.979657
 30
72.141638
 70
    64
  0
VERTEX
  5
3907
  8
0
 10
58.7
 20
98.058118
 30
70.941638
 70
    64
  0
VERTEX
  5
3908
  8
0
 10
52.5
 20
98.750938
 30
70.541638
 70
    64
  0
VERTEX
  5
3909
  8
0
 10
77.5
 20
77.966328
 30
82.541638
 70
    64
  0
VERTEX
  5
390A
  8
0
 10
76.6
 20
83.595494
 30
79.291638
 70
    64
  0
VERTEX
  5
390B
  8
0
 10
74.2
 20
88.791646
 30
76.291638
 70
    64
  0
VERTEX
  5
390C
  8
0
 10
70.2
 20
93.294978
 30
73.691638
 70
    64
  0
VERTEX
  5
390D
  8
0
 10
65.0
 20
96.75908
 30
71.691638
 70
    64
  0
VERTEX
  5
390E
  8
0
 10
59.0
 20
98.837541
 30
70.491638
 70
    64
  0
VERTEX
  5
390F
  8
0
 10
52.5
 20
99.616964
 30
70.041638
 70
    64
  0
VERTEX
  5
3910
  8
0
 10
76.5
 20
79.216328
 30
84.706701
 70
    64
  0
VERTEX
  5
3911
  8
0
 10
75.7
 20
84.585686
 30
81.606701
 70
    64
  0
VERTEX
  5
3912
  8
0
 10
73.3
 20
89.608633
 30
78.706701
 70
    64
  0
VERTEX
  5
3913
  8
0
 10
69.5
 20
93.93876
 30
76.206701
 70
    64
  0
VERTEX
  5
3914
  8
0
 10
64.5
 20
97.229657
 30
74.306701
 70
    64
  0
VERTEX
  5
3915
  8
0
 10
58.7
 20
99.308118
 30
73.106701
 70
    64
  0
VERTEX
  5
3916
  8
0
 10
52.5
 20
100.000938
 30
72.706701
 70
    64
  0
VERTEX
  5
3917
  8
0
 10
74.5
 20
80.466328
 30
86.871765
 70
    64
  0
VERTEX
  5
3918
  8
0
 10
73.7
 20
85.402673
 30
84.021765
 70
    64
  0
VERTEX
  5
3919
  8
0
 10
71.6
 20
89.992608
 30
81.371765
 70
    64
  0
VERTEX
  5
391A
  8
0
 10
68.1
 20
93.976325
 30
79.071765
 70
    64
  0
VERTEX
  5
391B
  8
0
 10
63.5
 20
97.007414
 30
77.321765
 70
    64
  0
VERTEX
  5
391C
  8
0
 10
58.2
 20
98.826067
 30
76.271765
 70
    64
  0
VERTEX
  5
391D
  8
0
 10
52.5
 20
99.518887
 30
75.871765
 70
    64
  0
SEQEND
  5
391E
  8
0
  0
POLYLINE
  5
391F
  8
0
 66
     1
 10
0.0
 20
0.0
 30
0.0
 70
    16
 71
     5
 72
     7
  0
VERTEX
  5
3920
  8
0
 10
59.5
 20
183.4519
 30
97.2724
 70
    64
  0
VERTEX
  5
3921
  8
0
 10
59.3
 20
183.4519
 30
99.0724
 70
    64
  0
VERTEX
  5
3922
  8
0
 10
58.6
 20
183.4519
 30
100.7724
 70
    64
  0
VERTEX
  5
3923
  8
0
 10
57.4
 20
183.4519
 30
102.1724
 70
    64
  0
VERTEX
  5
3924
  8
0
 10
56.0
 20
183.4519
 30
103.3724
 70
    64
  0
VERTEX
  5
3925
  8
0
 10
54.3
 20
183.4519
 30
104.0724
 70
    64
  0
VERTEX
  5
3926
  8
0
 10
52.5
 20
183.4519
 30
104.2724
 70
    64
  0
VERTEX
  5
3927
  8
0
 10
59.5
 20
163.4519
 30
97.2724
 70
    64
  0
VERTEX
  5
3928
  8
0
 10
59.3
 20
163.4519
 30
99.0724
 70
    64
  0
VERTEX
  5
3929
  8
0
 10
58.6
 20
163.4519
 30
100.7724
 70
    64
  0
VERTEX
  5
392A
  8
0
 10
57.4
 20
163.4519
 30
102.1724
 70
    64
  0
VERTEX
  5
392B
  8
0
 10
56.0
 20
163.4519
 30
103.3724
 70
    64
  0
VERTEX
  5
392C
  8
0
 10
54.3
 20
163.4519
 30
104.0724
 70
    64
  0
VERTEX
  5
392D
  8
0
 10
52.5
 20
163.4519
 30
104.2724
 70
    64
  0
VERTEX
  5
392E
  8
0
 10
58.5
 20
162.9519
 30
97.2724
 70
    64
  0
VERTEX
  5
392F
  8
0
 10
58.3
 20
162.9519
 30
98.8724
 70
    64
  0
VERTEX
  5
3930
  8
0
 10
57.7
 20
162.9519
 30
100.2724
 70
    64
  0
VERTEX
  5
3931
  8
0
 10
56.7
 20
162.9519
 30
101.4724
 70
    64
  0
VERTEX
  5
3932
  8
0
 10
55.5
 20
162.9519
 30
102.4724
 70
    64
  0
VERTEX
  5
3933
  8
0
 10
54.1
 20
162.9519
 30
103.0724
 70
    64
  0
VERTEX
  5
3934
  8
0
 10
52.5
 20
162.9519
 30
103.2724
 70
    64
  0
VERTEX
  5
3935
  8
0
 10
59.5
 20
162.4519
 30
97.2724
 70
    64
  0
VERTEX
  5
3936
  8
0
 10
59.3
 20
162.4519
 30
99.0724
 70
    64
  0
VERTEX
  5
3937
  8
0
 10
58.6
 20
162.4519
 30
100.7724
 70
    64
  0
VERTEX
  5
3938
  8
0
 10
57.4
 20
162.4519
 30
102.1724
 70
    64
  0
VERTEX
  5
3939
  8
0
 10
56.0
 20
162.4519
 30
103.3724
 70
    64
  0
VERTEX
  5
393A
  8
0
 10
54.3
 20
162.4519
 30
104.0724
 70
    64
  0
VERTEX
  5
393B
  8
0
 10
52.5
 20
162.4519
 30
104.2724
 70
    64
  0
VERTEX
  5
393C
  8
0
 10
59.5
 20
112.4519
 30
97.2724
 70
    64
  0
VERTEX
  5
393D
  8
0
 10
59.3
 20
112.4519
 30
99.0724
 70
    64
  0
VERTEX
  5
393E
  8
0
 10
58.6
 20
112.4519
 30
100.7724
 70
    64
  0
VERTEX
  5
393F
  8
0
 10
57.4
 20
112.4519
 30
102.1724
 70
    64
  0
VERTEX
  5
3940
  8
0
 10
56.0
 20
112.4519
 30
103.3724
 70
    64
  0
VERTEX
  5
3941
  8
0
 10
54.3
 20
112.4519
 30
104.0724
 70
    64
  0
VERTEX
  5
3942
  8
0
 10
52.5
 20
112.4519
 30
104.2724
 70
    64
  0
SEQEND
  5
3943
  8
0
  0
POLYLINE
  5
3944
  8
0
 66
     1
 10
0.0
 20
0.0
 30
0.0
 70
    16
 71
     5
 72
     7
  0
VERTEX
  5
3945
  8
0
 10
59.5
 20
183.4519
 30
97.2724
 70
    64
  0
VERTEX
  5
3946
  8
0
 10
59.3
 20
183.4519
 30
95.4724
 70
    64
  0
VERTEX
  5
3947
  8
0
 10
58.6
 20
183.4519
 30
93.7724
 70
    64
  0
VERTEX
  5
3948
  8
0
 10
57.4
 20
183.4519
 30
92.3724
 70
    64
  0
VERTEX
  5
3949
  8
0
 10
56.0
 20
183.4519
 30
91.1724
 70
    64
  0
VERTEX
  5
394A
  8
0
 10
54.3
 20
183.4519
 30
90.4724
 70
    64
  0
VERTEX
  5
394B
  8
0
 10
52.5
 20
183.4519
 30
90.2724
 70
    64
  0
VERTEX
  5
394C
  8
0
 10
59.5
 20
163.4519
 30
97.2724
 70
    64
  0
VERTEX
  5
394D
  8
0
 10
59.3
 20
163.4519
 30
95.4724
 70
    64
  0
VERTEX
  5
394E
  8
0
 10
58.6
 20
163.4519
 30
93.7724
 70
    64
  0
VERTEX
  5
394F
  8
0
 10
57.4
 20
163.4519
 30
92.3724
 70
    64
  0
VERTEX
  5
3950
  8
0
 10
56.0
 20
163.4519
 30
91.1724
 70
    64
  0
VERTEX
  5
3951
  8
0
 10
54.3
 20
163.4519
 30
90.4724
 70
    64
  0
VERTEX
  5
3952
  8
0
 10
52.5
 20
163.4519
 30
90.2724
 70
    64
  0
VERTEX
  5
3953
  8
0
 10
58.5
 20
162.9519
 30
97.2724
 70
    64
  0
VERTEX
  5
3954
  8
0
 10
58.3
 20
162.9519
 30
95.6724
 70
    64
  0
VERTEX
  5
3955
  8
0
 10
57.7
 20
162.9519
 30
94.2724
 70
    64
  0
VERTEX
  5
3956
  8
0
 10
56.7
 20
162.9519
 30
93.0724
 70
    64
  0
VERTEX
  5
3957
  8
0
 10
55.5
 20
162.9519
 30
92.0724
 70
    64
  0
VERTEX
  5
3958
  8
0
 10
54.1
 20
162.9519
 30
91.4724
 70
    64
  0
VERTEX
  5
3959
  8
0
 10
52.5
 20
162.9519
 30
91.2724
 70
    64
  0
VERTEX
  5
395A
  8
0
 10
59.5
 20
162.4519
 30
97.2724
 70
    64
  0
VERTEX
  5
395B
  8
0
 10
59.3
 20
162.4519
 30
95.4724
 70
    64
  0
VERTEX
  5
395C
  8
0
 10
58.6
 20
162.4519
 30
93.7724
 70
    64
  0
VERTEX
  5
395D
  8
0
 10
57.4
 20
162.4519
 30
92.3724
 70
    64
  0
VERTEX
  5
395E
  8
0
 10
56.0
 20
162.4519
 30
91.1724
 70
    64
  0
VERTEX
  5
395F
  8
0
 10
54.3
 20
162.4519
 30
90.4724
 70
    64
  0
VERTEX
  5
3960
  8
0
 10
52.5
 20
162.4519
 30
90.2724
 70
    64
  0
VERTEX
  5
3961
  8
0
 10
59.5
 20
112.4519
 30
97.2724
 70
    64
  0
VERTEX
  5
3962
  8
0
 10
59.3
 20
112.4519
 30
95.4724
 70
    64
  0
VERTEX
  5
3963
  8
0
 10
58.6
 20
112.4519
 30
93.7724
 70
    64
  0
VERTEX
  5
3964
  8
0
 10
57.4
 20
112.4519
 30
92.3724
 70
    64
  0
VERTEX
  5
3965
  8
0
 10
56.0
 20
112.4519
 30
91.1724
 70
    64
  0
VERTEX
  5
3966
  8
0
 10
54.3
 20
112.4519
 30
90.4724
 70
    64
  0
VERTEX
  5
3967
  8
0
 10
52.5
 20
112.4519
 30
90.2724
 70
    64
  0
SEQEND
  5
3968
  8
0
  0
POLYLINE
  5
3969
  8
0
 66
     1
 10
0.0
 20
0.0
 30
0.0
 70
    16
 71
     5
 72
     7
  0
VERTEX
  5
396A
  8
0
 10
59.5
 20
111.966328
 30
141.431365
 70
    64
  0
VERTEX
  5
396B
  8
0
 10
59.3
 20
113.525174
 30
140.531365
 70
    64
  0
VERTEX
  5
396C
  8
0
 10
58.6
 20
114.997417
 30
139.681365
 70
    64
  0
VERTEX
  5
396D
  8
0
 10
57.4
 20
116.209853
 30
138.981365
 70
    64
  0
VERTEX
  5
396E
  8
0
 10
56.0
 20
117.249083
 30
138.381365
 70
    64
  0
VERTEX
  5
396F
  8
0
 10
54.3
 20
117.855301
 30
138.031365
 70
    64
  0
VERTEX
  5
3970
  8
0
 10
52.5
 20
118.028506
 30
137.931365
 70
    64
  0
VERTEX
  5
3971
  8
0
 10
61.5
 20
140.966328
 30
191.660839
 70
    64
  0
VERTEX
  5
3972
  8
0
 10
61.2
 20
142.958187
 30
190.510839
 70
    64
  0
VERTEX
  5
3973
  8
0
 10
60.3
 20
144.863443
 30
189.410839
 70
    64
  0
VERTEX
  5
3974
  8
0
 10
58.9
 20
146.508891
 30
188.460839
 70
    64
  0
VERTEX
  5
3975
  8
0
 10
57.0
 20
147.721327
 30
187.760839
 70
    64
  0
VERTEX
  5
3976
  8
0
 10
54.8
 20
148.500749
 30
187.310839
 70
    64
  0
VERTEX
  5
3977
  8
0
 10
52.5
 20
148.760557
 30
187.160839
 70
    64
  0
VERTEX
  5
3978
  8
0
 10
60.5
 20
142.966328
 30
195.12494
 70
    64
  0
VERTEX
  5
3979
  8
0
 10
60.2
 20
144.784982
 30
194.07494
 70
    64
  0
VERTEX
  5
397A
  8
0
 10
59.4
 20
146.43043
 30
193.12494
 70
    64
  0
VERTEX
  5
397B
  8
0
 10
58.2
 20
147.902673
 30
192.27494
 70
    64
  0
VERTEX
  5
397C
  8
0
 10
56.5
 20
148.941904
 30
191.67494
 70
    64
  0
VERTEX
  5
397D
  8
0
 10
54.6
 20
149.634724
 30
191.27494
 70
    64
  0
VERTEX
  5
397E
  8
0
 10
52.5
 20
149.894532
 30
191.12494
 70
    64
  0
VERTEX
  5
397F
  8
0
 10
57.0
 20
144.966328
 30
198.589042
 70
    64
  0
VERTEX
  5
3980
  8
0
 10
56.8
 20
146.005559
 30
197.989042
 70
    64
  0
VERTEX
  5
3981
  8
0
 10
56.4
 20
146.871584
 30
197.489042
 70
    64
  0
VERTEX
  5
3982
  8
0
 10
55.7
 20
147.73761
 30
196.989042
 70
    64
  0
VERTEX
  5
3983
  8
0
 10
54.7
 20
148.343827
 30
196.639042
 70
    64
  0
VERTEX
  5
3984
  8
0
 10
53.7
 20
148.690238
 30
196.439042
 70
    64
  0
VERTEX
  5
3985
  8
0
 10
52.5
 20
148.863443
 30
196.339042
 70
    64
  0
VERTEX
  5
3986
  8
0
 10
52.5
 20
145.466328
 30
199.455067
 70
    64
  0
VERTEX
  5
3987
  8
0
 10
52.5
 20
145.466328
 30
199.455067
 70
    64
  0
VERTEX
  5
3988
  8
0
 10
52.5
 20
145.466328
 30
199.455067
 70
    64
  0
VERTEX
  5
3989
  8
0
 10
52.5
 20
145.466328
 30
199.455067
 70
    64
  0
VERTEX
  5
398A
  8
0
 10
52.5
 20
145.466328
 30
199.455067
 70
    64
  0
VERTEX
  5
398B
  8
0
 10
52.5
 20
145.466328
 30
199.455067
 70
    64
  0
VERTEX
  5
398C
  8
0
 10
52.5
 20
145.466328
 30
199.455067
 70
    64
  0
SEQEND
  5
398D
  8
0
  0
POLYLINE
  5
398E
  8
0
 66
     1
 10
0.0
 20
0.0
 30
0.0
 70
    16
 71
     4
 72
     7
  0
VERTEX
  5
398F
  8
0
 10
59.5
 20
110.466328
 30
138.833289
 70
    64
  0
VERTEX
  5
3990
  8
0
 10
59.3
 20
112.025174
 30
137.933289
 70
    64
  0
VERTEX
  5
3991
  8
0
 10
58.6
 20
113.497417
 30
137.083289
 70
    64
  0
VERTEX
  5
3992
  8
0
 10
57.4
 20
114.709853
 30
136.383289
 70
    64
  0
VERTEX
  5
3993
  8
0
 10
56.0
 20
115.749083
 30
135.783289
 70
    64
  0
VERTEX
  5
3994
  8
0
 10
54.3
 20
116.355301
 30
135.433289
 70
    64
  0
VERTEX
  5
3995
  8
0
 10
52.5
 20
116.528506
 30
135.333289
 70
    64
  0
VERTEX
  5
3996
  8
0
 10
60.5
 20
110.966328
 30
139.699315
 70
    64
  0
VERTEX
  5
3997
  8
0
 10
60.2
 20
112.784982
 30
138.649315
 70
    64
  0
VERTEX
  5
3998
  8
0
 10
59.4
 20
114.43043
 30
137.699315
 70
    64
  0
VERTEX
  5
3999
  8
0
 10
58.2
 20
115.902673
 30
136.849315
 70
    64
  0
VERTEX
  5
399A
  8
0
 10
56.5
 20
116.941904
 30
136.249315
 70
    64
  0
VERTEX
  5
399B
  8
0
 10
54.6
 20
117.634724
 30
135.849315
 70
    64
  0
VERTEX
  5
399C
  8
0
 10
52.5
 20
117.894532
 30
135.699315
 70
    64
  0
VERTEX
  5
399D
  8
0
 10
60.5
 20
111.466328
 30
140.56534
 70
    64
  0
VERTEX
  5
399E
  8
0
 10
60.2
 20
113.284982
 30
139.51534
 70
    64
  0
VERTEX
  5
399F
  8
0
 10
59.4
 20
114.93043
 30
138.56534
 70
    64
  0
VERTEX
  5
39A0
  8
0
 10
58.2
 20
116.402673
 30
137.71534
 70
    64
  0
VERTEX
  5
39A1
  8
0
 10
56.5
 20
117.441904
 30
137.11534
 70
    64
  0
VERTEX
  5
39A2
  8
0
 10
54.6
 20
118.134724
 30
136.71534
 70
    64
  0
VERTEX
  5
39A3
  8
0
 10
52.5
 20
118.394532
 30
136.56534
 70
    64
  0
VERTEX
  5
39A4
  8
0
 10
59.5
 20
111.966328
 30
141.431365
 70
    64
  0
VERTEX
  5
39A5
  8
0
 10
59.3
 20
113.525174
 30
140.531365
 70
    64
  0
VERTEX
  5
39A6
  8
0
 10
58.6
 20
114.997417
 30
139.681365
 70
    64
  0
VERTEX
  5
39A7
  8
0
 10
57.4
 20
116.209853
 30
138.981365
 70
    64
  0
VERTEX
  5
39A8
  8
0
 10
56.0
 20
117.249083
 30
138.381365
 70
    64
  0
VERTEX
  5
39A9
  8
0
 10
54.3
 20
117.855301
 30
138.031365
 70
    64
  0
VERTEX
  5
39AA
  8
0
 10
52.5
 20
118.028506
 30
137.931365
 70
    64
  0
SEQEND
  5
39AB
  8
0
  0
ENDSEC
  0
EOF
