  0
SECTION
  2
HEADER
  9
$ACADVER
  1
AC1009
  9
$INSBASE
 10
0.0
 20
0.0
 30
0.0
  9
$EXTMIN
 10
0.0
 20
0.0
 30
0.0
  9
$EXTMAX
 10
700.0
 20
140.0
 30
42.0
  9
$LIMMIN
 10
0.0
 20
0.0
  9
$LIMMAX
 10
12.0
 20
9.0
  9
$ORTHOMODE
 70
     0
  9
$REGENMODE
 70
     1
  9
$FILLMODE
 70
     1
  9
$QTEXTMODE
 70
     0
  9
$MIRRTEXT
 70
     1
  9
$DRAGMODE
 70
     2
  9
$LTSCALE
 40
1.0
  9
$OSMODE
 70
     0
  9
$ATTMODE
 70
     1
  9
$TEXTSIZE
 40
0.2
  9
$TRACEWID
 40
0.05
  9
$TEXTSTYLE
  7
STANDARD
  9
$CLAYER
  8
0
  9
$CELTYPE
  6
BYLAYER
  9
$CECOLOR
 62
   256
  9
$DIMSCALE
 40
1.0
  9
$DIMASZ
 40
0.18
  9
$DIMEXO
 40
0.0625
  9
$DIMDLI
 40
0.38
  9
$DIMRND
 40
0.0
  9
$DIMDLE
 40
0.0
  9
$DIMEXE
 40
0.18
  9
$DIMTP
 40
0.0
  9
$DIMTM
 40
0.0
  9
$DIMTXT
 40
0.18
  9
$DIMCEN
 40
0.09
  9
$DIMTSZ
 40
0.0
  9
$DIMTOL
 70
     0
  9
$DIMLIM
 70
     0
  9
$DIMTIH
 70
     1
  9
$DIMTOH
 70
     1
  9
$DIMSE1
 70
     0
  9
$DIMSE2
 70
     0
  9
$DIMTAD
 70
     0
  9
$DIMZIN
 70
     0
  9
$DIMBLK
  1

  9
$DIMASO
 70
     1
  9
$DIMSHO
 70
     1
  9
$DIMPOST
  1

  9
$DIMAPOST
  1

  9
$DIMALT
 70
     0
  9
$DIMALTD
 70
     2
  9
$DIMALTF
 40
25.4
  9
$DIMLFAC
 40
1.0
  9
$DIMTOFL
 70
     0
  9
$DIMTVP
 40
0.0
  9
$DIMTIX
 70
     0
  9
$DIMSOXD
 70
     0
  9
$DIMSAH
 70
     0
  9
$DIMBLK1
  1

  9
$DIMBLK2
  1

  9
$DIMSTYLE
  2
STANDARD
  9
$DIMCLRD
 70
     0
  9
$DIMCLRE
 70
     0
  9
$DIMCLRT
 70
     0
  9
$DIMTFAC
 40
1.0
  9
$DIMGAP
 40
0.09
  9
$LUNITS
 70
     2
  9
$LUPREC
 70
     4
  9
$SKETCHINC
 40
0.1
  9
$FILLETRAD
 40
0.5
  9
$AUNITS
 70
     0
  9
$AUPREC
 70
     0
  9
$MENU
  1
.
  9
$ELEVATION
 40
0.0
  9
$PELEVATION
 40
0.0
  9
$THICKNESS
 40
0.0
  9
$LIMCHECK
 70
     0
  9
$BLIPMODE
 70
     0
  9
$CHAMFERA
 40
0.5
  9
$CHAMFERB
 40
0.5
  9
$SKPOLY
 70
     1
  9
$TDCREATE
 40
2451432.822028
  9
$TDUPDATE
 40
2451701.955506
  9
$TDINDWG
 40
0.493744
  9
$TDUSRTIMER
 40
0.493744
  9
$USRTIMER
 70
     1
  9
$ANGBASE
 50
0.0
  9
$ANGDIR
 70
     0
  9
$PDMODE
 70
     0
  9
$PDSIZE
 40
0.0
  9
$PLINEWID
 40
0.0
  9
$COORDS
 70
     1
  9
$SPLFRAME
 70
     0
  9
$SPLINETYPE
 70
     6
  9
$SPLINESEGS
 70
     8
  9
$ATTDIA
 70
     0
  9
$ATTREQ
 70
     1
  9
$HANDLING
 70
     1
  9
$HANDSEED
  5
3AC0
  9
$SURFTAB1
 70
     6
  9
$SURFTAB2
 70
     6
  9
$SURFTYPE
 70
     6
  9
$SURFU
 70
     6
  9
$SURFV
 70
     6
  9
$UCSNAME
  2

  9
$UCSORG
 10
0.0
 20
0.0
 30
0.0
  9
$UCSXDIR
 10
1.0
 20
0.0
 30
0.0
  9
$UCSYDIR
 10
0.0
 20
1.0
 30
0.0
  9
$PUCSNAME
  2

  9
$PUCSORG
 10
0.0
 20
0.0
 30
0.0
  9
$PUCSXDIR
 10
1.0
 20
0.0
 30
0.0
  9
$PUCSYDIR
 10
0.0
 20
1.0
 30
0.0
  9
$USERI1
 70
     0
  9
$USERI2
 70
     0
  9
$USERI3
 70
     0
  9
$USERI4
 70
     0
  9
$USERI5
 70
     0
  9
$USERR1
 40
0.0
  9
$USERR2
 40
0.0
  9
$USERR3
 40
0.0
  9
$USERR4
 40
0.0
  9
$USERR5
 40
0.0
  9
$WORLDVIEW
 70
     1
  9
$SHADEDGE
 70
     3
  9
$SHADEDIF
 70
    70
  9
$TILEMODE
 70
     1
  9
$MAXACTVP
 70
    48
  9
$PLIMCHECK
 70
     0
  9
$PEXTMIN
 10
1.000000E+020
 20
1.000000E+020
 30
1.000000E+020
  9
$PEXTMAX
 10
-1.000000E+020
 20
-1.000000E+020
 30
-1.000000E+020
  9
$PLIMMIN
 10
0.0
 20
0.0
  9
$PLIMMAX
 10
12.0
 20
9.0
  9
$UNITMODE
 70
     0
  9
$VISRETAIN
 70
     1
  9
$PLINEGEN
 70
     0
  9
$PSLTSCALE
 70
     1
  0
ENDSEC
  0
SECTION
  2
TABLES
  0
TABLE
  2
VPORT
 70
     8
  0
VPORT
  2
*ACTIVE
 70
     0
 10
0.0
 20
0.0
 11
1.0
 21
1.0
 12
197.989899
 22
188.61071
 13
0.0
 23
0.0
 14
0.5
 24
0.5
 15
0.5
 25
0.5
 16
-1.0
 26
-1.0
 36
1.0
 17
0.0
 27
0.0
 37
0.0
 40
381.907401
 41
1.991701
 42
50.0
 43
0.0
 44
0.0
 50
0.0
 51
0.0
 71
     0
 72
   100
 73
     1
 74
     1
 75
     0
 76
     0
 77
     0
 78
     0
  0
ENDTAB
  0
TABLE
  2
LTYPE
 70
     1
  0
LTYPE
  2
CONTINUOUS
 70
     0
  3
Solid line
 72
    65
 73
     0
 40
0.0
  0
ENDTAB
  0
TABLE
  2
LAYER
 70
     2
  0
LAYER
  2
0
 70
     0
 62
     7
  6
CONTINUOUS
  0
LAYER
  2
ASHADE
 70
     4
 62
     7
  6
CONTINUOUS
  0
ENDTAB
  0
TABLE
  2
STYLE
 70
     2
  0
STYLE
  2
STANDARD
 70
     0
 40
0.0
 41
1.0
 50
0.0
 71
     0
 42
0.2
  3
txt
  4

  0
STYLE
  2
ASHADE
 70
     0
 40
0.2
 41
1.0
 50
0.0
 71
     0
 42
0.2
  3
simplex.shx
  4

  0
ENDTAB
  0
TABLE
  2
VIEW
 70
     0
  0
ENDTAB
  0
TABLE
  2
UCS
 70
     0
  0
ENDTAB
  0
TABLE
  2
APPID
 70
     6
  0
APPID
  2
ACAD
 70
     0
  0
APPID
  2
AVE_RENDER
 70
     0
  0
APPID
  2
AVE_ENTITY_MATERIAL
 70
     0
  0
APPID
  2
AVE_FINISH
 70
     0
  0
APPID
  2
AVE_MATERIAL
 70
     0
  0
APPID
  2
AVE_GLOBAL
 70
     0
  0
ENDTAB
  0
TABLE
  2
DIMSTYLE
 70
     1
  0
DIMSTYLE
  2
STANDARD
 70
     0
  3

  4

  5

  6

  7

 40
1.0
 41
0.18
 42
0.0625
 43
0.38
 44
0.18
 45
0.0
 46
0.0
 47
0.0
 48
0.0
140
0.18
141
0.09
142
0.0
143
25.4
144
1.0
145
0.0
146
1.0
147
0.09
 71
     0
 72
     0
 73
     1
 74
     1
 75
     0
 76
     0
 77
     0
 78
     0
170
     0
171
     2
172
     0
173
     0
174
     0
175
     0
176
     0
177
     0
178
     0
  0
ENDTAB
  0
ENDSEC
  0
SECTION
  2
BLOCKS
  0
BLOCK
  8
0
  2
$MODEL_SPACE
 70
     0
 10
0.0
 20
0.0
 30
0.0
  3
$MODEL_SPACE
  1

  0
ENDBLK
  5
1B
  8
0
  0
BLOCK
 67
     1
  8
0
  2
$PAPER_SPACE
 70
     0
 10
0.0
 20
0.0
 30
0.0
  3
$PAPER_SPACE
  1

  0
ENDBLK
  5
18
 67
     1
  8
0
  0
BLOCK
  8
ASHADE
  2
AVE_RENDER
 70
     0
 10
0.0
 20
0.0
 30
0.0
  3
AVE_RENDER
  1
AVE_RENDER
  0
ENDBLK
  5
22C
  8
0
  0
BLOCK
  8
ASHADE
  2
AVE_GLOBAL
 70
     0
 10
0.0
 20
0.0
 30
0.0
  3
AVE_GLOBAL
  1
AVE_GLOBAL
  0
ENDBLK
  5
23A
  8
0
  0
ENDSEC
  0
SECTION
  2
ENTITIES
  0
INSERT
  5
22D
  8
ASHADE
 62
     1
  2
AVE_RENDER
 10
0.0
 20
0.0
 30
0.0
1001
AVE_RENDER
1002
{
1070
     7
1000
Pref
1070
    30
1070
    20
1070
     1
1070
     0
1000

1070
    10
1070
     1
1070
    10
1040
1.0
1070
     1
1040
0.3
1040
0.7
1040
0.0
1040
10.0
1010
-1.0
1020
-1.0
1030
-1.0
1040
0.3
1070
    49
1070
     0
1070
     0
1010
1.0
1020
1.0
1030
1.0
1040
45.0
1070
     1
1070
     0
1000
WCS
1040
0.0
1070
     0
1040
10.0
1002
}
  0
INSERT
  5
22E
  8
ASHADE
 62
     3
  2
AVE_RENDER
 10
0.0
 20
0.0
 30
0.0
1001
AVE_RENDER
1002
{
1070
     0
1000
Full Opt
1070
     0
1070
     1
1070
     1
1070
     1
1070
     0
1070
     0
1070
     0
1070
     1
1070
     1
1040
0.0001
1040
0.0001
1002
}
  0
INSERT
  5
22F
  8
ASHADE
 62
     4
  2
AVE_RENDER
 10
0.0
 20
0.0
 30
0.0
1001
AVE_RENDER
1002
{
1070
     0
1000
Quick Opt
1070
     0
1070
     1
1070
     1
1070
     1
1070
     0
1070
     0
1070
     1
1002
}
  0
INSERT
  5
230
  8
ASHADE
 62
     5
  2
AVE_RENDER
 10
0.0
 20
0.0
 30
0.0
1001
AVE_RENDER
1002
{
1070
     1
1000
Scanl Opt
1070
     2
1070
     0
1070
     2
1040
2.0
1040
4.0
1070
     0
1070
     1
1070
     0
1040
0.03
1002
}
  0
INSERT
  5
231
  8
ASHADE
 62
     6
  2
AVE_RENDER
 10
0.0
 20
0.0
 30
0.0
1001
AVE_RENDER
1002
{
1070
     2
1000
Raytr Opt
1070
     2
1070
     0
1070
     2
1040
2.0
1040
4.0
1070
     0
1070
     1
1070
     1
1040
0.03
1070
     3
1040
0.03
1002
}
  0
INSERT
  5
232
  8
ASHADE
 62
     7
  2
AVE_RENDER
 10
0.0
 20
0.0
 30
0.0
1001
AVE_RENDER
1002
{
1070
     0
1000
RFile Opt
1070
     1
1070
   640
1070
   480
1070
 10000
1070
     1
1070
     8
1070
     8
1070
     0
1070
     0
1070
     0
1070
     0
1070
     0
1070
     0
1070
     0
1002
}
  0
INSERT
  5
233
  8
ASHADE
 62
     8
  2
AVE_RENDER
 10
0.0
 20
0.0
 30
0.0
1001
AVE_RENDER
1002
{
1070
     0
1000
Fog Opt
1070
     0
1070
     0
1040
0.0
1040
1.0
1040
0.0
1040
1.0
1010
0.5
1020
0.5
1030
0.5
1002
}
  0
INSERT
  5
234
  8
ASHADE
 62
     9
  2
AVE_RENDER
 10
0.0
 20
0.0
 30
0.0
1001
AVE_RENDER
1002
{
1070
     0
1000
BG Opt
1070
     0
1070
     1
1010
0.0
1020
0.0
1030
0.0
1010
1.0
1020
0.0
1030
0.0
1010
0.0
1020
1.0
1030
0.0
1010
0.0
1020
0.0
1030
1.0
1040
0.5
1040
0.33
1040
0.0
1000

1070
     1
1000

1070
     1
1070
     1
1040
1.0
1040
1.0
1040
0.0
1040
0.0
1070
     0
1002
}
  0
INSERT
  5
23B
  8
ASHADE
 62
     1
  2
AVE_GLOBAL
 10
0.0
 20
0.0
 30
0.0
1001
AVE_MATERIAL
1002
{
1000
*GLOBAL*
1000
1
1000
Global finish.
1002
{
1002
}
1002
{
1070
    63
1002
{
1002
{
1010
-1.0
1020
-1.0
1030
-1.0
1002
}
1040
0.1
1000

1040
0.0
1002
{
1002
}
1040
0.0
1002
{
1002
}
1040
0.0
1002
}
1002
{
1002
{
1010
-1.0
1020
-1.0
1030
-1.0
1002
}
1040
0.7
1000

1040
0.0
1002
{
1002
}
1040
0.0
1002
{
1002
}
1040
0.0
1002
}
1002
{
1002
{
1010
-1.0
1020
-1.0
1030
-1.0
1002
}
1040
0.2
1000

1040
0.0
1002
{
1002
}
1040
0.0
1002
{
1002
}
1040
0.0
1002
}
1002
{
1070
     0
1002
{
1070
     1
1002
{
1040
1.0
1040
1.0
1000

1040
0.0
1002
{
1002
}
1040
0.0
1002
{
1002
}
1040
0.0
1002
}
1002
}
1040
1.0
1040
0.0
1040
0.0
1002
}
1002
{
1040
1.0
1040
1.0
1000

1040
0.0
1002
{
1002
}
1040
0.0
1002
{
1002
}
1040
0.0
1002
}
1002
{
1040
0.5
1040
1.0
1000

1040
0.0
1002
{
1002
}
1040
0.0
1002
{
1002
}
1040
0.0
1002
}
1002
{
1070
     0
1040
0.0
1002
{
1002
}
1040
1.0
1002
{
1002
}
1040
0.0
1002
}
1002
{
1040
0.0
1002
{
1002
{
1010
0.0
1020
0.0
1030
0.0
1002
}
1040
1.0
1000

1040
0.0
1002
{
1002
}
1040
0.0
1002
{
1002
}
1040
0.0
1002
}
1002
}
1002
{
1002
{
1070
     1
1002
{
1040
0.0
1040
1.0
1000

1040
0.0
1002
{
1002
}
1040
0.0
1002
{
1002
}
1040
0.0
1002
}
1002
}
1040
0.0
1002
{
1002
}
1010
1.0
1020
0.0
1030
0.0
1010
0.0
1020
1.0
1030
0.0
1010
0.0
1020
0.0
1030
1.0
1070
     0
1002
}
1002
{
1002
{
1040
1.0
1040
1.0
1002
{
1070
     1
1002
{
1040
1.0
1040
1.0
1000

1040
0.0
1002
{
1002
}
1040
0.0
1002
{
1002
}
1040
0.0
1002
}
1002
}
1002
}
1070
     0
1040
0.0
1002
{
1002
}
1002
}
1002
{
1002
}
1002
}
1002
{
1071
        3
1070
     3
1070
     0
1002
{
1070
     2
1070
     0
1070
     0
1040
0.0
1002
}
1070
     0
1070
     2
1002
{
1002
}
1002
}
1002
{
1040
8030.0
1040
190.300003
1040
0.305
1040
228.0
1040
545.0
1040
14.0
1040
17.4
1040
0.456
1002
}
1002
}
  0
INSERT
  5
2FDB
  8
ASHADE
 62
     1
  2
AVE_GLOBAL
 10
0.0
 20
0.0
 30
0.0
1001
AVE_MATERIAL
1002
{
1000
*GLOBAL*
1000
1
1000
Global finish.
1002
{
1002
}
1002
{
1070
    63
1002
{
1002
{
1010
-1.0
1020
-1.0
1030
-1.0
1002
}
1040
0.1
1000

1040
0.0
1002
{
1002
}
1040
0.0
1002
{
1002
}
1040
0.0
1002
}
1002
{
1002
{
1010
-1.0
1020
-1.0
1030
-1.0
1002
}
1040
0.7
1000

1040
0.0
1002
{
1002
}
1040
0.0
1002
{
1002
}
1040
0.0
1002
}
1002
{
1002
{
1010
-1.0
1020
-1.0
1030
-1.0
1002
}
1040
0.2
1000

1040
0.0
1002
{
1002
}
1040
0.0
1002
{
1002
}
1040
0.0
1002
}
1002
{
1070
     0
1002
{
1070
     1
1002
{
1040
1.0
1040
1.0
1000

1040
0.0
1002
{
1002
}
1040
0.0
1002
{
1002
}
1040
0.0
1002
}
1002
}
1040
1.0
1040
0.0
1040
0.0
1002
}
1002
{
1040
1.0
1040
1.0
1000

1040
0.0
1002
{
1002
}
1040
0.0
1002
{
1002
}
1040
0.0
1002
}
1002
{
1040
0.5
1040
1.0
1000

1040
0.0
1002
{
1002
}
1040
0.0
1002
{
1002
}
1040
0.0
1002
}
1002
{
1070
     0
1040
0.0
1002
{
1002
}
1040
1.0
1002
{
1002
}
1040
0.0
1002
}
1002
{
1040
0.0
1002
{
1002
{
1010
0.0
1020
0.0
1030
0.0
1002
}
1040
1.0
1000

1040
0.0
1002
{
1002
}
1040
0.0
1002
{
1002
}
1040
0.0
1002
}
1002
}
1002
{
1002
{
1070
     1
1002
{
1040
0.0
1040
1.0
1000

1040
0.0
1002
{
1002
}
1040
0.0
1002
{
1002
}
1040
0.0
1002
}
1002
}
1040
0.0
1002
{
1002
}
1010
1.0
1020
0.0
1030
0.0
1010
0.0
1020
1.0
1030
0.0
1010
0.0
1020
0.0
1030
1.0
1070
     0
1002
}
1002
{
1002
{
1040
1.0
1040
1.0
1002
{
1070
     1
1002
{
1040
1.0
1040
1.0
1000

1040
0.0
1002
{
1002
}
1040
0.0
1002
{
1002
}
1040
0.0
1002
}
1002
}
1002
}
1070
     0
1040
0.0
1002
{
1002
}
1002
}
1002
{
1002
}
1002
}
1002
{
1071
        3
1070
     3
1070
     0
1002
{
1070
     2
1070
     0
1070
     0
1040
0.0
1002
}
1070
     0
1070
     2
1002
{
1002
}
1002
}
1002
{
1040
8030.0
1040
190.300003
1040
0.305
1040
228.0
1040
545.0
1040
14.0
1040
17.4
1040
0.456
1002
}
1002
}
  0
INSERT
  5
2FDC
  8
ASHADE
 62
     1
  2
AVE_GLOBAL
 10
0.0
 20
0.0
 30
0.0
1001
AVE_MATERIAL
1002
{
1000
*GLOBAL*
1000
1
1000
Global finish.
1002
{
1002
}
1002
{
1070
    63
1002
{
1002
{
1010
-1.0
1020
-1.0
1030
-1.0
1002
}
1040
0.1
1000

1040
0.0
1002
{
1002
}
1040
0.0
1002
{
1002
}
1040
0.0
1002
}
1002
{
1002
{
1010
-1.0
1020
-1.0
1030
-1.0
1002
}
1040
0.7
1000

1040
0.0
1002
{
1002
}
1040
0.0
1002
{
1002
}
1040
0.0
1002
}
1002
{
1002
{
1010
-1.0
1020
-1.0
1030
-1.0
1002
}
1040
0.2
1000

1040
0.0
1002
{
1002
}
1040
0.0
1002
{
1002
}
1040
0.0
1002
}
1002
{
1070
     0
1002
{
1070
     1
1002
{
1040
1.0
1040
1.0
1000

1040
0.0
1002
{
1002
}
1040
0.0
1002
{
1002
}
1040
0.0
1002
}
1002
}
1040
1.0
1040
0.0
1040
0.0
1002
}
1002
{
1040
1.0
1040
1.0
1000

1040
0.0
1002
{
1002
}
1040
0.0
1002
{
1002
}
1040
0.0
1002
}
1002
{
1040
0.5
1040
1.0
1000

1040
0.0
1002
{
1002
}
1040
0.0
1002
{
1002
}
1040
0.0
1002
}
1002
{
1070
     0
1040
0.0
1002
{
1002
}
1040
1.0
1002
{
1002
}
1040
0.0
1002
}
1002
{
1040
0.0
1002
{
1002
{
1010
0.0
1020
0.0
1030
0.0
1002
}
1040
1.0
1000

1040
0.0
1002
{
1002
}
1040
0.0
1002
{
1002
}
1040
0.0
1002
}
1002
}
1002
{
1002
{
1070
     1
1002
{
1040
0.0
1040
1.0
1000

1040
0.0
1002
{
1002
}
1040
0.0
1002
{
1002
}
1040
0.0
1002
}
1002
}
1040
0.0
1002
{
1002
}
1010
1.0
1020
0.0
1030
0.0
1010
0.0
1020
1.0
1030
0.0
1010
0.0
1020
0.0
1030
1.0
1070
     0
1002
}
1002
{
1002
{
1040
1.0
1040
1.0
1002
{
1070
     1
1002
{
1040
1.0
1040
1.0
1000

1040
0.0
1002
{
1002
}
1040
0.0
1002
{
1002
}
1040
0.0
1002
}
1002
}
1002
}
1070
     0
1040
0.0
1002
{
1002
}
1002
}
1002
{
1002
}
1002
}
1002
{
1071
        3
1070
     3
1070
     0
1002
{
1070
     2
1070
     0
1070
     0
1040
0.0
1002
}
1070
     0
1070
     2
1002
{
1002
}
1002
}
1002
{
1040
8030.0
1040
190.300003
1040
0.305
1040
228.0
1040
545.0
1040
14.0
1040
17.4
1040
0.456
1002
}
1002
}
  0
INSERT
  5
2FDD
  8
ASHADE
 62
     1
  2
AVE_GLOBAL
 10
0.0
 20
0.0
 30
0.0
1001
AVE_MATERIAL
1002
{
1000
*GLOBAL*
1000
1
1000
Global finish.
1002
{
1002
}
1002
{
1070
    63
1002
{
1002
{
1010
-1.0
1020
-1.0
1030
-1.0
1002
}
1040
0.1
1000

1040
0.0
1002
{
1002
}
1040
0.0
1002
{
1002
}
1040
0.0
1002
}
1002
{
1002
{
1010
-1.0
1020
-1.0
1030
-1.0
1002
}
1040
0.7
1000

1040
0.0
1002
{
1002
}
1040
0.0
1002
{
1002
}
1040
0.0
1002
}
1002
{
1002
{
1010
-1.0
1020
-1.0
1030
-1.0
1002
}
1040
0.2
1000

1040
0.0
1002
{
1002
}
1040
0.0
1002
{
1002
}
1040
0.0
1002
}
1002
{
1070
     0
1002
{
1070
     1
1002
{
1040
1.0
1040
1.0
1000

1040
0.0
1002
{
1002
}
1040
0.0
1002
{
1002
}
1040
0.0
1002
}
1002
}
1040
1.0
1040
0.0
1040
0.0
1002
}
1002
{
1040
1.0
1040
1.0
1000

1040
0.0
1002
{
1002
}
1040
0.0
1002
{
1002
}
1040
0.0
1002
}
1002
{
1040
0.5
1040
1.0
1000

1040
0.0
1002
{
1002
}
1040
0.0
1002
{
1002
}
1040
0.0
1002
}
1002
{
1070
     0
1040
0.0
1002
{
1002
}
1040
1.0
1002
{
1002
}
1040
0.0
1002
}
1002
{
1040
0.0
1002
{
1002
{
1010
0.0
1020
0.0
1030
0.0
1002
}
1040
1.0
1000

1040
0.0
1002
{
1002
}
1040
0.0
1002
{
1002
}
1040
0.0
1002
}
1002
}
1002
{
1002
{
1070
     1
1002
{
1040
0.0
1040
1.0
1000

1040
0.0
1002
{
1002
}
1040
0.0
1002
{
1002
}
1040
0.0
1002
}
1002
}
1040
0.0
1002
{
1002
}
1010
1.0
1020
0.0
1030
0.0
1010
0.0
1020
1.0
1030
0.0
1010
0.0
1020
0.0
1030
1.0
1070
     0
1002
}
1002
{
1002
{
1040
1.0
1040
1.0
1002
{
1070
     1
1002
{
1040
1.0
1040
1.0
1000

1040
0.0
1002
{
1002
}
1040
0.0
1002
{
1002
}
1040
0.0
1002
}
1002
}
1002
}
1070
     0
1040
0.0
1002
{
1002
}
1002
}
1002
{
1002
}
1002
}
1002
{
1071
        3
1070
     3
1070
     0
1002
{
1070
     2
1070
     0
1070
     0
1040
0.0
1002
}
1070
     0
1070
     2
1002
{
1002
}
1002
}
1002
{
1040
8030.0
1040
190.300003
1040
0.305
1040
228.0
1040
545.0
1040
14.0
1040
17.4
1040
0.456
1002
}
1002
}
  0
INSERT
  5
2FDE
  8
ASHADE
 62
     1
  2
AVE_GLOBAL
 10
0.0
 20
0.0
 30
0.0
1001
AVE_MATERIAL
1002
{
1000
*GLOBAL*
1000
1
1000
Global finish.
1002
{
1002
}
1002
{
1070
    63
1002
{
1002
{
1010
-1.0
1020
-1.0
1030
-1.0
1002
}
1040
0.1
1000

1040
0.0
1002
{
1002
}
1040
0.0
1002
{
1002
}
1040
0.0
1002
}
1002
{
1002
{
1010
-1.0
1020
-1.0
1030
-1.0
1002
}
1040
0.7
1000

1040
0.0
1002
{
1002
}
1040
0.0
1002
{
1002
}
1040
0.0
1002
}
1002
{
1002
{
1010
-1.0
1020
-1.0
1030
-1.0
1002
}
1040
0.2
1000

1040
0.0
1002
{
1002
}
1040
0.0
1002
{
1002
}
1040
0.0
1002
}
1002
{
1070
     0
1002
{
1070
     1
1002
{
1040
1.0
1040
1.0
1000

1040
0.0
1002
{
1002
}
1040
0.0
1002
{
1002
}
1040
0.0
1002
}
1002
}
1040
1.0
1040
0.0
1040
0.0
1002
}
1002
{
1040
1.0
1040
1.0
1000

1040
0.0
1002
{
1002
}
1040
0.0
1002
{
1002
}
1040
0.0
1002
}
1002
{
1040
0.5
1040
1.0
1000

1040
0.0
1002
{
1002
}
1040
0.0
1002
{
1002
}
1040
0.0
1002
}
1002
{
1070
     0
1040
0.0
1002
{
1002
}
1040
1.0
1002
{
1002
}
1040
0.0
1002
}
1002
{
1040
0.0
1002
{
1002
{
1010
0.0
1020
0.0
1030
0.0
1002
}
1040
1.0
1000

1040
0.0
1002
{
1002
}
1040
0.0
1002
{
1002
}
1040
0.0
1002
}
1002
}
1002
{
1002
{
1070
     1
1002
{
1040
0.0
1040
1.0
1000

1040
0.0
1002
{
1002
}
1040
0.0
1002
{
1002
}
1040
0.0
1002
}
1002
}
1040
0.0
1002
{
1002
}
1010
1.0
1020
0.0
1030
0.0
1010
0.0
1020
1.0
1030
0.0
1010
0.0
1020
0.0
1030
1.0
1070
     0
1002
}
1002
{
1002
{
1040
1.0
1040
1.0
1002
{
1070
     1
1002
{
1040
1.0
1040
1.0
1000

1040
0.0
1002
{
1002
}
1040
0.0
1002
{
1002
}
1040
0.0
1002
}
1002
}
1002
}
1070
     0
1040
0.0
1002
{
1002
}
1002
}
1002
{
1002
}
1002
}
1002
{
1071
        3
1070
     3
1070
     0
1002
{
1070
     2
1070
     0
1070
     0
1040
0.0
1002
}
1070
     0
1070
     2
1002
{
1002
}
1002
}
1002
{
1040
8030.0
1040
190.300003
1040
0.305
1040
228.0
1040
545.0
1040
14.0
1040
17.4
1040
0.456
1002
}
1002
}
  0
INSERT
  5
2FDF
  8
ASHADE
 62
     1
  2
AVE_GLOBAL
 10
0.0
 20
0.0
 30
0.0
1001
AVE_MATERIAL
1002
{
1000
*GLOBAL*
1000
1
1000
Global finish.
1002
{
1002
}
1002
{
1070
    63
1002
{
1002
{
1010
-1.0
1020
-1.0
1030
-1.0
1002
}
1040
0.1
1000

1040
0.0
1002
{
1002
}
1040
0.0
1002
{
1002
}
1040
0.0
1002
}
1002
{
1002
{
1010
-1.0
1020
-1.0
1030
-1.0
1002
}
1040
0.7
1000

1040
0.0
1002
{
1002
}
1040
0.0
1002
{
1002
}
1040
0.0
1002
}
1002
{
1002
{
1010
-1.0
1020
-1.0
1030
-1.0
1002
}
1040
0.2
1000

1040
0.0
1002
{
1002
}
1040
0.0
1002
{
1002
}
1040
0.0
1002
}
1002
{
1070
     0
1002
{
1070
     1
1002
{
1040
1.0
1040
1.0
1000

1040
0.0
1002
{
1002
}
1040
0.0
1002
{
1002
}
1040
0.0
1002
}
1002
}
1040
1.0
1040
0.0
1040
0.0
1002
}
1002
{
1040
1.0
1040
1.0
1000

1040
0.0
1002
{
1002
}
1040
0.0
1002
{
1002
}
1040
0.0
1002
}
1002
{
1040
0.5
1040
1.0
1000

1040
0.0
1002
{
1002
}
1040
0.0
1002
{
1002
}
1040
0.0
1002
}
1002
{
1070
     0
1040
0.0
1002
{
1002
}
1040
1.0
1002
{
1002
}
1040
0.0
1002
}
1002
{
1040
0.0
1002
{
1002
{
1010
0.0
1020
0.0
1030
0.0
1002
}
1040
1.0
1000

1040
0.0
1002
{
1002
}
1040
0.0
1002
{
1002
}
1040
0.0
1002
}
1002
}
1002
{
1002
{
1070
     1
1002
{
1040
0.0
1040
1.0
1000

1040
0.0
1002
{
1002
}
1040
0.0
1002
{
1002
}
1040
0.0
1002
}
1002
}
1040
0.0
1002
{
1002
}
1010
1.0
1020
0.0
1030
0.0
1010
0.0
1020
1.0
1030
0.0
1010
0.0
1020
0.0
1030
1.0
1070
     0
1002
}
1002
{
1002
{
1040
1.0
1040
1.0
1002
{
1070
     1
1002
{
1040
1.0
1040
1.0
1000

1040
0.0
1002
{
1002
}
1040
0.0
1002
{
1002
}
1040
0.0
1002
}
1002
}
1002
}
1070
     0
1040
0.0
1002
{
1002
}
1002
}
1002
{
1002
}
1002
}
1002
{
1071
        3
1070
     3
1070
     0
1002
{
1070
     2
1070
     0
1070
     0
1040
0.0
1002
}
1070
     0
1070
     2
1002
{
1002
}
1002
}
1002
{
1040
8030.0
1040
190.300003
1040
0.305
1040
228.0
1040
545.0
1040
14.0
1040
17.4
1040
0.456
1002
}
1002
}
  0
INSERT
  5
30E0
  8
ASHADE
 62
     1
  2
AVE_GLOBAL
 10
0.0
 20
0.0
 30
0.0
1001
AVE_MATERIAL
1002
{
1000
*GLOBAL*
1000
1
1000
Global finish.
1002
{
1002
}
1002
{
1070
    63
1002
{
1002
{
1010
-1.0
1020
-1.0
1030
-1.0
1002
}
1040
0.1
1000

1040
0.0
1002
{
1002
}
1040
0.0
1002
{
1002
}
1040
0.0
1002
}
1002
{
1002
{
1010
-1.0
1020
-1.0
1030
-1.0
1002
}
1040
0.7
1000

1040
0.0
1002
{
1002
}
1040
0.0
1002
{
1002
}
1040
0.0
1002
}
1002
{
1002
{
1010
-1.0
1020
-1.0
1030
-1.0
1002
}
1040
0.2
1000

1040
0.0
1002
{
1002
}
1040
0.0
1002
{
1002
}
1040
0.0
1002
}
1002
{
1070
     0
1002
{
1070
     1
1002
{
1040
1.0
1040
1.0
1000

1040
0.0
1002
{
1002
}
1040
0.0
1002
{
1002
}
1040
0.0
1002
}
1002
}
1040
1.0
1040
0.0
1040
0.0
1002
}
1002
{
1040
1.0
1040
1.0
1000

1040
0.0
1002
{
1002
}
1040
0.0
1002
{
1002
}
1040
0.0
1002
}
1002
{
1040
0.5
1040
1.0
1000

1040
0.0
1002
{
1002
}
1040
0.0
1002
{
1002
}
1040
0.0
1002
}
1002
{
1070
     0
1040
0.0
1002
{
1002
}
1040
1.0
1002
{
1002
}
1040
0.0
1002
}
1002
{
1040
0.0
1002
{
1002
{
1010
0.0
1020
0.0
1030
0.0
1002
}
1040
1.0
1000

1040
0.0
1002
{
1002
}
1040
0.0
1002
{
1002
}
1040
0.0
1002
}
1002
}
1002
{
1002
{
1070
     1
1002
{
1040
0.0
1040
1.0
1000

1040
0.0
1002
{
1002
}
1040
0.0
1002
{
1002
}
1040
0.0
1002
}
1002
}
1040
0.0
1002
{
1002
}
1010
1.0
1020
0.0
1030
0.0
1010
0.0
1020
1.0
1030
0.0
1010
0.0
1020
0.0
1030
1.0
1070
     0
1002
}
1002
{
1002
{
1040
1.0
1040
1.0
1002
{
1070
     1
1002
{
1040
1.0
1040
1.0
1000

1040
0.0
1002
{
1002
}
1040
0.0
1002
{
1002
}
1040
0.0
1002
}
1002
}
1002
}
1070
     0
1040
0.0
1002
{
1002
}
1002
}
1002
{
1002
}
1002
}
1002
{
1071
        3
1070
     3
1070
     0
1002
{
1070
     2
1070
     0
1070
     0
1040
0.0
1002
}
1070
     0
1070
     2
1002
{
1002
}
1002
}
1002
{
1040
8030.0
1040
190.300003
1040
0.305
1040
228.0
1040
545.0
1040
14.0
1040
17.4
1040
0.456
1002
}
1002
}
  0
INSERT
  5
30E1
  8
ASHADE
 62
     1
  2
AVE_GLOBAL
 10
0.0
 20
0.0
 30
0.0
1001
AVE_MATERIAL
1002
{
1000
*GLOBAL*
1000
1
1000
Global finish.
1002
{
1002
}
1002
{
1070
    63
1002
{
1002
{
1010
-1.0
1020
-1.0
1030
-1.0
1002
}
1040
0.1
1000

1040
0.0
1002
{
1002
}
1040
0.0
1002
{
1002
}
1040
0.0
1002
}
1002
{
1002
{
1010
-1.0
1020
-1.0
1030
-1.0
1002
}
1040
0.7
1000

1040
0.0
1002
{
1002
}
1040
0.0
1002
{
1002
}
1040
0.0
1002
}
1002
{
1002
{
1010
-1.0
1020
-1.0
1030
-1.0
1002
}
1040
0.2
1000

1040
0.0
1002
{
1002
}
1040
0.0
1002
{
1002
}
1040
0.0
1002
}
1002
{
1070
     0
1002
{
1070
     1
1002
{
1040
1.0
1040
1.0
1000

1040
0.0
1002
{
1002
}
1040
0.0
1002
{
1002
}
1040
0.0
1002
}
1002
}
1040
1.0
1040
0.0
1040
0.0
1002
}
1002
{
1040
1.0
1040
1.0
1000

1040
0.0
1002
{
1002
}
1040
0.0
1002
{
1002
}
1040
0.0
1002
}
1002
{
1040
0.5
1040
1.0
1000

1040
0.0
1002
{
1002
}
1040
0.0
1002
{
1002
}
1040
0.0
1002
}
1002
{
1070
     0
1040
0.0
1002
{
1002
}
1040
1.0
1002
{
1002
}
1040
0.0
1002
}
1002
{
1040
0.0
1002
{
1002
{
1010
0.0
1020
0.0
1030
0.0
1002
}
1040
1.0
1000

1040
0.0
1002
{
1002
}
1040
0.0
1002
{
1002
}
1040
0.0
1002
}
1002
}
1002
{
1002
{
1070
     1
1002
{
1040
0.0
1040
1.0
1000

1040
0.0
1002
{
1002
}
1040
0.0
1002
{
1002
}
1040
0.0
1002
}
1002
}
1040
0.0
1002
{
1002
}
1010
1.0
1020
0.0
1030
0.0
1010
0.0
1020
1.0
1030
0.0
1010
0.0
1020
0.0
1030
1.0
1070
     0
1002
}
1002
{
1002
{
1040
1.0
1040
1.0
1002
{
1070
     1
1002
{
1040
1.0
1040
1.0
1000

1040
0.0
1002
{
1002
}
1040
0.0
1002
{
1002
}
1040
0.0
1002
}
1002
}
1002
}
1070
     0
1040
0.0
1002
{
1002
}
1002
}
1002
{
1002
}
1002
}
1002
{
1071
        3
1070
     3
1070
     0
1002
{
1070
     2
1070
     0
1070
     0
1040
0.0
1002
}
1070
     0
1070
     2
1002
{
1002
}
1002
}
1002
{
1040
8030.0
1040
190.300003
1040
0.305
1040
228.0
1040
545.0
1040
14.0
1040
17.4
1040
0.456
1002
}
1002
}
  0
INSERT
  5
30E2
  8
ASHADE
 62
     1
  2
AVE_GLOBAL
 10
0.0
 20
0.0
 30
0.0
1001
AVE_MATERIAL
1002
{
1000
*GLOBAL*
1000
1
1000
Global finish.
1002
{
1002
}
1002
{
1070
    63
1002
{
1002
{
1010
-1.0
1020
-1.0
1030
-1.0
1002
}
1040
0.1
1000

1040
0.0
1002
{
1002
}
1040
0.0
1002
{
1002
}
1040
0.0
1002
}
1002
{
1002
{
1010
-1.0
1020
-1.0
1030
-1.0
1002
}
1040
0.7
1000

1040
0.0
1002
{
1002
}
1040
0.0
1002
{
1002
}
1040
0.0
1002
}
1002
{
1002
{
1010
-1.0
1020
-1.0
1030
-1.0
1002
}
1040
0.2
1000

1040
0.0
1002
{
1002
}
1040
0.0
1002
{
1002
}
1040
0.0
1002
}
1002
{
1070
     0
1002
{
1070
     1
1002
{
1040
1.0
1040
1.0
1000

1040
0.0
1002
{
1002
}
1040
0.0
1002
{
1002
}
1040
0.0
1002
}
1002
}
1040
1.0
1040
0.0
1040
0.0
1002
}
1002
{
1040
1.0
1040
1.0
1000

1040
0.0
1002
{
1002
}
1040
0.0
1002
{
1002
}
1040
0.0
1002
}
1002
{
1040
0.5
1040
1.0
1000

1040
0.0
1002
{
1002
}
1040
0.0
1002
{
1002
}
1040
0.0
1002
}
1002
{
1070
     0
1040
0.0
1002
{
1002
}
1040
1.0
1002
{
1002
}
1040
0.0
1002
}
1002
{
1040
0.0
1002
{
1002
{
1010
0.0
1020
0.0
1030
0.0
1002
}
1040
1.0
1000

1040
0.0
1002
{
1002
}
1040
0.0
1002
{
1002
}
1040
0.0
1002
}
1002
}
1002
{
1002
{
1070
     1
1002
{
1040
0.0
1040
1.0
1000

1040
0.0
1002
{
1002
}
1040
0.0
1002
{
1002
}
1040
0.0
1002
}
1002
}
1040
0.0
1002
{
1002
}
1010
1.0
1020
0.0
1030
0.0
1010
0.0
1020
1.0
1030
0.0
1010
0.0
1020
0.0
1030
1.0
1070
     0
1002
}
1002
{
1002
{
1040
1.0
1040
1.0
1002
{
1070
     1
1002
{
1040
1.0
1040
1.0
1000

1040
0.0
1002
{
1002
}
1040
0.0
1002
{
1002
}
1040
0.0
1002
}
1002
}
1002
}
1070
     0
1040
0.0
1002
{
1002
}
1002
}
1002
{
1002
}
1002
}
1002
{
1071
        3
1070
     3
1070
     0
1002
{
1070
     2
1070
     0
1070
     0
1040
0.0
1002
}
1070
     0
1070
     2
1002
{
1002
}
1002
}
1002
{
1040
8030.0
1040
190.300003
1040
0.305
1040
228.0
1040
545.0
1040
14.0
1040
17.4
1040
0.456
1002
}
1002
}
  0
INSERT
  5
30E3
  8
ASHADE
 62
     1
  2
AVE_GLOBAL
 10
0.0
 20
0.0
 30
0.0
1001
AVE_MATERIAL
1002
{
1000
*GLOBAL*
1000
1
1000
Global finish.
1002
{
1002
}
1002
{
1070
    63
1002
{
1002
{
1010
-1.0
1020
-1.0
1030
-1.0
1002
}
1040
0.1
1000

1040
0.0
1002
{
1002
}
1040
0.0
1002
{
1002
}
1040
0.0
1002
}
1002
{
1002
{
1010
-1.0
1020
-1.0
1030
-1.0
1002
}
1040
0.7
1000

1040
0.0
1002
{
1002
}
1040
0.0
1002
{
1002
}
1040
0.0
1002
}
1002
{
1002
{
1010
-1.0
1020
-1.0
1030
-1.0
1002
}
1040
0.2
1000

1040
0.0
1002
{
1002
}
1040
0.0
1002
{
1002
}
1040
0.0
1002
}
1002
{
1070
     0
1002
{
1070
     1
1002
{
1040
1.0
1040
1.0
1000

1040
0.0
1002
{
1002
}
1040
0.0
1002
{
1002
}
1040
0.0
1002
}
1002
}
1040
1.0
1040
0.0
1040
0.0
1002
}
1002
{
1040
1.0
1040
1.0
1000

1040
0.0
1002
{
1002
}
1040
0.0
1002
{
1002
}
1040
0.0
1002
}
1002
{
1040
0.5
1040
1.0
1000

1040
0.0
1002
{
1002
}
1040
0.0
1002
{
1002
}
1040
0.0
1002
}
1002
{
1070
     0
1040
0.0
1002
{
1002
}
1040
1.0
1002
{
1002
}
1040
0.0
1002
}
1002
{
1040
0.0
1002
{
1002
{
1010
0.0
1020
0.0
1030
0.0
1002
}
1040
1.0
1000

1040
0.0
1002
{
1002
}
1040
0.0
1002
{
1002
}
1040
0.0
1002
}
1002
}
1002
{
1002
{
1070
     1
1002
{
1040
0.0
1040
1.0
1000

1040
0.0
1002
{
1002
}
1040
0.0
1002
{
1002
}
1040
0.0
1002
}
1002
}
1040
0.0
1002
{
1002
}
1010
1.0
1020
0.0
1030
0.0
1010
0.0
1020
1.0
1030
0.0
1010
0.0
1020
0.0
1030
1.0
1070
     0
1002
}
1002
{
1002
{
1040
1.0
1040
1.0
1002
{
1070
     1
1002
{
1040
1.0
1040
1.0
1000

1040
0.0
1002
{
1002
}
1040
0.0
1002
{
1002
}
1040
0.0
1002
}
1002
}
1002
}
1070
     0
1040
0.0
1002
{
1002
}
1002
}
1002
{
1002
}
1002
}
1002
{
1071
        3
1070
     3
1070
     0
1002
{
1070
     2
1070
     0
1070
     0
1040
0.0
1002
}
1070
     0
1070
     2
1002
{
1002
}
1002
}
1002
{
1040
8030.0
1040
190.300003
1040
0.305
1040
228.0
1040
545.0
1040
14.0
1040
17.4
1040
0.456
1002
}
1002
}
  0
INSERT
  5
30E4
  8
ASHADE
 62
     1
  2
AVE_GLOBAL
 10
0.0
 20
0.0
 30
0.0
1001
AVE_MATERIAL
1002
{
1000
*GLOBAL*
1000
1
1000
Global finish.
1002
{
1002
}
1002
{
1070
    63
1002
{
1002
{
1010
-1.0
1020
-1.0
1030
-1.0
1002
}
1040
0.1
1000

1040
0.0
1002
{
1002
}
1040
0.0
1002
{
1002
}
1040
0.0
1002
}
1002
{
1002
{
1010
-1.0
1020
-1.0
1030
-1.0
1002
}
1040
0.7
1000

1040
0.0
1002
{
1002
}
1040
0.0
1002
{
1002
}
1040
0.0
1002
}
1002
{
1002
{
1010
-1.0
1020
-1.0
1030
-1.0
1002
}
1040
0.2
1000

1040
0.0
1002
{
1002
}
1040
0.0
1002
{
1002
}
1040
0.0
1002
}
1002
{
1070
     0
1002
{
1070
     1
1002
{
1040
1.0
1040
1.0
1000

1040
0.0
1002
{
1002
}
1040
0.0
1002
{
1002
}
1040
0.0
1002
}
1002
}
1040
1.0
1040
0.0
1040
0.0
1002
}
1002
{
1040
1.0
1040
1.0
1000

1040
0.0
1002
{
1002
}
1040
0.0
1002
{
1002
}
1040
0.0
1002
}
1002
{
1040
0.5
1040
1.0
1000

1040
0.0
1002
{
1002
}
1040
0.0
1002
{
1002
}
1040
0.0
1002
}
1002
{
1070
     0
1040
0.0
1002
{
1002
}
1040
1.0
1002
{
1002
}
1040
0.0
1002
}
1002
{
1040
0.0
1002
{
1002
{
1010
0.0
1020
0.0
1030
0.0
1002
}
1040
1.0
1000

1040
0.0
1002
{
1002
}
1040
0.0
1002
{
1002
}
1040
0.0
1002
}
1002
}
1002
{
1002
{
1070
     1
1002
{
1040
0.0
1040
1.0
1000

1040
0.0
1002
{
1002
}
1040
0.0
1002
{
1002
}
1040
0.0
1002
}
1002
}
1040
0.0
1002
{
1002
}
1010
1.0
1020
0.0
1030
0.0
1010
0.0
1020
1.0
1030
0.0
1010
0.0
1020
0.0
1030
1.0
1070
     0
1002
}
1002
{
1002
{
1040
1.0
1040
1.0
1002
{
1070
     1
1002
{
1040
1.0
1040
1.0
1000

1040
0.0
1002
{
1002
}
1040
0.0
1002
{
1002
}
1040
0.0
1002
}
1002
}
1002
}
1070
     0
1040
0.0
1002
{
1002
}
1002
}
1002
{
1002
}
1002
}
1002
{
1071
        3
1070
     3
1070
     0
1002
{
1070
     2
1070
     0
1070
     0
1040
0.0
1002
}
1070
     0
1070
     2
1002
{
1002
}
1002
}
1002
{
1040
8030.0
1040
190.300003
1040
0.305
1040
228.0
1040
545.0
1040
14.0
1040
17.4
1040
0.456
1002
}
1002
}
  0
INSERT
  5
30E5
  8
ASHADE
  6
CONTINUOUS
 62
     1
  2
AVE_GLOBAL
 10
0.0
 20
0.0
 30
0.0
1001
AVE_MATERIAL
1002
{
1000
*GLOBAL*
1000
1
1000
Global finish.
1002
{
1002
}
1002
{
1070
    63
1002
{
1002
{
1010
-1.0
1020
-1.0
1030
-1.0
1002
}
1040
0.1
1000

1040
0.0
1002
{
1002
}
1040
0.0
1002
{
1002
}
1040
0.0
1002
}
1002
{
1002
{
1010
-1.0
1020
-1.0
1030
-1.0
1002
}
1040
0.7
1000

1040
0.0
1002
{
1002
}
1040
0.0
1002
{
1002
}
1040
0.0
1002
}
1002
{
1002
{
1010
-1.0
1020
-1.0
1030
-1.0
1002
}
1040
0.2
1000

1040
0.0
1002
{
1002
}
1040
0.0
1002
{
1002
}
1040
0.0
1002
}
1002
{
1070
     0
1002
{
1070
     1
1002
{
1040
1.0
1040
1.0
1000

1040
0.0
1002
{
1002
}
1040
0.0
1002
{
1002
}
1040
0.0
1002
}
1002
}
1040
1.0
1040
0.0
1040
0.0
1002
}
1002
{
1040
1.0
1040
1.0
1000

1040
0.0
1002
{
1002
}
1040
0.0
1002
{
1002
}
1040
0.0
1002
}
1002
{
1040
0.5
1040
1.0
1000

1040
0.0
1002
{
1002
}
1040
0.0
1002
{
1002
}
1040
0.0
1002
}
1002
{
1070
     0
1040
0.0
1002
{
1002
}
1040
1.0
1002
{
1002
}
1040
0.0
1002
}
1002
{
1040
0.0
1002
{
1002
{
1010
0.0
1020
0.0
1030
0.0
1002
}
1040
1.0
1000

1040
0.0
1002
{
1002
}
1040
0.0
1002
{
1002
}
1040
0.0
1002
}
1002
}
1002
{
1002
{
1070
     1
1002
{
1040
0.0
1040
1.0
1000

1040
0.0
1002
{
1002
}
1040
0.0
1002
{
1002
}
1040
0.0
1002
}
1002
}
1040
0.0
1002
{
1002
}
1010
1.0
1020
0.0
1030
0.0
1010
0.0
1020
1.0
1030
0.0
1010
0.0
1020
0.0
1030
1.0
1070
     0
1002
}
1002
{
1002
{
1040
1.0
1040
1.0
1002
{
1070
     1
1002
{
1040
1.0
1040
1.0
1000

1040
0.0
1002
{
1002
}
1040
0.0
1002
{
1002
}
1040
0.0
1002
}
1002
}
1002
}
1070
     0
1040
0.0
1002
{
1002
}
1002
}
1002
{
1002
}
1002
}
1002
{
1071
        3
1070
     3
1070
     0
1002
{
1070
     2
1070
     0
1070
     0
1040
0.0
1002
}
1070
     0
1070
     2
1002
{
1002
}
1002
}
1002
{
1040
8030.0
1040
190.300003
1040
0.305
1040
228.0
1040
545.0
1040
14.0
1040
17.4
1040
0.456
1002
}
1002
}
  0
INSERT
  5
30E6
  8
ASHADE
 62
     1
  2
AVE_GLOBAL
 10
0.0
 20
0.0
 30
0.0
1001
AVE_MATERIAL
1002
{
1000
*GLOBAL*
1000
1
1000
Global finish.
1002
{
1002
}
1002
{
1070
    63
1002
{
1002
{
1010
-1.0
1020
-1.0
1030
-1.0
1002
}
1040
0.1
1000

1040
0.0
1002
{
1002
}
1040
0.0
1002
{
1002
}
1040
0.0
1002
}
1002
{
1002
{
1010
-1.0
1020
-1.0
1030
-1.0
1002
}
1040
0.7
1000

1040
0.0
1002
{
1002
}
1040
0.0
1002
{
1002
}
1040
0.0
1002
}
1002
{
1002
{
1010
-1.0
1020
-1.0
1030
-1.0
1002
}
1040
0.2
1000

1040
0.0
1002
{
1002
}
1040
0.0
1002
{
1002
}
1040
0.0
1002
}
1002
{
1070
     0
1002
{
1070
     1
1002
{
1040
1.0
1040
1.0
1000

1040
0.0
1002
{
1002
}
1040
0.0
1002
{
1002
}
1040
0.0
1002
}
1002
}
1040
1.0
1040
0.0
1040
0.0
1002
}
1002
{
1040
1.0
1040
1.0
1000

1040
0.0
1002
{
1002
}
1040
0.0
1002
{
1002
}
1040
0.0
1002
}
1002
{
1040
0.5
1040
1.0
1000

1040
0.0
1002
{
1002
}
1040
0.0
1002
{
1002
}
1040
0.0
1002
}
1002
{
1070
     0
1040
0.0
1002
{
1002
}
1040
1.0
1002
{
1002
}
1040
0.0
1002
}
1002
{
1040
0.0
1002
{
1002
{
1010
0.0
1020
0.0
1030
0.0
1002
}
1040
1.0
1000

1040
0.0
1002
{
1002
}
1040
0.0
1002
{
1002
}
1040
0.0
1002
}
1002
}
1002
{
1002
{
1070
     1
1002
{
1040
0.0
1040
1.0
1000

1040
0.0
1002
{
1002
}
1040
0.0
1002
{
1002
}
1040
0.0
1002
}
1002
}
1040
0.0
1002
{
1002
}
1010
1.0
1020
0.0
1030
0.0
1010
0.0
1020
1.0
1030
0.0
1010
0.0
1020
0.0
1030
1.0
1070
     0
1002
}
1002
{
1002
{
1040
1.0
1040
1.0
1002
{
1070
     1
1002
{
1040
1.0
1040
1.0
1000

1040
0.0
1002
{
1002
}
1040
0.0
1002
{
1002
}
1040
0.0
1002
}
1002
}
1002
}
1070
     0
1040
0.0
1002
{
1002
}
1002
}
1002
{
1002
}
1002
}
1002
{
1071
        3
1070
     3
1070
     0
1002
{
1070
     2
1070
     0
1070
     0
1040
0.0
1002
}
1070
     0
1070
     2
1002
{
1002
}
1002
}
1002
{
1040
8030.0
1040
190.300003
1040
0.305
1040
228.0
1040
545.0
1040
14.0
1040
17.4
1040
0.456
1002
}
1002
}
  0
INSERT
  5
30E7
  8
ASHADE
 62
     1
  2
AVE_GLOBAL
 10
0.0
 20
0.0
 30
0.0
1001
AVE_MATERIAL
1002
{
1000
*GLOBAL*
1000
1
1000
Global finish.
1002
{
1002
}
1002
{
1070
    63
1002
{
1002
{
1010
-1.0
1020
-1.0
1030
-1.0
1002
}
1040
0.1
1000

1040
0.0
1002
{
1002
}
1040
0.0
1002
{
1002
}
1040
0.0
1002
}
1002
{
1002
{
1010
-1.0
1020
-1.0
1030
-1.0
1002
}
1040
0.7
1000

1040
0.0
1002
{
1002
}
1040
0.0
1002
{
1002
}
1040
0.0
1002
}
1002
{
1002
{
1010
-1.0
1020
-1.0
1030
-1.0
1002
}
1040
0.2
1000

1040
0.0
1002
{
1002
}
1040
0.0
1002
{
1002
}
1040
0.0
1002
}
1002
{
1070
     0
1002
{
1070
     1
1002
{
1040
1.0
1040
1.0
1000

1040
0.0
1002
{
1002
}
1040
0.0
1002
{
1002
}
1040
0.0
1002
}
1002
}
1040
1.0
1040
0.0
1040
0.0
1002
}
1002
{
1040
1.0
1040
1.0
1000

1040
0.0
1002
{
1002
}
1040
0.0
1002
{
1002
}
1040
0.0
1002
}
1002
{
1040
0.5
1040
1.0
1000

1040
0.0
1002
{
1002
}
1040
0.0
1002
{
1002
}
1040
0.0
1002
}
1002
{
1070
     0
1040
0.0
1002
{
1002
}
1040
1.0
1002
{
1002
}
1040
0.0
1002
}
1002
{
1040
0.0
1002
{
1002
{
1010
0.0
1020
0.0
1030
0.0
1002
}
1040
1.0
1000

1040
0.0
1002
{
1002
}
1040
0.0
1002
{
1002
}
1040
0.0
1002
}
1002
}
1002
{
1002
{
1070
     1
1002
{
1040
0.0
1040
1.0
1000

1040
0.0
1002
{
1002
}
1040
0.0
1002
{
1002
}
1040
0.0
1002
}
1002
}
1040
0.0
1002
{
1002
}
1010
1.0
1020
0.0
1030
0.0
1010
0.0
1020
1.0
1030
0.0
1010
0.0
1020
0.0
1030
1.0
1070
     0
1002
}
1002
{
1002
{
1040
1.0
1040
1.0
1002
{
1070
     1
1002
{
1040
1.0
1040
1.0
1000

1040
0.0
1002
{
1002
}
1040
0.0
1002
{
1002
}
1040
0.0
1002
}
1002
}
1002
}
1070
     0
1040
0.0
1002
{
1002
}
1002
}
1002
{
1002
}
1002
}
1002
{
1071
        3
1070
     3
1070
     0
1002
{
1070
     2
1070
     0
1070
     0
1040
0.0
1002
}
1070
     0
1070
     2
1002
{
1002
}
1002
}
1002
{
1040
8030.0
1040
190.300003
1040
0.305
1040
228.0
1040
545.0
1040
14.0
1040
17.4
1040
0.456
1002
}
1002
}
  0
INSERT
  5
30E8
  8
ASHADE
 62
     1
  2
AVE_GLOBAL
 10
0.0
 20
0.0
 30
0.0
1001
AVE_MATERIAL
1002
{
1000
*GLOBAL*
1000
1
1000
Global finish.
1002
{
1002
}
1002
{
1070
    63
1002
{
1002
{
1010
-1.0
1020
-1.0
1030
-1.0
1002
}
1040
0.1
1000

1040
0.0
1002
{
1002
}
1040
0.0
1002
{
1002
}
1040
0.0
1002
}
1002
{
1002
{
1010
-1.0
1020
-1.0
1030
-1.0
1002
}
1040
0.7
1000

1040
0.0
1002
{
1002
}
1040
0.0
1002
{
1002
}
1040
0.0
1002
}
1002
{
1002
{
1010
-1.0
1020
-1.0
1030
-1.0
1002
}
1040
0.2
1000

1040
0.0
1002
{
1002
}
1040
0.0
1002
{
1002
}
1040
0.0
1002
}
1002
{
1070
     0
1002
{
1070
     1
1002
{
1040
1.0
1040
1.0
1000

1040
0.0
1002
{
1002
}
1040
0.0
1002
{
1002
}
1040
0.0
1002
}
1002
}
1040
1.0
1040
0.0
1040
0.0
1002
}
1002
{
1040
1.0
1040
1.0
1000

1040
0.0
1002
{
1002
}
1040
0.0
1002
{
1002
}
1040
0.0
1002
}
1002
{
1040
0.5
1040
1.0
1000

1040
0.0
1002
{
1002
}
1040
0.0
1002
{
1002
}
1040
0.0
1002
}
1002
{
1070
     0
1040
0.0
1002
{
1002
}
1040
1.0
1002
{
1002
}
1040
0.0
1002
}
1002
{
1040
0.0
1002
{
1002
{
1010
0.0
1020
0.0
1030
0.0
1002
}
1040
1.0
1000

1040
0.0
1002
{
1002
}
1040
0.0
1002
{
1002
}
1040
0.0
1002
}
1002
}
1002
{
1002
{
1070
     1
1002
{
1040
0.0
1040
1.0
1000

1040
0.0
1002
{
1002
}
1040
0.0
1002
{
1002
}
1040
0.0
1002
}
1002
}
1040
0.0
1002
{
1002
}
1010
1.0
1020
0.0
1030
0.0
1010
0.0
1020
1.0
1030
0.0
1010
0.0
1020
0.0
1030
1.0
1070
     0
1002
}
1002
{
1002
{
1040
1.0
1040
1.0
1002
{
1070
     1
1002
{
1040
1.0
1040
1.0
1000

1040
0.0
1002
{
1002
}
1040
0.0
1002
{
1002
}
1040
0.0
1002
}
1002
}
1002
}
1070
     0
1040
0.0
1002
{
1002
}
1002
}
1002
{
1002
}
1002
}
1002
{
1071
        3
1070
     3
1070
     0
1002
{
1070
     2
1070
     0
1070
     0
1040
0.0
1002
}
1070
     0
1070
     2
1002
{
1002
}
1002
}
1002
{
1040
8030.0
1040
190.300003
1040
0.305
1040
228.0
1040
545.0
1040
14.0
1040
17.4
1040
0.456
1002
}
1002
}
  0
INSERT
  5
30E9
  8
ASHADE
 62
     1
  2
AVE_GLOBAL
 10
0.0
 20
0.0
 30
0.0
1001
AVE_MATERIAL
1002
{
1000
*GLOBAL*
1000
1
1000
Global finish.
1002
{
1002
}
1002
{
1070
    63
1002
{
1002
{
1010
-1.0
1020
-1.0
1030
-1.0
1002
}
1040
0.1
1000

1040
0.0
1002
{
1002
}
1040
0.0
1002
{
1002
}
1040
0.0
1002
}
1002
{
1002
{
1010
-1.0
1020
-1.0
1030
-1.0
1002
}
1040
0.7
1000

1040
0.0
1002
{
1002
}
1040
0.0
1002
{
1002
}
1040
0.0
1002
}
1002
{
1002
{
1010
-1.0
1020
-1.0
1030
-1.0
1002
}
1040
0.2
1000

1040
0.0
1002
{
1002
}
1040
0.0
1002
{
1002
}
1040
0.0
1002
}
1002
{
1070
     0
1002
{
1070
     1
1002
{
1040
1.0
1040
1.0
1000

1040
0.0
1002
{
1002
}
1040
0.0
1002
{
1002
}
1040
0.0
1002
}
1002
}
1040
1.0
1040
0.0
1040
0.0
1002
}
1002
{
1040
1.0
1040
1.0
1000

1040
0.0
1002
{
1002
}
1040
0.0
1002
{
1002
}
1040
0.0
1002
}
1002
{
1040
0.5
1040
1.0
1000

1040
0.0
1002
{
1002
}
1040
0.0
1002
{
1002
}
1040
0.0
1002
}
1002
{
1070
     0
1040
0.0
1002
{
1002
}
1040
1.0
1002
{
1002
}
1040
0.0
1002
}
1002
{
1040
0.0
1002
{
1002
{
1010
0.0
1020
0.0
1030
0.0
1002
}
1040
1.0
1000

1040
0.0
1002
{
1002
}
1040
0.0
1002
{
1002
}
1040
0.0
1002
}
1002
}
1002
{
1002
{
1070
     1
1002
{
1040
0.0
1040
1.0
1000

1040
0.0
1002
{
1002
}
1040
0.0
1002
{
1002
}
1040
0.0
1002
}
1002
}
1040
0.0
1002
{
1002
}
1010
1.0
1020
0.0
1030
0.0
1010
0.0
1020
1.0
1030
0.0
1010
0.0
1020
0.0
1030
1.0
1070
     0
1002
}
1002
{
1002
{
1040
1.0
1040
1.0
1002
{
1070
     1
1002
{
1040
1.0
1040
1.0
1000

1040
0.0
1002
{
1002
}
1040
0.0
1002
{
1002
}
1040
0.0
1002
}
1002
}
1002
}
1070
     0
1040
0.0
1002
{
1002
}
1002
}
1002
{
1002
}
1002
}
1002
{
1071
        3
1070
     3
1070
     0
1002
{
1070
     2
1070
     0
1070
     0
1040
0.0
1002
}
1070
     0
1070
     2
1002
{
1002
}
1002
}
1002
{
1040
8030.0
1040
190.300003
1040
0.305
1040
228.0
1040
545.0
1040
14.0
1040
17.4
1040
0.456
1002
}
1002
}
  0
INSERT
  5
30EA
  8
ASHADE
 62
     1
  2
AVE_GLOBAL
 10
0.0
 20
0.0
 30
0.0
1001
AVE_MATERIAL
1002
{
1000
*GLOBAL*
1000
1
1000
Global finish.
1002
{
1002
}
1002
{
1070
    63
1002
{
1002
{
1010
-1.0
1020
-1.0
1030
-1.0
1002
}
1040
0.1
1000

1040
0.0
1002
{
1002
}
1040
0.0
1002
{
1002
}
1040
0.0
1002
}
1002
{
1002
{
1010
-1.0
1020
-1.0
1030
-1.0
1002
}
1040
0.7
1000

1040
0.0
1002
{
1002
}
1040
0.0
1002
{
1002
}
1040
0.0
1002
}
1002
{
1002
{
1010
-1.0
1020
-1.0
1030
-1.0
1002
}
1040
0.2
1000

1040
0.0
1002
{
1002
}
1040
0.0
1002
{
1002
}
1040
0.0
1002
}
1002
{
1070
     0
1002
{
1070
     1
1002
{
1040
1.0
1040
1.0
1000

1040
0.0
1002
{
1002
}
1040
0.0
1002
{
1002
}
1040
0.0
1002
}
1002
}
1040
1.0
1040
0.0
1040
0.0
1002
}
1002
{
1040
1.0
1040
1.0
1000

1040
0.0
1002
{
1002
}
1040
0.0
1002
{
1002
}
1040
0.0
1002
}
1002
{
1040
0.5
1040
1.0
1000

1040
0.0
1002
{
1002
}
1040
0.0
1002
{
1002
}
1040
0.0
1002
}
1002
{
1070
     0
1040
0.0
1002
{
1002
}
1040
1.0
1002
{
1002
}
1040
0.0
1002
}
1002
{
1040
0.0
1002
{
1002
{
1010
0.0
1020
0.0
1030
0.0
1002
}
1040
1.0
1000

1040
0.0
1002
{
1002
}
1040
0.0
1002
{
1002
}
1040
0.0
1002
}
1002
}
1002
{
1002
{
1070
     1
1002
{
1040
0.0
1040
1.0
1000

1040
0.0
1002
{
1002
}
1040
0.0
1002
{
1002
}
1040
0.0
1002
}
1002
}
1040
0.0
1002
{
1002
}
1010
1.0
1020
0.0
1030
0.0
1010
0.0
1020
1.0
1030
0.0
1010
0.0
1020
0.0
1030
1.0
1070
     0
1002
}
1002
{
1002
{
1040
1.0
1040
1.0
1002
{
1070
     1
1002
{
1040
1.0
1040
1.0
1000

1040
0.0
1002
{
1002
}
1040
0.0
1002
{
1002
}
1040
0.0
1002
}
1002
}
1002
}
1070
     0
1040
0.0
1002
{
1002
}
1002
}
1002
{
1002
}
1002
}
1002
{
1071
        3
1070
     3
1070
     0
1002
{
1070
     2
1070
     0
1070
     0
1040
0.0
1002
}
1070
     0
1070
     2
1002
{
1002
}
1002
}
1002
{
1040
8030.0
1040
190.300003
1040
0.305
1040
228.0
1040
545.0
1040
14.0
1040
17.4
1040
0.456
1002
}
1002
}
  0
INSERT
  5
30EB
  8
ASHADE
 62
     1
  2
AVE_GLOBAL
 10
0.0
 20
0.0
 30
0.0
1001
AVE_MATERIAL
1002
{
1000
*GLOBAL*
1000
1
1000
Global finish.
1002
{
1002
}
1002
{
1070
    63
1002
{
1002
{
1010
-1.0
1020
-1.0
1030
-1.0
1002
}
1040
0.1
1000

1040
0.0
1002
{
1002
}
1040
0.0
1002
{
1002
}
1040
0.0
1002
}
1002
{
1002
{
1010
-1.0
1020
-1.0
1030
-1.0
1002
}
1040
0.7
1000

1040
0.0
1002
{
1002
}
1040
0.0
1002
{
1002
}
1040
0.0
1002
}
1002
{
1002
{
1010
-1.0
1020
-1.0
1030
-1.0
1002
}
1040
0.2
1000

1040
0.0
1002
{
1002
}
1040
0.0
1002
{
1002
}
1040
0.0
1002
}
1002
{
1070
     0
1002
{
1070
     1
1002
{
1040
1.0
1040
1.0
1000

1040
0.0
1002
{
1002
}
1040
0.0
1002
{
1002
}
1040
0.0
1002
}
1002
}
1040
1.0
1040
0.0
1040
0.0
1002
}
1002
{
1040
1.0
1040
1.0
1000

1040
0.0
1002
{
1002
}
1040
0.0
1002
{
1002
}
1040
0.0
1002
}
1002
{
1040
0.5
1040
1.0
1000

1040
0.0
1002
{
1002
}
1040
0.0
1002
{
1002
}
1040
0.0
1002
}
1002
{
1070
     0
1040
0.0
1002
{
1002
}
1040
1.0
1002
{
1002
}
1040
0.0
1002
}
1002
{
1040
0.0
1002
{
1002
{
1010
0.0
1020
0.0
1030
0.0
1002
}
1040
1.0
1000

1040
0.0
1002
{
1002
}
1040
0.0
1002
{
1002
}
1040
0.0
1002
}
1002
}
1002
{
1002
{
1070
     1
1002
{
1040
0.0
1040
1.0
1000

1040
0.0
1002
{
1002
}
1040
0.0
1002
{
1002
}
1040
0.0
1002
}
1002
}
1040
0.0
1002
{
1002
}
1010
1.0
1020
0.0
1030
0.0
1010
0.0
1020
1.0
1030
0.0
1010
0.0
1020
0.0
1030
1.0
1070
     0
1002
}
1002
{
1002
{
1040
1.0
1040
1.0
1002
{
1070
     1
1002
{
1040
1.0
1040
1.0
1000

1040
0.0
1002
{
1002
}
1040
0.0
1002
{
1002
}
1040
0.0
1002
}
1002
}
1002
}
1070
     0
1040
0.0
1002
{
1002
}
1002
}
1002
{
1002
}
1002
}
1002
{
1071
        3
1070
     3
1070
     0
1002
{
1070
     2
1070
     0
1070
     0
1040
0.0
1002
}
1070
     0
1070
     2
1002
{
1002
}
1002
}
1002
{
1040
8030.0
1040
190.300003
1040
0.305
1040
228.0
1040
545.0
1040
14.0
1040
17.4
1040
0.456
1002
}
1002
}
  0
INSERT
  5
30EC
  8
ASHADE
  6
CONTINUOUS
 62
     1
  2
AVE_GLOBAL
 10
0.0
 20
0.0
 30
0.0
1001
AVE_MATERIAL
1002
{
1000
*GLOBAL*
1000
1
1000
Global finish.
1002
{
1002
}
1002
{
1070
    63
1002
{
1002
{
1010
-1.0
1020
-1.0
1030
-1.0
1002
}
1040
0.1
1000

1040
0.0
1002
{
1002
}
1040
0.0
1002
{
1002
}
1040
0.0
1002
}
1002
{
1002
{
1010
-1.0
1020
-1.0
1030
-1.0
1002
}
1040
0.7
1000

1040
0.0
1002
{
1002
}
1040
0.0
1002
{
1002
}
1040
0.0
1002
}
1002
{
1002
{
1010
-1.0
1020
-1.0
1030
-1.0
1002
}
1040
0.2
1000

1040
0.0
1002
{
1002
}
1040
0.0
1002
{
1002
}
1040
0.0
1002
}
1002
{
1070
     0
1002
{
1070
     1
1002
{
1040
1.0
1040
1.0
1000

1040
0.0
1002
{
1002
}
1040
0.0
1002
{
1002
}
1040
0.0
1002
}
1002
}
1040
1.0
1040
0.0
1040
0.0
1002
}
1002
{
1040
1.0
1040
1.0
1000

1040
0.0
1002
{
1002
}
1040
0.0
1002
{
1002
}
1040
0.0
1002
}
1002
{
1040
0.5
1040
1.0
1000

1040
0.0
1002
{
1002
}
1040
0.0
1002
{
1002
}
1040
0.0
1002
}
1002
{
1070
     0
1040
0.0
1002
{
1002
}
1040
1.0
1002
{
1002
}
1040
0.0
1002
}
1002
{
1040
0.0
1002
{
1002
{
1010
0.0
1020
0.0
1030
0.0
1002
}
1040
1.0
1000

1040
0.0
1002
{
1002
}
1040
0.0
1002
{
1002
}
1040
0.0
1002
}
1002
}
1002
{
1002
{
1070
     1
1002
{
1040
0.0
1040
1.0
1000

1040
0.0
1002
{
1002
}
1040
0.0
1002
{
1002
}
1040
0.0
1002
}
1002
}
1040
0.0
1002
{
1002
}
1010
1.0
1020
0.0
1030
0.0
1010
0.0
1020
1.0
1030
0.0
1010
0.0
1020
0.0
1030
1.0
1070
     0
1002
}
1002
{
1002
{
1040
1.0
1040
1.0
1002
{
1070
     1
1002
{
1040
1.0
1040
1.0
1000

1040
0.0
1002
{
1002
}
1040
0.0
1002
{
1002
}
1040
0.0
1002
}
1002
}
1002
}
1070
     0
1040
0.0
1002
{
1002
}
1002
}
1002
{
1002
}
1002
}
1002
{
1071
        3
1070
     3
1070
     0
1002
{
1070
     2
1070
     0
1070
     0
1040
0.0
1002
}
1070
     0
1070
     2
1002
{
1002
}
1002
}
1002
{
1040
8030.0
1040
190.300003
1040
0.305
1040
228.0
1040
545.0
1040
14.0
1040
17.4
1040
0.456
1002
}
1002
}
  0
INSERT
  5
30ED
  8
ASHADE
 62
     1
  2
AVE_GLOBAL
 10
0.0
 20
0.0
 30
0.0
1001
AVE_MATERIAL
1002
{
1000
*GLOBAL*
1000
1
1000
Global finish.
1002
{
1002
}
1002
{
1070
    63
1002
{
1002
{
1010
-1.0
1020
-1.0
1030
-1.0
1002
}
1040
0.1
1000

1040
0.0
1002
{
1002
}
1040
0.0
1002
{
1002
}
1040
0.0
1002
}
1002
{
1002
{
1010
-1.0
1020
-1.0
1030
-1.0
1002
}
1040
0.7
1000

1040
0.0
1002
{
1002
}
1040
0.0
1002
{
1002
}
1040
0.0
1002
}
1002
{
1002
{
1010
-1.0
1020
-1.0
1030
-1.0
1002
}
1040
0.2
1000

1040
0.0
1002
{
1002
}
1040
0.0
1002
{
1002
}
1040
0.0
1002
}
1002
{
1070
     0
1002
{
1070
     1
1002
{
1040
1.0
1040
1.0
1000

1040
0.0
1002
{
1002
}
1040
0.0
1002
{
1002
}
1040
0.0
1002
}
1002
}
1040
1.0
1040
0.0
1040
0.0
1002
}
1002
{
1040
1.0
1040
1.0
1000

1040
0.0
1002
{
1002
}
1040
0.0
1002
{
1002
}
1040
0.0
1002
}
1002
{
1040
0.5
1040
1.0
1000

1040
0.0
1002
{
1002
}
1040
0.0
1002
{
1002
}
1040
0.0
1002
}
1002
{
1070
     0
1040
0.0
1002
{
1002
}
1040
1.0
1002
{
1002
}
1040
0.0
1002
}
1002
{
1040
0.0
1002
{
1002
{
1010
0.0
1020
0.0
1030
0.0
1002
}
1040
1.0
1000

1040
0.0
1002
{
1002
}
1040
0.0
1002
{
1002
}
1040
0.0
1002
}
1002
}
1002
{
1002
{
1070
     1
1002
{
1040
0.0
1040
1.0
1000

1040
0.0
1002
{
1002
}
1040
0.0
1002
{
1002
}
1040
0.0
1002
}
1002
}
1040
0.0
1002
{
1002
}
1010
1.0
1020
0.0
1030
0.0
1010
0.0
1020
1.0
1030
0.0
1010
0.0
1020
0.0
1030
1.0
1070
     0
1002
}
1002
{
1002
{
1040
1.0
1040
1.0
1002
{
1070
     1
1002
{
1040
1.0
1040
1.0
1000

1040
0.0
1002
{
1002
}
1040
0.0
1002
{
1002
}
1040
0.0
1002
}
1002
}
1002
}
1070
     0
1040
0.0
1002
{
1002
}
1002
}
1002
{
1002
}
1002
}
1002
{
1071
        3
1070
     3
1070
     0
1002
{
1070
     2
1070
     0
1070
     0
1040
0.0
1002
}
1070
     0
1070
     2
1002
{
1002
}
1002
}
1002
{
1040
8030.0
1040
190.300003
1040
0.305
1040
228.0
1040
545.0
1040
14.0
1040
17.4
1040
0.456
1002
}
1002
}
  0
INSERT
  5
30EE
  8
ASHADE
 62
     1
  2
AVE_GLOBAL
 10
0.0
 20
0.0
 30
0.0
1001
AVE_MATERIAL
1002
{
1000
*GLOBAL*
1000
1
1000
Global finish.
1002
{
1002
}
1002
{
1070
    63
1002
{
1002
{
1010
-1.0
1020
-1.0
1030
-1.0
1002
}
1040
0.1
1000

1040
0.0
1002
{
1002
}
1040
0.0
1002
{
1002
}
1040
0.0
1002
}
1002
{
1002
{
1010
-1.0
1020
-1.0
1030
-1.0
1002
}
1040
0.7
1000

1040
0.0
1002
{
1002
}
1040
0.0
1002
{
1002
}
1040
0.0
1002
}
1002
{
1002
{
1010
-1.0
1020
-1.0
1030
-1.0
1002
}
1040
0.2
1000

1040
0.0
1002
{
1002
}
1040
0.0
1002
{
1002
}
1040
0.0
1002
}
1002
{
1070
     0
1002
{
1070
     1
1002
{
1040
1.0
1040
1.0
1000

1040
0.0
1002
{
1002
}
1040
0.0
1002
{
1002
}
1040
0.0
1002
}
1002
}
1040
1.0
1040
0.0
1040
0.0
1002
}
1002
{
1040
1.0
1040
1.0
1000

1040
0.0
1002
{
1002
}
1040
0.0
1002
{
1002
}
1040
0.0
1002
}
1002
{
1040
0.5
1040
1.0
1000

1040
0.0
1002
{
1002
}
1040
0.0
1002
{
1002
}
1040
0.0
1002
}
1002
{
1070
     0
1040
0.0
1002
{
1002
}
1040
1.0
1002
{
1002
}
1040
0.0
1002
}
1002
{
1040
0.0
1002
{
1002
{
1010
0.0
1020
0.0
1030
0.0
1002
}
1040
1.0
1000

1040
0.0
1002
{
1002
}
1040
0.0
1002
{
1002
}
1040
0.0
1002
}
1002
}
1002
{
1002
{
1070
     1
1002
{
1040
0.0
1040
1.0
1000

1040
0.0
1002
{
1002
}
1040
0.0
1002
{
1002
}
1040
0.0
1002
}
1002
}
1040
0.0
1002
{
1002
}
1010
1.0
1020
0.0
1030
0.0
1010
0.0
1020
1.0
1030
0.0
1010
0.0
1020
0.0
1030
1.0
1070
     0
1002
}
1002
{
1002
{
1040
1.0
1040
1.0
1002
{
1070
     1
1002
{
1040
1.0
1040
1.0
1000

1040
0.0
1002
{
1002
}
1040
0.0
1002
{
1002
}
1040
0.0
1002
}
1002
}
1002
}
1070
     0
1040
0.0
1002
{
1002
}
1002
}
1002
{
1002
}
1002
}
1002
{
1071
        3
1070
     3
1070
     0
1002
{
1070
     2
1070
     0
1070
     0
1040
0.0
1002
}
1070
     0
1070
     2
1002
{
1002
}
1002
}
1002
{
1040
8030.0
1040
190.300003
1040
0.305
1040
228.0
1040
545.0
1040
14.0
1040
17.4
1040
0.456
1002
}
1002
}
  0
INSERT
  5
30EF
  8
ASHADE
 62
     1
  2
AVE_GLOBAL
 10
0.0
 20
0.0
 30
0.0
1001
AVE_MATERIAL
1002
{
1000
*GLOBAL*
1000
1
1000
Global finish.
1002
{
1002
}
1002
{
1070
    63
1002
{
1002
{
1010
-1.0
1020
-1.0
1030
-1.0
1002
}
1040
0.1
1000

1040
0.0
1002
{
1002
}
1040
0.0
1002
{
1002
}
1040
0.0
1002
}
1002
{
1002
{
1010
-1.0
1020
-1.0
1030
-1.0
1002
}
1040
0.7
1000

1040
0.0
1002
{
1002
}
1040
0.0
1002
{
1002
}
1040
0.0
1002
}
1002
{
1002
{
1010
-1.0
1020
-1.0
1030
-1.0
1002
}
1040
0.2
1000

1040
0.0
1002
{
1002
}
1040
0.0
1002
{
1002
}
1040
0.0
1002
}
1002
{
1070
     0
1002
{
1070
     1
1002
{
1040
1.0
1040
1.0
1000

1040
0.0
1002
{
1002
}
1040
0.0
1002
{
1002
}
1040
0.0
1002
}
1002
}
1040
1.0
1040
0.0
1040
0.0
1002
}
1002
{
1040
1.0
1040
1.0
1000

1040
0.0
1002
{
1002
}
1040
0.0
1002
{
1002
}
1040
0.0
1002
}
1002
{
1040
0.5
1040
1.0
1000

1040
0.0
1002
{
1002
}
1040
0.0
1002
{
1002
}
1040
0.0
1002
}
1002
{
1070
     0
1040
0.0
1002
{
1002
}
1040
1.0
1002
{
1002
}
1040
0.0
1002
}
1002
{
1040
0.0
1002
{
1002
{
1010
0.0
1020
0.0
1030
0.0
1002
}
1040
1.0
1000

1040
0.0
1002
{
1002
}
1040
0.0
1002
{
1002
}
1040
0.0
1002
}
1002
}
1002
{
1002
{
1070
     1
1002
{
1040
0.0
1040
1.0
1000

1040
0.0
1002
{
1002
}
1040
0.0
1002
{
1002
}
1040
0.0
1002
}
1002
}
1040
0.0
1002
{
1002
}
1010
1.0
1020
0.0
1030
0.0
1010
0.0
1020
1.0
1030
0.0
1010
0.0
1020
0.0
1030
1.0
1070
     0
1002
}
1002
{
1002
{
1040
1.0
1040
1.0
1002
{
1070
     1
1002
{
1040
1.0
1040
1.0
1000

1040
0.0
1002
{
1002
}
1040
0.0
1002
{
1002
}
1040
0.0
1002
}
1002
}
1002
}
1070
     0
1040
0.0
1002
{
1002
}
1002
}
1002
{
1002
}
1002
}
1002
{
1071
        3
1070
     3
1070
     0
1002
{
1070
     2
1070
     0
1070
     0
1040
0.0
1002
}
1070
     0
1070
     2
1002
{
1002
}
1002
}
1002
{
1040
8030.0
1040
190.300003
1040
0.305
1040
228.0
1040
545.0
1040
14.0
1040
17.4
1040
0.456
1002
}
1002
}
  0
INSERT
  5
30F0
  8
ASHADE
 62
     1
  2
AVE_GLOBAL
 10
0.0
 20
0.0
 30
0.0
1001
AVE_MATERIAL
1002
{
1000
*GLOBAL*
1000
1
1000
Global finish.
1002
{
1002
}
1002
{
1070
    63
1002
{
1002
{
1010
-1.0
1020
-1.0
1030
-1.0
1002
}
1040
0.1
1000

1040
0.0
1002
{
1002
}
1040
0.0
1002
{
1002
}
1040
0.0
1002
}
1002
{
1002
{
1010
-1.0
1020
-1.0
1030
-1.0
1002
}
1040
0.7
1000

1040
0.0
1002
{
1002
}
1040
0.0
1002
{
1002
}
1040
0.0
1002
}
1002
{
1002
{
1010
-1.0
1020
-1.0
1030
-1.0
1002
}
1040
0.2
1000

1040
0.0
1002
{
1002
}
1040
0.0
1002
{
1002
}
1040
0.0
1002
}
1002
{
1070
     0
1002
{
1070
     1
1002
{
1040
1.0
1040
1.0
1000

1040
0.0
1002
{
1002
}
1040
0.0
1002
{
1002
}
1040
0.0
1002
}
1002
}
1040
1.0
1040
0.0
1040
0.0
1002
}
1002
{
1040
1.0
1040
1.0
1000

1040
0.0
1002
{
1002
}
1040
0.0
1002
{
1002
}
1040
0.0
1002
}
1002
{
1040
0.5
1040
1.0
1000

1040
0.0
1002
{
1002
}
1040
0.0
1002
{
1002
}
1040
0.0
1002
}
1002
{
1070
     0
1040
0.0
1002
{
1002
}
1040
1.0
1002
{
1002
}
1040
0.0
1002
}
1002
{
1040
0.0
1002
{
1002
{
1010
0.0
1020
0.0
1030
0.0
1002
}
1040
1.0
1000

1040
0.0
1002
{
1002
}
1040
0.0
1002
{
1002
}
1040
0.0
1002
}
1002
}
1002
{
1002
{
1070
     1
1002
{
1040
0.0
1040
1.0
1000

1040
0.0
1002
{
1002
}
1040
0.0
1002
{
1002
}
1040
0.0
1002
}
1002
}
1040
0.0
1002
{
1002
}
1010
1.0
1020
0.0
1030
0.0
1010
0.0
1020
1.0
1030
0.0
1010
0.0
1020
0.0
1030
1.0
1070
     0
1002
}
1002
{
1002
{
1040
1.0
1040
1.0
1002
{
1070
     1
1002
{
1040
1.0
1040
1.0
1000

1040
0.0
1002
{
1002
}
1040
0.0
1002
{
1002
}
1040
0.0
1002
}
1002
}
1002
}
1070
     0
1040
0.0
1002
{
1002
}
1002
}
1002
{
1002
}
1002
}
1002
{
1071
        3
1070
     3
1070
     0
1002
{
1070
     2
1070
     0
1070
     0
1040
0.0
1002
}
1070
     0
1070
     2
1002
{
1002
}
1002
}
1002
{
1040
8030.0
1040
190.300003
1040
0.305
1040
228.0
1040
545.0
1040
14.0
1040
17.4
1040
0.456
1002
}
1002
}
  0
INSERT
  5
30F1
  8
ASHADE
 62
     1
  2
AVE_GLOBAL
 10
0.0
 20
0.0
 30
0.0
1001
AVE_MATERIAL
1002
{
1000
*GLOBAL*
1000
1
1000
Global finish.
1002
{
1002
}
1002
{
1070
    63
1002
{
1002
{
1010
-1.0
1020
-1.0
1030
-1.0
1002
}
1040
0.1
1000

1040
0.0
1002
{
1002
}
1040
0.0
1002
{
1002
}
1040
0.0
1002
}
1002
{
1002
{
1010
-1.0
1020
-1.0
1030
-1.0
1002
}
1040
0.7
1000

1040
0.0
1002
{
1002
}
1040
0.0
1002
{
1002
}
1040
0.0
1002
}
1002
{
1002
{
1010
-1.0
1020
-1.0
1030
-1.0
1002
}
1040
0.2
1000

1040
0.0
1002
{
1002
}
1040
0.0
1002
{
1002
}
1040
0.0
1002
}
1002
{
1070
     0
1002
{
1070
     1
1002
{
1040
1.0
1040
1.0
1000

1040
0.0
1002
{
1002
}
1040
0.0
1002
{
1002
}
1040
0.0
1002
}
1002
}
1040
1.0
1040
0.0
1040
0.0
1002
}
1002
{
1040
1.0
1040
1.0
1000

1040
0.0
1002
{
1002
}
1040
0.0
1002
{
1002
}
1040
0.0
1002
}
1002
{
1040
0.5
1040
1.0
1000

1040
0.0
1002
{
1002
}
1040
0.0
1002
{
1002
}
1040
0.0
1002
}
1002
{
1070
     0
1040
0.0
1002
{
1002
}
1040
1.0
1002
{
1002
}
1040
0.0
1002
}
1002
{
1040
0.0
1002
{
1002
{
1010
0.0
1020
0.0
1030
0.0
1002
}
1040
1.0
1000

1040
0.0
1002
{
1002
}
1040
0.0
1002
{
1002
}
1040
0.0
1002
}
1002
}
1002
{
1002
{
1070
     1
1002
{
1040
0.0
1040
1.0
1000

1040
0.0
1002
{
1002
}
1040
0.0
1002
{
1002
}
1040
0.0
1002
}
1002
}
1040
0.0
1002
{
1002
}
1010
1.0
1020
0.0
1030
0.0
1010
0.0
1020
1.0
1030
0.0
1010
0.0
1020
0.0
1030
1.0
1070
     0
1002
}
1002
{
1002
{
1040
1.0
1040
1.0
1002
{
1070
     1
1002
{
1040
1.0
1040
1.0
1000

1040
0.0
1002
{
1002
}
1040
0.0
1002
{
1002
}
1040
0.0
1002
}
1002
}
1002
}
1070
     0
1040
0.0
1002
{
1002
}
1002
}
1002
{
1002
}
1002
}
1002
{
1071
        3
1070
     3
1070
     0
1002
{
1070
     2
1070
     0
1070
     0
1040
0.0
1002
}
1070
     0
1070
     2
1002
{
1002
}
1002
}
1002
{
1040
8030.0
1040
190.300003
1040
0.305
1040
228.0
1040
545.0
1040
14.0
1040
17.4
1040
0.456
1002
}
1002
}
  0
INSERT
  5
30F2
  8
ASHADE
 62
     1
  2
AVE_GLOBAL
 10
0.0
 20
0.0
 30
0.0
1001
AVE_MATERIAL
1002
{
1000
*GLOBAL*
1000
1
1000
Global finish.
1002
{
1002
}
1002
{
1070
    63
1002
{
1002
{
1010
-1.0
1020
-1.0
1030
-1.0
1002
}
1040
0.1
1000

1040
0.0
1002
{
1002
}
1040
0.0
1002
{
1002
}
1040
0.0
1002
}
1002
{
1002
{
1010
-1.0
1020
-1.0
1030
-1.0
1002
}
1040
0.7
1000

1040
0.0
1002
{
1002
}
1040
0.0
1002
{
1002
}
1040
0.0
1002
}
1002
{
1002
{
1010
-1.0
1020
-1.0
1030
-1.0
1002
}
1040
0.2
1000

1040
0.0
1002
{
1002
}
1040
0.0
1002
{
1002
}
1040
0.0
1002
}
1002
{
1070
     0
1002
{
1070
     1
1002
{
1040
1.0
1040
1.0
1000

1040
0.0
1002
{
1002
}
1040
0.0
1002
{
1002
}
1040
0.0
1002
}
1002
}
1040
1.0
1040
0.0
1040
0.0
1002
}
1002
{
1040
1.0
1040
1.0
1000

1040
0.0
1002
{
1002
}
1040
0.0
1002
{
1002
}
1040
0.0
1002
}
1002
{
1040
0.5
1040
1.0
1000

1040
0.0
1002
{
1002
}
1040
0.0
1002
{
1002
}
1040
0.0
1002
}
1002
{
1070
     0
1040
0.0
1002
{
1002
}
1040
1.0
1002
{
1002
}
1040
0.0
1002
}
1002
{
1040
0.0
1002
{
1002
{
1010
0.0
1020
0.0
1030
0.0
1002
}
1040
1.0
1000

1040
0.0
1002
{
1002
}
1040
0.0
1002
{
1002
}
1040
0.0
1002
}
1002
}
1002
{
1002
{
1070
     1
1002
{
1040
0.0
1040
1.0
1000

1040
0.0
1002
{
1002
}
1040
0.0
1002
{
1002
}
1040
0.0
1002
}
1002
}
1040
0.0
1002
{
1002
}
1010
1.0
1020
0.0
1030
0.0
1010
0.0
1020
1.0
1030
0.0
1010
0.0
1020
0.0
1030
1.0
1070
     0
1002
}
1002
{
1002
{
1040
1.0
1040
1.0
1002
{
1070
     1
1002
{
1040
1.0
1040
1.0
1000

1040
0.0
1002
{
1002
}
1040
0.0
1002
{
1002
}
1040
0.0
1002
}
1002
}
1002
}
1070
     0
1040
0.0
1002
{
1002
}
1002
}
1002
{
1002
}
1002
}
1002
{
1071
        3
1070
     3
1070
     0
1002
{
1070
     2
1070
     0
1070
     0
1040
0.0
1002
}
1070
     0
1070
     2
1002
{
1002
}
1002
}
1002
{
1040
8030.0
1040
190.300003
1040
0.305
1040
228.0
1040
545.0
1040
14.0
1040
17.4
1040
0.456
1002
}
1002
}
  0
INSERT
  5
30F3
  8
ASHADE
 62
     1
  2
AVE_GLOBAL
 10
0.0
 20
0.0
 30
0.0
1001
AVE_MATERIAL
1002
{
1000
*GLOBAL*
1000
1
1000
Global finish.
1002
{
1002
}
1002
{
1070
    63
1002
{
1002
{
1010
-1.0
1020
-1.0
1030
-1.0
1002
}
1040
0.1
1000

1040
0.0
1002
{
1002
}
1040
0.0
1002
{
1002
}
1040
0.0
1002
}
1002
{
1002
{
1010
-1.0
1020
-1.0
1030
-1.0
1002
}
1040
0.7
1000

1040
0.0
1002
{
1002
}
1040
0.0
1002
{
1002
}
1040
0.0
1002
}
1002
{
1002
{
1010
-1.0
1020
-1.0
1030
-1.0
1002
}
1040
0.2
1000

1040
0.0
1002
{
1002
}
1040
0.0
1002
{
1002
}
1040
0.0
1002
}
1002
{
1070
     0
1002
{
1070
     1
1002
{
1040
1.0
1040
1.0
1000

1040
0.0
1002
{
1002
}
1040
0.0
1002
{
1002
}
1040
0.0
1002
}
1002
}
1040
1.0
1040
0.0
1040
0.0
1002
}
1002
{
1040
1.0
1040
1.0
1000

1040
0.0
1002
{
1002
}
1040
0.0
1002
{
1002
}
1040
0.0
1002
}
1002
{
1040
0.5
1040
1.0
1000

1040
0.0
1002
{
1002
}
1040
0.0
1002
{
1002
}
1040
0.0
1002
}
1002
{
1070
     0
1040
0.0
1002
{
1002
}
1040
1.0
1002
{
1002
}
1040
0.0
1002
}
1002
{
1040
0.0
1002
{
1002
{
1010
0.0
1020
0.0
1030
0.0
1002
}
1040
1.0
1000

1040
0.0
1002
{
1002
}
1040
0.0
1002
{
1002
}
1040
0.0
1002
}
1002
}
1002
{
1002
{
1070
     1
1002
{
1040
0.0
1040
1.0
1000

1040
0.0
1002
{
1002
}
1040
0.0
1002
{
1002
}
1040
0.0
1002
}
1002
}
1040
0.0
1002
{
1002
}
1010
1.0
1020
0.0
1030
0.0
1010
0.0
1020
1.0
1030
0.0
1010
0.0
1020
0.0
1030
1.0
1070
     0
1002
}
1002
{
1002
{
1040
1.0
1040
1.0
1002
{
1070
     1
1002
{
1040
1.0
1040
1.0
1000

1040
0.0
1002
{
1002
}
1040
0.0
1002
{
1002
}
1040
0.0
1002
}
1002
}
1002
}
1070
     0
1040
0.0
1002
{
1002
}
1002
}
1002
{
1002
}
1002
}
1002
{
1071
        3
1070
     3
1070
     0
1002
{
1070
     2
1070
     0
1070
     0
1040
0.0
1002
}
1070
     0
1070
     2
1002
{
1002
}
1002
}
1002
{
1040
8030.0
1040
190.300003
1040
0.305
1040
228.0
1040
545.0
1040
14.0
1040
17.4
1040
0.456
1002
}
1002
}
  0
INSERT
  5
30F4
  8
ASHADE
 62
     1
  2
AVE_GLOBAL
 10
0.0
 20
0.0
 30
0.0
1001
AVE_MATERIAL
1002
{
1000
*GLOBAL*
1000
1
1000
Global finish.
1002
{
1002
}
1002
{
1070
    63
1002
{
1002
{
1010
-1.0
1020
-1.0
1030
-1.0
1002
}
1040
0.1
1000

1040
0.0
1002
{
1002
}
1040
0.0
1002
{
1002
}
1040
0.0
1002
}
1002
{
1002
{
1010
-1.0
1020
-1.0
1030
-1.0
1002
}
1040
0.7
1000

1040
0.0
1002
{
1002
}
1040
0.0
1002
{
1002
}
1040
0.0
1002
}
1002
{
1002
{
1010
-1.0
1020
-1.0
1030
-1.0
1002
}
1040
0.2
1000

1040
0.0
1002
{
1002
}
1040
0.0
1002
{
1002
}
1040
0.0
1002
}
1002
{
1070
     0
1002
{
1070
     1
1002
{
1040
1.0
1040
1.0
1000

1040
0.0
1002
{
1002
}
1040
0.0
1002
{
1002
}
1040
0.0
1002
}
1002
}
1040
1.0
1040
0.0
1040
0.0
1002
}
1002
{
1040
1.0
1040
1.0
1000

1040
0.0
1002
{
1002
}
1040
0.0
1002
{
1002
}
1040
0.0
1002
}
1002
{
1040
0.5
1040
1.0
1000

1040
0.0
1002
{
1002
}
1040
0.0
1002
{
1002
}
1040
0.0
1002
}
1002
{
1070
     0
1040
0.0
1002
{
1002
}
1040
1.0
1002
{
1002
}
1040
0.0
1002
}
1002
{
1040
0.0
1002
{
1002
{
1010
0.0
1020
0.0
1030
0.0
1002
}
1040
1.0
1000

1040
0.0
1002
{
1002
}
1040
0.0
1002
{
1002
}
1040
0.0
1002
}
1002
}
1002
{
1002
{
1070
     1
1002
{
1040
0.0
1040
1.0
1000

1040
0.0
1002
{
1002
}
1040
0.0
1002
{
1002
}
1040
0.0
1002
}
1002
}
1040
0.0
1002
{
1002
}
1010
1.0
1020
0.0
1030
0.0
1010
0.0
1020
1.0
1030
0.0
1010
0.0
1020
0.0
1030
1.0
1070
     0
1002
}
1002
{
1002
{
1040
1.0
1040
1.0
1002
{
1070
     1
1002
{
1040
1.0
1040
1.0
1000

1040
0.0
1002
{
1002
}
1040
0.0
1002
{
1002
}
1040
0.0
1002
}
1002
}
1002
}
1070
     0
1040
0.0
1002
{
1002
}
1002
}
1002
{
1002
}
1002
}
1002
{
1071
        3
1070
     3
1070
     0
1002
{
1070
     2
1070
     0
1070
     0
1040
0.0
1002
}
1070
     0
1070
     2
1002
{
1002
}
1002
}
1002
{
1040
8030.0
1040
190.300003
1040
0.305
1040
228.0
1040
545.0
1040
14.0
1040
17.4
1040
0.456
1002
}
1002
}
  0
INSERT
  5
30F5
  8
ASHADE
  6
CONTINUOUS
 62
     1
  2
AVE_GLOBAL
 10
0.0
 20
0.0
 30
0.0
1001
AVE_MATERIAL
1002
{
1000
*GLOBAL*
1000
1
1000
Global finish.
1002
{
1002
}
1002
{
1070
    63
1002
{
1002
{
1010
-1.0
1020
-1.0
1030
-1.0
1002
}
1040
0.1
1000

1040
0.0
1002
{
1002
}
1040
0.0
1002
{
1002
}
1040
0.0
1002
}
1002
{
1002
{
1010
-1.0
1020
-1.0
1030
-1.0
1002
}
1040
0.7
1000

1040
0.0
1002
{
1002
}
1040
0.0
1002
{
1002
}
1040
0.0
1002
}
1002
{
1002
{
1010
-1.0
1020
-1.0
1030
-1.0
1002
}
1040
0.2
1000

1040
0.0
1002
{
1002
}
1040
0.0
1002
{
1002
}
1040
0.0
1002
}
1002
{
1070
     0
1002
{
1070
     1
1002
{
1040
1.0
1040
1.0
1000

1040
0.0
1002
{
1002
}
1040
0.0
1002
{
1002
}
1040
0.0
1002
}
1002
}
1040
1.0
1040
0.0
1040
0.0
1002
}
1002
{
1040
1.0
1040
1.0
1000

1040
0.0
1002
{
1002
}
1040
0.0
1002
{
1002
}
1040
0.0
1002
}
1002
{
1040
0.5
1040
1.0
1000

1040
0.0
1002
{
1002
}
1040
0.0
1002
{
1002
}
1040
0.0
1002
}
1002
{
1070
     0
1040
0.0
1002
{
1002
}
1040
1.0
1002
{
1002
}
1040
0.0
1002
}
1002
{
1040
0.0
1002
{
1002
{
1010
0.0
1020
0.0
1030
0.0
1002
}
1040
1.0
1000

1040
0.0
1002
{
1002
}
1040
0.0
1002
{
1002
}
1040
0.0
1002
}
1002
}
1002
{
1002
{
1070
     1
1002
{
1040
0.0
1040
1.0
1000

1040
0.0
1002
{
1002
}
1040
0.0
1002
{
1002
}
1040
0.0
1002
}
1002
}
1040
0.0
1002
{
1002
}
1010
1.0
1020
0.0
1030
0.0
1010
0.0
1020
1.0
1030
0.0
1010
0.0
1020
0.0
1030
1.0
1070
     0
1002
}
1002
{
1002
{
1040
1.0
1040
1.0
1002
{
1070
     1
1002
{
1040
1.0
1040
1.0
1000

1040
0.0
1002
{
1002
}
1040
0.0
1002
{
1002
}
1040
0.0
1002
}
1002
}
1002
}
1070
     0
1040
0.0
1002
{
1002
}
1002
}
1002
{
1002
}
1002
}
1002
{
1071
        3
1070
     3
1070
     0
1002
{
1070
     2
1070
     0
1070
     0
1040
0.0
1002
}
1070
     0
1070
     2
1002
{
1002
}
1002
}
1002
{
1040
8030.0
1040
190.300003
1040
0.305
1040
228.0
1040
545.0
1040
14.0
1040
17.4
1040
0.456
1002
}
1002
}
  0
INSERT
  5
30F6
  8
ASHADE
 62
     1
  2
AVE_GLOBAL
 10
0.0
 20
0.0
 30
0.0
1001
AVE_MATERIAL
1002
{
1000
*GLOBAL*
1000
1
1000
Global finish.
1002
{
1002
}
1002
{
1070
    63
1002
{
1002
{
1010
-1.0
1020
-1.0
1030
-1.0
1002
}
1040
0.1
1000

1040
0.0
1002
{
1002
}
1040
0.0
1002
{
1002
}
1040
0.0
1002
}
1002
{
1002
{
1010
-1.0
1020
-1.0
1030
-1.0
1002
}
1040
0.7
1000

1040
0.0
1002
{
1002
}
1040
0.0
1002
{
1002
}
1040
0.0
1002
}
1002
{
1002
{
1010
-1.0
1020
-1.0
1030
-1.0
1002
}
1040
0.2
1000

1040
0.0
1002
{
1002
}
1040
0.0
1002
{
1002
}
1040
0.0
1002
}
1002
{
1070
     0
1002
{
1070
     1
1002
{
1040
1.0
1040
1.0
1000

1040
0.0
1002
{
1002
}
1040
0.0
1002
{
1002
}
1040
0.0
1002
}
1002
}
1040
1.0
1040
0.0
1040
0.0
1002
}
1002
{
1040
1.0
1040
1.0
1000

1040
0.0
1002
{
1002
}
1040
0.0
1002
{
1002
}
1040
0.0
1002
}
1002
{
1040
0.5
1040
1.0
1000

1040
0.0
1002
{
1002
}
1040
0.0
1002
{
1002
}
1040
0.0
1002
}
1002
{
1070
     0
1040
0.0
1002
{
1002
}
1040
1.0
1002
{
1002
}
1040
0.0
1002
}
1002
{
1040
0.0
1002
{
1002
{
1010
0.0
1020
0.0
1030
0.0
1002
}
1040
1.0
1000

1040
0.0
1002
{
1002
}
1040
0.0
1002
{
1002
}
1040
0.0
1002
}
1002
}
1002
{
1002
{
1070
     1
1002
{
1040
0.0
1040
1.0
1000

1040
0.0
1002
{
1002
}
1040
0.0
1002
{
1002
}
1040
0.0
1002
}
1002
}
1040
0.0
1002
{
1002
}
1010
1.0
1020
0.0
1030
0.0
1010
0.0
1020
1.0
1030
0.0
1010
0.0
1020
0.0
1030
1.0
1070
     0
1002
}
1002
{
1002
{
1040
1.0
1040
1.0
1002
{
1070
     1
1002
{
1040
1.0
1040
1.0
1000

1040
0.0
1002
{
1002
}
1040
0.0
1002
{
1002
}
1040
0.0
1002
}
1002
}
1002
}
1070
     0
1040
0.0
1002
{
1002
}
1002
}
1002
{
1002
}
1002
}
1002
{
1071
        3
1070
     3
1070
     0
1002
{
1070
     2
1070
     0
1070
     0
1040
0.0
1002
}
1070
     0
1070
     2
1002
{
1002
}
1002
}
1002
{
1040
8030.0
1040
190.300003
1040
0.305
1040
228.0
1040
545.0
1040
14.0
1040
17.4
1040
0.456
1002
}
1002
}
  0
INSERT
  5
30F7
  8
ASHADE
 62
     1
  2
AVE_GLOBAL
 10
0.0
 20
0.0
 30
0.0
1001
AVE_MATERIAL
1002
{
1000
*GLOBAL*
1000
1
1000
Global finish.
1002
{
1002
}
1002
{
1070
    63
1002
{
1002
{
1010
-1.0
1020
-1.0
1030
-1.0
1002
}
1040
0.1
1000

1040
0.0
1002
{
1002
}
1040
0.0
1002
{
1002
}
1040
0.0
1002
}
1002
{
1002
{
1010
-1.0
1020
-1.0
1030
-1.0
1002
}
1040
0.7
1000

1040
0.0
1002
{
1002
}
1040
0.0
1002
{
1002
}
1040
0.0
1002
}
1002
{
1002
{
1010
-1.0
1020
-1.0
1030
-1.0
1002
}
1040
0.2
1000

1040
0.0
1002
{
1002
}
1040
0.0
1002
{
1002
}
1040
0.0
1002
}
1002
{
1070
     0
1002
{
1070
     1
1002
{
1040
1.0
1040
1.0
1000

1040
0.0
1002
{
1002
}
1040
0.0
1002
{
1002
}
1040
0.0
1002
}
1002
}
1040
1.0
1040
0.0
1040
0.0
1002
}
1002
{
1040
1.0
1040
1.0
1000

1040
0.0
1002
{
1002
}
1040
0.0
1002
{
1002
}
1040
0.0
1002
}
1002
{
1040
0.5
1040
1.0
1000

1040
0.0
1002
{
1002
}
1040
0.0
1002
{
1002
}
1040
0.0
1002
}
1002
{
1070
     0
1040
0.0
1002
{
1002
}
1040
1.0
1002
{
1002
}
1040
0.0
1002
}
1002
{
1040
0.0
1002
{
1002
{
1010
0.0
1020
0.0
1030
0.0
1002
}
1040
1.0
1000

1040
0.0
1002
{
1002
}
1040
0.0
1002
{
1002
}
1040
0.0
1002
}
1002
}
1002
{
1002
{
1070
     1
1002
{
1040
0.0
1040
1.0
1000

1040
0.0
1002
{
1002
}
1040
0.0
1002
{
1002
}
1040
0.0
1002
}
1002
}
1040
0.0
1002
{
1002
}
1010
1.0
1020
0.0
1030
0.0
1010
0.0
1020
1.0
1030
0.0
1010
0.0
1020
0.0
1030
1.0
1070
     0
1002
}
1002
{
1002
{
1040
1.0
1040
1.0
1002
{
1070
     1
1002
{
1040
1.0
1040
1.0
1000

1040
0.0
1002
{
1002
}
1040
0.0
1002
{
1002
}
1040
0.0
1002
}
1002
}
1002
}
1070
     0
1040
0.0
1002
{
1002
}
1002
}
1002
{
1002
}
1002
}
1002
{
1071
        3
1070
     3
1070
     0
1002
{
1070
     2
1070
     0
1070
     0
1040
0.0
1002
}
1070
     0
1070
     2
1002
{
1002
}
1002
}
1002
{
1040
8030.0
1040
190.300003
1040
0.305
1040
228.0
1040
545.0
1040
14.0
1040
17.4
1040
0.456
1002
}
1002
}
  0
INSERT
  5
30F8
  8
ASHADE
 62
     1
  2
AVE_GLOBAL
 10
0.0
 20
0.0
 30
0.0
1001
AVE_MATERIAL
1002
{
1000
*GLOBAL*
1000
1
1000
Global finish.
1002
{
1002
}
1002
{
1070
    63
1002
{
1002
{
1010
-1.0
1020
-1.0
1030
-1.0
1002
}
1040
0.1
1000

1040
0.0
1002
{
1002
}
1040
0.0
1002
{
1002
}
1040
0.0
1002
}
1002
{
1002
{
1010
-1.0
1020
-1.0
1030
-1.0
1002
}
1040
0.7
1000

1040
0.0
1002
{
1002
}
1040
0.0
1002
{
1002
}
1040
0.0
1002
}
1002
{
1002
{
1010
-1.0
1020
-1.0
1030
-1.0
1002
}
1040
0.2
1000

1040
0.0
1002
{
1002
}
1040
0.0
1002
{
1002
}
1040
0.0
1002
}
1002
{
1070
     0
1002
{
1070
     1
1002
{
1040
1.0
1040
1.0
1000

1040
0.0
1002
{
1002
}
1040
0.0
1002
{
1002
}
1040
0.0
1002
}
1002
}
1040
1.0
1040
0.0
1040
0.0
1002
}
1002
{
1040
1.0
1040
1.0
1000

1040
0.0
1002
{
1002
}
1040
0.0
1002
{
1002
}
1040
0.0
1002
}
1002
{
1040
0.5
1040
1.0
1000

1040
0.0
1002
{
1002
}
1040
0.0
1002
{
1002
}
1040
0.0
1002
}
1002
{
1070
     0
1040
0.0
1002
{
1002
}
1040
1.0
1002
{
1002
}
1040
0.0
1002
}
1002
{
1040
0.0
1002
{
1002
{
1010
0.0
1020
0.0
1030
0.0
1002
}
1040
1.0
1000

1040
0.0
1002
{
1002
}
1040
0.0
1002
{
1002
}
1040
0.0
1002
}
1002
}
1002
{
1002
{
1070
     1
1002
{
1040
0.0
1040
1.0
1000

1040
0.0
1002
{
1002
}
1040
0.0
1002
{
1002
}
1040
0.0
1002
}
1002
}
1040
0.0
1002
{
1002
}
1010
1.0
1020
0.0
1030
0.0
1010
0.0
1020
1.0
1030
0.0
1010
0.0
1020
0.0
1030
1.0
1070
     0
1002
}
1002
{
1002
{
1040
1.0
1040
1.0
1002
{
1070
     1
1002
{
1040
1.0
1040
1.0
1000

1040
0.0
1002
{
1002
}
1040
0.0
1002
{
1002
}
1040
0.0
1002
}
1002
}
1002
}
1070
     0
1040
0.0
1002
{
1002
}
1002
}
1002
{
1002
}
1002
}
1002
{
1071
        3
1070
     3
1070
     0
1002
{
1070
     2
1070
     0
1070
     0
1040
0.0
1002
}
1070
     0
1070
     2
1002
{
1002
}
1002
}
1002
{
1040
8030.0
1040
190.300003
1040
0.305
1040
228.0
1040
545.0
1040
14.0
1040
17.4
1040
0.456
1002
}
1002
}
  0
INSERT
  5
30F9
  8
ASHADE
 62
     1
  2
AVE_GLOBAL
 10
0.0
 20
0.0
 30
0.0
1001
AVE_MATERIAL
1002
{
1000
*GLOBAL*
1000
1
1000
Global finish.
1002
{
1002
}
1002
{
1070
    63
1002
{
1002
{
1010
-1.0
1020
-1.0
1030
-1.0
1002
}
1040
0.1
1000

1040
0.0
1002
{
1002
}
1040
0.0
1002
{
1002
}
1040
0.0
1002
}
1002
{
1002
{
1010
-1.0
1020
-1.0
1030
-1.0
1002
}
1040
0.7
1000

1040
0.0
1002
{
1002
}
1040
0.0
1002
{
1002
}
1040
0.0
1002
}
1002
{
1002
{
1010
-1.0
1020
-1.0
1030
-1.0
1002
}
1040
0.2
1000

1040
0.0
1002
{
1002
}
1040
0.0
1002
{
1002
}
1040
0.0
1002
}
1002
{
1070
     0
1002
{
1070
     1
1002
{
1040
1.0
1040
1.0
1000

1040
0.0
1002
{
1002
}
1040
0.0
1002
{
1002
}
1040
0.0
1002
}
1002
}
1040
1.0
1040
0.0
1040
0.0
1002
}
1002
{
1040
1.0
1040
1.0
1000

1040
0.0
1002
{
1002
}
1040
0.0
1002
{
1002
}
1040
0.0
1002
}
1002
{
1040
0.5
1040
1.0
1000

1040
0.0
1002
{
1002
}
1040
0.0
1002
{
1002
}
1040
0.0
1002
}
1002
{
1070
     0
1040
0.0
1002
{
1002
}
1040
1.0
1002
{
1002
}
1040
0.0
1002
}
1002
{
1040
0.0
1002
{
1002
{
1010
0.0
1020
0.0
1030
0.0
1002
}
1040
1.0
1000

1040
0.0
1002
{
1002
}
1040
0.0
1002
{
1002
}
1040
0.0
1002
}
1002
}
1002
{
1002
{
1070
     1
1002
{
1040
0.0
1040
1.0
1000

1040
0.0
1002
{
1002
}
1040
0.0
1002
{
1002
}
1040
0.0
1002
}
1002
}
1040
0.0
1002
{
1002
}
1010
1.0
1020
0.0
1030
0.0
1010
0.0
1020
1.0
1030
0.0
1010
0.0
1020
0.0
1030
1.0
1070
     0
1002
}
1002
{
1002
{
1040
1.0
1040
1.0
1002
{
1070
     1
1002
{
1040
1.0
1040
1.0
1000

1040
0.0
1002
{
1002
}
1040
0.0
1002
{
1002
}
1040
0.0
1002
}
1002
}
1002
}
1070
     0
1040
0.0
1002
{
1002
}
1002
}
1002
{
1002
}
1002
}
1002
{
1071
        3
1070
     3
1070
     0
1002
{
1070
     2
1070
     0
1070
     0
1040
0.0
1002
}
1070
     0
1070
     2
1002
{
1002
}
1002
}
1002
{
1040
8030.0
1040
190.300003
1040
0.305
1040
228.0
1040
545.0
1040
14.0
1040
17.4
1040
0.456
1002
}
1002
}
  0
INSERT
  5
30FA
  8
ASHADE
 62
     1
  2
AVE_GLOBAL
 10
0.0
 20
0.0
 30
0.0
1001
AVE_MATERIAL
1002
{
1000
*GLOBAL*
1000
1
1000
Global finish.
1002
{
1002
}
1002
{
1070
    63
1002
{
1002
{
1010
-1.0
1020
-1.0
1030
-1.0
1002
}
1040
0.1
1000

1040
0.0
1002
{
1002
}
1040
0.0
1002
{
1002
}
1040
0.0
1002
}
1002
{
1002
{
1010
-1.0
1020
-1.0
1030
-1.0
1002
}
1040
0.7
1000

1040
0.0
1002
{
1002
}
1040
0.0
1002
{
1002
}
1040
0.0
1002
}
1002
{
1002
{
1010
-1.0
1020
-1.0
1030
-1.0
1002
}
1040
0.2
1000

1040
0.0
1002
{
1002
}
1040
0.0
1002
{
1002
}
1040
0.0
1002
}
1002
{
1070
     0
1002
{
1070
     1
1002
{
1040
1.0
1040
1.0
1000

1040
0.0
1002
{
1002
}
1040
0.0
1002
{
1002
}
1040
0.0
1002
}
1002
}
1040
1.0
1040
0.0
1040
0.0
1002
}
1002
{
1040
1.0
1040
1.0
1000

1040
0.0
1002
{
1002
}
1040
0.0
1002
{
1002
}
1040
0.0
1002
}
1002
{
1040
0.5
1040
1.0
1000

1040
0.0
1002
{
1002
}
1040
0.0
1002
{
1002
}
1040
0.0
1002
}
1002
{
1070
     0
1040
0.0
1002
{
1002
}
1040
1.0
1002
{
1002
}
1040
0.0
1002
}
1002
{
1040
0.0
1002
{
1002
{
1010
0.0
1020
0.0
1030
0.0
1002
}
1040
1.0
1000

1040
0.0
1002
{
1002
}
1040
0.0
1002
{
1002
}
1040
0.0
1002
}
1002
}
1002
{
1002
{
1070
     1
1002
{
1040
0.0
1040
1.0
1000

1040
0.0
1002
{
1002
}
1040
0.0
1002
{
1002
}
1040
0.0
1002
}
1002
}
1040
0.0
1002
{
1002
}
1010
1.0
1020
0.0
1030
0.0
1010
0.0
1020
1.0
1030
0.0
1010
0.0
1020
0.0
1030
1.0
1070
     0
1002
}
1002
{
1002
{
1040
1.0
1040
1.0
1002
{
1070
     1
1002
{
1040
1.0
1040
1.0
1000

1040
0.0
1002
{
1002
}
1040
0.0
1002
{
1002
}
1040
0.0
1002
}
1002
}
1002
}
1070
     0
1040
0.0
1002
{
1002
}
1002
}
1002
{
1002
}
1002
}
1002
{
1071
        3
1070
     3
1070
     0
1002
{
1070
     2
1070
     0
1070
     0
1040
0.0
1002
}
1070
     0
1070
     2
1002
{
1002
}
1002
}
1002
{
1040
8030.0
1040
190.300003
1040
0.305
1040
228.0
1040
545.0
1040
14.0
1040
17.4
1040
0.456
1002
}
1002
}
  0
INSERT
  5
30FB
  8
ASHADE
 62
     1
  2
AVE_GLOBAL
 10
0.0
 20
0.0
 30
0.0
1001
AVE_MATERIAL
1002
{
1000
*GLOBAL*
1000
1
1000
Global finish.
1002
{
1002
}
1002
{
1070
    63
1002
{
1002
{
1010
-1.0
1020
-1.0
1030
-1.0
1002
}
1040
0.1
1000

1040
0.0
1002
{
1002
}
1040
0.0
1002
{
1002
}
1040
0.0
1002
}
1002
{
1002
{
1010
-1.0
1020
-1.0
1030
-1.0
1002
}
1040
0.7
1000

1040
0.0
1002
{
1002
}
1040
0.0
1002
{
1002
}
1040
0.0
1002
}
1002
{
1002
{
1010
-1.0
1020
-1.0
1030
-1.0
1002
}
1040
0.2
1000

1040
0.0
1002
{
1002
}
1040
0.0
1002
{
1002
}
1040
0.0
1002
}
1002
{
1070
     0
1002
{
1070
     1
1002
{
1040
1.0
1040
1.0
1000

1040
0.0
1002
{
1002
}
1040
0.0
1002
{
1002
}
1040
0.0
1002
}
1002
}
1040
1.0
1040
0.0
1040
0.0
1002
}
1002
{
1040
1.0
1040
1.0
1000

1040
0.0
1002
{
1002
}
1040
0.0
1002
{
1002
}
1040
0.0
1002
}
1002
{
1040
0.5
1040
1.0
1000

1040
0.0
1002
{
1002
}
1040
0.0
1002
{
1002
}
1040
0.0
1002
}
1002
{
1070
     0
1040
0.0
1002
{
1002
}
1040
1.0
1002
{
1002
}
1040
0.0
1002
}
1002
{
1040
0.0
1002
{
1002
{
1010
0.0
1020
0.0
1030
0.0
1002
}
1040
1.0
1000

1040
0.0
1002
{
1002
}
1040
0.0
1002
{
1002
}
1040
0.0
1002
}
1002
}
1002
{
1002
{
1070
     1
1002
{
1040
0.0
1040
1.0
1000

1040
0.0
1002
{
1002
}
1040
0.0
1002
{
1002
}
1040
0.0
1002
}
1002
}
1040
0.0
1002
{
1002
}
1010
1.0
1020
0.0
1030
0.0
1010
0.0
1020
1.0
1030
0.0
1010
0.0
1020
0.0
1030
1.0
1070
     0
1002
}
1002
{
1002
{
1040
1.0
1040
1.0
1002
{
1070
     1
1002
{
1040
1.0
1040
1.0
1000

1040
0.0
1002
{
1002
}
1040
0.0
1002
{
1002
}
1040
0.0
1002
}
1002
}
1002
}
1070
     0
1040
0.0
1002
{
1002
}
1002
}
1002
{
1002
}
1002
}
1002
{
1071
        3
1070
     3
1070
     0
1002
{
1070
     2
1070
     0
1070
     0
1040
0.0
1002
}
1070
     0
1070
     2
1002
{
1002
}
1002
}
1002
{
1040
8030.0
1040
190.300003
1040
0.305
1040
228.0
1040
545.0
1040
14.0
1040
17.4
1040
0.456
1002
}
1002
}
  0
INSERT
  5
30FC
  8
ASHADE
 62
     1
  2
AVE_GLOBAL
 10
0.0
 20
0.0
 30
0.0
1001
AVE_MATERIAL
1002
{
1000
*GLOBAL*
1000
1
1000
Global finish.
1002
{
1002
}
1002
{
1070
    63
1002
{
1002
{
1010
-1.0
1020
-1.0
1030
-1.0
1002
}
1040
0.1
1000

1040
0.0
1002
{
1002
}
1040
0.0
1002
{
1002
}
1040
0.0
1002
}
1002
{
1002
{
1010
-1.0
1020
-1.0
1030
-1.0
1002
}
1040
0.7
1000

1040
0.0
1002
{
1002
}
1040
0.0
1002
{
1002
}
1040
0.0
1002
}
1002
{
1002
{
1010
-1.0
1020
-1.0
1030
-1.0
1002
}
1040
0.2
1000

1040
0.0
1002
{
1002
}
1040
0.0
1002
{
1002
}
1040
0.0
1002
}
1002
{
1070
     0
1002
{
1070
     1
1002
{
1040
1.0
1040
1.0
1000

1040
0.0
1002
{
1002
}
1040
0.0
1002
{
1002
}
1040
0.0
1002
}
1002
}
1040
1.0
1040
0.0
1040
0.0
1002
}
1002
{
1040
1.0
1040
1.0
1000

1040
0.0
1002
{
1002
}
1040
0.0
1002
{
1002
}
1040
0.0
1002
}
1002
{
1040
0.5
1040
1.0
1000

1040
0.0
1002
{
1002
}
1040
0.0
1002
{
1002
}
1040
0.0
1002
}
1002
{
1070
     0
1040
0.0
1002
{
1002
}
1040
1.0
1002
{
1002
}
1040
0.0
1002
}
1002
{
1040
0.0
1002
{
1002
{
1010
0.0
1020
0.0
1030
0.0
1002
}
1040
1.0
1000

1040
0.0
1002
{
1002
}
1040
0.0
1002
{
1002
}
1040
0.0
1002
}
1002
}
1002
{
1002
{
1070
     1
1002
{
1040
0.0
1040
1.0
1000

1040
0.0
1002
{
1002
}
1040
0.0
1002
{
1002
}
1040
0.0
1002
}
1002
}
1040
0.0
1002
{
1002
}
1010
1.0
1020
0.0
1030
0.0
1010
0.0
1020
1.0
1030
0.0
1010
0.0
1020
0.0
1030
1.0
1070
     0
1002
}
1002
{
1002
{
1040
1.0
1040
1.0
1002
{
1070
     1
1002
{
1040
1.0
1040
1.0
1000

1040
0.0
1002
{
1002
}
1040
0.0
1002
{
1002
}
1040
0.0
1002
}
1002
}
1002
}
1070
     0
1040
0.0
1002
{
1002
}
1002
}
1002
{
1002
}
1002
}
1002
{
1071
        3
1070
     3
1070
     0
1002
{
1070
     2
1070
     0
1070
     0
1040
0.0
1002
}
1070
     0
1070
     2
1002
{
1002
}
1002
}
1002
{
1040
8030.0
1040
190.300003
1040
0.305
1040
228.0
1040
545.0
1040
14.0
1040
17.4
1040
0.456
1002
}
1002
}
  0
INSERT
  5
30FD
  8
ASHADE
 62
     1
  2
AVE_GLOBAL
 10
0.0
 20
0.0
 30
0.0
1001
AVE_MATERIAL
1002
{
1000
*GLOBAL*
1000
1
1000
Global finish.
1002
{
1002
}
1002
{
1070
    63
1002
{
1002
{
1010
-1.0
1020
-1.0
1030
-1.0
1002
}
1040
0.1
1000

1040
0.0
1002
{
1002
}
1040
0.0
1002
{
1002
}
1040
0.0
1002
}
1002
{
1002
{
1010
-1.0
1020
-1.0
1030
-1.0
1002
}
1040
0.7
1000

1040
0.0
1002
{
1002
}
1040
0.0
1002
{
1002
}
1040
0.0
1002
}
1002
{
1002
{
1010
-1.0
1020
-1.0
1030
-1.0
1002
}
1040
0.2
1000

1040
0.0
1002
{
1002
}
1040
0.0
1002
{
1002
}
1040
0.0
1002
}
1002
{
1070
     0
1002
{
1070
     1
1002
{
1040
1.0
1040
1.0
1000

1040
0.0
1002
{
1002
}
1040
0.0
1002
{
1002
}
1040
0.0
1002
}
1002
}
1040
1.0
1040
0.0
1040
0.0
1002
}
1002
{
1040
1.0
1040
1.0
1000

1040
0.0
1002
{
1002
}
1040
0.0
1002
{
1002
}
1040
0.0
1002
}
1002
{
1040
0.5
1040
1.0
1000

1040
0.0
1002
{
1002
}
1040
0.0
1002
{
1002
}
1040
0.0
1002
}
1002
{
1070
     0
1040
0.0
1002
{
1002
}
1040
1.0
1002
{
1002
}
1040
0.0
1002
}
1002
{
1040
0.0
1002
{
1002
{
1010
0.0
1020
0.0
1030
0.0
1002
}
1040
1.0
1000

1040
0.0
1002
{
1002
}
1040
0.0
1002
{
1002
}
1040
0.0
1002
}
1002
}
1002
{
1002
{
1070
     1
1002
{
1040
0.0
1040
1.0
1000

1040
0.0
1002
{
1002
}
1040
0.0
1002
{
1002
}
1040
0.0
1002
}
1002
}
1040
0.0
1002
{
1002
}
1010
1.0
1020
0.0
1030
0.0
1010
0.0
1020
1.0
1030
0.0
1010
0.0
1020
0.0
1030
1.0
1070
     0
1002
}
1002
{
1002
{
1040
1.0
1040
1.0
1002
{
1070
     1
1002
{
1040
1.0
1040
1.0
1000

1040
0.0
1002
{
1002
}
1040
0.0
1002
{
1002
}
1040
0.0
1002
}
1002
}
1002
}
1070
     0
1040
0.0
1002
{
1002
}
1002
}
1002
{
1002
}
1002
}
1002
{
1071
        3
1070
     3
1070
     0
1002
{
1070
     2
1070
     0
1070
     0
1040
0.0
1002
}
1070
     0
1070
     2
1002
{
1002
}
1002
}
1002
{
1040
8030.0
1040
190.300003
1040
0.305
1040
228.0
1040
545.0
1040
14.0
1040
17.4
1040
0.456
1002
}
1002
}
  0
INSERT
  5
30FE
  8
ASHADE
 62
     1
  2
AVE_GLOBAL
 10
0.0
 20
0.0
 30
0.0
1001
AVE_MATERIAL
1002
{
1000
*GLOBAL*
1000
1
1000
Global finish.
1002
{
1002
}
1002
{
1070
    63
1002
{
1002
{
1010
-1.0
1020
-1.0
1030
-1.0
1002
}
1040
0.1
1000

1040
0.0
1002
{
1002
}
1040
0.0
1002
{
1002
}
1040
0.0
1002
}
1002
{
1002
{
1010
-1.0
1020
-1.0
1030
-1.0
1002
}
1040
0.7
1000

1040
0.0
1002
{
1002
}
1040
0.0
1002
{
1002
}
1040
0.0
1002
}
1002
{
1002
{
1010
-1.0
1020
-1.0
1030
-1.0
1002
}
1040
0.2
1000

1040
0.0
1002
{
1002
}
1040
0.0
1002
{
1002
}
1040
0.0
1002
}
1002
{
1070
     0
1002
{
1070
     1
1002
{
1040
1.0
1040
1.0
1000

1040
0.0
1002
{
1002
}
1040
0.0
1002
{
1002
}
1040
0.0
1002
}
1002
}
1040
1.0
1040
0.0
1040
0.0
1002
}
1002
{
1040
1.0
1040
1.0
1000

1040
0.0
1002
{
1002
}
1040
0.0
1002
{
1002
}
1040
0.0
1002
}
1002
{
1040
0.5
1040
1.0
1000

1040
0.0
1002
{
1002
}
1040
0.0
1002
{
1002
}
1040
0.0
1002
}
1002
{
1070
     0
1040
0.0
1002
{
1002
}
1040
1.0
1002
{
1002
}
1040
0.0
1002
}
1002
{
1040
0.0
1002
{
1002
{
1010
0.0
1020
0.0
1030
0.0
1002
}
1040
1.0
1000

1040
0.0
1002
{
1002
}
1040
0.0
1002
{
1002
}
1040
0.0
1002
}
1002
}
1002
{
1002
{
1070
     1
1002
{
1040
0.0
1040
1.0
1000

1040
0.0
1002
{
1002
}
1040
0.0
1002
{
1002
}
1040
0.0
1002
}
1002
}
1040
0.0
1002
{
1002
}
1010
1.0
1020
0.0
1030
0.0
1010
0.0
1020
1.0
1030
0.0
1010
0.0
1020
0.0
1030
1.0
1070
     0
1002
}
1002
{
1002
{
1040
1.0
1040
1.0
1002
{
1070
     1
1002
{
1040
1.0
1040
1.0
1000

1040
0.0
1002
{
1002
}
1040
0.0
1002
{
1002
}
1040
0.0
1002
}
1002
}
1002
}
1070
     0
1040
0.0
1002
{
1002
}
1002
}
1002
{
1002
}
1002
}
1002
{
1071
        3
1070
     3
1070
     0
1002
{
1070
     2
1070
     0
1070
     0
1040
0.0
1002
}
1070
     0
1070
     2
1002
{
1002
}
1002
}
1002
{
1040
8030.0
1040
190.300003
1040
0.305
1040
228.0
1040
545.0
1040
14.0
1040
17.4
1040
0.456
1002
}
1002
}
  0
INSERT
  5
30FF
  8
ASHADE
 62
     1
  2
AVE_GLOBAL
 10
0.0
 20
0.0
 30
0.0
1001
AVE_MATERIAL
1002
{
1000
*GLOBAL*
1000
1
1000
Global finish.
1002
{
1002
}
1002
{
1070
    63
1002
{
1002
{
1010
-1.0
1020
-1.0
1030
-1.0
1002
}
1040
0.1
1000

1040
0.0
1002
{
1002
}
1040
0.0
1002
{
1002
}
1040
0.0
1002
}
1002
{
1002
{
1010
-1.0
1020
-1.0
1030
-1.0
1002
}
1040
0.7
1000

1040
0.0
1002
{
1002
}
1040
0.0
1002
{
1002
}
1040
0.0
1002
}
1002
{
1002
{
1010
-1.0
1020
-1.0
1030
-1.0
1002
}
1040
0.2
1000

1040
0.0
1002
{
1002
}
1040
0.0
1002
{
1002
}
1040
0.0
1002
}
1002
{
1070
     0
1002
{
1070
     1
1002
{
1040
1.0
1040
1.0
1000

1040
0.0
1002
{
1002
}
1040
0.0
1002
{
1002
}
1040
0.0
1002
}
1002
}
1040
1.0
1040
0.0
1040
0.0
1002
}
1002
{
1040
1.0
1040
1.0
1000

1040
0.0
1002
{
1002
}
1040
0.0
1002
{
1002
}
1040
0.0
1002
}
1002
{
1040
0.5
1040
1.0
1000

1040
0.0
1002
{
1002
}
1040
0.0
1002
{
1002
}
1040
0.0
1002
}
1002
{
1070
     0
1040
0.0
1002
{
1002
}
1040
1.0
1002
{
1002
}
1040
0.0
1002
}
1002
{
1040
0.0
1002
{
1002
{
1010
0.0
1020
0.0
1030
0.0
1002
}
1040
1.0
1000

1040
0.0
1002
{
1002
}
1040
0.0
1002
{
1002
}
1040
0.0
1002
}
1002
}
1002
{
1002
{
1070
     1
1002
{
1040
0.0
1040
1.0
1000

1040
0.0
1002
{
1002
}
1040
0.0
1002
{
1002
}
1040
0.0
1002
}
1002
}
1040
0.0
1002
{
1002
}
1010
1.0
1020
0.0
1030
0.0
1010
0.0
1020
1.0
1030
0.0
1010
0.0
1020
0.0
1030
1.0
1070
     0
1002
}
1002
{
1002
{
1040
1.0
1040
1.0
1002
{
1070
     1
1002
{
1040
1.0
1040
1.0
1000

1040
0.0
1002
{
1002
}
1040
0.0
1002
{
1002
}
1040
0.0
1002
}
1002
}
1002
}
1070
     0
1040
0.0
1002
{
1002
}
1002
}
1002
{
1002
}
1002
}
1002
{
1071
        3
1070
     3
1070
     0
1002
{
1070
     2
1070
     0
1070
     0
1040
0.0
1002
}
1070
     0
1070
     2
1002
{
1002
}
1002
}
1002
{
1040
8030.0
1040
190.300003
1040
0.305
1040
228.0
1040
545.0
1040
14.0
1040
17.4
1040
0.456
1002
}
1002
}
  0
INSERT
  5
31F6
  8
ASHADE
 62
     1
  2
AVE_GLOBAL
 10
0.0
 20
0.0
 30
0.0
1001
AVE_MATERIAL
1002
{
1000
*GLOBAL*
1000
1
1000
Global finish.
1002
{
1002
}
1002
{
1070
    63
1002
{
1002
{
1010
-1.0
1020
-1.0
1030
-1.0
1002
}
1040
0.1
1000

1040
0.0
1002
{
1002
}
1040
0.0
1002
{
1002
}
1040
0.0
1002
}
1002
{
1002
{
1010
-1.0
1020
-1.0
1030
-1.0
1002
}
1040
0.7
1000

1040
0.0
1002
{
1002
}
1040
0.0
1002
{
1002
}
1040
0.0
1002
}
1002
{
1002
{
1010
-1.0
1020
-1.0
1030
-1.0
1002
}
1040
0.2
1000

1040
0.0
1002
{
1002
}
1040
0.0
1002
{
1002
}
1040
0.0
1002
}
1002
{
1070
     0
1002
{
1070
     1
1002
{
1040
1.0
1040
1.0
1000

1040
0.0
1002
{
1002
}
1040
0.0
1002
{
1002
}
1040
0.0
1002
}
1002
}
1040
1.0
1040
0.0
1040
0.0
1002
}
1002
{
1040
1.0
1040
1.0
1000

1040
0.0
1002
{
1002
}
1040
0.0
1002
{
1002
}
1040
0.0
1002
}
1002
{
1040
0.5
1040
1.0
1000

1040
0.0
1002
{
1002
}
1040
0.0
1002
{
1002
}
1040
0.0
1002
}
1002
{
1070
     0
1040
0.0
1002
{
1002
}
1040
1.0
1002
{
1002
}
1040
0.0
1002
}
1002
{
1040
0.0
1002
{
1002
{
1010
0.0
1020
0.0
1030
0.0
1002
}
1040
1.0
1000

1040
0.0
1002
{
1002
}
1040
0.0
1002
{
1002
}
1040
0.0
1002
}
1002
}
1002
{
1002
{
1070
     1
1002
{
1040
0.0
1040
1.0
1000

1040
0.0
1002
{
1002
}
1040
0.0
1002
{
1002
}
1040
0.0
1002
}
1002
}
1040
0.0
1002
{
1002
}
1010
1.0
1020
0.0
1030
0.0
1010
0.0
1020
1.0
1030
0.0
1010
0.0
1020
0.0
1030
1.0
1070
     0
1002
}
1002
{
1002
{
1040
1.0
1040
1.0
1002
{
1070
     1
1002
{
1040
1.0
1040
1.0
1000

1040
0.0
1002
{
1002
}
1040
0.0
1002
{
1002
}
1040
0.0
1002
}
1002
}
1002
}
1070
     0
1040
0.0
1002
{
1002
}
1002
}
1002
{
1002
}
1002
}
1002
{
1071
        3
1070
     3
1070
     0
1002
{
1070
     2
1070
     0
1070
     0
1040
0.0
1002
}
1070
     0
1070
     2
1002
{
1002
}
1002
}
1002
{
1040
8030.0
1040
190.300003
1040
0.305
1040
228.0
1040
545.0
1040
14.0
1040
17.4
1040
0.456
1002
}
1002
}
  0
INSERT
  5
31F7
  8
ASHADE
 62
     1
  2
AVE_GLOBAL
 10
0.0
 20
0.0
 30
0.0
1001
AVE_MATERIAL
1002
{
1000
*GLOBAL*
1000
1
1000
Global finish.
1002
{
1002
}
1002
{
1070
    63
1002
{
1002
{
1010
-1.0
1020
-1.0
1030
-1.0
1002
}
1040
0.1
1000

1040
0.0
1002
{
1002
}
1040
0.0
1002
{
1002
}
1040
0.0
1002
}
1002
{
1002
{
1010
-1.0
1020
-1.0
1030
-1.0
1002
}
1040
0.7
1000

1040
0.0
1002
{
1002
}
1040
0.0
1002
{
1002
}
1040
0.0
1002
}
1002
{
1002
{
1010
-1.0
1020
-1.0
1030
-1.0
1002
}
1040
0.2
1000

1040
0.0
1002
{
1002
}
1040
0.0
1002
{
1002
}
1040
0.0
1002
}
1002
{
1070
     0
1002
{
1070
     1
1002
{
1040
1.0
1040
1.0
1000

1040
0.0
1002
{
1002
}
1040
0.0
1002
{
1002
}
1040
0.0
1002
}
1002
}
1040
1.0
1040
0.0
1040
0.0
1002
}
1002
{
1040
1.0
1040
1.0
1000

1040
0.0
1002
{
1002
}
1040
0.0
1002
{
1002
}
1040
0.0
1002
}
1002
{
1040
0.5
1040
1.0
1000

1040
0.0
1002
{
1002
}
1040
0.0
1002
{
1002
}
1040
0.0
1002
}
1002
{
1070
     0
1040
0.0
1002
{
1002
}
1040
1.0
1002
{
1002
}
1040
0.0
1002
}
1002
{
1040
0.0
1002
{
1002
{
1010
0.0
1020
0.0
1030
0.0
1002
}
1040
1.0
1000

1040
0.0
1002
{
1002
}
1040
0.0
1002
{
1002
}
1040
0.0
1002
}
1002
}
1002
{
1002
{
1070
     1
1002
{
1040
0.0
1040
1.0
1000

1040
0.0
1002
{
1002
}
1040
0.0
1002
{
1002
}
1040
0.0
1002
}
1002
}
1040
0.0
1002
{
1002
}
1010
1.0
1020
0.0
1030
0.0
1010
0.0
1020
1.0
1030
0.0
1010
0.0
1020
0.0
1030
1.0
1070
     0
1002
}
1002
{
1002
{
1040
1.0
1040
1.0
1002
{
1070
     1
1002
{
1040
1.0
1040
1.0
1000

1040
0.0
1002
{
1002
}
1040
0.0
1002
{
1002
}
1040
0.0
1002
}
1002
}
1002
}
1070
     0
1040
0.0
1002
{
1002
}
1002
}
1002
{
1002
}
1002
}
1002
{
1071
        3
1070
     3
1070
     0
1002
{
1070
     2
1070
     0
1070
     0
1040
0.0
1002
}
1070
     0
1070
     2
1002
{
1002
}
1002
}
1002
{
1040
8030.0
1040
190.300003
1040
0.305
1040
228.0
1040
545.0
1040
14.0
1040
17.4
1040
0.456
1002
}
1002
}
  0
POLYLINE
  5
338E
  8
0
 66
     1
 10
0.0
 20
0.0
 30
0.0
 70
    16
 71
     4
 72
     8
  0
VERTEX
  5
338F
  8
0
 10
350.0
 20
67.0
 30
5.0
 70
    64
  0
VERTEX
  5
3390
  8
0
 10
350.0
 20
67.0
 30
5.0
 70
    64
  0
VERTEX
  5
3391
  8
0
 10
350.0
 20
67.0
 30
5.0
 70
    64
  0
VERTEX
  5
3392
  8
0
 10
350.0
 20
67.0
 30
5.0
 70
    64
  0
VERTEX
  5
3393
  8
0
 10
350.0
 20
67.0
 30
5.0
 70
    64
  0
VERTEX
  5
3394
  8
0
 10
350.0
 20
67.0
 30
5.0
 70
    64
  0
VERTEX
  5
3395
  8
0
 10
350.0
 20
67.0
 30
5.0
 70
    64
  0
VERTEX
  5
3396
  8
0
 10
350.0
 20
67.0
 30
5.0
 70
    64
  0
VERTEX
  5
3397
  8
0
 10
0.0
 20
67.0
 30
5.0
 70
    64
  0
VERTEX
  5
3398
  8
0
 10
2.4
 20
49.7
 30
5.0
 70
    64
  0
VERTEX
  5
3399
  8
0
 10
9.0
 20
33.6
 30
5.0
 70
    64
  0
VERTEX
  5
339A
  8
0
 10
19.7
 20
19.7
 30
5.0
 70
    64
  0
VERTEX
  5
339B
  8
0
 10
33.6
 20
9.0
 30
5.0
 70
    64
  0
VERTEX
  5
339C
  8
0
 10
49.7
 20
2.4
 30
5.0
 70
    64
  0
VERTEX
  5
339D
  8
0
 10
67.0
 20
0.0
 30
5.0
 70
    64
  0
VERTEX
  5
339E
  8
0
 10
350.0
 20
0.0
 30
5.0
 70
    64
  0
VERTEX
  5
339F
  8
0
 10
0.0
 20
67.0
 30
13.0
 70
    64
  0
VERTEX
  5
33A0
  8
0
 10
2.4
 20
49.7
 30
13.0
 70
    64
  0
VERTEX
  5
33A1
  8
0
 10
9.0
 20
33.6
 30
13.0
 70
    64
  0
VERTEX
  5
33A2
  8
0
 10
19.7
 20
19.7
 30
13.0
 70
    64
  0
VERTEX
  5
33A3
  8
0
 10
33.6
 20
9.0
 30
13.0
 70
    64
  0
VERTEX
  5
33A4
  8
0
 10
49.7
 20
2.4
 30
13.0
 70
    64
  0
VERTEX
  5
33A5
  8
0
 10
67.0
 20
0.0
 30
13.0
 70
    64
  0
VERTEX
  5
33A6
  8
0
 10
350.0
 20
0.0
 30
13.0
 70
    64
  0
VERTEX
  5
33A7
  8
0
 10
350.0
 20
67.0
 30
13.0
 70
    64
  0
VERTEX
  5
33A8
  8
0
 10
350.0
 20
67.0
 30
13.0
 70
    64
  0
VERTEX
  5
33A9
  8
0
 10
350.0
 20
67.0
 30
13.0
 70
    64
  0
VERTEX
  5
33AA
  8
0
 10
350.0
 20
67.0
 30
13.0
 70
    64
  0
VERTEX
  5
33AB
  8
0
 10
350.0
 20
67.0
 30
13.0
 70
    64
  0
VERTEX
  5
33AC
  8
0
 10
350.0
 20
67.0
 30
13.0
 70
    64
  0
VERTEX
  5
33AD
  8
0
 10
350.0
 20
67.0
 30
13.0
 70
    64
  0
VERTEX
  5
33AE
  8
0
 10
350.0
 20
67.0
 30
13.0
 70
    64
  0
SEQEND
  5
33AF
  8
0
  0
POLYLINE
  5
33B0
  8
0
 66
     1
 10
0.0
 20
0.0
 30
0.0
 70
    16
 71
     4
 72
     8
  0
VERTEX
  5
33B1
  8
0
 10
350.0
 20
67.0
 30
5.0
 70
    64
  0
VERTEX
  5
33B2
  8
0
 10
350.0
 20
67.0
 30
5.0
 70
    64
  0
VERTEX
  5
33B3
  8
0
 10
350.0
 20
67.0
 30
5.0
 70
    64
  0
VERTEX
  5
33B4
  8
0
 10
350.0
 20
67.0
 30
5.0
 70
    64
  0
VERTEX
  5
33B5
  8
0
 10
350.0
 20
67.0
 30
5.0
 70
    64
  0
VERTEX
  5
33B6
  8
0
 10
350.0
 20
67.0
 30
5.0
 70
    64
  0
VERTEX
  5
33B7
  8
0
 10
350.0
 20
67.0
 30
5.0
 70
    64
  0
VERTEX
  5
33B8
  8
0
 10
350.0
 20
67.0
 30
5.0
 70
    64
  0
VERTEX
  5
33B9
  8
0
 10
0.0
 20
67.0
 30
5.0
 70
    64
  0
VERTEX
  5
33BA
  8
0
 10
2.4
 20
84.3
 30
5.0
 70
    64
  0
VERTEX
  5
33BB
  8
0
 10
9.0
 20
100.4
 30
5.0
 70
    64
  0
VERTEX
  5
33BC
  8
0
 10
19.7
 20
114.3
 30
5.0
 70
    64
  0
VERTEX
  5
33BD
  8
0
 10
33.6
 20
125.0
 30
5.0
 70
    64
  0
VERTEX
  5
33BE
  8
0
 10
49.7
 20
131.6
 30
5.0
 70
    64
  0
VERTEX
  5
33BF
  8
0
 10
67.0
 20
134.0
 30
5.0
 70
    64
  0
VERTEX
  5
33C0
  8
0
 10
350.0
 20
134.0
 30
5.0
 70
    64
  0
VERTEX
  5
33C1
  8
0
 10
0.0
 20
67.0
 30
13.0
 70
    64
  0
VERTEX
  5
33C2
  8
0
 10
2.4
 20
84.3
 30
13.0
 70
    64
  0
VERTEX
  5
33C3
  8
0
 10
9.0
 20
100.4
 30
13.0
 70
    64
  0
VERTEX
  5
33C4
  8
0
 10
19.7
 20
114.3
 30
13.0
 70
    64
  0
VERTEX
  5
33C5
  8
0
 10
33.6
 20
125.0
 30
13.0
 70
    64
  0
VERTEX
  5
33C6
  8
0
 10
49.7
 20
131.6
 30
13.0
 70
    64
  0
VERTEX
  5
33C7
  8
0
 10
67.0
 20
134.0
 30
13.0
 70
    64
  0
VERTEX
  5
33C8
  8
0
 10
350.0
 20
134.0
 30
13.0
 70
    64
  0
VERTEX
  5
33C9
  8
0
 10
350.0
 20
67.0
 30
13.0
 70
    64
  0
VERTEX
  5
33CA
  8
0
 10
350.0
 20
67.0
 30
13.0
 70
    64
  0
VERTEX
  5
33CB
  8
0
 10
350.0
 20
67.0
 30
13.0
 70
    64
  0
VERTEX
  5
33CC
  8
0
 10
350.0
 20
67.0
 30
13.0
 70
    64
  0
VERTEX
  5
33CD
  8
0
 10
350.0
 20
67.0
 30
13.0
 70
    64
  0
VERTEX
  5
33CE
  8
0
 10
350.0
 20
67.0
 30
13.0
 70
    64
  0
VERTEX
  5
33CF
  8
0
 10
350.0
 20
67.0
 30
13.0
 70
    64
  0
VERTEX
  5
33D0
  8
0
 10
350.0
 20
67.0
 30
13.0
 70
    64
  0
SEQEND
  5
33D1
  8
0
  0
POLYLINE
  5
33D3
  8
0
 66
     1
 10
0.0
 20
0.0
 30
0.0
 70
    16
 71
     4
 72
     9
  0
VERTEX
  5
33D4
  8
0
 10
0.0
 20
67.0
 30
38.0
 70
    64
  0
VERTEX
  5
33D5
  8
0
 10
0.2
 20
67.0
 30
39.1
 70
    64
  0
VERTEX
  5
33D6
  8
0
 10
0.9
 20
67.0
 30
40.1
 70
    64
  0
VERTEX
  5
33D7
  8
0
 10
1.9
 20
67.0
 30
40.8
 70
    64
  0
VERTEX
  5
33D8
  8
0
 10
3.0
 20
67.0
 30
41.0
 70
    64
  0
VERTEX
  5
33D9
  8
0
 10
4.1
 20
67.0
 30
40.8
 70
    64
  0
VERTEX
  5
33DA
  8
0
 10
5.1
 20
67.0
 30
40.1
 70
    64
  0
VERTEX
  5
33DB
  8
0
 10
5.8
 20
67.0
 30
39.1
 70
    64
  0
VERTEX
  5
33DC
  8
0
 10
6.0
 20
67.0
 30
38.0
 70
    64
  0
VERTEX
  5
33DD
  8
0
 10
2.3
 20
49.7
 30
38.0
 70
    64
  0
VERTEX
  5
33DE
  8
0
 10
2.5
 20
49.7
 30
39.1
 70
    64
  0
VERTEX
  5
33DF
  8
0
 10
3.1
 20
49.9
 30
40.1
 70
    64
  0
VERTEX
  5
33E0
  8
0
 10
4.1
 20
50.1
 30
40.8
 70
    64
  0
VERTEX
  5
33E1
  8
0
 10
5.2
 20
50.4
 30
41.0
 70
    64
  0
VERTEX
  5
33E2
  8
0
 10
6.3
 20
50.7
 30
40.8
 70
    64
  0
VERTEX
  5
33E3
  8
0
 10
7.2
 20
51.0
 30
40.1
 70
    64
  0
VERTEX
  5
33E4
  8
0
 10
7.9
 20
51.2
 30
39.1
 70
    64
  0
VERTEX
  5
33E5
  8
0
 10
8.1
 20
51.2
 30
38.0
 70
    64
  0
VERTEX
  5
33E6
  8
0
 10
9.0
 20
33.5
 30
38.0
 70
    64
  0
VERTEX
  5
33E7
  8
0
 10
9.2
 20
33.6
 30
39.1
 70
    64
  0
VERTEX
  5
33E8
  8
0
 10
9.7
 20
33.9
 30
40.1
 70
    64
  0
VERTEX
  5
33E9
  8
0
 10
10.6
 20
34.4
 30
40.8
 70
    64
  0
VERTEX
  5
33EA
  8
0
 10
11.6
 20
35.0
 30
41.0
 70
    64
  0
VERTEX
  5
33EB
  8
0
 10
12.6
 20
35.6
 30
40.8
 70
    64
  0
VERTEX
  5
33EC
  8
0
 10
13.4
 20
36.1
 30
40.1
 70
    64
  0
VERTEX
  5
33ED
  8
0
 10
14.0
 20
36.4
 30
39.1
 70
    64
  0
VERTEX
  5
33EE
  8
0
 10
14.2
 20
36.5
 30
38.0
 70
    64
  0
VERTEX
  5
33EF
  8
0
 10
19.6
 20
19.6
 30
38.0
 70
    64
  0
VERTEX
  5
33F0
  8
0
 10
19.8
 20
19.8
 30
39.1
 70
    64
  0
VERTEX
  5
33F1
  8
0
 10
20.2
 20
20.2
 30
40.1
 70
    64
  0
VERTEX
  5
33F2
  8
0
 10
20.9
 20
20.9
 30
40.8
 70
    64
  0
VERTEX
  5
33F3
  8
0
 10
21.7
 20
21.7
 30
41.0
 70
    64
  0
VERTEX
  5
33F4
  8
0
 10
22.6
 20
22.6
 30
40.8
 70
    64
  0
VERTEX
  5
33F5
  8
0
 10
23.2
 20
23.2
 30
40.1
 70
    64
  0
VERTEX
  5
33F6
  8
0
 10
23.7
 20
23.7
 30
39.1
 70
    64
  0
VERTEX
  5
33F7
  8
0
 10
23.9
 20
23.9
 30
38.0
 70
    64
  0
SEQEND
  5
33F8
  8
0
  0
POLYLINE
  5
33F9
  8
0
 66
     1
 10
0.0
 20
0.0
 30
0.0
 70
    16
 71
     4
 72
     9
  0
VERTEX
  5
33FA
  8
0
 10
67.0
 20
0.0
 30
38.0
 70
    64
  0
VERTEX
  5
33FB
  8
0
 10
67.0
 20
0.2
 30
39.1
 70
    64
  0
VERTEX
  5
33FC
  8
0
 10
67.0
 20
0.9
 30
40.1
 70
    64
  0
VERTEX
  5
33FD
  8
0
 10
67.0
 20
1.9
 30
40.8
 70
    64
  0
VERTEX
  5
33FE
  8
0
 10
67.0
 20
3.0
 30
41.0
 70
    64
  0
VERTEX
  5
33FF
  8
0
 10
67.0
 20
4.1
 30
40.8
 70
    64
  0
VERTEX
  5
3400
  8
0
 10
67.0
 20
5.1
 30
40.1
 70
    64
  0
VERTEX
  5
3401
  8
0
 10
67.0
 20
5.8
 30
39.1
 70
    64
  0
VERTEX
  5
3402
  8
0
 10
67.0
 20
6.0
 30
38.0
 70
    64
  0
VERTEX
  5
3403
  8
0
 10
49.7
 20
2.3
 30
38.0
 70
    64
  0
VERTEX
  5
3404
  8
0
 10
49.7
 20
2.5
 30
39.1
 70
    64
  0
VERTEX
  5
3405
  8
0
 10
49.9
 20
3.1
 30
40.1
 70
    64
  0
VERTEX
  5
3406
  8
0
 10
50.1
 20
4.1
 30
40.8
 70
    64
  0
VERTEX
  5
3407
  8
0
 10
50.4
 20
5.2
 30
41.0
 70
    64
  0
VERTEX
  5
3408
  8
0
 10
50.7
 20
6.3
 30
40.8
 70
    64
  0
VERTEX
  5
3409
  8
0
 10
51.0
 20
7.2
 30
40.1
 70
    64
  0
VERTEX
  5
340A
  8
0
 10
51.2
 20
7.9
 30
39.1
 70
    64
  0
VERTEX
  5
340B
  8
0
 10
51.2
 20
8.1
 30
38.0
 70
    64
  0
VERTEX
  5
340C
  8
0
 10
33.5
 20
9.0
 30
38.0
 70
    64
  0
VERTEX
  5
340D
  8
0
 10
33.6
 20
9.2
 30
39.1
 70
    64
  0
VERTEX
  5
340E
  8
0
 10
33.9
 20
9.7
 30
40.1
 70
    64
  0
VERTEX
  5
340F
  8
0
 10
34.4
 20
10.6
 30
40.8
 70
    64
  0
VERTEX
  5
3410
  8
0
 10
35.0
 20
11.6
 30
41.0
 70
    64
  0
VERTEX
  5
3411
  8
0
 10
35.6
 20
12.6
 30
40.8
 70
    64
  0
VERTEX
  5
3412
  8
0
 10
36.1
 20
13.4
 30
40.1
 70
    64
  0
VERTEX
  5
3413
  8
0
 10
36.4
 20
14.0
 30
39.1
 70
    64
  0
VERTEX
  5
3414
  8
0
 10
36.5
 20
14.2
 30
38.0
 70
    64
  0
VERTEX
  5
3415
  8
0
 10
19.6
 20
19.6
 30
38.0
 70
    64
  0
VERTEX
  5
3416
  8
0
 10
19.8
 20
19.8
 30
39.1
 70
    64
  0
VERTEX
  5
3417
  8
0
 10
20.2
 20
20.2
 30
40.1
 70
    64
  0
VERTEX
  5
3418
  8
0
 10
20.9
 20
20.9
 30
40.8
 70
    64
  0
VERTEX
  5
3419
  8
0
 10
21.7
 20
21.7
 30
41.0
 70
    64
  0
VERTEX
  5
341A
  8
0
 10
22.6
 20
22.6
 30
40.8
 70
    64
  0
VERTEX
  5
341B
  8
0
 10
23.2
 20
23.2
 30
40.1
 70
    64
  0
VERTEX
  5
341C
  8
0
 10
23.7
 20
23.7
 30
39.1
 70
    64
  0
VERTEX
  5
341D
  8
0
 10
23.9
 20
23.9
 30
38.0
 70
    64
  0
SEQEND
  5
341E
  8
0
  0
POLYLINE
  5
341F
  8
0
 66
     1
 10
0.0
 20
0.0
 30
0.0
 70
    16
 71
     4
 72
     9
  0
VERTEX
  5
3420
  8
0
 10
67.0
 20
134.0
 30
38.0
 70
    64
  0
VERTEX
  5
3421
  8
0
 10
67.0
 20
133.8
 30
39.1
 70
    64
  0
VERTEX
  5
3422
  8
0
 10
67.0
 20
133.1
 30
40.1
 70
    64
  0
VERTEX
  5
3423
  8
0
 10
67.0
 20
132.1
 30
40.8
 70
    64
  0
VERTEX
  5
3424
  8
0
 10
67.0
 20
131.0
 30
41.0
 70
    64
  0
VERTEX
  5
3425
  8
0
 10
67.0
 20
129.9
 30
40.8
 70
    64
  0
VERTEX
  5
3426
  8
0
 10
67.0
 20
128.9
 30
40.1
 70
    64
  0
VERTEX
  5
3427
  8
0
 10
67.0
 20
128.2
 30
39.1
 70
    64
  0
VERTEX
  5
3428
  8
0
 10
67.0
 20
128.0
 30
38.0
 70
    64
  0
VERTEX
  5
3429
  8
0
 10
49.7
 20
131.7
 30
38.0
 70
    64
  0
VERTEX
  5
342A
  8
0
 10
49.7
 20
131.5
 30
39.1
 70
    64
  0
VERTEX
  5
342B
  8
0
 10
49.9
 20
130.9
 30
40.1
 70
    64
  0
VERTEX
  5
342C
  8
0
 10
50.1
 20
129.9
 30
40.8
 70
    64
  0
VERTEX
  5
342D
  8
0
 10
50.4
 20
128.8
 30
41.0
 70
    64
  0
VERTEX
  5
342E
  8
0
 10
50.7
 20
127.7
 30
40.8
 70
    64
  0
VERTEX
  5
342F
  8
0
 10
51.0
 20
126.8
 30
40.1
 70
    64
  0
VERTEX
  5
3430
  8
0
 10
51.2
 20
126.1
 30
39.1
 70
    64
  0
VERTEX
  5
3431
  8
0
 10
51.2
 20
125.9
 30
38.0
 70
    64
  0
VERTEX
  5
3432
  8
0
 10
33.5
 20
125.0
 30
38.0
 70
    64
  0
VERTEX
  5
3433
  8
0
 10
33.6
 20
124.8
 30
39.1
 70
    64
  0
VERTEX
  5
3434
  8
0
 10
33.9
 20
124.3
 30
40.1
 70
    64
  0
VERTEX
  5
3435
  8
0
 10
34.4
 20
123.4
 30
40.8
 70
    64
  0
VERTEX
  5
3436
  8
0
 10
35.0
 20
122.4
 30
41.0
 70
    64
  0
VERTEX
  5
3437
  8
0
 10
35.6
 20
121.4
 30
40.8
 70
    64
  0
VERTEX
  5
3438
  8
0
 10
36.1
 20
120.6
 30
40.1
 70
    64
  0
VERTEX
  5
3439
  8
0
 10
36.4
 20
120.0
 30
39.1
 70
    64
  0
VERTEX
  5
343A
  8
0
 10
36.5
 20
119.8
 30
38.0
 70
    64
  0
VERTEX
  5
343B
  8
0
 10
19.6
 20
114.4
 30
38.0
 70
    64
  0
VERTEX
  5
343C
  8
0
 10
19.8
 20
114.2
 30
39.1
 70
    64
  0
VERTEX
  5
343D
  8
0
 10
20.2
 20
113.8
 30
40.1
 70
    64
  0
VERTEX
  5
343E
  8
0
 10
20.9
 20
113.1
 30
40.8
 70
    64
  0
VERTEX
  5
343F
  8
0
 10
21.7
 20
112.3
 30
41.0
 70
    64
  0
VERTEX
  5
3440
  8
0
 10
22.6
 20
111.4
 30
40.8
 70
    64
  0
VERTEX
  5
3441
  8
0
 10
23.2
 20
110.8
 30
40.1
 70
    64
  0
VERTEX
  5
3442
  8
0
 10
23.7
 20
110.3
 30
39.1
 70
    64
  0
VERTEX
  5
3443
  8
0
 10
23.9
 20
110.1
 30
38.0
 70
    64
  0
SEQEND
  5
3444
  8
0
  0
POLYLINE
  5
3445
  8
0
 66
     1
 10
0.0
 20
0.0
 30
0.0
 70
    16
 71
     4
 72
     9
  0
VERTEX
  5
3446
  8
0
 10
0.0
 20
67.0
 30
38.0
 70
    64
  0
VERTEX
  5
3447
  8
0
 10
0.2
 20
67.0
 30
39.1
 70
    64
  0
VERTEX
  5
3448
  8
0
 10
0.9
 20
67.0
 30
40.1
 70
    64
  0
VERTEX
  5
3449
  8
0
 10
1.9
 20
67.0
 30
40.8
 70
    64
  0
VERTEX
  5
344A
  8
0
 10
3.0
 20
67.0
 30
41.0
 70
    64
  0
VERTEX
  5
344B
  8
0
 10
4.1
 20
67.0
 30
40.8
 70
    64
  0
VERTEX
  5
344C
  8
0
 10
5.1
 20
67.0
 30
40.1
 70
    64
  0
VERTEX
  5
344D
  8
0
 10
5.8
 20
67.0
 30
39.1
 70
    64
  0
VERTEX
  5
344E
  8
0
 10
6.0
 20
67.0
 30
38.0
 70
    64
  0
VERTEX
  5
344F
  8
0
 10
2.3
 20
84.3
 30
38.0
 70
    64
  0
VERTEX
  5
3450
  8
0
 10
2.5
 20
84.3
 30
39.1
 70
    64
  0
VERTEX
  5
3451
  8
0
 10
3.1
 20
84.1
 30
40.1
 70
    64
  0
VERTEX
  5
3452
  8
0
 10
4.1
 20
83.9
 30
40.8
 70
    64
  0
VERTEX
  5
3453
  8
0
 10
5.2
 20
83.6
 30
41.0
 70
    64
  0
VERTEX
  5
3454
  8
0
 10
6.3
 20
83.3
 30
40.8
 70
    64
  0
VERTEX
  5
3455
  8
0
 10
7.2
 20
83.0
 30
40.1
 70
    64
  0
VERTEX
  5
3456
  8
0
 10
7.9
 20
82.8
 30
39.1
 70
    64
  0
VERTEX
  5
3457
  8
0
 10
8.1
 20
82.8
 30
38.0
 70
    64
  0
VERTEX
  5
3458
  8
0
 10
9.0
 20
100.5
 30
38.0
 70
    64
  0
VERTEX
  5
3459
  8
0
 10
9.2
 20
100.4
 30
39.1
 70
    64
  0
VERTEX
  5
345A
  8
0
 10
9.7
 20
100.1
 30
40.1
 70
    64
  0
VERTEX
  5
345B
  8
0
 10
10.6
 20
99.6
 30
40.8
 70
    64
  0
VERTEX
  5
345C
  8
0
 10
11.6
 20
99.0
 30
41.0
 70
    64
  0
VERTEX
  5
345D
  8
0
 10
12.6
 20
98.4
 30
40.8
 70
    64
  0
VERTEX
  5
345E
  8
0
 10
13.4
 20
97.9
 30
40.1
 70
    64
  0
VERTEX
  5
345F
  8
0
 10
14.0
 20
97.6
 30
39.1
 70
    64
  0
VERTEX
  5
3460
  8
0
 10
14.2
 20
97.5
 30
38.0
 70
    64
  0
VERTEX
  5
3461
  8
0
 10
19.6
 20
114.4
 30
38.0
 70
    64
  0
VERTEX
  5
3462
  8
0
 10
19.8
 20
114.2
 30
39.1
 70
    64
  0
VERTEX
  5
3463
  8
0
 10
20.2
 20
113.8
 30
40.1
 70
    64
  0
VERTEX
  5
3464
  8
0
 10
20.9
 20
113.1
 30
40.8
 70
    64
  0
VERTEX
  5
3465
  8
0
 10
21.7
 20
112.3
 30
41.0
 70
    64
  0
VERTEX
  5
3466
  8
0
 10
22.6
 20
111.4
 30
40.8
 70
    64
  0
VERTEX
  5
3467
  8
0
 10
23.2
 20
110.8
 30
40.1
 70
    64
  0
VERTEX
  5
3468
  8
0
 10
23.7
 20
110.3
 30
39.1
 70
    64
  0
VERTEX
  5
3469
  8
0
 10
23.9
 20
110.1
 30
38.0
 70
    64
  0
SEQEND
  5
346A
  8
0
  0
POLYLINE
  5
3491
  8
0
 66
     1
 10
0.0
 20
0.0
 30
0.0
 70
    16
 71
     4
 72
     9
  0
VERTEX
  5
3492
  8
0
 10
67.0
 20
131.0
 30
38.0
 70
    64
  0
VERTEX
  5
3493
  8
0
 10
67.0
 20
131.0
 30
38.0
 70
    64
  0
VERTEX
  5
3494
  8
0
 10
67.0
 20
131.0
 30
38.0
 70
    64
  0
VERTEX
  5
3495
  8
0
 10
67.0
 20
131.0
 30
38.0
 70
    64
  0
VERTEX
  5
3496
  8
0
 10
67.0
 20
131.0
 30
38.0
 70
    64
  0
VERTEX
  5
3497
  8
0
 10
67.0
 20
131.0
 30
38.0
 70
    64
  0
VERTEX
  5
3498
  8
0
 10
67.0
 20
131.0
 30
38.0
 70
    64
  0
VERTEX
  5
3499
  8
0
 10
67.0
 20
131.0
 30
38.0
 70
    64
  0
VERTEX
  5
349A
  8
0
 10
67.0
 20
131.0
 30
38.0
 70
    64
  0
VERTEX
  5
349B
  8
0
 10
67.0
 20
135.0
 30
38.0
 70
    64
  0
VERTEX
  5
349C
  8
0
 10
67.0
 20
134.7
 30
39.5
 70
    64
  0
VERTEX
  5
349D
  8
0
 10
67.0
 20
133.8
 30
40.8
 70
    64
  0
VERTEX
  5
349E
  8
0
 10
67.0
 20
132.5
 30
41.7
 70
    64
  0
VERTEX
  5
349F
  8
0
 10
67.0
 20
131.0
 30
42.0
 70
    64
  0
VERTEX
  5
34A0
  8
0
 10
67.0
 20
129.5
 30
41.7
 70
    64
  0
VERTEX
  5
34A1
  8
0
 10
67.0
 20
128.2
 30
40.8
 70
    64
  0
VERTEX
  5
34A2
  8
0
 10
67.0
 20
127.3
 30
39.5
 70
    64
  0
VERTEX
  5
34A3
  8
0
 10
67.0
 20
127.0
 30
38.0
 70
    64
  0
VERTEX
  5
34A4
  8
0
 10
77.0
 20
135.0
 30
38.0
 70
    64
  0
VERTEX
  5
34A5
  8
0
 10
77.0
 20
134.7
 30
39.5
 70
    64
  0
VERTEX
  5
34A6
  8
0
 10
77.0
 20
133.8
 30
40.8
 70
    64
  0
VERTEX
  5
34A7
  8
0
 10
77.0
 20
132.5
 30
41.7
 70
    64
  0
VERTEX
  5
34A8
  8
0
 10
77.0
 20
131.0
 30
42.0
 70
    64
  0
VERTEX
  5
34A9
  8
0
 10
77.0
 20
129.5
 30
41.7
 70
    64
  0
VERTEX
  5
34AA
  8
0
 10
77.0
 20
128.2
 30
40.8
 70
    64
  0
VERTEX
  5
34AB
  8
0
 10
77.0
 20
127.3
 30
39.5
 70
    64
  0
VERTEX
  5
34AC
  8
0
 10
77.0
 20
127.0
 30
38.0
 70
    64
  0
VERTEX
  5
34AD
  8
0
 10
77.0
 20
131.0
 30
38.0
 70
    64
  0
VERTEX
  5
34AE
  8
0
 10
77.0
 20
131.0
 30
38.0
 70
    64
  0
VERTEX
  5
34AF
  8
0
 10
77.0
 20
131.0
 30
38.0
 70
    64
  0
VERTEX
  5
34B0
  8
0
 10
77.0
 20
131.0
 30
38.0
 70
    64
  0
VERTEX
  5
34B1
  8
0
 10
77.0
 20
131.0
 30
38.0
 70
    64
  0
VERTEX
  5
34B2
  8
0
 10
77.0
 20
131.0
 30
38.0
 70
    64
  0
VERTEX
  5
34B3
  8
0
 10
77.0
 20
131.0
 30
38.0
 70
    64
  0
VERTEX
  5
34B4
  8
0
 10
77.0
 20
131.0
 30
38.0
 70
    64
  0
VERTEX
  5
34B5
  8
0
 10
77.0
 20
131.0
 30
38.0
 70
    64
  0
SEQEND
  5
34B6
  8
0
  0
POLYLINE
  5
34B7
  8
0
 66
     1
 10
0.0
 20
0.0
 30
0.0
 70
    16
 71
     2
 72
     9
  0
VERTEX
  5
34B8
  8
0
 10
67.0
 20
6.0
 30
38.0
 70
    64
  0
VERTEX
  5
34B9
  8
0
 10
67.0
 20
5.8
 30
39.1
 70
    64
  0
VERTEX
  5
34BA
  8
0
 10
67.0
 20
5.1
 30
40.1
 70
    64
  0
VERTEX
  5
34BB
  8
0
 10
67.0
 20
4.1
 30
40.8
 70
    64
  0
VERTEX
  5
34BC
  8
0
 10
67.0
 20
3.0
 30
41.0
 70
    64
  0
VERTEX
  5
34BD
  8
0
 10
67.0
 20
1.9
 30
40.8
 70
    64
  0
VERTEX
  5
34BE
  8
0
 10
67.0
 20
0.9
 30
40.1
 70
    64
  0
VERTEX
  5
34BF
  8
0
 10
67.0
 20
0.2
 30
39.1
 70
    64
  0
VERTEX
  5
34C0
  8
0
 10
67.0
 20
0.0
 30
38.0
 70
    64
  0
VERTEX
  5
34C1
  8
0
 10
350.0
 20
6.0
 30
38.0
 70
    64
  0
VERTEX
  5
34C2
  8
0
 10
350.0
 20
5.8
 30
39.1
 70
    64
  0
VERTEX
  5
34C3
  8
0
 10
350.0
 20
5.1
 30
40.1
 70
    64
  0
VERTEX
  5
34C4
  8
0
 10
350.0
 20
4.1
 30
40.8
 70
    64
  0
VERTEX
  5
34C5
  8
0
 10
350.0
 20
3.0
 30
41.0
 70
    64
  0
VERTEX
  5
34C6
  8
0
 10
350.0
 20
1.9
 30
40.8
 70
    64
  0
VERTEX
  5
34C7
  8
0
 10
350.0
 20
0.9
 30
40.1
 70
    64
  0
VERTEX
  5
34C8
  8
0
 10
350.0
 20
0.2
 30
39.1
 70
    64
  0
VERTEX
  5
34C9
  8
0
 10
350.0
 20
0.0
 30
38.0
 70
    64
  0
SEQEND
  5
34CA
  8
0
  0
POLYLINE
  5
34CB
  8
0
 66
     1
 10
0.0
 20
0.0
 30
0.0
 70
    16
 71
     2
 72
     9
  0
VERTEX
  5
34CC
  8
0
 10
77.0
 20
128.0
 30
38.0
 70
    64
  0
VERTEX
  5
34CD
  8
0
 10
77.0
 20
128.2
 30
39.1
 70
    64
  0
VERTEX
  5
34CE
  8
0
 10
77.0
 20
128.9
 30
40.1
 70
    64
  0
VERTEX
  5
34CF
  8
0
 10
77.0
 20
129.9
 30
40.8
 70
    64
  0
VERTEX
  5
34D0
  8
0
 10
77.0
 20
131.0
 30
41.0
 70
    64
  0
VERTEX
  5
34D1
  8
0
 10
77.0
 20
132.1
 30
40.8
 70
    64
  0
VERTEX
  5
34D2
  8
0
 10
77.0
 20
133.1
 30
40.1
 70
    64
  0
VERTEX
  5
34D3
  8
0
 10
77.0
 20
133.8
 30
39.1
 70
    64
  0
VERTEX
  5
34D4
  8
0
 10
77.0
 20
134.0
 30
38.0
 70
    64
  0
VERTEX
  5
34D5
  8
0
 10
350.0
 20
128.0
 30
38.0
 70
    64
  0
VERTEX
  5
34D6
  8
0
 10
350.0
 20
128.2
 30
39.1
 70
    64
  0
VERTEX
  5
34D7
  8
0
 10
350.0
 20
128.9
 30
40.1
 70
    64
  0
VERTEX
  5
34D8
  8
0
 10
350.0
 20
129.9
 30
40.8
 70
    64
  0
VERTEX
  5
34D9
  8
0
 10
350.0
 20
131.0
 30
41.0
 70
    64
  0
VERTEX
  5
34DA
  8
0
 10
350.0
 20
132.1
 30
40.8
 70
    64
  0
VERTEX
  5
34DB
  8
0
 10
350.0
 20
133.1
 30
40.1
 70
    64
  0
VERTEX
  5
34DC
  8
0
 10
350.0
 20
133.8
 30
39.1
 70
    64
  0
VERTEX
  5
34DD
  8
0
 10
350.0
 20
134.0
 30
38.0
 70
    64
  0
SEQEND
  5
34DE
  8
0
  0
POLYLINE
  5
34DF
  8
0
 66
     1
 10
0.0
 20
0.0
 30
0.0
 70
    16
 71
     4
 72
     9
  0
VERTEX
  5
34E0
  8
0
 10
0.0
 20
67.0
 30
38.0
 70
    64
  0
VERTEX
  5
34E1
  8
0
 10
0.2
 20
67.0
 30
36.9
 70
    64
  0
VERTEX
  5
34E2
  8
0
 10
0.9
 20
67.0
 30
35.9
 70
    64
  0
VERTEX
  5
34E3
  8
0
 10
1.9
 20
67.0
 30
35.2
 70
    64
  0
VERTEX
  5
34E4
  8
0
 10
3.0
 20
67.0
 30
35.0
 70
    64
  0
VERTEX
  5
34E5
  8
0
 10
4.1
 20
67.0
 30
35.2
 70
    64
  0
VERTEX
  5
34E6
  8
0
 10
5.1
 20
67.0
 30
35.9
 70
    64
  0
VERTEX
  5
34E7
  8
0
 10
5.8
 20
67.0
 30
36.9
 70
    64
  0
VERTEX
  5
34E8
  8
0
 10
6.0
 20
67.0
 30
38.0
 70
    64
  0
VERTEX
  5
34E9
  8
0
 10
2.3
 20
49.7
 30
38.0
 70
    64
  0
VERTEX
  5
34EA
  8
0
 10
2.5
 20
49.7
 30
36.9
 70
    64
  0
VERTEX
  5
34EB
  8
0
 10
3.1
 20
49.9
 30
35.9
 70
    64
  0
VERTEX
  5
34EC
  8
0
 10
4.1
 20
50.1
 30
35.2
 70
    64
  0
VERTEX
  5
34ED
  8
0
 10
5.2
 20
50.4
 30
35.0
 70
    64
  0
VERTEX
  5
34EE
  8
0
 10
6.3
 20
50.7
 30
35.2
 70
    64
  0
VERTEX
  5
34EF
  8
0
 10
7.2
 20
51.0
 30
35.9
 70
    64
  0
VERTEX
  5
34F0
  8
0
 10
7.9
 20
51.2
 30
36.9
 70
    64
  0
VERTEX
  5
34F1
  8
0
 10
8.1
 20
51.2
 30
38.0
 70
    64
  0
VERTEX
  5
34F2
  8
0
 10
9.0
 20
33.5
 30
38.0
 70
    64
  0
VERTEX
  5
34F3
  8
0
 10
9.2
 20
33.6
 30
36.9
 70
    64
  0
VERTEX
  5
34F4
  8
0
 10
9.7
 20
33.9
 30
35.9
 70
    64
  0
VERTEX
  5
34F5
  8
0
 10
10.6
 20
34.4
 30
35.2
 70
    64
  0
VERTEX
  5
34F6
  8
0
 10
11.6
 20
35.0
 30
35.0
 70
    64
  0
VERTEX
  5
34F7
  8
0
 10
12.6
 20
35.6
 30
35.2
 70
    64
  0
VERTEX
  5
34F8
  8
0
 10
13.4
 20
36.1
 30
35.9
 70
    64
  0
VERTEX
  5
34F9
  8
0
 10
14.0
 20
36.4
 30
36.9
 70
    64
  0
VERTEX
  5
34FA
  8
0
 10
14.2
 20
36.5
 30
38.0
 70
    64
  0
VERTEX
  5
34FB
  8
0
 10
19.6
 20
19.6
 30
38.0
 70
    64
  0
VERTEX
  5
34FC
  8
0
 10
19.8
 20
19.8
 30
36.9
 70
    64
  0
VERTEX
  5
34FD
  8
0
 10
20.2
 20
20.2
 30
35.9
 70
    64
  0
VERTEX
  5
34FE
  8
0
 10
20.9
 20
20.9
 30
35.2
 70
    64
  0
VERTEX
  5
34FF
  8
0
 10
21.7
 20
21.7
 30
35.0
 70
    64
  0
VERTEX
  5
3500
  8
0
 10
22.6
 20
22.6
 30
35.2
 70
    64
  0
VERTEX
  5
3501
  8
0
 10
23.2
 20
23.2
 30
35.9
 70
    64
  0
VERTEX
  5
3502
  8
0
 10
23.7
 20
23.7
 30
36.9
 70
    64
  0
VERTEX
  5
3503
  8
0
 10
23.9
 20
23.9
 30
38.0
 70
    64
  0
SEQEND
  5
3504
  8
0
  0
POLYLINE
  5
3505
  8
0
 66
     1
 10
0.0
 20
0.0
 30
0.0
 70
    16
 71
     4
 72
     9
  0
VERTEX
  5
3506
  8
0
 10
67.0
 20
0.0
 30
38.0
 70
    64
  0
VERTEX
  5
3507
  8
0
 10
67.0
 20
0.2
 30
36.9
 70
    64
  0
VERTEX
  5
3508
  8
0
 10
67.0
 20
0.9
 30
35.9
 70
    64
  0
VERTEX
  5
3509
  8
0
 10
67.0
 20
1.9
 30
35.2
 70
    64
  0
VERTEX
  5
350A
  8
0
 10
67.0
 20
3.0
 30
35.0
 70
    64
  0
VERTEX
  5
350B
  8
0
 10
67.0
 20
4.1
 30
35.2
 70
    64
  0
VERTEX
  5
350C
  8
0
 10
67.0
 20
5.1
 30
35.9
 70
    64
  0
VERTEX
  5
350D
  8
0
 10
67.0
 20
5.8
 30
36.9
 70
    64
  0
VERTEX
  5
350E
  8
0
 10
67.0
 20
6.0
 30
38.0
 70
    64
  0
VERTEX
  5
350F
  8
0
 10
49.7
 20
2.3
 30
38.0
 70
    64
  0
VERTEX
  5
3510
  8
0
 10
49.7
 20
2.5
 30
36.9
 70
    64
  0
VERTEX
  5
3511
  8
0
 10
49.9
 20
3.1
 30
35.9
 70
    64
  0
VERTEX
  5
3512
  8
0
 10
50.1
 20
4.1
 30
35.2
 70
    64
  0
VERTEX
  5
3513
  8
0
 10
50.4
 20
5.2
 30
35.0
 70
    64
  0
VERTEX
  5
3514
  8
0
 10
50.7
 20
6.3
 30
35.2
 70
    64
  0
VERTEX
  5
3515
  8
0
 10
51.0
 20
7.2
 30
35.9
 70
    64
  0
VERTEX
  5
3516
  8
0
 10
51.2
 20
7.9
 30
36.9
 70
    64
  0
VERTEX
  5
3517
  8
0
 10
51.2
 20
8.1
 30
38.0
 70
    64
  0
VERTEX
  5
3518
  8
0
 10
33.5
 20
9.0
 30
38.0
 70
    64
  0
VERTEX
  5
3519
  8
0
 10
33.6
 20
9.2
 30
36.9
 70
    64
  0
VERTEX
  5
351A
  8
0
 10
33.9
 20
9.7
 30
35.9
 70
    64
  0
VERTEX
  5
351B
  8
0
 10
34.4
 20
10.6
 30
35.2
 70
    64
  0
VERTEX
  5
351C
  8
0
 10
35.0
 20
11.6
 30
35.0
 70
    64
  0
VERTEX
  5
351D
  8
0
 10
35.6
 20
12.6
 30
35.2
 70
    64
  0
VERTEX
  5
351E
  8
0
 10
36.1
 20
13.4
 30
35.9
 70
    64
  0
VERTEX
  5
351F
  8
0
 10
36.4
 20
14.0
 30
36.9
 70
    64
  0
VERTEX
  5
3520
  8
0
 10
36.5
 20
14.2
 30
38.0
 70
    64
  0
VERTEX
  5
3521
  8
0
 10
19.6
 20
19.6
 30
38.0
 70
    64
  0
VERTEX
  5
3522
  8
0
 10
19.8
 20
19.8
 30
36.9
 70
    64
  0
VERTEX
  5
3523
  8
0
 10
20.2
 20
20.2
 30
35.9
 70
    64
  0
VERTEX
  5
3524
  8
0
 10
20.9
 20
20.9
 30
35.2
 70
    64
  0
VERTEX
  5
3525
  8
0
 10
21.7
 20
21.7
 30
35.0
 70
    64
  0
VERTEX
  5
3526
  8
0
 10
22.6
 20
22.6
 30
35.2
 70
    64
  0
VERTEX
  5
3527
  8
0
 10
23.2
 20
23.2
 30
35.9
 70
    64
  0
VERTEX
  5
3528
  8
0
 10
23.7
 20
23.7
 30
36.9
 70
    64
  0
VERTEX
  5
3529
  8
0
 10
23.9
 20
23.9
 30
38.0
 70
    64
  0
SEQEND
  5
352A
  8
0
  0
POLYLINE
  5
352B
  8
0
 66
     1
 10
0.0
 20
0.0
 30
0.0
 70
    16
 71
     4
 72
     9
  0
VERTEX
  5
352C
  8
0
 10
0.0
 20
67.0
 30
38.0
 70
    64
  0
VERTEX
  5
352D
  8
0
 10
0.2
 20
67.0
 30
36.9
 70
    64
  0
VERTEX
  5
352E
  8
0
 10
0.9
 20
67.0
 30
35.9
 70
    64
  0
VERTEX
  5
352F
  8
0
 10
1.9
 20
67.0
 30
35.2
 70
    64
  0
VERTEX
  5
3530
  8
0
 10
3.0
 20
67.0
 30
35.0
 70
    64
  0
VERTEX
  5
3531
  8
0
 10
4.1
 20
67.0
 30
35.2
 70
    64
  0
VERTEX
  5
3532
  8
0
 10
5.1
 20
67.0
 30
35.9
 70
    64
  0
VERTEX
  5
3533
  8
0
 10
5.8
 20
67.0
 30
36.9
 70
    64
  0
VERTEX
  5
3534
  8
0
 10
6.0
 20
67.0
 30
38.0
 70
    64
  0
VERTEX
  5
3535
  8
0
 10
2.3
 20
84.3
 30
38.0
 70
    64
  0
VERTEX
  5
3536
  8
0
 10
2.5
 20
84.3
 30
36.9
 70
    64
  0
VERTEX
  5
3537
  8
0
 10
3.1
 20
84.1
 30
35.9
 70
    64
  0
VERTEX
  5
3538
  8
0
 10
4.1
 20
83.9
 30
35.2
 70
    64
  0
VERTEX
  5
3539
  8
0
 10
5.2
 20
83.6
 30
35.0
 70
    64
  0
VERTEX
  5
353A
  8
0
 10
6.3
 20
83.3
 30
35.2
 70
    64
  0
VERTEX
  5
353B
  8
0
 10
7.2
 20
83.0
 30
35.9
 70
    64
  0
VERTEX
  5
353C
  8
0
 10
7.9
 20
82.8
 30
36.9
 70
    64
  0
VERTEX
  5
353D
  8
0
 10
8.1
 20
82.8
 30
38.0
 70
    64
  0
VERTEX
  5
353E
  8
0
 10
9.0
 20
100.5
 30
38.0
 70
    64
  0
VERTEX
  5
353F
  8
0
 10
9.2
 20
100.4
 30
36.9
 70
    64
  0
VERTEX
  5
3540
  8
0
 10
9.7
 20
100.1
 30
35.9
 70
    64
  0
VERTEX
  5
3541
  8
0
 10
10.6
 20
99.6
 30
35.2
 70
    64
  0
VERTEX
  5
3542
  8
0
 10
11.6
 20
99.0
 30
35.0
 70
    64
  0
VERTEX
  5
3543
  8
0
 10
12.6
 20
98.4
 30
35.2
 70
    64
  0
VERTEX
  5
3544
  8
0
 10
13.4
 20
97.9
 30
35.9
 70
    64
  0
VERTEX
  5
3545
  8
0
 10
14.0
 20
97.6
 30
36.9
 70
    64
  0
VERTEX
  5
3546
  8
0
 10
14.2
 20
97.5
 30
38.0
 70
    64
  0
VERTEX
  5
3547
  8
0
 10
19.6
 20
114.4
 30
38.0
 70
    64
  0
VERTEX
  5
3548
  8
0
 10
19.8
 20
114.2
 30
36.9
 70
    64
  0
VERTEX
  5
3549
  8
0
 10
20.2
 20
113.8
 30
35.9
 70
    64
  0
VERTEX
  5
354A
  8
0
 10
20.9
 20
113.1
 30
35.2
 70
    64
  0
VERTEX
  5
354B
  8
0
 10
21.7
 20
112.3
 30
35.0
 70
    64
  0
VERTEX
  5
354C
  8
0
 10
22.6
 20
111.4
 30
35.2
 70
    64
  0
VERTEX
  5
354D
  8
0
 10
23.2
 20
110.8
 30
35.9
 70
    64
  0
VERTEX
  5
354E
  8
0
 10
23.7
 20
110.3
 30
36.9
 70
    64
  0
VERTEX
  5
354F
  8
0
 10
23.9
 20
110.1
 30
38.0
 70
    64
  0
SEQEND
  5
3550
  8
0
  0
POLYLINE
  5
3551
  8
0
 66
     1
 10
0.0
 20
0.0
 30
0.0
 70
    16
 71
     4
 72
     9
  0
VERTEX
  5
3552
  8
0
 10
67.0
 20
134.0
 30
38.0
 70
    64
  0
VERTEX
  5
3553
  8
0
 10
67.0
 20
133.8
 30
36.9
 70
    64
  0
VERTEX
  5
3554
  8
0
 10
67.0
 20
133.1
 30
35.9
 70
    64
  0
VERTEX
  5
3555
  8
0
 10
67.0
 20
132.1
 30
35.2
 70
    64
  0
VERTEX
  5
3556
  8
0
 10
67.0
 20
131.0
 30
35.0
 70
    64
  0
VERTEX
  5
3557
  8
0
 10
67.0
 20
129.9
 30
35.2
 70
    64
  0
VERTEX
  5
3558
  8
0
 10
67.0
 20
128.9
 30
35.9
 70
    64
  0
VERTEX
  5
3559
  8
0
 10
67.0
 20
128.2
 30
36.9
 70
    64
  0
VERTEX
  5
355A
  8
0
 10
67.0
 20
128.0
 30
38.0
 70
    64
  0
VERTEX
  5
355B
  8
0
 10
49.7
 20
131.7
 30
38.0
 70
    64
  0
VERTEX
  5
355C
  8
0
 10
49.7
 20
131.5
 30
36.9
 70
    64
  0
VERTEX
  5
355D
  8
0
 10
49.9
 20
130.9
 30
35.9
 70
    64
  0
VERTEX
  5
355E
  8
0
 10
50.1
 20
129.9
 30
35.2
 70
    64
  0
VERTEX
  5
355F
  8
0
 10
50.4
 20
128.8
 30
35.0
 70
    64
  0
VERTEX
  5
3560
  8
0
 10
50.7
 20
127.7
 30
35.2
 70
    64
  0
VERTEX
  5
3561
  8
0
 10
51.0
 20
126.8
 30
35.9
 70
    64
  0
VERTEX
  5
3562
  8
0
 10
51.2
 20
126.1
 30
36.9
 70
    64
  0
VERTEX
  5
3563
  8
0
 10
51.2
 20
125.9
 30
38.0
 70
    64
  0
VERTEX
  5
3564
  8
0
 10
33.5
 20
125.0
 30
38.0
 70
    64
  0
VERTEX
  5
3565
  8
0
 10
33.6
 20
124.8
 30
36.9
 70
    64
  0
VERTEX
  5
3566
  8
0
 10
33.9
 20
124.3
 30
35.9
 70
    64
  0
VERTEX
  5
3567
  8
0
 10
34.4
 20
123.4
 30
35.2
 70
    64
  0
VERTEX
  5
3568
  8
0
 10
35.0
 20
122.4
 30
35.0
 70
    64
  0
VERTEX
  5
3569
  8
0
 10
35.6
 20
121.4
 30
35.2
 70
    64
  0
VERTEX
  5
356A
  8
0
 10
36.1
 20
120.6
 30
35.9
 70
    64
  0
VERTEX
  5
356B
  8
0
 10
36.4
 20
120.0
 30
36.9
 70
    64
  0
VERTEX
  5
356C
  8
0
 10
36.5
 20
119.8
 30
38.0
 70
    64
  0
VERTEX
  5
356D
  8
0
 10
19.6
 20
114.4
 30
38.0
 70
    64
  0
VERTEX
  5
356E
  8
0
 10
19.8
 20
114.2
 30
36.9
 70
    64
  0
VERTEX
  5
356F
  8
0
 10
20.2
 20
113.8
 30
35.9
 70
    64
  0
VERTEX
  5
3570
  8
0
 10
20.9
 20
113.1
 30
35.2
 70
    64
  0
VERTEX
  5
3571
  8
0
 10
21.7
 20
112.3
 30
35.0
 70
    64
  0
VERTEX
  5
3572
  8
0
 10
22.6
 20
111.4
 30
35.2
 70
    64
  0
VERTEX
  5
3573
  8
0
 10
23.2
 20
110.8
 30
35.9
 70
    64
  0
VERTEX
  5
3574
  8
0
 10
23.7
 20
110.3
 30
36.9
 70
    64
  0
VERTEX
  5
3575
  8
0
 10
23.9
 20
110.1
 30
38.0
 70
    64
  0
SEQEND
  5
3576
  8
0
  0
POLYLINE
  5
3577
  8
0
 66
     1
 10
0.0
 20
0.0
 30
0.0
 70
    16
 71
     2
 72
     9
  0
VERTEX
  5
3578
  8
0
 10
77.0
 20
128.0
 30
38.0
 70
    64
  0
VERTEX
  5
3579
  8
0
 10
77.0
 20
128.2
 30
36.9
 70
    64
  0
VERTEX
  5
357A
  8
0
 10
77.0
 20
128.9
 30
35.9
 70
    64
  0
VERTEX
  5
357B
  8
0
 10
77.0
 20
129.9
 30
35.2
 70
    64
  0
VERTEX
  5
357C
  8
0
 10
77.0
 20
131.0
 30
35.0
 70
    64
  0
VERTEX
  5
357D
  8
0
 10
77.0
 20
132.1
 30
35.2
 70
    64
  0
VERTEX
  5
357E
  8
0
 10
77.0
 20
133.1
 30
35.9
 70
    64
  0
VERTEX
  5
357F
  8
0
 10
77.0
 20
133.8
 30
36.9
 70
    64
  0
VERTEX
  5
3580
  8
0
 10
77.0
 20
134.0
 30
38.0
 70
    64
  0
VERTEX
  5
3581
  8
0
 10
350.0
 20
128.0
 30
38.0
 70
    64
  0
VERTEX
  5
3582
  8
0
 10
350.0
 20
128.2
 30
36.9
 70
    64
  0
VERTEX
  5
3583
  8
0
 10
350.0
 20
128.9
 30
35.9
 70
    64
  0
VERTEX
  5
3584
  8
0
 10
350.0
 20
129.9
 30
35.2
 70
    64
  0
VERTEX
  5
3585
  8
0
 10
350.0
 20
131.0
 30
35.0
 70
    64
  0
VERTEX
  5
3586
  8
0
 10
350.0
 20
132.1
 30
35.2
 70
    64
  0
VERTEX
  5
3587
  8
0
 10
350.0
 20
133.1
 30
35.9
 70
    64
  0
VERTEX
  5
3588
  8
0
 10
350.0
 20
133.8
 30
36.9
 70
    64
  0
VERTEX
  5
3589
  8
0
 10
350.0
 20
134.0
 30
38.0
 70
    64
  0
SEQEND
  5
358A
  8
0
  0
POLYLINE
  5
358B
  8
0
 66
     1
 10
0.0
 20
0.0
 30
0.0
 70
    16
 71
     4
 72
     9
  0
VERTEX
  5
358C
  8
0
 10
67.0
 20
131.0
 30
38.0
 70
    64
  0
VERTEX
  5
358D
  8
0
 10
67.0
 20
131.0
 30
38.0
 70
    64
  0
VERTEX
  5
358E
  8
0
 10
67.0
 20
131.0
 30
38.0
 70
    64
  0
VERTEX
  5
358F
  8
0
 10
67.0
 20
131.0
 30
38.0
 70
    64
  0
VERTEX
  5
3590
  8
0
 10
67.0
 20
131.0
 30
38.0
 70
    64
  0
VERTEX
  5
3591
  8
0
 10
67.0
 20
131.0
 30
38.0
 70
    64
  0
VERTEX
  5
3592
  8
0
 10
67.0
 20
131.0
 30
38.0
 70
    64
  0
VERTEX
  5
3593
  8
0
 10
67.0
 20
131.0
 30
38.0
 70
    64
  0
VERTEX
  5
3594
  8
0
 10
67.0
 20
131.0
 30
38.0
 70
    64
  0
VERTEX
  5
3595
  8
0
 10
67.0
 20
135.0
 30
38.0
 70
    64
  0
VERTEX
  5
3596
  8
0
 10
67.0
 20
134.7
 30
36.5
 70
    64
  0
VERTEX
  5
3597
  8
0
 10
67.0
 20
133.8
 30
35.2
 70
    64
  0
VERTEX
  5
3598
  8
0
 10
67.0
 20
132.5
 30
34.3
 70
    64
  0
VERTEX
  5
3599
  8
0
 10
67.0
 20
131.0
 30
34.0
 70
    64
  0
VERTEX
  5
359A
  8
0
 10
67.0
 20
129.5
 30
34.3
 70
    64
  0
VERTEX
  5
359B
  8
0
 10
67.0
 20
128.2
 30
35.2
 70
    64
  0
VERTEX
  5
359C
  8
0
 10
67.0
 20
127.3
 30
36.5
 70
    64
  0
VERTEX
  5
359D
  8
0
 10
67.0
 20
127.0
 30
38.0
 70
    64
  0
VERTEX
  5
359E
  8
0
 10
77.0
 20
135.0
 30
38.0
 70
    64
  0
VERTEX
  5
359F
  8
0
 10
77.0
 20
134.7
 30
36.5
 70
    64
  0
VERTEX
  5
35A0
  8
0
 10
77.0
 20
133.8
 30
35.2
 70
    64
  0
VERTEX
  5
35A1
  8
0
 10
77.0
 20
132.5
 30
34.3
 70
    64
  0
VERTEX
  5
35A2
  8
0
 10
77.0
 20
131.0
 30
34.0
 70
    64
  0
VERTEX
  5
35A3
  8
0
 10
77.0
 20
129.5
 30
34.3
 70
    64
  0
VERTEX
  5
35A4
  8
0
 10
77.0
 20
128.2
 30
35.2
 70
    64
  0
VERTEX
  5
35A5
  8
0
 10
77.0
 20
127.3
 30
36.5
 70
    64
  0
VERTEX
  5
35A6
  8
0
 10
77.0
 20
127.0
 30
38.0
 70
    64
  0
VERTEX
  5
35A7
  8
0
 10
77.0
 20
131.0
 30
38.0
 70
    64
  0
VERTEX
  5
35A8
  8
0
 10
77.0
 20
131.0
 30
38.0
 70
    64
  0
VERTEX
  5
35A9
  8
0
 10
77.0
 20
131.0
 30
38.0
 70
    64
  0
VERTEX
  5
35AA
  8
0
 10
77.0
 20
131.0
 30
38.0
 70
    64
  0
VERTEX
  5
35AB
  8
0
 10
77.0
 20
131.0
 30
38.0
 70
    64
  0
VERTEX
  5
35AC
  8
0
 10
77.0
 20
131.0
 30
38.0
 70
    64
  0
VERTEX
  5
35AD
  8
0
 10
77.0
 20
131.0
 30
38.0
 70
    64
  0
VERTEX
  5
35AE
  8
0
 10
77.0
 20
131.0
 30
38.0
 70
    64
  0
VERTEX
  5
35AF
  8
0
 10
77.0
 20
131.0
 30
38.0
 70
    64
  0
SEQEND
  5
35B0
  8
0
  0
POLYLINE
  5
35B1
  8
0
 66
     1
 10
0.0
 20
0.0
 30
0.0
 70
    16
 71
     2
 72
     9
  0
VERTEX
  5
35B2
  8
0
 10
67.0
 20
6.0
 30
38.0
 70
    64
  0
VERTEX
  5
35B3
  8
0
 10
67.0
 20
5.8
 30
36.9
 70
    64
  0
VERTEX
  5
35B4
  8
0
 10
67.0
 20
5.1
 30
35.9
 70
    64
  0
VERTEX
  5
35B5
  8
0
 10
67.0
 20
4.1
 30
35.2
 70
    64
  0
VERTEX
  5
35B6
  8
0
 10
67.0
 20
3.0
 30
35.0
 70
    64
  0
VERTEX
  5
35B7
  8
0
 10
67.0
 20
1.9
 30
35.2
 70
    64
  0
VERTEX
  5
35B8
  8
0
 10
67.0
 20
0.9
 30
35.9
 70
    64
  0
VERTEX
  5
35B9
  8
0
 10
67.0
 20
0.2
 30
36.9
 70
    64
  0
VERTEX
  5
35BA
  8
0
 10
67.0
 20
0.0
 30
38.0
 70
    64
  0
VERTEX
  5
35BB
  8
0
 10
350.0
 20
6.0
 30
38.0
 70
    64
  0
VERTEX
  5
35BC
  8
0
 10
350.0
 20
5.8
 30
36.9
 70
    64
  0
VERTEX
  5
35BD
  8
0
 10
350.0
 20
5.1
 30
35.9
 70
    64
  0
VERTEX
  5
35BE
  8
0
 10
350.0
 20
4.1
 30
35.2
 70
    64
  0
VERTEX
  5
35BF
  8
0
 10
350.0
 20
3.0
 30
35.0
 70
    64
  0
VERTEX
  5
35C0
  8
0
 10
350.0
 20
1.9
 30
35.2
 70
    64
  0
VERTEX
  5
35C1
  8
0
 10
350.0
 20
0.9
 30
35.9
 70
    64
  0
VERTEX
  5
35C2
  8
0
 10
350.0
 20
0.2
 30
36.9
 70
    64
  0
VERTEX
  5
35C3
  8
0
 10
350.0
 20
0.0
 30
38.0
 70
    64
  0
SEQEND
  5
35C4
  8
0
  0
POLYLINE
  5
35C5
  8
0
 66
     1
 10
0.0
 20
0.0
 30
0.0
 70
    16
 71
     2
 72
     5
  0
VERTEX
  5
35C6
  8
0
 10
70.0
 20
3.0
 30
13.0
 70
    64
  0
VERTEX
  5
35C7
  8
0
 10
70.2
 20
2.2
 30
13.0
 70
    64
  0
VERTEX
  5
35C8
  8
0
 10
70.6
 20
1.6
 30
13.0
 70
    64
  0
VERTEX
  5
35C9
  8
0
 10
71.2
 20
1.2
 30
13.0
 70
    64
  0
VERTEX
  5
35CA
  8
0
 10
72.0
 20
1.0
 30
13.0
 70
    64
  0
VERTEX
  5
35CB
  8
0
 10
70.0
 20
3.0
 30
37.0
 70
    64
  0
VERTEX
  5
35CC
  8
0
 10
70.2
 20
2.2
 30
37.0
 70
    64
  0
VERTEX
  5
35CD
  8
0
 10
70.6
 20
1.6
 30
37.0
 70
    64
  0
VERTEX
  5
35CE
  8
0
 10
71.2
 20
1.2
 30
37.0
 70
    64
  0
VERTEX
  5
35CF
  8
0
 10
72.0
 20
1.0
 30
37.0
 70
    64
  0
SEQEND
  5
35D0
  8
0
  0
POLYLINE
  5
35D1
  8
0
 66
     1
 10
0.0
 20
0.0
 30
0.0
 70
    16
 71
     2
 72
     5
  0
VERTEX
  5
35D2
  8
0
 10
74.0
 20
3.0
 30
13.0
 70
    64
  0
VERTEX
  5
35D3
  8
0
 10
73.8
 20
2.2
 30
13.0
 70
    64
  0
VERTEX
  5
35D4
  8
0
 10
73.4
 20
1.6
 30
13.0
 70
    64
  0
VERTEX
  5
35D5
  8
0
 10
72.8
 20
1.2
 30
13.0
 70
    64
  0
VERTEX
  5
35D6
  8
0
 10
72.0
 20
1.0
 30
13.0
 70
    64
  0
VERTEX
  5
35D7
  8
0
 10
74.0
 20
3.0
 30
37.0
 70
    64
  0
VERTEX
  5
35D8
  8
0
 10
73.8
 20
2.2
 30
37.0
 70
    64
  0
VERTEX
  5
35D9
  8
0
 10
73.4
 20
1.6
 30
37.0
 70
    64
  0
VERTEX
  5
35DA
  8
0
 10
72.8
 20
1.2
 30
37.0
 70
    64
  0
VERTEX
  5
35DB
  8
0
 10
72.0
 20
1.0
 30
37.0
 70
    64
  0
SEQEND
  5
35DC
  8
0
  0
POLYLINE
  5
35DD
  8
0
 66
     1
 10
0.0
 20
0.0
 30
0.0
 70
    16
 71
     2
 72
     5
  0
VERTEX
  5
35DE
  8
0
 10
74.0
 20
3.0
 30
13.0
 70
    64
  0
VERTEX
  5
35DF
  8
0
 10
73.8
 20
3.8
 30
13.0
 70
    64
  0
VERTEX
  5
35E0
  8
0
 10
73.4
 20
4.4
 30
13.0
 70
    64
  0
VERTEX
  5
35E1
  8
0
 10
72.8
 20
4.8
 30
13.0
 70
    64
  0
VERTEX
  5
35E2
  8
0
 10
72.0
 20
5.0
 30
13.0
 70
    64
  0
VERTEX
  5
35E3
  8
0
 10
74.0
 20
3.0
 30
37.0
 70
    64
  0
VERTEX
  5
35E4
  8
0
 10
73.8
 20
3.8
 30
37.0
 70
    64
  0
VERTEX
  5
35E5
  8
0
 10
73.4
 20
4.4
 30
37.0
 70
    64
  0
VERTEX
  5
35E6
  8
0
 10
72.8
 20
4.8
 30
37.0
 70
    64
  0
VERTEX
  5
35E7
  8
0
 10
72.0
 20
5.0
 30
37.0
 70
    64
  0
SEQEND
  5
35E8
  8
0
  0
POLYLINE
  5
35E9
  8
0
 66
     1
 10
0.0
 20
0.0
 30
0.0
 70
    16
 71
     2
 72
     5
  0
VERTEX
  5
35EA
  8
0
 10
70.0
 20
3.0
 30
13.0
 70
    64
  0
VERTEX
  5
35EB
  8
0
 10
70.2
 20
3.8
 30
13.0
 70
    64
  0
VERTEX
  5
35EC
  8
0
 10
70.6
 20
4.4
 30
13.0
 70
    64
  0
VERTEX
  5
35ED
  8
0
 10
71.2
 20
4.8
 30
13.0
 70
    64
  0
VERTEX
  5
35EE
  8
0
 10
72.0
 20
5.0
 30
13.0
 70
    64
  0
VERTEX
  5
35EF
  8
0
 10
70.0
 20
3.0
 30
37.0
 70
    64
  0
VERTEX
  5
35F0
  8
0
 10
70.2
 20
3.8
 30
37.0
 70
    64
  0
VERTEX
  5
35F1
  8
0
 10
70.6
 20
4.4
 30
37.0
 70
    64
  0
VERTEX
  5
35F2
  8
0
 10
71.2
 20
4.8
 30
37.0
 70
    64
  0
VERTEX
  5
35F3
  8
0
 10
72.0
 20
5.0
 30
37.0
 70
    64
  0
SEQEND
  5
35F4
  8
0
  0
POLYLINE
  5
3625
  8
0
 66
     1
 10
0.0
 20
0.0
 30
0.0
 70
    16
 71
     2
 72
     5
  0
VERTEX
  5
3626
  8
0
 10
120.0
 20
131.0
 30
13.0
 70
    64
  0
VERTEX
  5
3627
  8
0
 10
120.2
 20
131.8
 30
13.0
 70
    64
  0
VERTEX
  5
3628
  8
0
 10
120.6
 20
132.4
 30
13.0
 70
    64
  0
VERTEX
  5
3629
  8
0
 10
121.2
 20
132.8
 30
13.0
 70
    64
  0
VERTEX
  5
362A
  8
0
 10
122.0
 20
133.0
 30
13.0
 70
    64
  0
VERTEX
  5
362B
  8
0
 10
120.0
 20
131.0
 30
37.0
 70
    64
  0
VERTEX
  5
362C
  8
0
 10
120.2
 20
131.8
 30
37.0
 70
    64
  0
VERTEX
  5
362D
  8
0
 10
120.6
 20
132.4
 30
37.0
 70
    64
  0
VERTEX
  5
362E
  8
0
 10
121.2
 20
132.8
 30
37.0
 70
    64
  0
VERTEX
  5
362F
  8
0
 10
122.0
 20
133.0
 30
37.0
 70
    64
  0
SEQEND
  5
3630
  8
0
  0
POLYLINE
  5
3631
  8
0
 66
     1
 10
0.0
 20
0.0
 30
0.0
 70
    16
 71
     2
 72
     5
  0
VERTEX
  5
3632
  8
0
 10
124.0
 20
131.0
 30
13.0
 70
    64
  0
VERTEX
  5
3633
  8
0
 10
123.8
 20
131.8
 30
13.0
 70
    64
  0
VERTEX
  5
3634
  8
0
 10
123.4
 20
132.4
 30
13.0
 70
    64
  0
VERTEX
  5
3635
  8
0
 10
122.8
 20
132.8
 30
13.0
 70
    64
  0
VERTEX
  5
3636
  8
0
 10
122.0
 20
133.0
 30
13.0
 70
    64
  0
VERTEX
  5
3637
  8
0
 10
124.0
 20
131.0
 30
37.0
 70
    64
  0
VERTEX
  5
3638
  8
0
 10
123.8
 20
131.8
 30
37.0
 70
    64
  0
VERTEX
  5
3639
  8
0
 10
123.4
 20
132.4
 30
37.0
 70
    64
  0
VERTEX
  5
363A
  8
0
 10
122.8
 20
132.8
 30
37.0
 70
    64
  0
VERTEX
  5
363B
  8
0
 10
122.0
 20
133.0
 30
37.0
 70
    64
  0
SEQEND
  5
363C
  8
0
  0
POLYLINE
  5
363D
  8
0
 66
     1
 10
0.0
 20
0.0
 30
0.0
 70
    16
 71
     2
 72
     5
  0
VERTEX
  5
363E
  8
0
 10
124.0
 20
131.0
 30
13.0
 70
    64
  0
VERTEX
  5
363F
  8
0
 10
123.8
 20
130.2
 30
13.0
 70
    64
  0
VERTEX
  5
3640
  8
0
 10
123.4
 20
129.6
 30
13.0
 70
    64
  0
VERTEX
  5
3641
  8
0
 10
122.8
 20
129.2
 30
13.0
 70
    64
  0
VERTEX
  5
3642
  8
0
 10
122.0
 20
129.0
 30
13.0
 70
    64
  0
VERTEX
  5
3643
  8
0
 10
124.0
 20
131.0
 30
37.0
 70
    64
  0
VERTEX
  5
3644
  8
0
 10
123.8
 20
130.2
 30
37.0
 70
    64
  0
VERTEX
  5
3645
  8
0
 10
123.4
 20
129.6
 30
37.0
 70
    64
  0
VERTEX
  5
3646
  8
0
 10
122.8
 20
129.2
 30
37.0
 70
    64
  0
VERTEX
  5
3647
  8
0
 10
122.0
 20
129.0
 30
37.0
 70
    64
  0
SEQEND
  5
3648
  8
0
  0
POLYLINE
  5
3649
  8
0
 66
     1
 10
0.0
 20
0.0
 30
0.0
 70
    16
 71
     2
 72
     5
  0
VERTEX
  5
364A
  8
0
 10
120.0
 20
131.0
 30
13.0
 70
    64
  0
VERTEX
  5
364B
  8
0
 10
120.2
 20
130.2
 30
13.0
 70
    64
  0
VERTEX
  5
364C
  8
0
 10
120.6
 20
129.6
 30
13.0
 70
    64
  0
VERTEX
  5
364D
  8
0
 10
121.2
 20
129.2
 30
13.0
 70
    64
  0
VERTEX
  5
364E
  8
0
 10
122.0
 20
129.0
 30
13.0
 70
    64
  0
VERTEX
  5
364F
  8
0
 10
120.0
 20
131.0
 30
37.0
 70
    64
  0
VERTEX
  5
3650
  8
0
 10
120.2
 20
130.2
 30
37.0
 70
    64
  0
VERTEX
  5
3651
  8
0
 10
120.6
 20
129.6
 30
37.0
 70
    64
  0
VERTEX
  5
3652
  8
0
 10
121.2
 20
129.2
 30
37.0
 70
    64
  0
VERTEX
  5
3653
  8
0
 10
122.0
 20
129.0
 30
37.0
 70
    64
  0
SEQEND
  5
3654
  8
0
  0
POLYLINE
  5
3656
  8
0
 66
     1
 10
0.0
 20
0.0
 30
0.0
 70
    16
 71
     4
 72
     6
  0
VERTEX
  5
3657
  8
0
 10
67.0
 20
140.0
 30
13.0
 70
    64
  0
VERTEX
  5
3658
  8
0
 10
67.4
 20
140.0
 30
14.9
 70
    64
  0
VERTEX
  5
3659
  8
0
 10
68.5
 20
140.0
 30
16.5
 70
    64
  0
VERTEX
  5
365A
  8
0
 10
70.1
 20
140.0
 30
17.6
 70
    64
  0
VERTEX
  5
365B
  8
0
 10
72.0
 20
140.0
 30
18.0
 70
    64
  0
VERTEX
  5
365C
  8
0
 10
92.0
 20
140.0
 30
18.0
 70
    64
  0
VERTEX
  5
365D
  8
0
 10
67.9
 20
133.5
 30
13.0
 70
    64
  0
VERTEX
  5
365E
  8
0
 10
68.2
 20
133.6
 30
14.9
 70
    64
  0
VERTEX
  5
365F
  8
0
 10
69.3
 20
133.9
 30
16.5
 70
    64
  0
VERTEX
  5
3660
  8
0
 10
70.8
 20
134.3
 30
17.6
 70
    64
  0
VERTEX
  5
3661
  8
0
 10
72.7
 20
134.8
 30
18.0
 70
    64
  0
VERTEX
  5
3662
  8
0
 10
92.0
 20
140.0
 30
18.0
 70
    64
  0
VERTEX
  5
3663
  8
0
 10
70.3
 20
127.5
 30
13.0
 70
    64
  0
VERTEX
  5
3664
  8
0
 10
70.7
 20
127.7
 30
14.9
 70
    64
  0
VERTEX
  5
3665
  8
0
 10
71.6
 20
128.2
 30
16.5
 70
    64
  0
VERTEX
  5
3666
  8
0
 10
73.0
 20
129.0
 30
17.6
 70
    64
  0
VERTEX
  5
3667
  8
0
 10
74.7
 20
130.0
 30
18.0
 70
    64
  0
VERTEX
  5
3668
  8
0
 10
92.0
 20
140.0
 30
18.0
 70
    64
  0
VERTEX
  5
3669
  8
0
 10
74.3
 20
122.3
 30
13.0
 70
    64
  0
VERTEX
  5
366A
  8
0
 10
74.6
 20
122.6
 30
14.9
 70
    64
  0
VERTEX
  5
366B
  8
0
 10
75.4
 20
123.4
 30
16.5
 70
    64
  0
VERTEX
  5
366C
  8
0
 10
76.5
 20
124.5
 30
17.6
 70
    64
  0
VERTEX
  5
366D
  8
0
 10
77.9
 20
125.9
 30
18.0
 70
    64
  0
VERTEX
  5
366E
  8
0
 10
92.0
 20
140.0
 30
18.0
 70
    64
  0
SEQEND
  5
366F
  8
0
  0
POLYLINE
  5
3670
  8
0
 66
     1
 10
0.0
 20
0.0
 30
0.0
 70
    16
 71
     4
 72
     6
  0
VERTEX
  5
3671
  8
0
 10
92.0
 20
115.0
 30
13.0
 70
    64
  0
VERTEX
  5
3672
  8
0
 10
92.0
 20
115.4
 30
14.9
 70
    64
  0
VERTEX
  5
3673
  8
0
 10
92.0
 20
116.5
 30
16.5
 70
    64
  0
VERTEX
  5
3674
  8
0
 10
92.0
 20
118.1
 30
17.6
 70
    64
  0
VERTEX
  5
3675
  8
0
 10
92.0
 20
120.0
 30
18.0
 70
    64
  0
VERTEX
  5
3676
  8
0
 10
92.0
 20
140.0
 30
18.0
 70
    64
  0
VERTEX
  5
3677
  8
0
 10
85.5
 20
115.9
 30
13.0
 70
    64
  0
VERTEX
  5
3678
  8
0
 10
85.6
 20
116.2
 30
14.9
 70
    64
  0
VERTEX
  5
3679
  8
0
 10
85.9
 20
117.3
 30
16.5
 70
    64
  0
VERTEX
  5
367A
  8
0
 10
86.3
 20
118.8
 30
17.6
 70
    64
  0
VERTEX
  5
367B
  8
0
 10
86.8
 20
120.7
 30
18.0
 70
    64
  0
VERTEX
  5
367C
  8
0
 10
92.0
 20
140.0
 30
18.0
 70
    64
  0
VERTEX
  5
367D
  8
0
 10
79.5
 20
118.3
 30
13.0
 70
    64
  0
VERTEX
  5
367E
  8
0
 10
79.7
 20
118.7
 30
14.9
 70
    64
  0
VERTEX
  5
367F
  8
0
 10
80.2
 20
119.6
 30
16.5
 70
    64
  0
VERTEX
  5
3680
  8
0
 10
81.0
 20
121.0
 30
17.6
 70
    64
  0
VERTEX
  5
3681
  8
0
 10
82.0
 20
122.7
 30
18.0
 70
    64
  0
VERTEX
  5
3682
  8
0
 10
92.0
 20
140.0
 30
18.0
 70
    64
  0
VERTEX
  5
3683
  8
0
 10
74.3
 20
122.3
 30
13.0
 70
    64
  0
VERTEX
  5
3684
  8
0
 10
74.6
 20
122.6
 30
14.9
 70
    64
  0
VERTEX
  5
3685
  8
0
 10
75.4
 20
123.4
 30
16.5
 70
    64
  0
VERTEX
  5
3686
  8
0
 10
76.5
 20
124.5
 30
17.6
 70
    64
  0
VERTEX
  5
3687
  8
0
 10
77.9
 20
125.9
 30
18.0
 70
    64
  0
VERTEX
  5
3688
  8
0
 10
92.0
 20
140.0
 30
18.0
 70
    64
  0
SEQEND
  5
3689
  8
0
  0
POLYLINE
  5
368A
  8
0
 66
     1
 10
0.0
 20
0.0
 30
0.0
 70
    16
 71
     4
 72
     6
  0
VERTEX
  5
368B
  8
0
 10
67.0
 20
140.0
 30
5.0
 70
    64
  0
VERTEX
  5
368C
  8
0
 10
67.4
 20
140.0
 30
3.1
 70
    64
  0
VERTEX
  5
368D
  8
0
 10
68.5
 20
140.0
 30
1.5
 70
    64
  0
VERTEX
  5
368E
  8
0
 10
70.1
 20
140.0
 30
0.4
 70
    64
  0
VERTEX
  5
368F
  8
0
 10
72.0
 20
140.0
 30
0.0
 70
    64
  0
VERTEX
  5
3690
  8
0
 10
92.0
 20
140.0
 30
0.0
 70
    64
  0
VERTEX
  5
3691
  8
0
 10
67.9
 20
133.5
 30
5.0
 70
    64
  0
VERTEX
  5
3692
  8
0
 10
68.2
 20
133.6
 30
3.1
 70
    64
  0
VERTEX
  5
3693
  8
0
 10
69.3
 20
133.9
 30
1.5
 70
    64
  0
VERTEX
  5
3694
  8
0
 10
70.8
 20
134.3
 30
0.4
 70
    64
  0
VERTEX
  5
3695
  8
0
 10
72.7
 20
134.8
 30
0.0
 70
    64
  0
VERTEX
  5
3696
  8
0
 10
92.0
 20
140.0
 30
0.0
 70
    64
  0
VERTEX
  5
3697
  8
0
 10
70.3
 20
127.5
 30
5.0
 70
    64
  0
VERTEX
  5
3698
  8
0
 10
70.7
 20
127.7
 30
3.1
 70
    64
  0
VERTEX
  5
3699
  8
0
 10
71.6
 20
128.2
 30
1.5
 70
    64
  0
VERTEX
  5
369A
  8
0
 10
73.0
 20
129.0
 30
0.4
 70
    64
  0
VERTEX
  5
369B
  8
0
 10
74.7
 20
130.0
 30
0.0
 70
    64
  0
VERTEX
  5
369C
  8
0
 10
92.0
 20
140.0
 30
0.0
 70
    64
  0
VERTEX
  5
369D
  8
0
 10
74.3
 20
122.3
 30
5.0
 70
    64
  0
VERTEX
  5
369E
  8
0
 10
74.6
 20
122.6
 30
3.1
 70
    64
  0
VERTEX
  5
369F
  8
0
 10
75.4
 20
123.4
 30
1.5
 70
    64
  0
VERTEX
  5
36A0
  8
0
 10
76.5
 20
124.5
 30
0.4
 70
    64
  0
VERTEX
  5
36A1
  8
0
 10
77.9
 20
125.9
 30
0.0
 70
    64
  0
VERTEX
  5
36A2
  8
0
 10
92.0
 20
140.0
 30
0.0
 70
    64
  0
SEQEND
  5
36A3
  8
0
  0
POLYLINE
  5
36A4
  8
0
 66
     1
 10
0.0
 20
0.0
 30
0.0
 70
    16
 71
     4
 72
     6
  0
VERTEX
  5
36A5
  8
0
 10
92.0
 20
115.0
 30
5.0
 70
    64
  0
VERTEX
  5
36A6
  8
0
 10
92.0
 20
115.4
 30
3.1
 70
    64
  0
VERTEX
  5
36A7
  8
0
 10
92.0
 20
116.5
 30
1.5
 70
    64
  0
VERTEX
  5
36A8
  8
0
 10
92.0
 20
118.1
 30
0.4
 70
    64
  0
VERTEX
  5
36A9
  8
0
 10
92.0
 20
120.0
 30
0.0
 70
    64
  0
VERTEX
  5
36AA
  8
0
 10
92.0
 20
140.0
 30
0.0
 70
    64
  0
VERTEX
  5
36AB
  8
0
 10
85.5
 20
115.9
 30
5.0
 70
    64
  0
VERTEX
  5
36AC
  8
0
 10
85.6
 20
116.2
 30
3.1
 70
    64
  0
VERTEX
  5
36AD
  8
0
 10
85.9
 20
117.3
 30
1.5
 70
    64
  0
VERTEX
  5
36AE
  8
0
 10
86.3
 20
118.8
 30
0.4
 70
    64
  0
VERTEX
  5
36AF
  8
0
 10
86.8
 20
120.7
 30
0.0
 70
    64
  0
VERTEX
  5
36B0
  8
0
 10
92.0
 20
140.0
 30
0.0
 70
    64
  0
VERTEX
  5
36B1
  8
0
 10
79.5
 20
118.3
 30
5.0
 70
    64
  0
VERTEX
  5
36B2
  8
0
 10
79.7
 20
118.7
 30
3.1
 70
    64
  0
VERTEX
  5
36B3
  8
0
 10
80.2
 20
119.6
 30
1.5
 70
    64
  0
VERTEX
  5
36B4
  8
0
 10
81.0
 20
121.0
 30
0.4
 70
    64
  0
VERTEX
  5
36B5
  8
0
 10
82.0
 20
122.7
 30
0.0
 70
    64
  0
VERTEX
  5
36B6
  8
0
 10
92.0
 20
140.0
 30
0.0
 70
    64
  0
VERTEX
  5
36B7
  8
0
 10
74.3
 20
122.3
 30
5.0
 70
    64
  0
VERTEX
  5
36B8
  8
0
 10
74.6
 20
122.6
 30
3.1
 70
    64
  0
VERTEX
  5
36B9
  8
0
 10
75.4
 20
123.4
 30
1.5
 70
    64
  0
VERTEX
  5
36BA
  8
0
 10
76.5
 20
124.5
 30
0.4
 70
    64
  0
VERTEX
  5
36BB
  8
0
 10
77.9
 20
125.9
 30
0.0
 70
    64
  0
VERTEX
  5
36BC
  8
0
 10
92.0
 20
140.0
 30
0.0
 70
    64
  0
SEQEND
  5
36BD
  8
0
  0
POLYLINE
  5
36BE
  8
0
 66
     1
 10
0.0
 20
0.0
 30
0.0
 70
    16
 71
     2
 72
     3
  0
VERTEX
  5
36BF
  8
0
 10
67.9
 20
133.5
 30
13.0
 70
    64
  0
VERTEX
  5
36C0
  8
0
 10
67.0
 20
140.0
 30
13.0
 70
    64
  0
VERTEX
  5
36C1
  8
0
 10
67.0
 20
140.0
 30
13.0
 70
    64
  0
VERTEX
  5
36C2
  8
0
 10
67.9
 20
133.5
 30
5.0
 70
    64
  0
VERTEX
  5
36C3
  8
0
 10
67.0
 20
140.0
 30
5.0
 70
    64
  0
VERTEX
  5
36C4
  8
0
 10
67.0
 20
140.0
 30
5.0
 70
    64
  0
SEQEND
  5
36C5
  8
0
  0
POLYLINE
  5
36C6
  8
0
 66
     1
 10
0.0
 20
0.0
 30
0.0
 70
    16
 71
     2
 72
     6
  0
VERTEX
  5
36C7
  8
0
 10
92.0
 20
140.0
 30
0.0
 70
    64
  0
VERTEX
  5
36C8
  8
0
 10
72.0
 20
140.0
 30
0.0
 70
    64
  0
VERTEX
  5
36C9
  8
0
 10
70.1
 20
140.0
 30
0.4
 70
    64
  0
VERTEX
  5
36CA
  8
0
 10
68.5
 20
140.0
 30
1.5
 70
    64
  0
VERTEX
  5
36CB
  8
0
 10
67.4
 20
140.0
 30
3.1
 70
    64
  0
VERTEX
  5
36CC
  8
0
 10
67.0
 20
140.0
 30
5.0
 70
    64
  0
VERTEX
  5
36CD
  8
0
 10
92.0
 20
140.0
 30
18.0
 70
    64
  0
VERTEX
  5
36CE
  8
0
 10
72.0
 20
140.0
 30
18.0
 70
    64
  0
VERTEX
  5
36CF
  8
0
 10
70.1
 20
140.0
 30
17.6
 70
    64
  0
VERTEX
  5
36D0
  8
0
 10
68.5
 20
140.0
 30
16.5
 70
    64
  0
VERTEX
  5
36D1
  8
0
 10
67.4
 20
140.0
 30
14.9
 70
    64
  0
VERTEX
  5
36D2
  8
0
 10
67.0
 20
140.0
 30
13.0
 70
    64
  0
SEQEND
  5
36D3
  8
0
  0
POLYLINE
  5
36D4
  8
0
 66
     1
 10
0.0
 20
0.0
 30
0.0
 70
    16
 71
     2
 72
     3
  0
VERTEX
  5
36D5
  8
0
 10
116.1
 20
133.5
 30
13.0
 70
    64
  0
VERTEX
  5
36D6
  8
0
 10
117.0
 20
140.0
 30
13.0
 70
    64
  0
VERTEX
  5
36D7
  8
0
 10
117.0
 20
140.0
 30
13.0
 70
    64
  0
VERTEX
  5
36D8
  8
0
 10
116.1
 20
133.5
 30
5.0
 70
    64
  0
VERTEX
  5
36D9
  8
0
 10
117.0
 20
140.0
 30
5.0
 70
    64
  0
VERTEX
  5
36DA
  8
0
 10
117.0
 20
140.0
 30
5.0
 70
    64
  0
SEQEND
  5
36DB
  8
0
  0
POLYLINE
  5
36DC
  8
0
 66
     1
 10
0.0
 20
0.0
 30
0.0
 70
    16
 71
     2
 72
     6
  0
VERTEX
  5
36DD
  8
0
 10
92.0
 20
140.0
 30
0.0
 70
    64
  0
VERTEX
  5
36DE
  8
0
 10
112.0
 20
140.0
 30
0.0
 70
    64
  0
VERTEX
  5
36DF
  8
0
 10
113.9
 20
140.0
 30
0.4
 70
    64
  0
VERTEX
  5
36E0
  8
0
 10
115.5
 20
140.0
 30
1.5
 70
    64
  0
VERTEX
  5
36E1
  8
0
 10
116.6
 20
140.0
 30
3.1
 70
    64
  0
VERTEX
  5
36E2
  8
0
 10
117.0
 20
140.0
 30
5.0
 70
    64
  0
VERTEX
  5
36E3
  8
0
 10
92.0
 20
140.0
 30
18.0
 70
    64
  0
VERTEX
  5
36E4
  8
0
 10
112.0
 20
140.0
 30
18.0
 70
    64
  0
VERTEX
  5
36E5
  8
0
 10
113.9
 20
140.0
 30
17.6
 70
    64
  0
VERTEX
  5
36E6
  8
0
 10
115.5
 20
140.0
 30
16.5
 70
    64
  0
VERTEX
  5
36E7
  8
0
 10
116.6
 20
140.0
 30
14.9
 70
    64
  0
VERTEX
  5
36E8
  8
0
 10
117.0
 20
140.0
 30
13.0
 70
    64
  0
SEQEND
  5
36E9
  8
0
  0
POLYLINE
  5
36EA
  8
0
 66
     1
 10
0.0
 20
0.0
 30
0.0
 70
    16
 71
     4
 72
     6
  0
VERTEX
  5
36EB
  8
0
 10
92.0
 20
115.0
 30
5.0
 70
    64
  0
VERTEX
  5
36EC
  8
0
 10
92.0
 20
115.4
 30
3.1
 70
    64
  0
VERTEX
  5
36ED
  8
0
 10
92.0
 20
116.5
 30
1.5
 70
    64
  0
VERTEX
  5
36EE
  8
0
 10
92.0
 20
118.1
 30
0.4
 70
    64
  0
VERTEX
  5
36EF
  8
0
 10
92.0
 20
120.0
 30
0.0
 70
    64
  0
VERTEX
  5
36F0
  8
0
 10
92.0
 20
140.0
 30
0.0
 70
    64
  0
VERTEX
  5
36F1
  8
0
 10
98.5
 20
115.9
 30
5.0
 70
    64
  0
VERTEX
  5
36F2
  8
0
 10
98.4
 20
116.2
 30
3.1
 70
    64
  0
VERTEX
  5
36F3
  8
0
 10
98.1
 20
117.3
 30
1.5
 70
    64
  0
VERTEX
  5
36F4
  8
0
 10
97.7
 20
118.8
 30
0.4
 70
    64
  0
VERTEX
  5
36F5
  8
0
 10
97.2
 20
120.7
 30
0.0
 70
    64
  0
VERTEX
  5
36F6
  8
0
 10
92.0
 20
140.0
 30
0.0
 70
    64
  0
VERTEX
  5
36F7
  8
0
 10
104.5
 20
118.3
 30
5.0
 70
    64
  0
VERTEX
  5
36F8
  8
0
 10
104.3
 20
118.7
 30
3.1
 70
    64
  0
VERTEX
  5
36F9
  8
0
 10
103.8
 20
119.6
 30
1.5
 70
    64
  0
VERTEX
  5
36FA
  8
0
 10
103.0
 20
121.0
 30
0.4
 70
    64
  0
VERTEX
  5
36FB
  8
0
 10
102.0
 20
122.7
 30
0.0
 70
    64
  0
VERTEX
  5
36FC
  8
0
 10
92.0
 20
140.0
 30
0.0
 70
    64
  0
VERTEX
  5
36FD
  8
0
 10
109.7
 20
122.3
 30
5.0
 70
    64
  0
VERTEX
  5
36FE
  8
0
 10
109.4
 20
122.6
 30
3.1
 70
    64
  0
VERTEX
  5
36FF
  8
0
 10
108.6
 20
123.4
 30
1.5
 70
    64
  0
VERTEX
  5
3700
  8
0
 10
107.5
 20
124.5
 30
0.4
 70
    64
  0
VERTEX
  5
3701
  8
0
 10
106.1
 20
125.9
 30
0.0
 70
    64
  0
VERTEX
  5
3702
  8
0
 10
92.0
 20
140.0
 30
0.0
 70
    64
  0
SEQEND
  5
3703
  8
0
  0
POLYLINE
  5
3704
  8
0
 66
     1
 10
0.0
 20
0.0
 30
0.0
 70
    16
 71
     4
 72
     6
  0
VERTEX
  5
3705
  8
0
 10
117.0
 20
140.0
 30
5.0
 70
    64
  0
VERTEX
  5
3706
  8
0
 10
116.6
 20
140.0
 30
3.1
 70
    64
  0
VERTEX
  5
3707
  8
0
 10
115.5
 20
140.0
 30
1.5
 70
    64
  0
VERTEX
  5
3708
  8
0
 10
113.9
 20
140.0
 30
0.4
 70
    64
  0
VERTEX
  5
3709
  8
0
 10
112.0
 20
140.0
 30
0.0
 70
    64
  0
VERTEX
  5
370A
  8
0
 10
92.0
 20
140.0
 30
0.0
 70
    64
  0
VERTEX
  5
370B
  8
0
 10
116.1
 20
133.5
 30
5.0
 70
    64
  0
VERTEX
  5
370C
  8
0
 10
115.8
 20
133.6
 30
3.1
 70
    64
  0
VERTEX
  5
370D
  8
0
 10
114.7
 20
133.9
 30
1.5
 70
    64
  0
VERTEX
  5
370E
  8
0
 10
113.2
 20
134.3
 30
0.4
 70
    64
  0
VERTEX
  5
370F
  8
0
 10
111.3
 20
134.8
 30
0.0
 70
    64
  0
VERTEX
  5
3710
  8
0
 10
92.0
 20
140.0
 30
0.0
 70
    64
  0
VERTEX
  5
3711
  8
0
 10
113.7
 20
127.5
 30
5.0
 70
    64
  0
VERTEX
  5
3712
  8
0
 10
113.3
 20
127.7
 30
3.1
 70
    64
  0
VERTEX
  5
3713
  8
0
 10
112.4
 20
128.2
 30
1.5
 70
    64
  0
VERTEX
  5
3714
  8
0
 10
111.0
 20
129.0
 30
0.4
 70
    64
  0
VERTEX
  5
3715
  8
0
 10
109.3
 20
130.0
 30
0.0
 70
    64
  0
VERTEX
  5
3716
  8
0
 10
92.0
 20
140.0
 30
0.0
 70
    64
  0
VERTEX
  5
3717
  8
0
 10
109.7
 20
122.3
 30
5.0
 70
    64
  0
VERTEX
  5
3718
  8
0
 10
109.4
 20
122.6
 30
3.1
 70
    64
  0
VERTEX
  5
3719
  8
0
 10
108.6
 20
123.4
 30
1.5
 70
    64
  0
VERTEX
  5
371A
  8
0
 10
107.5
 20
124.5
 30
0.4
 70
    64
  0
VERTEX
  5
371B
  8
0
 10
106.1
 20
125.9
 30
0.0
 70
    64
  0
VERTEX
  5
371C
  8
0
 10
92.0
 20
140.0
 30
0.0
 70
    64
  0
SEQEND
  5
371D
  8
0
  0
POLYLINE
  5
371E
  8
0
 66
     1
 10
0.0
 20
0.0
 30
0.0
 70
    16
 71
     4
 72
     6
  0
VERTEX
  5
371F
  8
0
 10
92.0
 20
115.0
 30
13.0
 70
    64
  0
VERTEX
  5
3720
  8
0
 10
92.0
 20
115.4
 30
14.9
 70
    64
  0
VERTEX
  5
3721
  8
0
 10
92.0
 20
116.5
 30
16.5
 70
    64
  0
VERTEX
  5
3722
  8
0
 10
92.0
 20
118.1
 30
17.6
 70
    64
  0
VERTEX
  5
3723
  8
0
 10
92.0
 20
120.0
 30
18.0
 70
    64
  0
VERTEX
  5
3724
  8
0
 10
92.0
 20
140.0
 30
18.0
 70
    64
  0
VERTEX
  5
3725
  8
0
 10
98.5
 20
115.9
 30
13.0
 70
    64
  0
VERTEX
  5
3726
  8
0
 10
98.4
 20
116.2
 30
14.9
 70
    64
  0
VERTEX
  5
3727
  8
0
 10
98.1
 20
117.3
 30
16.5
 70
    64
  0
VERTEX
  5
3728
  8
0
 10
97.7
 20
118.8
 30
17.6
 70
    64
  0
VERTEX
  5
3729
  8
0
 10
97.2
 20
120.7
 30
18.0
 70
    64
  0
VERTEX
  5
372A
  8
0
 10
92.0
 20
140.0
 30
18.0
 70
    64
  0
VERTEX
  5
372B
  8
0
 10
104.5
 20
118.3
 30
13.0
 70
    64
  0
VERTEX
  5
372C
  8
0
 10
104.3
 20
118.7
 30
14.9
 70
    64
  0
VERTEX
  5
372D
  8
0
 10
103.8
 20
119.6
 30
16.5
 70
    64
  0
VERTEX
  5
372E
  8
0
 10
103.0
 20
121.0
 30
17.6
 70
    64
  0
VERTEX
  5
372F
  8
0
 10
102.0
 20
122.7
 30
18.0
 70
    64
  0
VERTEX
  5
3730
  8
0
 10
92.0
 20
140.0
 30
18.0
 70
    64
  0
VERTEX
  5
3731
  8
0
 10
109.7
 20
122.3
 30
13.0
 70
    64
  0
VERTEX
  5
3732
  8
0
 10
109.4
 20
122.6
 30
14.9
 70
    64
  0
VERTEX
  5
3733
  8
0
 10
108.6
 20
123.4
 30
16.5
 70
    64
  0
VERTEX
  5
3734
  8
0
 10
107.5
 20
124.5
 30
17.6
 70
    64
  0
VERTEX
  5
3735
  8
0
 10
106.1
 20
125.9
 30
18.0
 70
    64
  0
VERTEX
  5
3736
  8
0
 10
92.0
 20
140.0
 30
18.0
 70
    64
  0
SEQEND
  5
3737
  8
0
  0
POLYLINE
  5
3738
  8
0
 66
     1
 10
0.0
 20
0.0
 30
0.0
 70
    16
 71
     4
 72
     6
  0
VERTEX
  5
3739
  8
0
 10
117.0
 20
140.0
 30
13.0
 70
    64
  0
VERTEX
  5
373A
  8
0
 10
116.6
 20
140.0
 30
14.9
 70
    64
  0
VERTEX
  5
373B
  8
0
 10
115.5
 20
140.0
 30
16.5
 70
    64
  0
VERTEX
  5
373C
  8
0
 10
113.9
 20
140.0
 30
17.6
 70
    64
  0
VERTEX
  5
373D
  8
0
 10
112.0
 20
140.0
 30
18.0
 70
    64
  0
VERTEX
  5
373E
  8
0
 10
92.0
 20
140.0
 30
18.0
 70
    64
  0
VERTEX
  5
373F
  8
0
 10
116.1
 20
133.5
 30
13.0
 70
    64
  0
VERTEX
  5
3740
  8
0
 10
115.8
 20
133.6
 30
14.9
 70
    64
  0
VERTEX
  5
3741
  8
0
 10
114.7
 20
133.9
 30
16.5
 70
    64
  0
VERTEX
  5
3742
  8
0
 10
113.2
 20
134.3
 30
17.6
 70
    64
  0
VERTEX
  5
3743
  8
0
 10
111.3
 20
134.8
 30
18.0
 70
    64
  0
VERTEX
  5
3744
  8
0
 10
92.0
 20
140.0
 30
18.0
 70
    64
  0
VERTEX
  5
3745
  8
0
 10
113.7
 20
127.5
 30
13.0
 70
    64
  0
VERTEX
  5
3746
  8
0
 10
113.3
 20
127.7
 30
14.9
 70
    64
  0
VERTEX
  5
3747
  8
0
 10
112.4
 20
128.2
 30
16.5
 70
    64
  0
VERTEX
  5
3748
  8
0
 10
111.0
 20
129.0
 30
17.6
 70
    64
  0
VERTEX
  5
3749
  8
0
 10
109.3
 20
130.0
 30
18.0
 70
    64
  0
VERTEX
  5
374A
  8
0
 10
92.0
 20
140.0
 30
18.0
 70
    64
  0
VERTEX
  5
374B
  8
0
 10
109.7
 20
122.3
 30
13.0
 70
    64
  0
VERTEX
  5
374C
  8
0
 10
109.4
 20
122.6
 30
14.9
 70
    64
  0
VERTEX
  5
374D
  8
0
 10
108.6
 20
123.4
 30
16.5
 70
    64
  0
VERTEX
  5
374E
  8
0
 10
107.5
 20
124.5
 30
17.6
 70
    64
  0
VERTEX
  5
374F
  8
0
 10
106.1
 20
125.9
 30
18.0
 70
    64
  0
VERTEX
  5
3750
  8
0
 10
92.0
 20
140.0
 30
18.0
 70
    64
  0
SEQEND
  5
3751
  8
0
  0
POLYLINE
  5
3752
  8
0
 66
     1
 10
0.0
 20
0.0
 30
0.0
 70
    16
 71
     4
 72
     8
  0
VERTEX
  5
3753
  8
0
 10
350.0
 20
67.0
 30
5.0
 70
    64
  0
VERTEX
  5
3754
  8
0
 10
350.0
 20
67.0
 30
5.0
 70
    64
  0
VERTEX
  5
3755
  8
0
 10
350.0
 20
67.0
 30
5.0
 70
    64
  0
VERTEX
  5
3756
  8
0
 10
350.0
 20
67.0
 30
5.0
 70
    64
  0
VERTEX
  5
3757
  8
0
 10
350.0
 20
67.0
 30
5.0
 70
    64
  0
VERTEX
  5
3758
  8
0
 10
350.0
 20
67.0
 30
5.0
 70
    64
  0
VERTEX
  5
3759
  8
0
 10
350.0
 20
67.0
 30
5.0
 70
    64
  0
VERTEX
  5
375A
  8
0
 10
350.0
 20
67.0
 30
5.0
 70
    64
  0
VERTEX
  5
375B
  8
0
 10
700.0
 20
67.0
 30
5.0
 70
    64
  0
VERTEX
  5
375C
  8
0
 10
697.6
 20
49.7
 30
5.0
 70
    64
  0
VERTEX
  5
375D
  8
0
 10
691.0
 20
33.6
 30
5.0
 70
    64
  0
VERTEX
  5
375E
  8
0
 10
680.3
 20
19.7
 30
5.0
 70
    64
  0
VERTEX
  5
375F
  8
0
 10
666.4
 20
9.0
 30
5.0
 70
    64
  0
VERTEX
  5
3760
  8
0
 10
650.3
 20
2.4
 30
5.0
 70
    64
  0
VERTEX
  5
3761
  8
0
 10
633.0
 20
0.0
 30
5.0
 70
    64
  0
VERTEX
  5
3762
  8
0
 10
350.0
 20
0.0
 30
5.0
 70
    64
  0
VERTEX
  5
3763
  8
0
 10
700.0
 20
67.0
 30
13.0
 70
    64
  0
VERTEX
  5
3764
  8
0
 10
697.6
 20
49.7
 30
13.0
 70
    64
  0
VERTEX
  5
3765
  8
0
 10
691.0
 20
33.6
 30
13.0
 70
    64
  0
VERTEX
  5
3766
  8
0
 10
680.3
 20
19.7
 30
13.0
 70
    64
  0
VERTEX
  5
3767
  8
0
 10
666.4
 20
9.0
 30
13.0
 70
    64
  0
VERTEX
  5
3768
  8
0
 10
650.3
 20
2.4
 30
13.0
 70
    64
  0
VERTEX
  5
3769
  8
0
 10
633.0
 20
0.0
 30
13.0
 70
    64
  0
VERTEX
  5
376A
  8
0
 10
350.0
 20
0.0
 30
13.0
 70
    64
  0
VERTEX
  5
376B
  8
0
 10
350.0
 20
67.0
 30
13.0
 70
    64
  0
VERTEX
  5
376C
  8
0
 10
350.0
 20
67.0
 30
13.0
 70
    64
  0
VERTEX
  5
376D
  8
0
 10
350.0
 20
67.0
 30
13.0
 70
    64
  0
VERTEX
  5
376E
  8
0
 10
350.0
 20
67.0
 30
13.0
 70
    64
  0
VERTEX
  5
376F
  8
0
 10
350.0
 20
67.0
 30
13.0
 70
    64
  0
VERTEX
  5
3770
  8
0
 10
350.0
 20
67.0
 30
13.0
 70
    64
  0
VERTEX
  5
3771
  8
0
 10
350.0
 20
67.0
 30
13.0
 70
    64
  0
VERTEX
  5
3772
  8
0
 10
350.0
 20
67.0
 30
13.0
 70
    64
  0
SEQEND
  5
3773
  8
0
  0
POLYLINE
  5
3774
  8
0
 66
     1
 10
0.0
 20
0.0
 30
0.0
 70
    16
 71
     4
 72
     8
  0
VERTEX
  5
3775
  8
0
 10
350.0
 20
67.0
 30
5.0
 70
    64
  0
VERTEX
  5
3776
  8
0
 10
350.0
 20
67.0
 30
5.0
 70
    64
  0
VERTEX
  5
3777
  8
0
 10
350.0
 20
67.0
 30
5.0
 70
    64
  0
VERTEX
  5
3778
  8
0
 10
350.0
 20
67.0
 30
5.0
 70
    64
  0
VERTEX
  5
3779
  8
0
 10
350.0
 20
67.0
 30
5.0
 70
    64
  0
VERTEX
  5
377A
  8
0
 10
350.0
 20
67.0
 30
5.0
 70
    64
  0
VERTEX
  5
377B
  8
0
 10
350.0
 20
67.0
 30
5.0
 70
    64
  0
VERTEX
  5
377C
  8
0
 10
350.0
 20
67.0
 30
5.0
 70
    64
  0
VERTEX
  5
377D
  8
0
 10
700.0
 20
67.0
 30
5.0
 70
    64
  0
VERTEX
  5
377E
  8
0
 10
697.6
 20
84.3
 30
5.0
 70
    64
  0
VERTEX
  5
377F
  8
0
 10
691.0
 20
100.4
 30
5.0
 70
    64
  0
VERTEX
  5
3780
  8
0
 10
680.3
 20
114.3
 30
5.0
 70
    64
  0
VERTEX
  5
3781
  8
0
 10
666.4
 20
125.0
 30
5.0
 70
    64
  0
VERTEX
  5
3782
  8
0
 10
650.3
 20
131.6
 30
5.0
 70
    64
  0
VERTEX
  5
3783
  8
0
 10
633.0
 20
134.0
 30
5.0
 70
    64
  0
VERTEX
  5
3784
  8
0
 10
350.0
 20
134.0
 30
5.0
 70
    64
  0
VERTEX
  5
3785
  8
0
 10
700.0
 20
67.0
 30
13.0
 70
    64
  0
VERTEX
  5
3786
  8
0
 10
697.6
 20
84.3
 30
13.0
 70
    64
  0
VERTEX
  5
3787
  8
0
 10
691.0
 20
100.4
 30
13.0
 70
    64
  0
VERTEX
  5
3788
  8
0
 10
680.3
 20
114.3
 30
13.0
 70
    64
  0
VERTEX
  5
3789
  8
0
 10
666.4
 20
125.0
 30
13.0
 70
    64
  0
VERTEX
  5
378A
  8
0
 10
650.3
 20
131.6
 30
13.0
 70
    64
  0
VERTEX
  5
378B
  8
0
 10
633.0
 20
134.0
 30
13.0
 70
    64
  0
VERTEX
  5
378C
  8
0
 10
350.0
 20
134.0
 30
13.0
 70
    64
  0
VERTEX
  5
378D
  8
0
 10
350.0
 20
67.0
 30
13.0
 70
    64
  0
VERTEX
  5
378E
  8
0
 10
350.0
 20
67.0
 30
13.0
 70
    64
  0
VERTEX
  5
378F
  8
0
 10
350.0
 20
67.0
 30
13.0
 70
    64
  0
VERTEX
  5
3790
  8
0
 10
350.0
 20
67.0
 30
13.0
 70
    64
  0
VERTEX
  5
3791
  8
0
 10
350.0
 20
67.0
 30
13.0
 70
    64
  0
VERTEX
  5
3792
  8
0
 10
350.0
 20
67.0
 30
13.0
 70
    64
  0
VERTEX
  5
3793
  8
0
 10
350.0
 20
67.0
 30
13.0
 70
    64
  0
VERTEX
  5
3794
  8
0
 10
350.0
 20
67.0
 30
13.0
 70
    64
  0
SEQEND
  5
3795
  8
0
  0
POLYLINE
  5
3796
  8
0
 66
     1
 10
0.0
 20
0.0
 30
0.0
 70
    16
 71
     2
 72
     9
  0
VERTEX
  5
3797
  8
0
 10
633.0
 20
6.0
 30
38.0
 70
    64
  0
VERTEX
  5
3798
  8
0
 10
633.0
 20
5.8
 30
36.9
 70
    64
  0
VERTEX
  5
3799
  8
0
 10
633.0
 20
5.1
 30
35.9
 70
    64
  0
VERTEX
  5
379A
  8
0
 10
633.0
 20
4.1
 30
35.2
 70
    64
  0
VERTEX
  5
379B
  8
0
 10
633.0
 20
3.0
 30
35.0
 70
    64
  0
VERTEX
  5
379C
  8
0
 10
633.0
 20
1.9
 30
35.2
 70
    64
  0
VERTEX
  5
379D
  8
0
 10
633.0
 20
0.9
 30
35.9
 70
    64
  0
VERTEX
  5
379E
  8
0
 10
633.0
 20
0.2
 30
36.9
 70
    64
  0
VERTEX
  5
379F
  8
0
 10
633.0
 20
0.0
 30
38.0
 70
    64
  0
VERTEX
  5
37A0
  8
0
 10
350.0
 20
6.0
 30
38.0
 70
    64
  0
VERTEX
  5
37A1
  8
0
 10
350.0
 20
5.8
 30
36.9
 70
    64
  0
VERTEX
  5
37A2
  8
0
 10
350.0
 20
5.1
 30
35.9
 70
    64
  0
VERTEX
  5
37A3
  8
0
 10
350.0
 20
4.1
 30
35.2
 70
    64
  0
VERTEX
  5
37A4
  8
0
 10
350.0
 20
3.0
 30
35.0
 70
    64
  0
VERTEX
  5
37A5
  8
0
 10
350.0
 20
1.9
 30
35.2
 70
    64
  0
VERTEX
  5
37A6
  8
0
 10
350.0
 20
0.9
 30
35.9
 70
    64
  0
VERTEX
  5
37A7
  8
0
 10
350.0
 20
0.2
 30
36.9
 70
    64
  0
VERTEX
  5
37A8
  8
0
 10
350.0
 20
0.0
 30
38.0
 70
    64
  0
SEQEND
  5
37A9
  8
0
  0
POLYLINE
  5
37AA
  8
0
 66
     1
 10
0.0
 20
0.0
 30
0.0
 70
    16
 71
     2
 72
     9
  0
VERTEX
  5
37AB
  8
0
 10
623.0
 20
128.0
 30
38.0
 70
    64
  0
VERTEX
  5
37AC
  8
0
 10
623.0
 20
128.2
 30
36.9
 70
    64
  0
VERTEX
  5
37AD
  8
0
 10
623.0
 20
128.9
 30
35.9
 70
    64
  0
VERTEX
  5
37AE
  8
0
 10
623.0
 20
129.9
 30
35.2
 70
    64
  0
VERTEX
  5
37AF
  8
0
 10
623.0
 20
131.0
 30
35.0
 70
    64
  0
VERTEX
  5
37B0
  8
0
 10
623.0
 20
132.1
 30
35.2
 70
    64
  0
VERTEX
  5
37B1
  8
0
 10
623.0
 20
133.1
 30
35.9
 70
    64
  0
VERTEX
  5
37B2
  8
0
 10
623.0
 20
133.8
 30
36.9
 70
    64
  0
VERTEX
  5
37B3
  8
0
 10
623.0
 20
134.0
 30
38.0
 70
    64
  0
VERTEX
  5
37B4
  8
0
 10
350.0
 20
128.0
 30
38.0
 70
    64
  0
VERTEX
  5
37B5
  8
0
 10
350.0
 20
128.2
 30
36.9
 70
    64
  0
VERTEX
  5
37B6
  8
0
 10
350.0
 20
128.9
 30
35.9
 70
    64
  0
VERTEX
  5
37B7
  8
0
 10
350.0
 20
129.9
 30
35.2
 70
    64
  0
VERTEX
  5
37B8
  8
0
 10
350.0
 20
131.0
 30
35.0
 70
    64
  0
VERTEX
  5
37B9
  8
0
 10
350.0
 20
132.1
 30
35.2
 70
    64
  0
VERTEX
  5
37BA
  8
0
 10
350.0
 20
133.1
 30
35.9
 70
    64
  0
VERTEX
  5
37BB
  8
0
 10
350.0
 20
133.8
 30
36.9
 70
    64
  0
VERTEX
  5
37BC
  8
0
 10
350.0
 20
134.0
 30
38.0
 70
    64
  0
SEQEND
  5
37BD
  8
0
  0
POLYLINE
  5
37BE
  8
0
 66
     1
 10
0.0
 20
0.0
 30
0.0
 70
    16
 71
     2
 72
     9
  0
VERTEX
  5
37BF
  8
0
 10
623.0
 20
128.0
 30
38.0
 70
    64
  0
VERTEX
  5
37C0
  8
0
 10
623.0
 20
128.2
 30
39.1
 70
    64
  0
VERTEX
  5
37C1
  8
0
 10
623.0
 20
128.9
 30
40.1
 70
    64
  0
VERTEX
  5
37C2
  8
0
 10
623.0
 20
129.9
 30
40.8
 70
    64
  0
VERTEX
  5
37C3
  8
0
 10
623.0
 20
131.0
 30
41.0
 70
    64
  0
VERTEX
  5
37C4
  8
0
 10
623.0
 20
132.1
 30
40.8
 70
    64
  0
VERTEX
  5
37C5
  8
0
 10
623.0
 20
133.1
 30
40.1
 70
    64
  0
VERTEX
  5
37C6
  8
0
 10
623.0
 20
133.8
 30
39.1
 70
    64
  0
VERTEX
  5
37C7
  8
0
 10
623.0
 20
134.0
 30
38.0
 70
    64
  0
VERTEX
  5
37C8
  8
0
 10
350.0
 20
128.0
 30
38.0
 70
    64
  0
VERTEX
  5
37C9
  8
0
 10
350.0
 20
128.2
 30
39.1
 70
    64
  0
VERTEX
  5
37CA
  8
0
 10
350.0
 20
128.9
 30
40.1
 70
    64
  0
VERTEX
  5
37CB
  8
0
 10
350.0
 20
129.9
 30
40.8
 70
    64
  0
VERTEX
  5
37CC
  8
0
 10
350.0
 20
131.0
 30
41.0
 70
    64
  0
VERTEX
  5
37CD
  8
0
 10
350.0
 20
132.1
 30
40.8
 70
    64
  0
VERTEX
  5
37CE
  8
0
 10
350.0
 20
133.1
 30
40.1
 70
    64
  0
VERTEX
  5
37CF
  8
0
 10
350.0
 20
133.8
 30
39.1
 70
    64
  0
VERTEX
  5
37D0
  8
0
 10
350.0
 20
134.0
 30
38.0
 70
    64
  0
SEQEND
  5
37D1
  8
0
  0
POLYLINE
  5
37D2
  8
0
 66
     1
 10
0.0
 20
0.0
 30
0.0
 70
    16
 71
     2
 72
     9
  0
VERTEX
  5
37D3
  8
0
 10
633.0
 20
6.0
 30
38.0
 70
    64
  0
VERTEX
  5
37D4
  8
0
 10
633.0
 20
5.8
 30
39.1
 70
    64
  0
VERTEX
  5
37D5
  8
0
 10
633.0
 20
5.1
 30
40.1
 70
    64
  0
VERTEX
  5
37D6
  8
0
 10
633.0
 20
4.1
 30
40.8
 70
    64
  0
VERTEX
  5
37D7
  8
0
 10
633.0
 20
3.0
 30
41.0
 70
    64
  0
VERTEX
  5
37D8
  8
0
 10
633.0
 20
1.9
 30
40.8
 70
    64
  0
VERTEX
  5
37D9
  8
0
 10
633.0
 20
0.9
 30
40.1
 70
    64
  0
VERTEX
  5
37DA
  8
0
 10
633.0
 20
0.2
 30
39.1
 70
    64
  0
VERTEX
  5
37DB
  8
0
 10
633.0
 20
0.0
 30
38.0
 70
    64
  0
VERTEX
  5
37DC
  8
0
 10
350.0
 20
6.0
 30
38.0
 70
    64
  0
VERTEX
  5
37DD
  8
0
 10
350.0
 20
5.8
 30
39.1
 70
    64
  0
VERTEX
  5
37DE
  8
0
 10
350.0
 20
5.1
 30
40.1
 70
    64
  0
VERTEX
  5
37DF
  8
0
 10
350.0
 20
4.1
 30
40.8
 70
    64
  0
VERTEX
  5
37E0
  8
0
 10
350.0
 20
3.0
 30
41.0
 70
    64
  0
VERTEX
  5
37E1
  8
0
 10
350.0
 20
1.9
 30
40.8
 70
    64
  0
VERTEX
  5
37E2
  8
0
 10
350.0
 20
0.9
 30
40.1
 70
    64
  0
VERTEX
  5
37E3
  8
0
 10
350.0
 20
0.2
 30
39.1
 70
    64
  0
VERTEX
  5
37E4
  8
0
 10
350.0
 20
0.0
 30
38.0
 70
    64
  0
SEQEND
  5
37E5
  8
0
  0
POLYLINE
  5
37E6
  8
0
 66
     1
 10
0.0
 20
0.0
 30
0.0
 70
    16
 71
     4
 72
     9
  0
VERTEX
  5
37E7
  8
0
 10
700.0
 20
67.0
 30
38.0
 70
    64
  0
VERTEX
  5
37E8
  8
0
 10
699.8
 20
67.0
 30
36.9
 70
    64
  0
VERTEX
  5
37E9
  8
0
 10
699.1
 20
67.0
 30
35.9
 70
    64
  0
VERTEX
  5
37EA
  8
0
 10
698.1
 20
67.0
 30
35.2
 70
    64
  0
VERTEX
  5
37EB
  8
0
 10
697.0
 20
67.0
 30
35.0
 70
    64
  0
VERTEX
  5
37EC
  8
0
 10
695.9
 20
67.0
 30
35.2
 70
    64
  0
VERTEX
  5
37ED
  8
0
 10
694.9
 20
67.0
 30
35.9
 70
    64
  0
VERTEX
  5
37EE
  8
0
 10
694.2
 20
67.0
 30
36.9
 70
    64
  0
VERTEX
  5
37EF
  8
0
 10
694.0
 20
67.0
 30
38.0
 70
    64
  0
VERTEX
  5
37F0
  8
0
 10
697.7
 20
84.3
 30
38.0
 70
    64
  0
VERTEX
  5
37F1
  8
0
 10
697.5
 20
84.3
 30
36.9
 70
    64
  0
VERTEX
  5
37F2
  8
0
 10
696.9
 20
84.1
 30
35.9
 70
    64
  0
VERTEX
  5
37F3
  8
0
 10
695.9
 20
83.9
 30
35.2
 70
    64
  0
VERTEX
  5
37F4
  8
0
 10
694.8
 20
83.6
 30
35.0
 70
    64
  0
VERTEX
  5
37F5
  8
0
 10
693.7
 20
83.3
 30
35.2
 70
    64
  0
VERTEX
  5
37F6
  8
0
 10
692.8
 20
83.0
 30
35.9
 70
    64
  0
VERTEX
  5
37F7
  8
0
 10
692.1
 20
82.8
 30
36.9
 70
    64
  0
VERTEX
  5
37F8
  8
0
 10
691.9
 20
82.8
 30
38.0
 70
    64
  0
VERTEX
  5
37F9
  8
0
 10
691.0
 20
100.5
 30
38.0
 70
    64
  0
VERTEX
  5
37FA
  8
0
 10
690.8
 20
100.4
 30
36.9
 70
    64
  0
VERTEX
  5
37FB
  8
0
 10
690.3
 20
100.1
 30
35.9
 70
    64
  0
VERTEX
  5
37FC
  8
0
 10
689.4
 20
99.6
 30
35.2
 70
    64
  0
VERTEX
  5
37FD
  8
0
 10
688.4
 20
99.0
 30
35.0
 70
    64
  0
VERTEX
  5
37FE
  8
0
 10
687.4
 20
98.4
 30
35.2
 70
    64
  0
VERTEX
  5
37FF
  8
0
 10
686.6
 20
97.9
 30
35.9
 70
    64
  0
VERTEX
  5
3800
  8
0
 10
686.0
 20
97.6
 30
36.9
 70
    64
  0
VERTEX
  5
3801
  8
0
 10
685.8
 20
97.5
 30
38.0
 70
    64
  0
VERTEX
  5
3802
  8
0
 10
680.4
 20
114.4
 30
38.0
 70
    64
  0
VERTEX
  5
3803
  8
0
 10
680.2
 20
114.2
 30
36.9
 70
    64
  0
VERTEX
  5
3804
  8
0
 10
679.8
 20
113.8
 30
35.9
 70
    64
  0
VERTEX
  5
3805
  8
0
 10
679.1
 20
113.1
 30
35.2
 70
    64
  0
VERTEX
  5
3806
  8
0
 10
678.3
 20
112.3
 30
35.0
 70
    64
  0
VERTEX
  5
3807
  8
0
 10
677.4
 20
111.4
 30
35.2
 70
    64
  0
VERTEX
  5
3808
  8
0
 10
676.8
 20
110.8
 30
35.9
 70
    64
  0
VERTEX
  5
3809
  8
0
 10
676.3
 20
110.3
 30
36.9
 70
    64
  0
VERTEX
  5
380A
  8
0
 10
676.1
 20
110.1
 30
38.0
 70
    64
  0
SEQEND
  5
380B
  8
0
  0
POLYLINE
  5
380C
  8
0
 66
     1
 10
0.0
 20
0.0
 30
0.0
 70
    16
 71
     4
 72
     9
  0
VERTEX
  5
380D
  8
0
 10
700.0
 20
67.0
 30
38.0
 70
    64
  0
VERTEX
  5
380E
  8
0
 10
699.8
 20
67.0
 30
39.1
 70
    64
  0
VERTEX
  5
380F
  8
0
 10
699.1
 20
67.0
 30
40.1
 70
    64
  0
VERTEX
  5
3810
  8
0
 10
698.1
 20
67.0
 30
40.8
 70
    64
  0
VERTEX
  5
3811
  8
0
 10
697.0
 20
67.0
 30
41.0
 70
    64
  0
VERTEX
  5
3812
  8
0
 10
695.9
 20
67.0
 30
40.8
 70
    64
  0
VERTEX
  5
3813
  8
0
 10
694.9
 20
67.0
 30
40.1
 70
    64
  0
VERTEX
  5
3814
  8
0
 10
694.2
 20
67.0
 30
39.1
 70
    64
  0
VERTEX
  5
3815
  8
0
 10
694.0
 20
67.0
 30
38.0
 70
    64
  0
VERTEX
  5
3816
  8
0
 10
697.7
 20
84.3
 30
38.0
 70
    64
  0
VERTEX
  5
3817
  8
0
 10
697.5
 20
84.3
 30
39.1
 70
    64
  0
VERTEX
  5
3818
  8
0
 10
696.9
 20
84.1
 30
40.1
 70
    64
  0
VERTEX
  5
3819
  8
0
 10
695.9
 20
83.9
 30
40.8
 70
    64
  0
VERTEX
  5
381A
  8
0
 10
694.8
 20
83.6
 30
41.0
 70
    64
  0
VERTEX
  5
381B
  8
0
 10
693.7
 20
83.3
 30
40.8
 70
    64
  0
VERTEX
  5
381C
  8
0
 10
692.8
 20
83.0
 30
40.1
 70
    64
  0
VERTEX
  5
381D
  8
0
 10
692.1
 20
82.8
 30
39.1
 70
    64
  0
VERTEX
  5
381E
  8
0
 10
691.9
 20
82.8
 30
38.0
 70
    64
  0
VERTEX
  5
381F
  8
0
 10
691.0
 20
100.5
 30
38.0
 70
    64
  0
VERTEX
  5
3820
  8
0
 10
690.8
 20
100.4
 30
39.1
 70
    64
  0
VERTEX
  5
3821
  8
0
 10
690.3
 20
100.1
 30
40.1
 70
    64
  0
VERTEX
  5
3822
  8
0
 10
689.4
 20
99.6
 30
40.8
 70
    64
  0
VERTEX
  5
3823
  8
0
 10
688.4
 20
99.0
 30
41.0
 70
    64
  0
VERTEX
  5
3824
  8
0
 10
687.4
 20
98.4
 30
40.8
 70
    64
  0
VERTEX
  5
3825
  8
0
 10
686.6
 20
97.9
 30
40.1
 70
    64
  0
VERTEX
  5
3826
  8
0
 10
686.0
 20
97.6
 30
39.1
 70
    64
  0
VERTEX
  5
3827
  8
0
 10
685.8
 20
97.5
 30
38.0
 70
    64
  0
VERTEX
  5
3828
  8
0
 10
680.4
 20
114.4
 30
38.0
 70
    64
  0
VERTEX
  5
3829
  8
0
 10
680.2
 20
114.2
 30
39.1
 70
    64
  0
VERTEX
  5
382A
  8
0
 10
679.8
 20
113.8
 30
40.1
 70
    64
  0
VERTEX
  5
382B
  8
0
 10
679.1
 20
113.1
 30
40.8
 70
    64
  0
VERTEX
  5
382C
  8
0
 10
678.3
 20
112.3
 30
41.0
 70
    64
  0
VERTEX
  5
382D
  8
0
 10
677.4
 20
111.4
 30
40.8
 70
    64
  0
VERTEX
  5
382E
  8
0
 10
676.8
 20
110.8
 30
40.1
 70
    64
  0
VERTEX
  5
382F
  8
0
 10
676.3
 20
110.3
 30
39.1
 70
    64
  0
VERTEX
  5
3830
  8
0
 10
676.1
 20
110.1
 30
38.0
 70
    64
  0
SEQEND
  5
3831
  8
0
  0
POLYLINE
  5
3832
  8
0
 66
     1
 10
0.0
 20
0.0
 30
0.0
 70
    16
 71
     2
 72
     5
  0
VERTEX
  5
3833
  8
0
 10
630.0
 20
3.0
 30
13.0
 70
    64
  0
VERTEX
  5
3834
  8
0
 10
629.8
 20
2.2
 30
13.0
 70
    64
  0
VERTEX
  5
3835
  8
0
 10
629.4
 20
1.6
 30
13.0
 70
    64
  0
VERTEX
  5
3836
  8
0
 10
628.8
 20
1.2
 30
13.0
 70
    64
  0
VERTEX
  5
3837
  8
0
 10
628.0
 20
1.0
 30
13.0
 70
    64
  0
VERTEX
  5
3838
  8
0
 10
630.0
 20
3.0
 30
37.0
 70
    64
  0
VERTEX
  5
3839
  8
0
 10
629.8
 20
2.2
 30
37.0
 70
    64
  0
VERTEX
  5
383A
  8
0
 10
629.4
 20
1.6
 30
37.0
 70
    64
  0
VERTEX
  5
383B
  8
0
 10
628.8
 20
1.2
 30
37.0
 70
    64
  0
VERTEX
  5
383C
  8
0
 10
628.0
 20
1.0
 30
37.0
 70
    64
  0
SEQEND
  5
383D
  8
0
  0
POLYLINE
  5
383E
  8
0
 66
     1
 10
0.0
 20
0.0
 30
0.0
 70
    16
 71
     2
 72
     5
  0
VERTEX
  5
383F
  8
0
 10
626.0
 20
3.0
 30
13.0
 70
    64
  0
VERTEX
  5
3840
  8
0
 10
626.2
 20
2.2
 30
13.0
 70
    64
  0
VERTEX
  5
3841
  8
0
 10
626.6
 20
1.6
 30
13.0
 70
    64
  0
VERTEX
  5
3842
  8
0
 10
627.2
 20
1.2
 30
13.0
 70
    64
  0
VERTEX
  5
3843
  8
0
 10
628.0
 20
1.0
 30
13.0
 70
    64
  0
VERTEX
  5
3844
  8
0
 10
626.0
 20
3.0
 30
37.0
 70
    64
  0
VERTEX
  5
3845
  8
0
 10
626.2
 20
2.2
 30
37.0
 70
    64
  0
VERTEX
  5
3846
  8
0
 10
626.6
 20
1.6
 30
37.0
 70
    64
  0
VERTEX
  5
3847
  8
0
 10
627.2
 20
1.2
 30
37.0
 70
    64
  0
VERTEX
  5
3848
  8
0
 10
628.0
 20
1.0
 30
37.0
 70
    64
  0
SEQEND
  5
3849
  8
0
  0
POLYLINE
  5
384A
  8
0
 66
     1
 10
0.0
 20
0.0
 30
0.0
 70
    16
 71
     2
 72
     5
  0
VERTEX
  5
384B
  8
0
 10
626.0
 20
3.0
 30
13.0
 70
    64
  0
VERTEX
  5
384C
  8
0
 10
626.2
 20
3.8
 30
13.0
 70
    64
  0
VERTEX
  5
384D
  8
0
 10
626.6
 20
4.4
 30
13.0
 70
    64
  0
VERTEX
  5
384E
  8
0
 10
627.2
 20
4.8
 30
13.0
 70
    64
  0
VERTEX
  5
384F
  8
0
 10
628.0
 20
5.0
 30
13.0
 70
    64
  0
VERTEX
  5
3850
  8
0
 10
626.0
 20
3.0
 30
37.0
 70
    64
  0
VERTEX
  5
3851
  8
0
 10
626.2
 20
3.8
 30
37.0
 70
    64
  0
VERTEX
  5
3852
  8
0
 10
626.6
 20
4.4
 30
37.0
 70
    64
  0
VERTEX
  5
3853
  8
0
 10
627.2
 20
4.8
 30
37.0
 70
    64
  0
VERTEX
  5
3854
  8
0
 10
628.0
 20
5.0
 30
37.0
 70
    64
  0
SEQEND
  5
3855
  8
0
  0
POLYLINE
  5
3856
  8
0
 66
     1
 10
0.0
 20
0.0
 30
0.0
 70
    16
 71
     2
 72
     5
  0
VERTEX
  5
3857
  8
0
 10
630.0
 20
3.0
 30
13.0
 70
    64
  0
VERTEX
  5
3858
  8
0
 10
629.8
 20
3.8
 30
13.0
 70
    64
  0
VERTEX
  5
3859
  8
0
 10
629.4
 20
4.4
 30
13.0
 70
    64
  0
VERTEX
  5
385A
  8
0
 10
628.8
 20
4.8
 30
13.0
 70
    64
  0
VERTEX
  5
385B
  8
0
 10
628.0
 20
5.0
 30
13.0
 70
    64
  0
VERTEX
  5
385C
  8
0
 10
630.0
 20
3.0
 30
37.0
 70
    64
  0
VERTEX
  5
385D
  8
0
 10
629.8
 20
3.8
 30
37.0
 70
    64
  0
VERTEX
  5
385E
  8
0
 10
629.4
 20
4.4
 30
37.0
 70
    64
  0
VERTEX
  5
385F
  8
0
 10
628.8
 20
4.8
 30
37.0
 70
    64
  0
VERTEX
  5
3860
  8
0
 10
628.0
 20
5.0
 30
37.0
 70
    64
  0
SEQEND
  5
3861
  8
0
  0
POLYLINE
  5
3862
  8
0
 66
     1
 10
0.0
 20
0.0
 30
0.0
 70
    16
 71
     4
 72
     9
  0
VERTEX
  5
3863
  8
0
 10
633.0
 20
0.0
 30
38.0
 70
    64
  0
VERTEX
  5
3864
  8
0
 10
633.0
 20
0.2
 30
36.9
 70
    64
  0
VERTEX
  5
3865
  8
0
 10
633.0
 20
0.9
 30
35.9
 70
    64
  0
VERTEX
  5
3866
  8
0
 10
633.0
 20
1.9
 30
35.2
 70
    64
  0
VERTEX
  5
3867
  8
0
 10
633.0
 20
3.0
 30
35.0
 70
    64
  0
VERTEX
  5
3868
  8
0
 10
633.0
 20
4.1
 30
35.2
 70
    64
  0
VERTEX
  5
3869
  8
0
 10
633.0
 20
5.1
 30
35.9
 70
    64
  0
VERTEX
  5
386A
  8
0
 10
633.0
 20
5.8
 30
36.9
 70
    64
  0
VERTEX
  5
386B
  8
0
 10
633.0
 20
6.0
 30
38.0
 70
    64
  0
VERTEX
  5
386C
  8
0
 10
650.3
 20
2.3
 30
38.0
 70
    64
  0
VERTEX
  5
386D
  8
0
 10
650.3
 20
2.5
 30
36.9
 70
    64
  0
VERTEX
  5
386E
  8
0
 10
650.1
 20
3.1
 30
35.9
 70
    64
  0
VERTEX
  5
386F
  8
0
 10
649.9
 20
4.1
 30
35.2
 70
    64
  0
VERTEX
  5
3870
  8
0
 10
649.6
 20
5.2
 30
35.0
 70
    64
  0
VERTEX
  5
3871
  8
0
 10
649.3
 20
6.3
 30
35.2
 70
    64
  0
VERTEX
  5
3872
  8
0
 10
649.0
 20
7.2
 30
35.9
 70
    64
  0
VERTEX
  5
3873
  8
0
 10
648.8
 20
7.9
 30
36.9
 70
    64
  0
VERTEX
  5
3874
  8
0
 10
648.8
 20
8.1
 30
38.0
 70
    64
  0
VERTEX
  5
3875
  8
0
 10
666.5
 20
9.0
 30
38.0
 70
    64
  0
VERTEX
  5
3876
  8
0
 10
666.4
 20
9.2
 30
36.9
 70
    64
  0
VERTEX
  5
3877
  8
0
 10
666.1
 20
9.7
 30
35.9
 70
    64
  0
VERTEX
  5
3878
  8
0
 10
665.6
 20
10.6
 30
35.2
 70
    64
  0
VERTEX
  5
3879
  8
0
 10
665.0
 20
11.6
 30
35.0
 70
    64
  0
VERTEX
  5
387A
  8
0
 10
664.4
 20
12.6
 30
35.2
 70
    64
  0
VERTEX
  5
387B
  8
0
 10
663.9
 20
13.4
 30
35.9
 70
    64
  0
VERTEX
  5
387C
  8
0
 10
663.6
 20
14.0
 30
36.9
 70
    64
  0
VERTEX
  5
387D
  8
0
 10
663.5
 20
14.2
 30
38.0
 70
    64
  0
VERTEX
  5
387E
  8
0
 10
680.4
 20
19.6
 30
38.0
 70
    64
  0
VERTEX
  5
387F
  8
0
 10
680.2
 20
19.8
 30
36.9
 70
    64
  0
VERTEX
  5
3880
  8
0
 10
679.8
 20
20.2
 30
35.9
 70
    64
  0
VERTEX
  5
3881
  8
0
 10
679.1
 20
20.9
 30
35.2
 70
    64
  0
VERTEX
  5
3882
  8
0
 10
678.3
 20
21.7
 30
35.0
 70
    64
  0
VERTEX
  5
3883
  8
0
 10
677.4
 20
22.6
 30
35.2
 70
    64
  0
VERTEX
  5
3884
  8
0
 10
676.8
 20
23.2
 30
35.9
 70
    64
  0
VERTEX
  5
3885
  8
0
 10
676.3
 20
23.7
 30
36.9
 70
    64
  0
VERTEX
  5
3886
  8
0
 10
676.1
 20
23.9
 30
38.0
 70
    64
  0
SEQEND
  5
3887
  8
0
  0
POLYLINE
  5
3888
  8
0
 66
     1
 10
0.0
 20
0.0
 30
0.0
 70
    16
 71
     4
 72
     9
  0
VERTEX
  5
3889
  8
0
 10
633.0
 20
0.0
 30
38.0
 70
    64
  0
VERTEX
  5
388A
  8
0
 10
633.0
 20
0.2
 30
39.1
 70
    64
  0
VERTEX
  5
388B
  8
0
 10
633.0
 20
0.9
 30
40.1
 70
    64
  0
VERTEX
  5
388C
  8
0
 10
633.0
 20
1.9
 30
40.8
 70
    64
  0
VERTEX
  5
388D
  8
0
 10
633.0
 20
3.0
 30
41.0
 70
    64
  0
VERTEX
  5
388E
  8
0
 10
633.0
 20
4.1
 30
40.8
 70
    64
  0
VERTEX
  5
388F
  8
0
 10
633.0
 20
5.1
 30
40.1
 70
    64
  0
VERTEX
  5
3890
  8
0
 10
633.0
 20
5.8
 30
39.1
 70
    64
  0
VERTEX
  5
3891
  8
0
 10
633.0
 20
6.0
 30
38.0
 70
    64
  0
VERTEX
  5
3892
  8
0
 10
650.3
 20
2.3
 30
38.0
 70
    64
  0
VERTEX
  5
3893
  8
0
 10
650.3
 20
2.5
 30
39.1
 70
    64
  0
VERTEX
  5
3894
  8
0
 10
650.1
 20
3.1
 30
40.1
 70
    64
  0
VERTEX
  5
3895
  8
0
 10
649.9
 20
4.1
 30
40.8
 70
    64
  0
VERTEX
  5
3896
  8
0
 10
649.6
 20
5.2
 30
41.0
 70
    64
  0
VERTEX
  5
3897
  8
0
 10
649.3
 20
6.3
 30
40.8
 70
    64
  0
VERTEX
  5
3898
  8
0
 10
649.0
 20
7.2
 30
40.1
 70
    64
  0
VERTEX
  5
3899
  8
0
 10
648.8
 20
7.9
 30
39.1
 70
    64
  0
VERTEX
  5
389A
  8
0
 10
648.8
 20
8.1
 30
38.0
 70
    64
  0
VERTEX
  5
389B
  8
0
 10
666.5
 20
9.0
 30
38.0
 70
    64
  0
VERTEX
  5
389C
  8
0
 10
666.4
 20
9.2
 30
39.1
 70
    64
  0
VERTEX
  5
389D
  8
0
 10
666.1
 20
9.7
 30
40.1
 70
    64
  0
VERTEX
  5
389E
  8
0
 10
665.6
 20
10.6
 30
40.8
 70
    64
  0
VERTEX
  5
389F
  8
0
 10
665.0
 20
11.6
 30
41.0
 70
    64
  0
VERTEX
  5
38A0
  8
0
 10
664.4
 20
12.6
 30
40.8
 70
    64
  0
VERTEX
  5
38A1
  8
0
 10
663.9
 20
13.4
 30
40.1
 70
    64
  0
VERTEX
  5
38A2
  8
0
 10
663.6
 20
14.0
 30
39.1
 70
    64
  0
VERTEX
  5
38A3
  8
0
 10
663.5
 20
14.2
 30
38.0
 70
    64
  0
VERTEX
  5
38A4
  8
0
 10
680.4
 20
19.6
 30
38.0
 70
    64
  0
VERTEX
  5
38A5
  8
0
 10
680.2
 20
19.8
 30
39.1
 70
    64
  0
VERTEX
  5
38A6
  8
0
 10
679.8
 20
20.2
 30
40.1
 70
    64
  0
VERTEX
  5
38A7
  8
0
 10
679.1
 20
20.9
 30
40.8
 70
    64
  0
VERTEX
  5
38A8
  8
0
 10
678.3
 20
21.7
 30
41.0
 70
    64
  0
VERTEX
  5
38A9
  8
0
 10
677.4
 20
22.6
 30
40.8
 70
    64
  0
VERTEX
  5
38AA
  8
0
 10
676.8
 20
23.2
 30
40.1
 70
    64
  0
VERTEX
  5
38AB
  8
0
 10
676.3
 20
23.7
 30
39.1
 70
    64
  0
VERTEX
  5
38AC
  8
0
 10
676.1
 20
23.9
 30
38.0
 70
    64
  0
SEQEND
  5
38AD
  8
0
  0
POLYLINE
  5
38AE
  8
0
 66
     1
 10
0.0
 20
0.0
 30
0.0
 70
    16
 71
     4
 72
     9
  0
VERTEX
  5
38AF
  8
0
 10
700.0
 20
67.0
 30
38.0
 70
    64
  0
VERTEX
  5
38B0
  8
0
 10
699.8
 20
67.0
 30
36.9
 70
    64
  0
VERTEX
  5
38B1
  8
0
 10
699.1
 20
67.0
 30
35.9
 70
    64
  0
VERTEX
  5
38B2
  8
0
 10
698.1
 20
67.0
 30
35.2
 70
    64
  0
VERTEX
  5
38B3
  8
0
 10
697.0
 20
67.0
 30
35.0
 70
    64
  0
VERTEX
  5
38B4
  8
0
 10
695.9
 20
67.0
 30
35.2
 70
    64
  0
VERTEX
  5
38B5
  8
0
 10
694.9
 20
67.0
 30
35.9
 70
    64
  0
VERTEX
  5
38B6
  8
0
 10
694.2
 20
67.0
 30
36.9
 70
    64
  0
VERTEX
  5
38B7
  8
0
 10
694.0
 20
67.0
 30
38.0
 70
    64
  0
VERTEX
  5
38B8
  8
0
 10
697.7
 20
49.7
 30
38.0
 70
    64
  0
VERTEX
  5
38B9
  8
0
 10
697.5
 20
49.7
 30
36.9
 70
    64
  0
VERTEX
  5
38BA
  8
0
 10
696.9
 20
49.9
 30
35.9
 70
    64
  0
VERTEX
  5
38BB
  8
0
 10
695.9
 20
50.1
 30
35.2
 70
    64
  0
VERTEX
  5
38BC
  8
0
 10
694.8
 20
50.4
 30
35.0
 70
    64
  0
VERTEX
  5
38BD
  8
0
 10
693.7
 20
50.7
 30
35.2
 70
    64
  0
VERTEX
  5
38BE
  8
0
 10
692.8
 20
51.0
 30
35.9
 70
    64
  0
VERTEX
  5
38BF
  8
0
 10
692.1
 20
51.2
 30
36.9
 70
    64
  0
VERTEX
  5
38C0
  8
0
 10
691.9
 20
51.2
 30
38.0
 70
    64
  0
VERTEX
  5
38C1
  8
0
 10
691.0
 20
33.5
 30
38.0
 70
    64
  0
VERTEX
  5
38C2
  8
0
 10
690.8
 20
33.6
 30
36.9
 70
    64
  0
VERTEX
  5
38C3
  8
0
 10
690.3
 20
33.9
 30
35.9
 70
    64
  0
VERTEX
  5
38C4
  8
0
 10
689.4
 20
34.4
 30
35.2
 70
    64
  0
VERTEX
  5
38C5
  8
0
 10
688.4
 20
35.0
 30
35.0
 70
    64
  0
VERTEX
  5
38C6
  8
0
 10
687.4
 20
35.6
 30
35.2
 70
    64
  0
VERTEX
  5
38C7
  8
0
 10
686.6
 20
36.1
 30
35.9
 70
    64
  0
VERTEX
  5
38C8
  8
0
 10
686.0
 20
36.4
 30
36.9
 70
    64
  0
VERTEX
  5
38C9
  8
0
 10
685.8
 20
36.5
 30
38.0
 70
    64
  0
VERTEX
  5
38CA
  8
0
 10
680.4
 20
19.6
 30
38.0
 70
    64
  0
VERTEX
  5
38CB
  8
0
 10
680.2
 20
19.8
 30
36.9
 70
    64
  0
VERTEX
  5
38CC
  8
0
 10
679.8
 20
20.2
 30
35.9
 70
    64
  0
VERTEX
  5
38CD
  8
0
 10
679.1
 20
20.9
 30
35.2
 70
    64
  0
VERTEX
  5
38CE
  8
0
 10
678.3
 20
21.7
 30
35.0
 70
    64
  0
VERTEX
  5
38CF
  8
0
 10
677.4
 20
22.6
 30
35.2
 70
    64
  0
VERTEX
  5
38D0
  8
0
 10
676.8
 20
23.2
 30
35.9
 70
    64
  0
VERTEX
  5
38D1
  8
0
 10
676.3
 20
23.7
 30
36.9
 70
    64
  0
VERTEX
  5
38D2
  8
0
 10
676.1
 20
23.9
 30
38.0
 70
    64
  0
SEQEND
  5
38D3
  8
0
  0
POLYLINE
  5
38D4
  8
0
 66
     1
 10
0.0
 20
0.0
 30
0.0
 70
    16
 71
     4
 72
     9
  0
VERTEX
  5
38D5
  8
0
 10
700.0
 20
67.0
 30
38.0
 70
    64
  0
VERTEX
  5
38D6
  8
0
 10
699.8
 20
67.0
 30
39.1
 70
    64
  0
VERTEX
  5
38D7
  8
0
 10
699.1
 20
67.0
 30
40.1
 70
    64
  0
VERTEX
  5
38D8
  8
0
 10
698.1
 20
67.0
 30
40.8
 70
    64
  0
VERTEX
  5
38D9
  8
0
 10
697.0
 20
67.0
 30
41.0
 70
    64
  0
VERTEX
  5
38DA
  8
0
 10
695.9
 20
67.0
 30
40.8
 70
    64
  0
VERTEX
  5
38DB
  8
0
 10
694.9
 20
67.0
 30
40.1
 70
    64
  0
VERTEX
  5
38DC
  8
0
 10
694.2
 20
67.0
 30
39.1
 70
    64
  0
VERTEX
  5
38DD
  8
0
 10
694.0
 20
67.0
 30
38.0
 70
    64
  0
VERTEX
  5
38DE
  8
0
 10
697.7
 20
49.7
 30
38.0
 70
    64
  0
VERTEX
  5
38DF
  8
0
 10
697.5
 20
49.7
 30
39.1
 70
    64
  0
VERTEX
  5
38E0
  8
0
 10
696.9
 20
49.9
 30
40.1
 70
    64
  0
VERTEX
  5
38E1
  8
0
 10
695.9
 20
50.1
 30
40.8
 70
    64
  0
VERTEX
  5
38E2
  8
0
 10
694.8
 20
50.4
 30
41.0
 70
    64
  0
VERTEX
  5
38E3
  8
0
 10
693.7
 20
50.7
 30
40.8
 70
    64
  0
VERTEX
  5
38E4
  8
0
 10
692.8
 20
51.0
 30
40.1
 70
    64
  0
VERTEX
  5
38E5
  8
0
 10
692.1
 20
51.2
 30
39.1
 70
    64
  0
VERTEX
  5
38E6
  8
0
 10
691.9
 20
51.2
 30
38.0
 70
    64
  0
VERTEX
  5
38E7
  8
0
 10
691.0
 20
33.5
 30
38.0
 70
    64
  0
VERTEX
  5
38E8
  8
0
 10
690.8
 20
33.6
 30
39.1
 70
    64
  0
VERTEX
  5
38E9
  8
0
 10
690.3
 20
33.9
 30
40.1
 70
    64
  0
VERTEX
  5
38EA
  8
0
 10
689.4
 20
34.4
 30
40.8
 70
    64
  0
VERTEX
  5
38EB
  8
0
 10
688.4
 20
35.0
 30
41.0
 70
    64
  0
VERTEX
  5
38EC
  8
0
 10
687.4
 20
35.6
 30
40.8
 70
    64
  0
VERTEX
  5
38ED
  8
0
 10
686.6
 20
36.1
 30
40.1
 70
    64
  0
VERTEX
  5
38EE
  8
0
 10
686.0
 20
36.4
 30
39.1
 70
    64
  0
VERTEX
  5
38EF
  8
0
 10
685.8
 20
36.5
 30
38.0
 70
    64
  0
VERTEX
  5
38F0
  8
0
 10
680.4
 20
19.6
 30
38.0
 70
    64
  0
VERTEX
  5
38F1
  8
0
 10
680.2
 20
19.8
 30
39.1
 70
    64
  0
VERTEX
  5
38F2
  8
0
 10
679.8
 20
20.2
 30
40.1
 70
    64
  0
VERTEX
  5
38F3
  8
0
 10
679.1
 20
20.9
 30
40.8
 70
    64
  0
VERTEX
  5
38F4
  8
0
 10
678.3
 20
21.7
 30
41.0
 70
    64
  0
VERTEX
  5
38F5
  8
0
 10
677.4
 20
22.6
 30
40.8
 70
    64
  0
VERTEX
  5
38F6
  8
0
 10
676.8
 20
23.2
 30
40.1
 70
    64
  0
VERTEX
  5
38F7
  8
0
 10
676.3
 20
23.7
 30
39.1
 70
    64
  0
VERTEX
  5
38F8
  8
0
 10
676.1
 20
23.9
 30
38.0
 70
    64
  0
SEQEND
  5
38F9
  8
0
  0
POLYLINE
  5
38FA
  8
0
 66
     1
 10
0.0
 20
0.0
 30
0.0
 70
    16
 71
     2
 72
     5
  0
VERTEX
  5
38FB
  8
0
 10
580.0
 20
131.0
 30
13.0
 70
    64
  0
VERTEX
  5
38FC
  8
0
 10
579.8
 20
130.2
 30
13.0
 70
    64
  0
VERTEX
  5
38FD
  8
0
 10
579.4
 20
129.6
 30
13.0
 70
    64
  0
VERTEX
  5
38FE
  8
0
 10
578.8
 20
129.2
 30
13.0
 70
    64
  0
VERTEX
  5
38FF
  8
0
 10
578.0
 20
129.0
 30
13.0
 70
    64
  0
VERTEX
  5
3900
  8
0
 10
580.0
 20
131.0
 30
37.0
 70
    64
  0
VERTEX
  5
3901
  8
0
 10
579.8
 20
130.2
 30
37.0
 70
    64
  0
VERTEX
  5
3902
  8
0
 10
579.4
 20
129.6
 30
37.0
 70
    64
  0
VERTEX
  5
3903
  8
0
 10
578.8
 20
129.2
 30
37.0
 70
    64
  0
VERTEX
  5
3904
  8
0
 10
578.0
 20
129.0
 30
37.0
 70
    64
  0
SEQEND
  5
3905
  8
0
  0
POLYLINE
  5
3906
  8
0
 66
     1
 10
0.0
 20
0.0
 30
0.0
 70
    16
 71
     2
 72
     5
  0
VERTEX
  5
3907
  8
0
 10
576.0
 20
131.0
 30
13.0
 70
    64
  0
VERTEX
  5
3908
  8
0
 10
576.2
 20
130.2
 30
13.0
 70
    64
  0
VERTEX
  5
3909
  8
0
 10
576.6
 20
129.6
 30
13.0
 70
    64
  0
VERTEX
  5
390A
  8
0
 10
577.2
 20
129.2
 30
13.0
 70
    64
  0
VERTEX
  5
390B
  8
0
 10
578.0
 20
129.0
 30
13.0
 70
    64
  0
VERTEX
  5
390C
  8
0
 10
576.0
 20
131.0
 30
37.0
 70
    64
  0
VERTEX
  5
390D
  8
0
 10
576.2
 20
130.2
 30
37.0
 70
    64
  0
VERTEX
  5
390E
  8
0
 10
576.6
 20
129.6
 30
37.0
 70
    64
  0
VERTEX
  5
390F
  8
0
 10
577.2
 20
129.2
 30
37.0
 70
    64
  0
VERTEX
  5
3910
  8
0
 10
578.0
 20
129.0
 30
37.0
 70
    64
  0
SEQEND
  5
3911
  8
0
  0
POLYLINE
  5
3912
  8
0
 66
     1
 10
0.0
 20
0.0
 30
0.0
 70
    16
 71
     2
 72
     5
  0
VERTEX
  5
3913
  8
0
 10
576.0
 20
131.0
 30
13.0
 70
    64
  0
VERTEX
  5
3914
  8
0
 10
576.2
 20
131.8
 30
13.0
 70
    64
  0
VERTEX
  5
3915
  8
0
 10
576.6
 20
132.4
 30
13.0
 70
    64
  0
VERTEX
  5
3916
  8
0
 10
577.2
 20
132.8
 30
13.0
 70
    64
  0
VERTEX
  5
3917
  8
0
 10
578.0
 20
133.0
 30
13.0
 70
    64
  0
VERTEX
  5
3918
  8
0
 10
576.0
 20
131.0
 30
37.0
 70
    64
  0
VERTEX
  5
3919
  8
0
 10
576.2
 20
131.8
 30
37.0
 70
    64
  0
VERTEX
  5
391A
  8
0
 10
576.6
 20
132.4
 30
37.0
 70
    64
  0
VERTEX
  5
391B
  8
0
 10
577.2
 20
132.8
 30
37.0
 70
    64
  0
VERTEX
  5
391C
  8
0
 10
578.0
 20
133.0
 30
37.0
 70
    64
  0
SEQEND
  5
391D
  8
0
  0
POLYLINE
  5
391E
  8
0
 66
     1
 10
0.0
 20
0.0
 30
0.0
 70
    16
 71
     2
 72
     5
  0
VERTEX
  5
391F
  8
0
 10
580.0
 20
131.0
 30
13.0
 70
    64
  0
VERTEX
  5
3920
  8
0
 10
579.8
 20
131.8
 30
13.0
 70
    64
  0
VERTEX
  5
3921
  8
0
 10
579.4
 20
132.4
 30
13.0
 70
    64
  0
VERTEX
  5
3922
  8
0
 10
578.8
 20
132.8
 30
13.0
 70
    64
  0
VERTEX
  5
3923
  8
0
 10
578.0
 20
133.0
 30
13.0
 70
    64
  0
VERTEX
  5
3924
  8
0
 10
580.0
 20
131.0
 30
37.0
 70
    64
  0
VERTEX
  5
3925
  8
0
 10
579.8
 20
131.8
 30
37.0
 70
    64
  0
VERTEX
  5
3926
  8
0
 10
579.4
 20
132.4
 30
37.0
 70
    64
  0
VERTEX
  5
3927
  8
0
 10
578.8
 20
132.8
 30
37.0
 70
    64
  0
VERTEX
  5
3928
  8
0
 10
578.0
 20
133.0
 30
37.0
 70
    64
  0
SEQEND
  5
3929
  8
0
  0
POLYLINE
  5
392A
  8
0
 66
     1
 10
0.0
 20
0.0
 30
0.0
 70
    16
 71
     2
 72
     3
  0
VERTEX
  5
392B
  8
0
 10
583.9
 20
133.5
 30
13.0
 70
    64
  0
VERTEX
  5
392C
  8
0
 10
583.0
 20
140.0
 30
13.0
 70
    64
  0
VERTEX
  5
392D
  8
0
 10
583.0
 20
140.0
 30
13.0
 70
    64
  0
VERTEX
  5
392E
  8
0
 10
583.9
 20
133.5
 30
5.0
 70
    64
  0
VERTEX
  5
392F
  8
0
 10
583.0
 20
140.0
 30
5.0
 70
    64
  0
VERTEX
  5
3930
  8
0
 10
583.0
 20
140.0
 30
5.0
 70
    64
  0
SEQEND
  5
3931
  8
0
  0
POLYLINE
  5
3932
  8
0
 66
     1
 10
0.0
 20
0.0
 30
0.0
 70
    16
 71
     2
 72
     3
  0
VERTEX
  5
3933
  8
0
 10
632.1
 20
133.5
 30
13.0
 70
    64
  0
VERTEX
  5
3934
  8
0
 10
633.0
 20
140.0
 30
13.0
 70
    64
  0
VERTEX
  5
3935
  8
0
 10
633.0
 20
140.0
 30
13.0
 70
    64
  0
VERTEX
  5
3936
  8
0
 10
632.1
 20
133.5
 30
5.0
 70
    64
  0
VERTEX
  5
3937
  8
0
 10
633.0
 20
140.0
 30
5.0
 70
    64
  0
VERTEX
  5
3938
  8
0
 10
633.0
 20
140.0
 30
5.0
 70
    64
  0
SEQEND
  5
3939
  8
0
  0
POLYLINE
  5
393A
  8
0
 66
     1
 10
0.0
 20
0.0
 30
0.0
 70
    16
 71
     2
 72
     6
  0
VERTEX
  5
393B
  8
0
 10
608.0
 20
140.0
 30
0.0
 70
    64
  0
VERTEX
  5
393C
  8
0
 10
588.0
 20
140.0
 30
0.0
 70
    64
  0
VERTEX
  5
393D
  8
0
 10
586.1
 20
140.0
 30
0.4
 70
    64
  0
VERTEX
  5
393E
  8
0
 10
584.5
 20
140.0
 30
1.5
 70
    64
  0
VERTEX
  5
393F
  8
0
 10
583.4
 20
140.0
 30
3.1
 70
    64
  0
VERTEX
  5
3940
  8
0
 10
583.0
 20
140.0
 30
5.0
 70
    64
  0
VERTEX
  5
3941
  8
0
 10
608.0
 20
140.0
 30
18.0
 70
    64
  0
VERTEX
  5
3942
  8
0
 10
588.0
 20
140.0
 30
18.0
 70
    64
  0
VERTEX
  5
3943
  8
0
 10
586.1
 20
140.0
 30
17.6
 70
    64
  0
VERTEX
  5
3944
  8
0
 10
584.5
 20
140.0
 30
16.5
 70
    64
  0
VERTEX
  5
3945
  8
0
 10
583.4
 20
140.0
 30
14.9
 70
    64
  0
VERTEX
  5
3946
  8
0
 10
583.0
 20
140.0
 30
13.0
 70
    64
  0
SEQEND
  5
3947
  8
0
  0
POLYLINE
  5
3948
  8
0
 66
     1
 10
0.0
 20
0.0
 30
0.0
 70
    16
 71
     2
 72
     6
  0
VERTEX
  5
3949
  8
0
 10
608.0
 20
140.0
 30
0.0
 70
    64
  0
VERTEX
  5
394A
  8
0
 10
628.0
 20
140.0
 30
0.0
 70
    64
  0
VERTEX
  5
394B
  8
0
 10
629.9
 20
140.0
 30
0.4
 70
    64
  0
VERTEX
  5
394C
  8
0
 10
631.5
 20
140.0
 30
1.5
 70
    64
  0
VERTEX
  5
394D
  8
0
 10
632.6
 20
140.0
 30
3.1
 70
    64
  0
VERTEX
  5
394E
  8
0
 10
633.0
 20
140.0
 30
5.0
 70
    64
  0
VERTEX
  5
394F
  8
0
 10
608.0
 20
140.0
 30
18.0
 70
    64
  0
VERTEX
  5
3950
  8
0
 10
628.0
 20
140.0
 30
18.0
 70
    64
  0
VERTEX
  5
3951
  8
0
 10
629.9
 20
140.0
 30
17.6
 70
    64
  0
VERTEX
  5
3952
  8
0
 10
631.5
 20
140.0
 30
16.5
 70
    64
  0
VERTEX
  5
3953
  8
0
 10
632.6
 20
140.0
 30
14.9
 70
    64
  0
VERTEX
  5
3954
  8
0
 10
633.0
 20
140.0
 30
13.0
 70
    64
  0
SEQEND
  5
3955
  8
0
  0
POLYLINE
  5
3956
  8
0
 66
     1
 10
0.0
 20
0.0
 30
0.0
 70
    16
 71
     4
 72
     6
  0
VERTEX
  5
3957
  8
0
 10
583.0
 20
140.0
 30
5.0
 70
    64
  0
VERTEX
  5
3958
  8
0
 10
583.4
 20
140.0
 30
3.1
 70
    64
  0
VERTEX
  5
3959
  8
0
 10
584.5
 20
140.0
 30
1.5
 70
    64
  0
VERTEX
  5
395A
  8
0
 10
586.1
 20
140.0
 30
0.4
 70
    64
  0
VERTEX
  5
395B
  8
0
 10
588.0
 20
140.0
 30
0.0
 70
    64
  0
VERTEX
  5
395C
  8
0
 10
608.0
 20
140.0
 30
0.0
 70
    64
  0
VERTEX
  5
395D
  8
0
 10
583.9
 20
133.5
 30
5.0
 70
    64
  0
VERTEX
  5
395E
  8
0
 10
584.2
 20
133.6
 30
3.1
 70
    64
  0
VERTEX
  5
395F
  8
0
 10
585.3
 20
133.9
 30
1.5
 70
    64
  0
VERTEX
  5
3960
  8
0
 10
586.8
 20
134.3
 30
0.4
 70
    64
  0
VERTEX
  5
3961
  8
0
 10
588.7
 20
134.8
 30
0.0
 70
    64
  0
VERTEX
  5
3962
  8
0
 10
608.0
 20
140.0
 30
0.0
 70
    64
  0
VERTEX
  5
3963
  8
0
 10
586.3
 20
127.5
 30
5.0
 70
    64
  0
VERTEX
  5
3964
  8
0
 10
586.7
 20
127.7
 30
3.1
 70
    64
  0
VERTEX
  5
3965
  8
0
 10
587.6
 20
128.2
 30
1.5
 70
    64
  0
VERTEX
  5
3966
  8
0
 10
589.0
 20
129.0
 30
0.4
 70
    64
  0
VERTEX
  5
3967
  8
0
 10
590.7
 20
130.0
 30
0.0
 70
    64
  0
VERTEX
  5
3968
  8
0
 10
608.0
 20
140.0
 30
0.0
 70
    64
  0
VERTEX
  5
3969
  8
0
 10
590.3
 20
122.3
 30
5.0
 70
    64
  0
VERTEX
  5
396A
  8
0
 10
590.6
 20
122.6
 30
3.1
 70
    64
  0
VERTEX
  5
396B
  8
0
 10
591.4
 20
123.4
 30
1.5
 70
    64
  0
VERTEX
  5
396C
  8
0
 10
592.5
 20
124.5
 30
0.4
 70
    64
  0
VERTEX
  5
396D
  8
0
 10
593.9
 20
125.9
 30
0.0
 70
    64
  0
VERTEX
  5
396E
  8
0
 10
608.0
 20
140.0
 30
0.0
 70
    64
  0
SEQEND
  5
396F
  8
0
  0
POLYLINE
  5
3970
  8
0
 66
     1
 10
0.0
 20
0.0
 30
0.0
 70
    16
 71
     4
 72
     6
  0
VERTEX
  5
3971
  8
0
 10
608.0
 20
115.0
 30
5.0
 70
    64
  0
VERTEX
  5
3972
  8
0
 10
608.0
 20
115.4
 30
3.1
 70
    64
  0
VERTEX
  5
3973
  8
0
 10
608.0
 20
116.5
 30
1.5
 70
    64
  0
VERTEX
  5
3974
  8
0
 10
608.0
 20
118.1
 30
0.4
 70
    64
  0
VERTEX
  5
3975
  8
0
 10
608.0
 20
120.0
 30
0.0
 70
    64
  0
VERTEX
  5
3976
  8
0
 10
608.0
 20
140.0
 30
0.0
 70
    64
  0
VERTEX
  5
3977
  8
0
 10
601.5
 20
115.9
 30
5.0
 70
    64
  0
VERTEX
  5
3978
  8
0
 10
601.6
 20
116.2
 30
3.1
 70
    64
  0
VERTEX
  5
3979
  8
0
 10
601.9
 20
117.3
 30
1.5
 70
    64
  0
VERTEX
  5
397A
  8
0
 10
602.3
 20
118.8
 30
0.4
 70
    64
  0
VERTEX
  5
397B
  8
0
 10
602.8
 20
120.7
 30
0.0
 70
    64
  0
VERTEX
  5
397C
  8
0
 10
608.0
 20
140.0
 30
0.0
 70
    64
  0
VERTEX
  5
397D
  8
0
 10
595.5
 20
118.3
 30
5.0
 70
    64
  0
VERTEX
  5
397E
  8
0
 10
595.7
 20
118.7
 30
3.1
 70
    64
  0
VERTEX
  5
397F
  8
0
 10
596.2
 20
119.6
 30
1.5
 70
    64
  0
VERTEX
  5
3980
  8
0
 10
597.0
 20
121.0
 30
0.4
 70
    64
  0
VERTEX
  5
3981
  8
0
 10
598.0
 20
122.7
 30
0.0
 70
    64
  0
VERTEX
  5
3982
  8
0
 10
608.0
 20
140.0
 30
0.0
 70
    64
  0
VERTEX
  5
3983
  8
0
 10
590.3
 20
122.3
 30
5.0
 70
    64
  0
VERTEX
  5
3984
  8
0
 10
590.6
 20
122.6
 30
3.1
 70
    64
  0
VERTEX
  5
3985
  8
0
 10
591.4
 20
123.4
 30
1.5
 70
    64
  0
VERTEX
  5
3986
  8
0
 10
592.5
 20
124.5
 30
0.4
 70
    64
  0
VERTEX
  5
3987
  8
0
 10
593.9
 20
125.9
 30
0.0
 70
    64
  0
VERTEX
  5
3988
  8
0
 10
608.0
 20
140.0
 30
0.0
 70
    64
  0
SEQEND
  5
3989
  8
0
  0
POLYLINE
  5
398A
  8
0
 66
     1
 10
0.0
 20
0.0
 30
0.0
 70
    16
 71
     4
 72
     6
  0
VERTEX
  5
398B
  8
0
 10
608.0
 20
115.0
 30
5.0
 70
    64
  0
VERTEX
  5
398C
  8
0
 10
608.0
 20
115.4
 30
3.1
 70
    64
  0
VERTEX
  5
398D
  8
0
 10
608.0
 20
116.5
 30
1.5
 70
    64
  0
VERTEX
  5
398E
  8
0
 10
608.0
 20
118.1
 30
0.4
 70
    64
  0
VERTEX
  5
398F
  8
0
 10
608.0
 20
120.0
 30
0.0
 70
    64
  0
VERTEX
  5
3990
  8
0
 10
608.0
 20
140.0
 30
0.0
 70
    64
  0
VERTEX
  5
3991
  8
0
 10
614.5
 20
115.9
 30
5.0
 70
    64
  0
VERTEX
  5
3992
  8
0
 10
614.4
 20
116.2
 30
3.1
 70
    64
  0
VERTEX
  5
3993
  8
0
 10
614.1
 20
117.3
 30
1.5
 70
    64
  0
VERTEX
  5
3994
  8
0
 10
613.7
 20
118.8
 30
0.4
 70
    64
  0
VERTEX
  5
3995
  8
0
 10
613.2
 20
120.7
 30
0.0
 70
    64
  0
VERTEX
  5
3996
  8
0
 10
608.0
 20
140.0
 30
0.0
 70
    64
  0
VERTEX
  5
3997
  8
0
 10
620.5
 20
118.3
 30
5.0
 70
    64
  0
VERTEX
  5
3998
  8
0
 10
620.3
 20
118.7
 30
3.1
 70
    64
  0
VERTEX
  5
3999
  8
0
 10
619.8
 20
119.6
 30
1.5
 70
    64
  0
VERTEX
  5
399A
  8
0
 10
619.0
 20
121.0
 30
0.4
 70
    64
  0
VERTEX
  5
399B
  8
0
 10
618.0
 20
122.7
 30
0.0
 70
    64
  0
VERTEX
  5
399C
  8
0
 10
608.0
 20
140.0
 30
0.0
 70
    64
  0
VERTEX
  5
399D
  8
0
 10
625.7
 20
122.3
 30
5.0
 70
    64
  0
VERTEX
  5
399E
  8
0
 10
625.4
 20
122.6
 30
3.1
 70
    64
  0
VERTEX
  5
399F
  8
0
 10
624.6
 20
123.4
 30
1.5
 70
    64
  0
VERTEX
  5
39A0
  8
0
 10
623.5
 20
124.5
 30
0.4
 70
    64
  0
VERTEX
  5
39A1
  8
0
 10
622.1
 20
125.9
 30
0.0
 70
    64
  0
VERTEX
  5
39A2
  8
0
 10
608.0
 20
140.0
 30
0.0
 70
    64
  0
SEQEND
  5
39A3
  8
0
  0
POLYLINE
  5
39A4
  8
0
 66
     1
 10
0.0
 20
0.0
 30
0.0
 70
    16
 71
     4
 72
     6
  0
VERTEX
  5
39A5
  8
0
 10
633.0
 20
140.0
 30
5.0
 70
    64
  0
VERTEX
  5
39A6
  8
0
 10
632.6
 20
140.0
 30
3.1
 70
    64
  0
VERTEX
  5
39A7
  8
0
 10
631.5
 20
140.0
 30
1.5
 70
    64
  0
VERTEX
  5
39A8
  8
0
 10
629.9
 20
140.0
 30
0.4
 70
    64
  0
VERTEX
  5
39A9
  8
0
 10
628.0
 20
140.0
 30
0.0
 70
    64
  0
VERTEX
  5
39AA
  8
0
 10
608.0
 20
140.0
 30
0.0
 70
    64
  0
VERTEX
  5
39AB
  8
0
 10
632.1
 20
133.5
 30
5.0
 70
    64
  0
VERTEX
  5
39AC
  8
0
 10
631.8
 20
133.6
 30
3.1
 70
    64
  0
VERTEX
  5
39AD
  8
0
 10
630.7
 20
133.9
 30
1.5
 70
    64
  0
VERTEX
  5
39AE
  8
0
 10
629.2
 20
134.3
 30
0.4
 70
    64
  0
VERTEX
  5
39AF
  8
0
 10
627.3
 20
134.8
 30
0.0
 70
    64
  0
VERTEX
  5
39B0
  8
0
 10
608.0
 20
140.0
 30
0.0
 70
    64
  0
VERTEX
  5
39B1
  8
0
 10
629.7
 20
127.5
 30
5.0
 70
    64
  0
VERTEX
  5
39B2
  8
0
 10
629.3
 20
127.7
 30
3.1
 70
    64
  0
VERTEX
  5
39B3
  8
0
 10
628.4
 20
128.2
 30
1.5
 70
    64
  0
VERTEX
  5
39B4
  8
0
 10
627.0
 20
129.0
 30
0.4
 70
    64
  0
VERTEX
  5
39B5
  8
0
 10
625.3
 20
130.0
 30
0.0
 70
    64
  0
VERTEX
  5
39B6
  8
0
 10
608.0
 20
140.0
 30
0.0
 70
    64
  0
VERTEX
  5
39B7
  8
0
 10
625.7
 20
122.3
 30
5.0
 70
    64
  0
VERTEX
  5
39B8
  8
0
 10
625.4
 20
122.6
 30
3.1
 70
    64
  0
VERTEX
  5
39B9
  8
0
 10
624.6
 20
123.4
 30
1.5
 70
    64
  0
VERTEX
  5
39BA
  8
0
 10
623.5
 20
124.5
 30
0.4
 70
    64
  0
VERTEX
  5
39BB
  8
0
 10
622.1
 20
125.9
 30
0.0
 70
    64
  0
VERTEX
  5
39BC
  8
0
 10
608.0
 20
140.0
 30
0.0
 70
    64
  0
SEQEND
  5
39BD
  8
0
  0
POLYLINE
  5
39BE
  8
0
 66
     1
 10
0.0
 20
0.0
 30
0.0
 70
    16
 71
     4
 72
     6
  0
VERTEX
  5
39BF
  8
0
 10
583.0
 20
140.0
 30
13.0
 70
    64
  0
VERTEX
  5
39C0
  8
0
 10
583.4
 20
140.0
 30
14.9
 70
    64
  0
VERTEX
  5
39C1
  8
0
 10
584.5
 20
140.0
 30
16.5
 70
    64
  0
VERTEX
  5
39C2
  8
0
 10
586.1
 20
140.0
 30
17.6
 70
    64
  0
VERTEX
  5
39C3
  8
0
 10
588.0
 20
140.0
 30
18.0
 70
    64
  0
VERTEX
  5
39C4
  8
0
 10
608.0
 20
140.0
 30
18.0
 70
    64
  0
VERTEX
  5
39C5
  8
0
 10
583.9
 20
133.5
 30
13.0
 70
    64
  0
VERTEX
  5
39C6
  8
0
 10
584.2
 20
133.6
 30
14.9
 70
    64
  0
VERTEX
  5
39C7
  8
0
 10
585.3
 20
133.9
 30
16.5
 70
    64
  0
VERTEX
  5
39C8
  8
0
 10
586.8
 20
134.3
 30
17.6
 70
    64
  0
VERTEX
  5
39C9
  8
0
 10
588.7
 20
134.8
 30
18.0
 70
    64
  0
VERTEX
  5
39CA
  8
0
 10
608.0
 20
140.0
 30
18.0
 70
    64
  0
VERTEX
  5
39CB
  8
0
 10
586.3
 20
127.5
 30
13.0
 70
    64
  0
VERTEX
  5
39CC
  8
0
 10
586.7
 20
127.7
 30
14.9
 70
    64
  0
VERTEX
  5
39CD
  8
0
 10
587.6
 20
128.2
 30
16.5
 70
    64
  0
VERTEX
  5
39CE
  8
0
 10
589.0
 20
129.0
 30
17.6
 70
    64
  0
VERTEX
  5
39CF
  8
0
 10
590.7
 20
130.0
 30
18.0
 70
    64
  0
VERTEX
  5
39D0
  8
0
 10
608.0
 20
140.0
 30
18.0
 70
    64
  0
VERTEX
  5
39D1
  8
0
 10
590.3
 20
122.3
 30
13.0
 70
    64
  0
VERTEX
  5
39D2
  8
0
 10
590.6
 20
122.6
 30
14.9
 70
    64
  0
VERTEX
  5
39D3
  8
0
 10
591.4
 20
123.4
 30
16.5
 70
    64
  0
VERTEX
  5
39D4
  8
0
 10
592.5
 20
124.5
 30
17.6
 70
    64
  0
VERTEX
  5
39D5
  8
0
 10
593.9
 20
125.9
 30
18.0
 70
    64
  0
VERTEX
  5
39D6
  8
0
 10
608.0
 20
140.0
 30
18.0
 70
    64
  0
SEQEND
  5
39D7
  8
0
  0
POLYLINE
  5
39D8
  8
0
 66
     1
 10
0.0
 20
0.0
 30
0.0
 70
    16
 71
     4
 72
     6
  0
VERTEX
  5
39D9
  8
0
 10
608.0
 20
115.0
 30
13.0
 70
    64
  0
VERTEX
  5
39DA
  8
0
 10
608.0
 20
115.4
 30
14.9
 70
    64
  0
VERTEX
  5
39DB
  8
0
 10
608.0
 20
116.5
 30
16.5
 70
    64
  0
VERTEX
  5
39DC
  8
0
 10
608.0
 20
118.1
 30
17.6
 70
    64
  0
VERTEX
  5
39DD
  8
0
 10
608.0
 20
120.0
 30
18.0
 70
    64
  0
VERTEX
  5
39DE
  8
0
 10
608.0
 20
140.0
 30
18.0
 70
    64
  0
VERTEX
  5
39DF
  8
0
 10
601.5
 20
115.9
 30
13.0
 70
    64
  0
VERTEX
  5
39E0
  8
0
 10
601.6
 20
116.2
 30
14.9
 70
    64
  0
VERTEX
  5
39E1
  8
0
 10
601.9
 20
117.3
 30
16.5
 70
    64
  0
VERTEX
  5
39E2
  8
0
 10
602.3
 20
118.8
 30
17.6
 70
    64
  0
VERTEX
  5
39E3
  8
0
 10
602.8
 20
120.7
 30
18.0
 70
    64
  0
VERTEX
  5
39E4
  8
0
 10
608.0
 20
140.0
 30
18.0
 70
    64
  0
VERTEX
  5
39E5
  8
0
 10
595.5
 20
118.3
 30
13.0
 70
    64
  0
VERTEX
  5
39E6
  8
0
 10
595.7
 20
118.7
 30
14.9
 70
    64
  0
VERTEX
  5
39E7
  8
0
 10
596.2
 20
119.6
 30
16.5
 70
    64
  0
VERTEX
  5
39E8
  8
0
 10
597.0
 20
121.0
 30
17.6
 70
    64
  0
VERTEX
  5
39E9
  8
0
 10
598.0
 20
122.7
 30
18.0
 70
    64
  0
VERTEX
  5
39EA
  8
0
 10
608.0
 20
140.0
 30
18.0
 70
    64
  0
VERTEX
  5
39EB
  8
0
 10
590.3
 20
122.3
 30
13.0
 70
    64
  0
VERTEX
  5
39EC
  8
0
 10
590.6
 20
122.6
 30
14.9
 70
    64
  0
VERTEX
  5
39ED
  8
0
 10
591.4
 20
123.4
 30
16.5
 70
    64
  0
VERTEX
  5
39EE
  8
0
 10
592.5
 20
124.5
 30
17.6
 70
    64
  0
VERTEX
  5
39EF
  8
0
 10
593.9
 20
125.9
 30
18.0
 70
    64
  0
VERTEX
  5
39F0
  8
0
 10
608.0
 20
140.0
 30
18.0
 70
    64
  0
SEQEND
  5
39F1
  8
0
  0
POLYLINE
  5
39F2
  8
0
 66
     1
 10
0.0
 20
0.0
 30
0.0
 70
    16
 71
     4
 72
     6
  0
VERTEX
  5
39F3
  8
0
 10
608.0
 20
115.0
 30
13.0
 70
    64
  0
VERTEX
  5
39F4
  8
0
 10
608.0
 20
115.4
 30
14.9
 70
    64
  0
VERTEX
  5
39F5
  8
0
 10
608.0
 20
116.5
 30
16.5
 70
    64
  0
VERTEX
  5
39F6
  8
0
 10
608.0
 20
118.1
 30
17.6
 70
    64
  0
VERTEX
  5
39F7
  8
0
 10
608.0
 20
120.0
 30
18.0
 70
    64
  0
VERTEX
  5
39F8
  8
0
 10
608.0
 20
140.0
 30
18.0
 70
    64
  0
VERTEX
  5
39F9
  8
0
 10
614.5
 20
115.9
 30
13.0
 70
    64
  0
VERTEX
  5
39FA
  8
0
 10
614.4
 20
116.2
 30
14.9
 70
    64
  0
VERTEX
  5
39FB
  8
0
 10
614.1
 20
117.3
 30
16.5
 70
    64
  0
VERTEX
  5
39FC
  8
0
 10
613.7
 20
118.8
 30
17.6
 70
    64
  0
VERTEX
  5
39FD
  8
0
 10
613.2
 20
120.7
 30
18.0
 70
    64
  0
VERTEX
  5
39FE
  8
0
 10
608.0
 20
140.0
 30
18.0
 70
    64
  0
VERTEX
  5
39FF
  8
0
 10
620.5
 20
118.3
 30
13.0
 70
    64
  0
VERTEX
  5
3A00
  8
0
 10
620.3
 20
118.7
 30
14.9
 70
    64
  0
VERTEX
  5
3A01
  8
0
 10
619.8
 20
119.6
 30
16.5
 70
    64
  0
VERTEX
  5
3A02
  8
0
 10
619.0
 20
121.0
 30
17.6
 70
    64
  0
VERTEX
  5
3A03
  8
0
 10
618.0
 20
122.7
 30
18.0
 70
    64
  0
VERTEX
  5
3A04
  8
0
 10
608.0
 20
140.0
 30
18.0
 70
    64
  0
VERTEX
  5
3A05
  8
0
 10
625.7
 20
122.3
 30
13.0
 70
    64
  0
VERTEX
  5
3A06
  8
0
 10
625.4
 20
122.6
 30
14.9
 70
    64
  0
VERTEX
  5
3A07
  8
0
 10
624.6
 20
123.4
 30
16.5
 70
    64
  0
VERTEX
  5
3A08
  8
0
 10
623.5
 20
124.5
 30
17.6
 70
    64
  0
VERTEX
  5
3A09
  8
0
 10
622.1
 20
125.9
 30
18.0
 70
    64
  0
VERTEX
  5
3A0A
  8
0
 10
608.0
 20
140.0
 30
18.0
 70
    64
  0
SEQEND
  5
3A0B
  8
0
  0
POLYLINE
  5
3A0C
  8
0
 66
     1
 10
0.0
 20
0.0
 30
0.0
 70
    16
 71
     4
 72
     6
  0
VERTEX
  5
3A0D
  8
0
 10
633.0
 20
140.0
 30
13.0
 70
    64
  0
VERTEX
  5
3A0E
  8
0
 10
632.6
 20
140.0
 30
14.9
 70
    64
  0
VERTEX
  5
3A0F
  8
0
 10
631.5
 20
140.0
 30
16.5
 70
    64
  0
VERTEX
  5
3A10
  8
0
 10
629.9
 20
140.0
 30
17.6
 70
    64
  0
VERTEX
  5
3A11
  8
0
 10
628.0
 20
140.0
 30
18.0
 70
    64
  0
VERTEX
  5
3A12
  8
0
 10
608.0
 20
140.0
 30
18.0
 70
    64
  0
VERTEX
  5
3A13
  8
0
 10
632.1
 20
133.5
 30
13.0
 70
    64
  0
VERTEX
  5
3A14
  8
0
 10
631.8
 20
133.6
 30
14.9
 70
    64
  0
VERTEX
  5
3A15
  8
0
 10
630.7
 20
133.9
 30
16.5
 70
    64
  0
VERTEX
  5
3A16
  8
0
 10
629.2
 20
134.3
 30
17.6
 70
    64
  0
VERTEX
  5
3A17
  8
0
 10
627.3
 20
134.8
 30
18.0
 70
    64
  0
VERTEX
  5
3A18
  8
0
 10
608.0
 20
140.0
 30
18.0
 70
    64
  0
VERTEX
  5
3A19
  8
0
 10
629.7
 20
127.5
 30
13.0
 70
    64
  0
VERTEX
  5
3A1A
  8
0
 10
629.3
 20
127.7
 30
14.9
 70
    64
  0
VERTEX
  5
3A1B
  8
0
 10
628.4
 20
128.2
 30
16.5
 70
    64
  0
VERTEX
  5
3A1C
  8
0
 10
627.0
 20
129.0
 30
17.6
 70
    64
  0
VERTEX
  5
3A1D
  8
0
 10
625.3
 20
130.0
 30
18.0
 70
    64
  0
VERTEX
  5
3A1E
  8
0
 10
608.0
 20
140.0
 30
18.0
 70
    64
  0
VERTEX
  5
3A1F
  8
0
 10
625.7
 20
122.3
 30
13.0
 70
    64
  0
VERTEX
  5
3A20
  8
0
 10
625.4
 20
122.6
 30
14.9
 70
    64
  0
VERTEX
  5
3A21
  8
0
 10
624.6
 20
123.4
 30
16.5
 70
    64
  0
VERTEX
  5
3A22
  8
0
 10
623.5
 20
124.5
 30
17.6
 70
    64
  0
VERTEX
  5
3A23
  8
0
 10
622.1
 20
125.9
 30
18.0
 70
    64
  0
VERTEX
  5
3A24
  8
0
 10
608.0
 20
140.0
 30
18.0
 70
    64
  0
SEQEND
  5
3A25
  8
0
  0
POLYLINE
  5
3A26
  8
0
 66
     1
 10
0.0
 20
0.0
 30
0.0
 70
    16
 71
     4
 72
     9
  0
VERTEX
  5
3A27
  8
0
 10
633.0
 20
134.0
 30
38.0
 70
    64
  0
VERTEX
  5
3A28
  8
0
 10
633.0
 20
133.8
 30
36.9
 70
    64
  0
VERTEX
  5
3A29
  8
0
 10
633.0
 20
133.1
 30
35.9
 70
    64
  0
VERTEX
  5
3A2A
  8
0
 10
633.0
 20
132.1
 30
35.2
 70
    64
  0
VERTEX
  5
3A2B
  8
0
 10
633.0
 20
131.0
 30
35.0
 70
    64
  0
VERTEX
  5
3A2C
  8
0
 10
633.0
 20
129.9
 30
35.2
 70
    64
  0
VERTEX
  5
3A2D
  8
0
 10
633.0
 20
128.9
 30
35.9
 70
    64
  0
VERTEX
  5
3A2E
  8
0
 10
633.0
 20
128.2
 30
36.9
 70
    64
  0
VERTEX
  5
3A2F
  8
0
 10
633.0
 20
128.0
 30
38.0
 70
    64
  0
VERTEX
  5
3A30
  8
0
 10
650.3
 20
131.7
 30
38.0
 70
    64
  0
VERTEX
  5
3A31
  8
0
 10
650.3
 20
131.5
 30
36.9
 70
    64
  0
VERTEX
  5
3A32
  8
0
 10
650.1
 20
130.9
 30
35.9
 70
    64
  0
VERTEX
  5
3A33
  8
0
 10
649.9
 20
129.9
 30
35.2
 70
    64
  0
VERTEX
  5
3A34
  8
0
 10
649.6
 20
128.8
 30
35.0
 70
    64
  0
VERTEX
  5
3A35
  8
0
 10
649.3
 20
127.7
 30
35.2
 70
    64
  0
VERTEX
  5
3A36
  8
0
 10
649.0
 20
126.8
 30
35.9
 70
    64
  0
VERTEX
  5
3A37
  8
0
 10
648.8
 20
126.1
 30
36.9
 70
    64
  0
VERTEX
  5
3A38
  8
0
 10
648.8
 20
125.9
 30
38.0
 70
    64
  0
VERTEX
  5
3A39
  8
0
 10
666.5
 20
125.0
 30
38.0
 70
    64
  0
VERTEX
  5
3A3A
  8
0
 10
666.4
 20
124.8
 30
36.9
 70
    64
  0
VERTEX
  5
3A3B
  8
0
 10
666.1
 20
124.3
 30
35.9
 70
    64
  0
VERTEX
  5
3A3C
  8
0
 10
665.6
 20
123.4
 30
35.2
 70
    64
  0
VERTEX
  5
3A3D
  8
0
 10
665.0
 20
122.4
 30
35.0
 70
    64
  0
VERTEX
  5
3A3E
  8
0
 10
664.4
 20
121.4
 30
35.2
 70
    64
  0
VERTEX
  5
3A3F
  8
0
 10
663.9
 20
120.6
 30
35.9
 70
    64
  0
VERTEX
  5
3A40
  8
0
 10
663.6
 20
120.0
 30
36.9
 70
    64
  0
VERTEX
  5
3A41
  8
0
 10
663.5
 20
119.8
 30
38.0
 70
    64
  0
VERTEX
  5
3A42
  8
0
 10
680.4
 20
114.4
 30
38.0
 70
    64
  0
VERTEX
  5
3A43
  8
0
 10
680.2
 20
114.2
 30
36.9
 70
    64
  0
VERTEX
  5
3A44
  8
0
 10
679.8
 20
113.8
 30
35.9
 70
    64
  0
VERTEX
  5
3A45
  8
0
 10
679.1
 20
113.1
 30
35.2
 70
    64
  0
VERTEX
  5
3A46
  8
0
 10
678.3
 20
112.3
 30
35.0
 70
    64
  0
VERTEX
  5
3A47
  8
0
 10
677.4
 20
111.4
 30
35.2
 70
    64
  0
VERTEX
  5
3A48
  8
0
 10
676.8
 20
110.8
 30
35.9
 70
    64
  0
VERTEX
  5
3A49
  8
0
 10
676.3
 20
110.3
 30
36.9
 70
    64
  0
VERTEX
  5
3A4A
  8
0
 10
676.1
 20
110.1
 30
38.0
 70
    64
  0
SEQEND
  5
3A4B
  8
0
  0
POLYLINE
  5
3A4C
  8
0
 66
     1
 10
0.0
 20
0.0
 30
0.0
 70
    16
 71
     4
 72
     9
  0
VERTEX
  5
3A4D
  8
0
 10
633.0
 20
134.0
 30
38.0
 70
    64
  0
VERTEX
  5
3A4E
  8
0
 10
633.0
 20
133.8
 30
39.1
 70
    64
  0
VERTEX
  5
3A4F
  8
0
 10
633.0
 20
133.1
 30
40.1
 70
    64
  0
VERTEX
  5
3A50
  8
0
 10
633.0
 20
132.1
 30
40.8
 70
    64
  0
VERTEX
  5
3A51
  8
0
 10
633.0
 20
131.0
 30
41.0
 70
    64
  0
VERTEX
  5
3A52
  8
0
 10
633.0
 20
129.9
 30
40.8
 70
    64
  0
VERTEX
  5
3A53
  8
0
 10
633.0
 20
128.9
 30
40.1
 70
    64
  0
VERTEX
  5
3A54
  8
0
 10
633.0
 20
128.2
 30
39.1
 70
    64
  0
VERTEX
  5
3A55
  8
0
 10
633.0
 20
128.0
 30
38.0
 70
    64
  0
VERTEX
  5
3A56
  8
0
 10
650.3
 20
131.7
 30
38.0
 70
    64
  0
VERTEX
  5
3A57
  8
0
 10
650.3
 20
131.5
 30
39.1
 70
    64
  0
VERTEX
  5
3A58
  8
0
 10
650.1
 20
130.9
 30
40.1
 70
    64
  0
VERTEX
  5
3A59
  8
0
 10
649.9
 20
129.9
 30
40.8
 70
    64
  0
VERTEX
  5
3A5A
  8
0
 10
649.6
 20
128.8
 30
41.0
 70
    64
  0
VERTEX
  5
3A5B
  8
0
 10
649.3
 20
127.7
 30
40.8
 70
    64
  0
VERTEX
  5
3A5C
  8
0
 10
649.0
 20
126.8
 30
40.1
 70
    64
  0
VERTEX
  5
3A5D
  8
0
 10
648.8
 20
126.1
 30
39.1
 70
    64
  0
VERTEX
  5
3A5E
  8
0
 10
648.8
 20
125.9
 30
38.0
 70
    64
  0
VERTEX
  5
3A5F
  8
0
 10
666.5
 20
125.0
 30
38.0
 70
    64
  0
VERTEX
  5
3A60
  8
0
 10
666.4
 20
124.8
 30
39.1
 70
    64
  0
VERTEX
  5
3A61
  8
0
 10
666.1
 20
124.3
 30
40.1
 70
    64
  0
VERTEX
  5
3A62
  8
0
 10
665.6
 20
123.4
 30
40.8
 70
    64
  0
VERTEX
  5
3A63
  8
0
 10
665.0
 20
122.4
 30
41.0
 70
    64
  0
VERTEX
  5
3A64
  8
0
 10
664.4
 20
121.4
 30
40.8
 70
    64
  0
VERTEX
  5
3A65
  8
0
 10
663.9
 20
120.6
 30
40.1
 70
    64
  0
VERTEX
  5
3A66
  8
0
 10
663.6
 20
120.0
 30
39.1
 70
    64
  0
VERTEX
  5
3A67
  8
0
 10
663.5
 20
119.8
 30
38.0
 70
    64
  0
VERTEX
  5
3A68
  8
0
 10
680.4
 20
114.4
 30
38.0
 70
    64
  0
VERTEX
  5
3A69
  8
0
 10
680.2
 20
114.2
 30
39.1
 70
    64
  0
VERTEX
  5
3A6A
  8
0
 10
679.8
 20
113.8
 30
40.1
 70
    64
  0
VERTEX
  5
3A6B
  8
0
 10
679.1
 20
113.1
 30
40.8
 70
    64
  0
VERTEX
  5
3A6C
  8
0
 10
678.3
 20
112.3
 30
41.0
 70
    64
  0
VERTEX
  5
3A6D
  8
0
 10
677.4
 20
111.4
 30
40.8
 70
    64
  0
VERTEX
  5
3A6E
  8
0
 10
676.8
 20
110.8
 30
40.1
 70
    64
  0
VERTEX
  5
3A6F
  8
0
 10
676.3
 20
110.3
 30
39.1
 70
    64
  0
VERTEX
  5
3A70
  8
0
 10
676.1
 20
110.1
 30
38.0
 70
    64
  0
SEQEND
  5
3A71
  8
0
  0
POLYLINE
  5
3A72
  8
0
 66
     1
 10
0.0
 20
0.0
 30
0.0
 70
    16
 71
     4
 72
     9
  0
VERTEX
  5
3A73
  8
0
 10
633.0
 20
131.0
 30
38.0
 70
    64
  0
VERTEX
  5
3A74
  8
0
 10
633.0
 20
131.0
 30
38.0
 70
    64
  0
VERTEX
  5
3A75
  8
0
 10
633.0
 20
131.0
 30
38.0
 70
    64
  0
VERTEX
  5
3A76
  8
0
 10
633.0
 20
131.0
 30
38.0
 70
    64
  0
VERTEX
  5
3A77
  8
0
 10
633.0
 20
131.0
 30
38.0
 70
    64
  0
VERTEX
  5
3A78
  8
0
 10
633.0
 20
131.0
 30
38.0
 70
    64
  0
VERTEX
  5
3A79
  8
0
 10
633.0
 20
131.0
 30
38.0
 70
    64
  0
VERTEX
  5
3A7A
  8
0
 10
633.0
 20
131.0
 30
38.0
 70
    64
  0
VERTEX
  5
3A7B
  8
0
 10
633.0
 20
131.0
 30
38.0
 70
    64
  0
VERTEX
  5
3A7C
  8
0
 10
633.0
 20
135.0
 30
38.0
 70
    64
  0
VERTEX
  5
3A7D
  8
0
 10
633.0
 20
134.7
 30
36.5
 70
    64
  0
VERTEX
  5
3A7E
  8
0
 10
633.0
 20
133.8
 30
35.2
 70
    64
  0
VERTEX
  5
3A7F
  8
0
 10
633.0
 20
132.5
 30
34.3
 70
    64
  0
VERTEX
  5
3A80
  8
0
 10
633.0
 20
131.0
 30
34.0
 70
    64
  0
VERTEX
  5
3A81
  8
0
 10
633.0
 20
129.5
 30
34.3
 70
    64
  0
VERTEX
  5
3A82
  8
0
 10
633.0
 20
128.2
 30
35.2
 70
    64
  0
VERTEX
  5
3A83
  8
0
 10
633.0
 20
127.3
 30
36.5
 70
    64
  0
VERTEX
  5
3A84
  8
0
 10
633.0
 20
127.0
 30
38.0
 70
    64
  0
VERTEX
  5
3A85
  8
0
 10
623.0
 20
135.0
 30
38.0
 70
    64
  0
VERTEX
  5
3A86
  8
0
 10
623.0
 20
134.7
 30
36.5
 70
    64
  0
VERTEX
  5
3A87
  8
0
 10
623.0
 20
133.8
 30
35.2
 70
    64
  0
VERTEX
  5
3A88
  8
0
 10
623.0
 20
132.5
 30
34.3
 70
    64
  0
VERTEX
  5
3A89
  8
0
 10
623.0
 20
131.0
 30
34.0
 70
    64
  0
VERTEX
  5
3A8A
  8
0
 10
623.0
 20
129.5
 30
34.3
 70
    64
  0
VERTEX
  5
3A8B
  8
0
 10
623.0
 20
128.2
 30
35.2
 70
    64
  0
VERTEX
  5
3A8C
  8
0
 10
623.0
 20
127.3
 30
36.5
 70
    64
  0
VERTEX
  5
3A8D
  8
0
 10
623.0
 20
127.0
 30
38.0
 70
    64
  0
VERTEX
  5
3A8E
  8
0
 10
623.0
 20
131.0
 30
38.0
 70
    64
  0
VERTEX
  5
3A8F
  8
0
 10
623.0
 20
131.0
 30
38.0
 70
    64
  0
VERTEX
  5
3A90
  8
0
 10
623.0
 20
131.0
 30
38.0
 70
    64
  0
VERTEX
  5
3A91
  8
0
 10
623.0
 20
131.0
 30
38.0
 70
    64
  0
VERTEX
  5
3A92
  8
0
 10
623.0
 20
131.0
 30
38.0
 70
    64
  0
VERTEX
  5
3A93
  8
0
 10
623.0
 20
131.0
 30
38.0
 70
    64
  0
VERTEX
  5
3A94
  8
0
 10
623.0
 20
131.0
 30
38.0
 70
    64
  0
VERTEX
  5
3A95
  8
0
 10
623.0
 20
131.0
 30
38.0
 70
    64
  0
VERTEX
  5
3A96
  8
0
 10
623.0
 20
131.0
 30
38.0
 70
    64
  0
SEQEND
  5
3A97
  8
0
  0
POLYLINE
  5
3A98
  8
0
 66
     1
 10
0.0
 20
0.0
 30
0.0
 70
    16
 71
     4
 72
     9
  0
VERTEX
  5
3A99
  8
0
 10
633.0
 20
131.0
 30
38.0
 70
    64
  0
VERTEX
  5
3A9A
  8
0
 10
633.0
 20
131.0
 30
38.0
 70
    64
  0
VERTEX
  5
3A9B
  8
0
 10
633.0
 20
131.0
 30
38.0
 70
    64
  0
VERTEX
  5
3A9C
  8
0
 10
633.0
 20
131.0
 30
38.0
 70
    64
  0
VERTEX
  5
3A9D
  8
0
 10
633.0
 20
131.0
 30
38.0
 70
    64
  0
VERTEX
  5
3A9E
  8
0
 10
633.0
 20
131.0
 30
38.0
 70
    64
  0
VERTEX
  5
3A9F
  8
0
 10
633.0
 20
131.0
 30
38.0
 70
    64
  0
VERTEX
  5
3AA0
  8
0
 10
633.0
 20
131.0
 30
38.0
 70
    64
  0
VERTEX
  5
3AA1
  8
0
 10
633.0
 20
131.0
 30
38.0
 70
    64
  0
VERTEX
  5
3AA2
  8
0
 10
633.0
 20
135.0
 30
38.0
 70
    64
  0
VERTEX
  5
3AA3
  8
0
 10
633.0
 20
134.7
 30
39.5
 70
    64
  0
VERTEX
  5
3AA4
  8
0
 10
633.0
 20
133.8
 30
40.8
 70
    64
  0
VERTEX
  5
3AA5
  8
0
 10
633.0
 20
132.5
 30
41.7
 70
    64
  0
VERTEX
  5
3AA6
  8
0
 10
633.0
 20
131.0
 30
42.0
 70
    64
  0
VERTEX
  5
3AA7
  8
0
 10
633.0
 20
129.5
 30
41.7
 70
    64
  0
VERTEX
  5
3AA8
  8
0
 10
633.0
 20
128.2
 30
40.8
 70
    64
  0
VERTEX
  5
3AA9
  8
0
 10
633.0
 20
127.3
 30
39.5
 70
    64
  0
VERTEX
  5
3AAA
  8
0
 10
633.0
 20
127.0
 30
38.0
 70
    64
  0
VERTEX
  5
3AAB
  8
0
 10
623.0
 20
135.0
 30
38.0
 70
    64
  0
VERTEX
  5
3AAC
  8
0
 10
623.0
 20
134.7
 30
39.5
 70
    64
  0
VERTEX
  5
3AAD
  8
0
 10
623.0
 20
133.8
 30
40.8
 70
    64
  0
VERTEX
  5
3AAE
  8
0
 10
623.0
 20
132.5
 30
41.7
 70
    64
  0
VERTEX
  5
3AAF
  8
0
 10
623.0
 20
131.0
 30
42.0
 70
    64
  0
VERTEX
  5
3AB0
  8
0
 10
623.0
 20
129.5
 30
41.7
 70
    64
  0
VERTEX
  5
3AB1
  8
0
 10
623.0
 20
128.2
 30
40.8
 70
    64
  0
VERTEX
  5
3AB2
  8
0
 10
623.0
 20
127.3
 30
39.5
 70
    64
  0
VERTEX
  5
3AB3
  8
0
 10
623.0
 20
127.0
 30
38.0
 70
    64
  0
VERTEX
  5
3AB4
  8
0
 10
623.0
 20
131.0
 30
38.0
 70
    64
  0
VERTEX
  5
3AB5
  8
0
 10
623.0
 20
131.0
 30
38.0
 70
    64
  0
VERTEX
  5
3AB6
  8
0
 10
623.0
 20
131.0
 30
38.0
 70
    64
  0
VERTEX
  5
3AB7
  8
0
 10
623.0
 20
131.0
 30
38.0
 70
    64
  0
VERTEX
  5
3AB8
  8
0
 10
623.0
 20
131.0
 30
38.0
 70
    64
  0
VERTEX
  5
3AB9
  8
0
 10
623.0
 20
131.0
 30
38.0
 70
    64
  0
VERTEX
  5
3ABA
  8
0
 10
623.0
 20
131.0
 30
38.0
 70
    64
  0
VERTEX
  5
3ABB
  8
0
 10
623.0
 20
131.0
 30
38.0
 70
    64
  0
VERTEX
  5
3ABC
  8
0
 10
623.0
 20
131.0
 30
38.0
 70
    64
  0
SEQEND
  5
3ABD
  8
0
  0
ENDSEC
  0
EOF
