  0
SECTION
  2
HEADER
  9
$ACADVER
  1
AC1014
  9
$ACADMAINTVER
 70
     9
  9
$DWGCODEPAGE
  3
ANSI_1252
  9
$INSBASE
 10
0.0
 20
0.0
 30
0.0
  9
$EXTMIN
 10
0.0000000000000006
 20
-0.0000000000000046
 30
0.0
  9
$EXTMAX
 10
46.0
 20
152.0
 30
0.0
  9
$LIMMIN
 10
0.0
 20
0.0
  9
$LIMMAX
 10
12.0
 20
9.0
  9
$ORTHOMODE
 70
     0
  9
$REGENMODE
 70
     1
  9
$FILLMODE
 70
     1
  9
$QTEXTMODE
 70
     0
  9
$MIRRTEXT
 70
     1
  9
$DRAGMODE
 70
     2
  9
$LTSCALE
 40
1.0
  9
$OSMODE
 70
    37
  9
$ATTMODE
 70
     1
  9
$TEXTSIZE
 40
0.2
  9
$TRACEWID
 40
0.05
  9
$TEXTSTYLE
  7
STANDARD
  9
$CLAYER
  8
0
  9
$CELTYPE
  6
CONTINUOUS
  9
$CECOLOR
 62
   256
  9
$CELTSCALE
 40
1.0
  9
$DELOBJ
 70
     1
  9
$DISPSILH
 70
     0
  9
$DIMSCALE
 40
1.0
  9
$DIMASZ
 40
0.18
  9
$DIMEXO
 40
0.0625
  9
$DIMDLI
 40
0.38
  9
$DIMRND
 40
0.0
  9
$DIMDLE
 40
0.0
  9
$DIMEXE
 40
0.18
  9
$DIMTP
 40
0.0
  9
$DIMTM
 40
0.0
  9
$DIMTXT
 40
0.18
  9
$DIMCEN
 40
0.09
  9
$DIMTSZ
 40
0.0
  9
$DIMTOL
 70
     0
  9
$DIMLIM
 70
     0
  9
$DIMTIH
 70
     1
  9
$DIMTOH
 70
     1
  9
$DIMSE1
 70
     0
  9
$DIMSE2
 70
     0
  9
$DIMTAD
 70
     0
  9
$DIMZIN
 70
     0
  9
$DIMBLK
  1

  9
$DIMASO
 70
     1
  9
$DIMSHO
 70
     1
  9
$DIMPOST
  1

  9
$DIMAPOST
  1

  9
$DIMALT
 70
     0
  9
$DIMALTD
 70
     2
  9
$DIMALTF
 40
25.4
  9
$DIMLFAC
 40
1.0
  9
$DIMTOFL
 70
     0
  9
$DIMTVP
 40
0.0
  9
$DIMTIX
 70
     0
  9
$DIMSOXD
 70
     0
  9
$DIMSAH
 70
     0
  9
$DIMBLK1
  1

  9
$DIMBLK2
  1

  9
$DIMSTYLE
  2
STANDARD
  9
$DIMCLRD
 70
     0
  9
$DIMCLRE
 70
     0
  9
$DIMCLRT
 70
     0
  9
$DIMTFAC
 40
1.0
  9
$DIMGAP
 40
0.09
  9
$DIMJUST
 70
     0
  9
$DIMSD1
 70
     0
  9
$DIMSD2
 70
     0
  9
$DIMTOLJ
 70
     1
  9
$DIMTZIN
 70
     0
  9
$DIMALTZ
 70
     0
  9
$DIMALTTZ
 70
     0
  9
$DIMFIT
 70
     3
  9
$DIMUPT
 70
     0
  9
$DIMUNIT
 70
     2
  9
$DIMDEC
 70
     4
  9
$DIMTDEC
 70
     4
  9
$DIMALTU
 70
     2
  9
$DIMALTTD
 70
     2
  9
$DIMTXSTY
  7
STANDARD
  9
$DIMAUNIT
 70
     0
  9
$LUNITS
 70
     2
  9
$LUPREC
 70
     4
  9
$SKETCHINC
 40
0.1
  9
$FILLETRAD
 40
0.0
  9
$AUNITS
 70
     0
  9
$AUPREC
 70
     0
  9
$MENU
  1
.
  9
$ELEVATION
 40
0.0
  9
$PELEVATION
 40
0.0
  9
$THICKNESS
 40
0.0
  9
$LIMCHECK
 70
     0
  9
$BLIPMODE
 70
     0
  9
$CHAMFERA
 40
0.0
  9
$CHAMFERB
 40
0.0
  9
$CHAMFERC
 40
0.0
  9
$CHAMFERD
 40
0.0
  9
$SKPOLY
 70
     0
  9
$TDCREATE
 40
2454697.321749490
  9
$TDUPDATE
 40
2454697.324171007
  9
$TDINDWG
 40
0.0024216898
  9
$TDUSRTIMER
 40
0.0024216898
  9
$USRTIMER
 70
     1
  9
$ANGBASE
 50
0.0
  9
$ANGDIR
 70
     0
  9
$PDMODE
 70
     0
  9
$PDSIZE
 40
0.0
  9
$PLINEWID
 40
0.0
  9
$COORDS
 70
     1
  9
$SPLFRAME
 70
     0
  9
$SPLINETYPE
 70
     6
  9
$SPLINESEGS
 70
     8
  9
$ATTDIA
 70
     0
  9
$ATTREQ
 70
     1
  9
$HANDLING
 70
 22529
  9
$HANDSEED
  5
1BB
  9
$SURFTAB1
 70
     6
  9
$SURFTAB2
 70
     6
  9
$SURFTYPE
 70
     6
  9
$SURFU
 70
     6
  9
$SURFV
 70
     6
  9
$UCSNAME
  2

  9
$UCSORG
 10
0.0
 20
0.0
 30
0.0
  9
$UCSXDIR
 10
1.0
 20
0.0
 30
0.0
  9
$UCSYDIR
 10
0.0
 20
1.0
 30
0.0
  9
$PUCSNAME
  2

  9
$PUCSORG
 10
0.0
 20
0.0
 30
0.0
  9
$PUCSXDIR
 10
1.0
 20
0.0
 30
0.0
  9
$PUCSYDIR
 10
0.0
 20
1.0
 30
0.0
  9
$USERI1
 70
     0
  9
$USERI2
 70
     0
  9
$USERI3
 70
     0
  9
$USERI4
 70
     0
  9
$USERI5
 70
     0
  9
$USERR1
 40
0.0
  9
$USERR2
 40
0.0
  9
$USERR3
 40
0.0
  9
$USERR4
 40
0.0
  9
$USERR5
 40
0.0
  9
$WORLDVIEW
 70
     1
  9
$SHADEDGE
 70
     3
  9
$SHADEDIF
 70
    70
  9
$TILEMODE
 70
     1
  9
$MAXACTVP
 70
    64
  9
$PINSBASE
 10
0.0
 20
0.0
 30
0.0
  9
$PLIMCHECK
 70
     0
  9
$PEXTMIN
 10
1.000000000000000E+20
 20
1.000000000000000E+20
 30
1.000000000000000E+20
  9
$PEXTMAX
 10
-1.000000000000000E+20
 20
-1.000000000000000E+20
 30
-1.000000000000000E+20
  9
$PLIMMIN
 10
0.0
 20
0.0
  9
$PLIMMAX
 10
12.0
 20
9.0
  9
$UNITMODE
 70
     0
  9
$VISRETAIN
 70
     1
  9
$PLINEGEN
 70
     0
  9
$PSLTSCALE
 70
     1
  9
$TREEDEPTH
 70
  3020
  9
$PICKSTYLE
 70
     1
  9
$CMLSTYLE
  2
STANDARD
  9
$CMLJUST
 70
     0
  9
$CMLSCALE
 40
1.0
  9
$PROXYGRAPHICS
 70
     1
  9
$MEASUREMENT
 70
     0
  0
ENDSEC
  0
SECTION
  2
CLASSES
  0
CLASS
  1
ACDBDICTIONARYWDFLT
  2
AcDbDictionaryWithDefault
  3
AutoCAD 2000
 90
        0
280
     0
281
     0
  0
CLASS
  1
ACDBPLACEHOLDER
  2
AcDbPlaceHolder
  3
AutoCAD 2000
 90
        0
280
     0
281
     0
  0
CLASS
  1
LAYOUT
  2
AcDbLayout
  3
AutoCAD 2000
 90
        0
280
     0
281
     0
  0
CLASS
  1
DICTIONARYVAR
  2
AcDbDictionaryVar
  3
AutoCAD 2000
 90
        0
280
     0
281
     0
  0
CLASS
  1
LONG_TRANSACTION
  2
AcDbLongTransaction
  3
AutoCAD 2000
 90
        0
280
     0
281
     0
  0
CLASS
  1
LWPOLYLINE
  2
AcDbPolyline
  3
AutoCAD 2000
 90
        0
280
     0
281
     1
  0
CLASS
  1
HATCH
  2
AcDbHatch
  3
AutoCAD 2000
 90
        0
280
     0
281
     1
  0
CLASS
  1
XRECORD
  2
AcDbXrecord
  3
AutoCAD 2000
 90
        0
280
     0
281
     0
  0
ENDSEC
  0
SECTION
  2
TABLES
  0
TABLE
  2
VPORT
  5
8
330
0
100
AcDbSymbolTable
 70
     3
  0
VPORT
  5
196
330
8
100
AcDbSymbolTableRecord
100
AcDbViewportTableRecord
  2
*ACTIVE
 70
     0
 10
0.0
 20
0.0
 11
1.0
 21
1.0
 12
23.0
 22
76.0
 13
0.0
 23
0.0
 14
1.0
 24
1.0
 15
0.0
 25
0.0
 16
0.0
 26
0.0
 36
1.0
 17
0.0
 27
0.0
 37
0.0
 40
153.1662404092071
 41
2.078104993597951
 42
50.0
 43
0.0
 44
0.0
 50
0.0
 51
0.0
 71
     0
 72
   100
 73
     1
 74
     3
 75
     0
 76
     0
 77
     0
 78
     0
  0
ENDTAB
  0
TABLE
  2
LTYPE
  5
5
330
0
100
AcDbSymbolTable
 70
     1
  0
LTYPE
  5
13
330
5
100
AcDbSymbolTableRecord
100
AcDbLinetypeTableRecord
  2
BYBLOCK
 70
     0
  3

 72
    65
 73
     0
 40
0.0
  0
LTYPE
  5
14
330
5
100
AcDbSymbolTableRecord
100
AcDbLinetypeTableRecord
  2
BYLAYER
 70
     0
  3

 72
    65
 73
     0
 40
0.0
  0
LTYPE
  5
15
330
5
100
AcDbSymbolTableRecord
100
AcDbLinetypeTableRecord
  2
CONTINUOUS
 70
     0
  3
Solid line
 72
    65
 73
     0
 40
0.0
  0
ENDTAB
  0
TABLE
  2
LAYER
  5
2
330
0
100
AcDbSymbolTable
 70
     1
  0
LAYER
  5
10
330
2
100
AcDbSymbolTableRecord
100
AcDbLayerTableRecord
  2
0
 70
     0
 62
     7
  6
CONTINUOUS
  0
ENDTAB
  0
TABLE
  2
STYLE
  5
3
330
0
100
AcDbSymbolTable
 70
     1
  0
STYLE
  5
11
330
3
100
AcDbSymbolTableRecord
100
AcDbTextStyleTableRecord
  2
STANDARD
 70
     0
 40
0.0
 41
1.0
 50
0.0
 71
     0
 42
0.2
  3
txt
  4

  0
ENDTAB
  0
TABLE
  2
VIEW
  5
6
330
0
100
AcDbSymbolTable
 70
     0
  0
ENDTAB
  0
TABLE
  2
UCS
  5
7
330
0
100
AcDbSymbolTable
 70
     0
  0
ENDTAB
  0
TABLE
  2
APPID
  5
9
330
0
100
AcDbSymbolTable
 70
     1
  0
APPID
  5
12
330
9
100
AcDbSymbolTableRecord
100
AcDbRegAppTableRecord
  2
ACAD
 70
     0
  0
ENDTAB
  0
TABLE
  2
DIMSTYLE
  5
A
330
0
100
AcDbSymbolTable
 70
     1
  0
DIMSTYLE
105
168
330
A
100
AcDbSymbolTableRecord
100
AcDbDimStyleTableRecord
  2
STANDARD
 70
     0
  3

  4

  5

  6

  7

 40
1.0
 41
0.18
 42
0.0625
 43
0.38
 44
0.18
 45
0.0
 46
0.0
 47
0.0
 48
0.0
140
0.18
141
0.09
142
0.0
143
25.4
144
1.0
145
0.0
146
1.0
147
0.09
 71
     0
 72
     0
 73
     1
 74
     1
 75
     0
 76
     0
 77
     0
 78
     0
170
     0
171
     2
172
     0
173
     0
174
     0
175
     0
176
     0
177
     0
178
     0
270
     2
271
     4
272
     4
273
     2
274
     2
340
11
275
     0
280
     0
281
     0
282
     0
283
     1
284
     0
285
     0
286
     0
287
     3
288
     0
  0
ENDTAB
  0
TABLE
  2
BLOCK_RECORD
  5
1
330
0
100
AcDbSymbolTable
 70
     0
  0
BLOCK_RECORD
  5
1E
102
{ACAD_XDICTIONARY
360
1B9
102
}
330
1
100
AcDbSymbolTableRecord
100
AcDbBlockTableRecord
  2
*MODEL_SPACE
  0
BLOCK_RECORD
  5
1A
102
{ACAD_XDICTIONARY
360
1B7
102
}
330
1
100
AcDbSymbolTableRecord
100
AcDbBlockTableRecord
  2
*PAPER_SPACE
  0
ENDTAB
  0
ENDSEC
  0
SECTION
  2
BLOCKS
  0
BLOCK
  5
1F
330
1E
100
AcDbEntity
  8
0
100
AcDbBlockBegin
  2
*MODEL_SPACE
 70
     0
 10
0.0
 20
0.0
 30
0.0
  3
*MODEL_SPACE
  1

  0
ENDBLK
  5
20
330
1E
100
AcDbEntity
  8
0
100
AcDbBlockEnd
  0
BLOCK
  5
1B
330
1A
100
AcDbEntity
 67
     1
  8
0
100
AcDbBlockBegin
  2
*PAPER_SPACE
 70
     0
 10
0.0
 20
0.0
 30
0.0
  3
*PAPER_SPACE
  1

  0
ENDBLK
  5
1C
330
1A
100
AcDbEntity
 67
     1
  8
0
100
AcDbBlockEnd
  0
ENDSEC
  0
SECTION
  2
ENTITIES
  0
LINE
  5
22
330
1E
100
AcDbEntity
  8
0
100
AcDbLine
 10
6.716
 20
-0.0000000000000042
 30
0.0
 11
11.592
 21
-0.0000000000000044
 31
0.0
  0
LINE
  5
23
330
1E
100
AcDbEntity
  8
0
100
AcDbLine
 10
3.036
 20
-0.0000000000000039
 30
0.0
 11
6.716
 21
-0.0000000000000042
 31
0.0
  0
LINE
  5
24
330
1E
100
AcDbEntity
  8
0
100
AcDbLine
 10
0.828000000000001
 20
-0.0000000000000035
 30
0.0
 11
3.036
 21
-0.0000000000000039
 31
0.0
  0
LINE
  5
25
330
1E
100
AcDbEntity
  8
0
100
AcDbLine
 10
6.716
 20
-0.0000000000000021
 30
0.0
 11
11.592
 21
-0.0000000000000019
 31
0.0
  0
LINE
  5
26
330
1E
100
AcDbEntity
  8
0
100
AcDbLine
 10
3.036
 20
-0.0000000000000024
 30
0.0
 11
6.716
 21
-0.0000000000000021
 31
0.0
  0
LINE
  5
27
330
1E
100
AcDbEntity
  8
0
100
AcDbLine
 10
0.828300000000001
 20
-0.0000000000000028
 30
0.0
 11
3.036
 21
-0.0000000000000024
 31
0.0
  0
LINE
  5
28
330
1E
100
AcDbEntity
  8
0
100
AcDbLine
 10
0.0000000000000006
 20
-0.0000000000000032
 30
0.0
 11
0.828300000000001
 21
-0.0000000000000028
 31
0.0
  0
LINE
  5
29
330
1E
100
AcDbEntity
  8
0
100
AcDbLine
 10
0.0000000000000006
 20
-0.0000000000000032
 30
0.0
 11
0.828000000000001
 21
-0.0000000000000035
 31
0.0
  0
LINE
  5
2A
330
1E
100
AcDbEntity
  8
0
100
AcDbLine
 10
0.0000000000000006
 20
-0.0000000000000032
 30
0.0
 11
0.0000000000000006
 21
110.899
 31
0.0
  0
LINE
  5
2B
330
1E
100
AcDbEntity
  8
0
100
AcDbLine
 10
8.0
 20
78.5564
 30
0.0
 11
8.0
 21
82.0526
 31
0.0
  0
LINE
  5
2C
330
1E
100
AcDbEntity
  8
0
100
AcDbLine
 10
8.0
 20
78.5564
 30
0.0
 11
8.0
 21
76.012
 31
0.0
  0
LINE
  5
2D
330
1E
100
AcDbEntity
  8
0
100
AcDbLine
 10
7.508329999999999
 20
106.135
 30
0.0
 11
12.0917
 21
104.912
 31
0.0
  0
LINE
  5
2F
330
1E
100
AcDbEntity
  8
0
100
AcDbLine
 10
6.716
 20
105.3499999999999
 30
0.0
 11
11.592
 21
104.096
 31
0.0
  0
LINE
  5
30
330
1E
100
AcDbEntity
  8
0
100
AcDbLine
 10
3.93333
 20
107.7029999999999
 30
0.0
 11
7.508329999999999
 21
106.135
 31
0.0
  0
LINE
  5
31
330
1E
100
AcDbEntity
  8
0
100
AcDbLine
 10
1.825
 20
109.4899999999999
 30
0.0
 11
3.93333
 21
107.7029999999999
 31
0.0
  0
LINE
  5
32
330
1E
100
AcDbEntity
  8
0
100
AcDbLine
 10
6.716
 20
108.684
 30
0.0
 11
11.592
 21
107.4249999999999
 31
0.0
  0
LINE
  5
33
330
1E
100
AcDbEntity
  8
0
100
AcDbLine
 10
3.036
 20
110.3509999999999
 30
0.0
 11
6.716
 21
108.684
 31
0.0
  0
LINE
  5
37
330
1E
100
AcDbEntity
  8
0
100
AcDbLine
 10
3.036
 20
107.0119999999999
 30
0.0
 11
6.716
 21
105.3499999999999
 31
0.0
  0
LINE
  5
38
330
1E
100
AcDbEntity
  8
0
100
AcDbLine
 10
0.828000000000001
 20
108.8929999999999
 30
0.0
 11
3.036
 21
107.0119999999999
 31
0.0
  0
LINE
  5
39
330
1E
100
AcDbEntity
  8
0
100
AcDbLine
 10
0.552000000000001
 20
144.3219999999999
 30
0.0
 11
1.379999999999999
 21
142.3399999999999
 31
0.0
  0
LINE
  5
3A
330
1E
100
AcDbEntity
  8
0
100
AcDbLine
 10
0.552000000000001
 20
144.3219999999999
 30
0.0
 11
1.379999999999999
 21
146.304
 31
0.0
  0
LINE
  5
3B
330
1E
100
AcDbEntity
  8
0
100
AcDbLine
 10
0.0000000000000006
 20
143.7579999999999
 30
0.0
 11
0.0000000000000006
 21
114.2529999999999
 31
0.0
  0
LINE
  5
3C
330
1E
100
AcDbEntity
  8
0
100
AcDbLine
 10
0.0000000000000006
 20
143.7579999999999
 30
0.0
 11
0.828000000000001
 21
141.745
 31
0.0
  0
LINE
  5
3D
330
1E
100
AcDbEntity
  8
0
100
AcDbLine
 10
0.0000000000000006
 20
143.7579999999999
 30
0.0
 11
0.828000000000001
 21
145.7729999999999
 31
0.0
  0
LINE
  5
3E
330
1E
100
AcDbEntity
  8
0
100
AcDbLine
 10
0.0000000000000006
 20
114.2529999999999
 30
0.0
 11
0.828000000000001
 21
112.2389999999999
 31
0.0
  0
LINE
  5
3F
330
1E
100
AcDbEntity
  8
0
100
AcDbLine
 10
0.0000000000000006
 20
114.2529999999999
 30
0.0
 11
0.0000000000000006
 21
143.7579999999999
 31
0.0
  0
LINE
  5
40
330
1E
100
AcDbEntity
  8
0
100
AcDbLine
 10
1.0
 20
112.091927536232
 30
0.0
 11
1.0
 21
111.434
 31
0.0
  0
LINE
  5
41
330
1E
100
AcDbEntity
  8
0
100
AcDbLine
 10
1.0
 20
111.434
 30
0.0
 11
1.825
 21
109.4899999999999
 31
0.0
  0
LINE
  5
42
330
1E
100
AcDbEntity
  8
0
100
AcDbLine
 10
1.0
 20
111.434
 30
0.0
 11
1.0
 21
112.091927536232
 31
0.0
  0
LINE
  5
43
330
1E
100
AcDbEntity
  8
0
100
AcDbLine
 10
0.828000000000001
 20
145.7729999999999
 30
0.0
 11
1.379999999999999
 21
146.304
 31
0.0
  0
LINE
  5
44
330
1E
100
AcDbEntity
  8
0
100
AcDbLine
 10
7.176
 20
138.91
 30
0.0
 11
11.868
 21
137.684
 31
0.0
  0
LINE
  5
45
330
1E
100
AcDbEntity
  8
0
100
AcDbLine
 10
6.716
 20
138.189
 30
0.0
 11
11.592
 21
136.93
 31
0.0
  0
LINE
  5
46
330
1E
100
AcDbEntity
  8
0
100
AcDbLine
 10
1.379999999999999
 20
146.304
 30
0.0
 11
3.588
 21
148.13
 31
0.0
  0
LINE
  5
47
330
1E
100
AcDbEntity
  8
0
100
AcDbLine
 10
1.379999999999999
 20
146.304
 30
0.0
 11
3.588
 21
148.13
 31
0.0
  0
LINE
  5
48
330
1E
100
AcDbEntity
  8
0
100
AcDbLine
 10
7.176
 20
149.734
 30
0.0
 11
11.868
 21
150.962
 31
0.0
  0
LINE
  5
49
330
1E
100
AcDbEntity
  8
0
100
AcDbLine
 10
3.588
 20
148.13
 30
0.0
 11
7.176
 21
149.734
 31
0.0
  0
LINE
  5
4A
330
1E
100
AcDbEntity
  8
0
100
AcDbLine
 10
1.379999999999999
 20
142.3399999999999
 30
0.0
 11
3.588
 21
140.5149999999999
 31
0.0
  0
LINE
  5
4B
330
1E
100
AcDbEntity
  8
0
100
AcDbLine
 10
3.588
 20
140.5149999999999
 30
0.0
 11
7.176
 21
138.91
 31
0.0
  0
LINE
  5
4C
330
1E
100
AcDbEntity
  8
0
100
AcDbLine
 10
1.379999999999999
 20
142.3399999999999
 30
0.0
 11
3.588
 21
140.5149999999999
 31
0.0
  0
LINE
  5
4D
330
1E
100
AcDbEntity
  8
0
100
AcDbLine
 10
3.036
 20
139.857
 30
0.0
 11
6.716
 21
138.189
 31
0.0
  0
LINE
  5
4E
330
1E
100
AcDbEntity
  8
0
100
AcDbLine
 10
0.828000000000001
 20
141.745
 30
0.0
 11
3.036
 21
139.857
 31
0.0
  0
LINE
  5
4F
330
1E
100
AcDbEntity
  8
0
100
AcDbLine
 10
0.828000000000001
 20
112.2389999999999
 30
0.0
 11
3.036
 21
110.3509999999999
 31
0.0
  0
LINE
  5
52
330
1E
100
AcDbEntity
  8
0
100
AcDbLine
 10
0.0000000000000006
 20
110.899
 30
0.0
 11
0.0000000000000006
 21
0.0
 31
0.0
  0
LINE
  5
53
330
1E
100
AcDbEntity
  8
0
100
AcDbLine
 10
0.0000000000000006
 20
110.899
 30
0.0
 11
0.828000000000001
 21
108.8929999999999
 31
0.0
  0
LINE
  5
54
330
1E
100
AcDbEntity
  8
0
100
AcDbLine
 10
0.0000000000000006
 20
110.899
 30
0.0
 11
0.6908238805970181
 21
112.572662686567
 31
0.0
  0
LINE
  5
55
330
1E
100
AcDbEntity
  8
0
100
AcDbLine
 10
0.0000000000000006
 20
110.899
 30
0.0
 11
0.6908238805970172
 21
112.572662686567
 31
0.0
  0
LINE
  5
56
330
1E
100
AcDbEntity
  8
0
100
AcDbLine
 10
8.0
 20
85.0
 30
0.0
 11
8.0
 21
84.2504
 31
0.0
  0
LINE
  5
57
330
1E
100
AcDbEntity
  8
0
100
AcDbLine
 10
8.0
 20
84.2504
 30
0.0
 11
8.0
 21
82.0526
 31
0.0
  0
LINE
  5
58
330
1E
100
AcDbEntity
  8
0
100
AcDbLine
 10
8.0
 20
84.2504
 30
0.0
 11
8.0
 21
85.0
 31
0.0
  0
LINE
  5
59
330
1E
100
AcDbEntity
  8
0
100
AcDbLine
 10
8.0
 20
82.0526
 30
0.0
 11
8.0
 21
84.2504
 31
0.0
  0
LINE
  5
5A
330
1E
100
AcDbEntity
  8
0
100
AcDbLine
 10
8.0
 20
82.0526
 30
0.0
 11
8.0
 21
78.5564
 31
0.0
  0
LINE
  5
5B
330
1E
100
AcDbEntity
  8
0
100
AcDbLine
 10
8.0
 20
76.012
 30
0.0
 11
8.0
 21
74.6479
 31
0.0
  0
LINE
  5
5C
330
1E
100
AcDbEntity
  8
0
100
AcDbLine
 10
8.0
 20
76.012
 30
0.0
 11
8.0
 21
78.5564
 31
0.0
  0
LINE
  5
5D
330
1E
100
AcDbEntity
  8
0
100
AcDbLine
 10
8.839999999999999
 20
72.7776
 30
0.0
 11
10.0
 21
71.4861505952381
 31
0.0
  0
LINE
  5
5E
330
1E
100
AcDbEntity
  8
0
100
AcDbLine
 10
11.592
 20
-0.0000000000000044
 30
0.0
 11
17.112
 21
-0.0000000000000046
 31
0.0
  0
LINE
  5
5F
330
1E
100
AcDbEntity
  8
0
100
AcDbLine
 10
11.592
 20
-0.0000000000000019
 30
0.0
 11
17.112
 21
-0.0000000000000017
 31
0.0
  0
LINE
  5
60
330
1E
100
AcDbEntity
  8
0
100
AcDbLine
 10
17.112
 20
-0.0000000000000046
 30
0.0
 11
23.0
 21
-0.0000000000000046
 31
0.0
  0
LINE
  5
61
330
1E
100
AcDbEntity
  8
0
100
AcDbLine
 10
23.0
 20
-0.0000000000000017
 30
0.0
 11
28.888
 21
-0.0000000000000017
 31
0.0
  0
LINE
  5
62
330
1E
100
AcDbEntity
  8
0
100
AcDbLine
 10
23.0
 20
-0.0000000000000046
 30
0.0
 11
28.888
 21
-0.0000000000000046
 31
0.0
  0
LINE
  5
63
330
1E
100
AcDbEntity
  8
0
100
AcDbLine
 10
17.112
 20
-0.0000000000000017
 30
0.0
 11
23.0
 21
-0.0000000000000017
 31
0.0
  0
LINE
  5
64
330
1E
100
AcDbEntity
  8
0
100
AcDbLine
 10
22.0
 20
65.03440000000001
 30
0.0
 11
25.024
 21
65.17279999999999
 31
0.0
  0
LINE
  5
65
330
1E
100
AcDbEntity
  8
0
100
AcDbLine
 10
28.888
 20
-0.0000000000000017
 30
0.0
 11
34.408
 21
-0.0000000000000019
 31
0.0
  0
LINE
  5
66
330
1E
100
AcDbEntity
  8
0
100
AcDbLine
 10
28.888
 20
-0.0000000000000046
 30
0.0
 11
34.408
 21
-0.0000000000000044
 31
0.0
  0
LINE
  5
67
330
1E
100
AcDbEntity
  8
0
100
AcDbLine
 10
25.024
 20
65.17279999999999
 30
0.0
 11
27.808
 21
65.5419
 31
0.0
  0
LINE
  5
68
330
1E
100
AcDbEntity
  8
0
100
AcDbLine
 10
27.808
 20
65.5419
 30
0.0
 11
30.256
 21
66.1416
 31
0.0
  0
LINE
  5
69
330
1E
100
AcDbEntity
  8
0
100
AcDbLine
 10
30.256
 20
66.1416
 30
0.0
 11
32.128
 21
66.9259
 31
0.0
  0
LINE
  5
6A
330
1E
100
AcDbEntity
  8
0
100
AcDbLine
 10
18.97599999999999
 20
65.17279999999999
 30
0.0
 11
22.0
 21
65.03440000000001
 31
0.0
  0
LINE
  5
6B
330
1E
100
AcDbEntity
  8
0
100
AcDbLine
 10
16.192
 20
65.5419
 30
0.0
 11
18.97599999999999
 21
65.17279999999999
 31
0.0
  0
LINE
  5
6C
330
1E
100
AcDbEntity
  8
0
100
AcDbLine
 10
32.128
 20
66.9259
 30
0.0
 11
33.28
 21
67.81780000000001
 31
0.0
  0
LINE
  5
6D
330
1E
100
AcDbEntity
  8
0
100
AcDbLine
 10
33.28
 20
67.81780000000001
 30
0.0
 11
33.71199999999999
 21
68.7866
 31
0.0
  0
LINE
  5
6E
330
1E
100
AcDbEntity
  8
0
100
AcDbLine
 10
33.28
 20
67.81780000000001
 30
0.0
 11
33.568
 21
68.1576
 31
0.0
  0
LINE
  5
6F
330
1E
100
AcDbEntity
  8
0
100
AcDbLine
 10
13.744
 20
66.1416
 30
0.0
 11
16.192
 21
65.5419
 31
0.0
  0
LINE
  5
70
330
1E
100
AcDbEntity
  8
0
100
AcDbLine
 10
11.872
 20
66.9259
 30
0.0
 11
13.744
 21
66.1416
 31
0.0
  0
LINE
  5
71
330
1E
100
AcDbEntity
  8
0
100
AcDbLine
 10
10.72
 20
67.81780000000001
 30
0.0
 11
11.872
 21
66.9259
 31
0.0
  0
LINE
  5
72
330
1E
100
AcDbEntity
  8
0
100
AcDbLine
 10
10.432
 20
68.1576
 30
0.0
 11
10.72
 21
67.81780000000001
 31
0.0
  0
LINE
  5
73
330
1E
100
AcDbEntity
  8
0
100
AcDbLine
 10
10.72
 20
69.75539999999999
 30
0.0
 11
11.872
 21
70.6473
 31
0.0
  0
LINE
  5
74
330
1E
100
AcDbEntity
  8
0
100
AcDbLine
 10
10.288
 20
68.7866
 30
0.0
 11
10.72
 21
69.75539999999999
 31
0.0
  0
LINE
  5
75
330
1E
100
AcDbEntity
  8
0
100
AcDbLine
 10
10.288
 20
68.7866
 30
0.0
 11
10.72
 21
67.81780000000001
 31
0.0
  0
LINE
  5
76
330
1E
100
AcDbEntity
  8
0
100
AcDbLine
 10
11.872
 20
70.6473
 30
0.0
 11
13.744
 21
71.4315
 31
0.0
  0
LINE
  5
77
330
1E
100
AcDbEntity
  8
0
100
AcDbLine
 10
10.432
 20
70.126
 30
0.0
 11
11.584
 21
71.04859999999999
 31
0.0
  0
LINE
  5
78
330
1E
100
AcDbEntity
  8
0
100
AcDbLine
 10
10.0
 20
69.1418
 30
0.0
 11
10.0
 21
74.41119999999999
 31
0.0
  0
LINE
  5
79
330
1E
100
AcDbEntity
  8
0
100
AcDbLine
 10
10.0
 20
69.1418
 30
0.0
 11
10.432
 21
70.126
 31
0.0
  0
LINE
  5
7A
330
1E
100
AcDbEntity
  8
0
100
AcDbLine
 10
10.0
 20
69.1418
 30
0.0
 11
10.432
 21
68.1576
 31
0.0
  0
LINE
  5
7B
330
1E
100
AcDbEntity
  8
0
100
AcDbLine
 10
11.584
 20
71.04859999999999
 30
0.0
 11
13.504
 21
71.8636
 31
0.0
  0
LINE
  5
7C
330
1E
100
AcDbEntity
  8
0
100
AcDbLine
 10
32.128
 20
70.6473
 30
0.0
 11
33.28
 21
69.75539999999999
 31
0.0
  0
LINE
  5
7D
330
1E
100
AcDbEntity
  8
0
100
AcDbLine
 10
33.568
 20
68.1576
 30
0.0
 11
34.0
 21
69.1418
 31
0.0
  0
LINE
  5
7E
330
1E
100
AcDbEntity
  8
0
100
AcDbLine
 10
33.28
 20
69.75539999999999
 30
0.0
 11
33.71199999999999
 21
68.7866
 31
0.0
  0
LINE
  5
7F
330
1E
100
AcDbEntity
  8
0
100
AcDbLine
 10
32.416
 20
71.04859999999999
 30
0.0
 11
33.568
 21
70.126
 31
0.0
  0
LINE
  5
80
330
1E
100
AcDbEntity
  8
0
100
AcDbLine
 10
34.0
 20
69.1418
 30
0.0
 11
34.0
 21
74.41119999999999
 31
0.0
  0
LINE
  5
81
330
1E
100
AcDbEntity
  8
0
100
AcDbLine
 10
33.568
 20
70.126
 30
0.0
 11
34.0
 21
69.1418
 31
0.0
  0
LINE
  5
82
330
1E
100
AcDbEntity
  8
0
100
AcDbLine
 10
13.744
 20
71.4315
 30
0.0
 11
16.192
 21
72.0313
 31
0.0
  0
LINE
  5
83
330
1E
100
AcDbEntity
  8
0
100
AcDbLine
 10
13.504
 20
71.8636
 30
0.0
 11
16.048
 21
72.47880000000001
 31
0.0
  0
LINE
  5
84
330
1E
100
AcDbEntity
  8
0
100
AcDbLine
 10
30.256
 20
71.4315
 30
0.0
 11
32.128
 21
70.6473
 31
0.0
  0
LINE
  5
85
330
1E
100
AcDbEntity
  8
0
100
AcDbLine
 10
18.97599999999999
 20
72.4003
 30
0.0
 11
22.0
 21
72.5387
 31
0.0
  0
LINE
  5
86
330
1E
100
AcDbEntity
  8
0
100
AcDbLine
 10
16.192
 20
72.0313
 30
0.0
 11
18.97599999999999
 21
72.4003
 31
0.0
  0
LINE
  5
87
330
1E
100
AcDbEntity
  8
0
100
AcDbLine
 10
18.928
 20
72.84780000000001
 30
0.0
 11
22.0
 21
72.98619999999999
 31
0.0
  0
LINE
  5
88
330
1E
100
AcDbEntity
  8
0
100
AcDbLine
 10
16.048
 20
72.47880000000001
 30
0.0
 11
18.928
 21
72.84780000000001
 31
0.0
  0
LINE
  5
89
330
1E
100
AcDbEntity
  8
0
100
AcDbLine
 10
22.0
 20
72.5387
 30
0.0
 11
25.024
 21
72.4003
 31
0.0
  0
LINE
  5
8A
330
1E
100
AcDbEntity
  8
0
100
AcDbLine
 10
25.024
 20
72.4003
 30
0.0
 11
27.808
 21
72.0313
 31
0.0
  0
LINE
  5
8B
330
1E
100
AcDbEntity
  8
0
100
AcDbLine
 10
27.808
 20
72.0313
 30
0.0
 11
30.256
 21
71.4315
 31
0.0
  0
LINE
  5
8C
330
1E
100
AcDbEntity
  8
0
100
AcDbLine
 10
22.0
 20
72.98619999999999
 30
0.0
 11
25.072
 21
72.84780000000001
 31
0.0
  0
LINE
  5
8D
330
1E
100
AcDbEntity
  8
0
100
AcDbLine
 10
25.072
 20
72.84780000000001
 30
0.0
 11
27.95199999999999
 21
72.47880000000001
 31
0.0
  0
LINE
  5
8E
330
1E
100
AcDbEntity
  8
0
100
AcDbLine
 10
27.95199999999999
 20
72.47880000000001
 30
0.0
 11
30.49599999999999
 21
71.8636
 31
0.0
  0
LINE
  5
8F
330
1E
100
AcDbEntity
  8
0
100
AcDbLine
 10
30.49599999999999
 20
71.8636
 30
0.0
 11
32.416
 21
71.04859999999999
 31
0.0
  0
LINE
  5
90
330
1E
100
AcDbEntity
  8
0
100
AcDbLine
 10
34.0
 20
71.4861505952381
 30
0.0
 11
35.16
 21
72.7776
 31
0.0
  0
LINE
  5
91
330
1E
100
AcDbEntity
  8
0
100
AcDbLine
 10
34.0
 20
71.3478189285714
 30
0.0
 11
34.152
 21
71.4406
 31
0.0
  0
LINE
  5
92
330
1E
100
AcDbEntity
  8
0
100
AcDbLine
 10
34.408
 20
-0.0000000000000044
 30
0.0
 11
39.28399999999999
 21
-0.0000000000000042
 31
0.0
  0
LINE
  5
93
330
1E
100
AcDbEntity
  8
0
100
AcDbLine
 10
39.28399999999999
 20
-0.0000000000000042
 30
0.0
 11
42.964
 21
-0.0000000000000039
 31
0.0
  0
LINE
  5
94
330
1E
100
AcDbEntity
  8
0
100
AcDbLine
 10
34.408
 20
-0.0000000000000019
 30
0.0
 11
39.28399999999999
 21
-0.0000000000000021
 31
0.0
  0
LINE
  5
95
330
1E
100
AcDbEntity
  8
0
100
AcDbLine
 10
39.28399999999999
 20
-0.0000000000000021
 30
0.0
 11
42.964
 21
-0.0000000000000024
 31
0.0
  0
LINE
  5
96
330
1E
100
AcDbEntity
  8
0
100
AcDbLine
 10
42.964
 20
-0.0000000000000024
 30
0.0
 11
45.17199999999999
 21
-0.0000000000000028
 31
0.0
  0
LINE
  5
97
330
1E
100
AcDbEntity
  8
0
100
AcDbLine
 10
45.17199999999999
 20
-0.0000000000000028
 30
0.0
 11
46.0
 21
-0.0000000000000032
 31
0.0
  0
LINE
  5
98
330
1E
100
AcDbEntity
  8
0
100
AcDbLine
 10
42.964
 20
-0.0000000000000039
 30
0.0
 11
45.17199999999999
 21
-0.0000000000000035
 31
0.0
  0
LINE
  5
99
330
1E
100
AcDbEntity
  8
0
100
AcDbLine
 10
46.0
 20
-0.0000000000000032
 30
0.0
 11
46.0
 21
110.899
 31
0.0
  0
LINE
  5
9A
330
1E
100
AcDbEntity
  8
0
100
AcDbLine
 10
45.17199999999999
 20
-0.0000000000000035
 30
0.0
 11
46.0
 21
-0.0000000000000032
 31
0.0
  0
LINE
  5
9B
330
1E
100
AcDbEntity
  8
0
100
AcDbLine
 10
35.16
 20
72.7776
 30
0.0
 11
35.664
 21
74.41119999999999
 31
0.0
  0
LINE
  5
9C
330
1E
100
AcDbEntity
  8
0
100
AcDbLine
 10
34.152
 20
71.4406
 30
0.0
 11
35.496
 21
72.9885
 31
0.0
  0
LINE
  5
9D
330
1E
100
AcDbEntity
  8
0
100
AcDbLine
 10
35.496
 20
72.9885
 30
0.0
 11
36.0
 21
74.6479
 31
0.0
  0
LINE
  5
9E
330
1E
100
AcDbEntity
  8
0
100
AcDbLine
 10
9.847999999999998
 20
71.4406
 30
0.0
 11
10.0
 21
71.3478189285714
 31
0.0
  0
LINE
  5
9F
330
1E
100
AcDbEntity
  8
0
100
AcDbLine
 10
10.0
 20
74.41119999999999
 30
0.0
 11
10.0
 21
69.1418
 31
0.0
  0
LINE
  5
A0
330
1E
100
AcDbEntity
  8
0
100
AcDbLine
 10
34.0
 20
74.41119999999999
 30
0.0
 11
34.0
 21
69.1418
 31
0.0
  0
LINE
  5
A1
330
1E
100
AcDbEntity
  8
0
100
AcDbLine
 10
36.0
 20
74.6479
 30
0.0
 11
36.0
 21
76.012
 31
0.0
  0
LINE
  5
A2
330
1E
100
AcDbEntity
  8
0
100
AcDbLine
 10
35.16
 20
76.0365
 30
0.0
 11
35.664
 21
74.41119999999999
 31
0.0
  0
LINE
  5
A3
330
1E
100
AcDbEntity
  8
0
100
AcDbLine
 10
35.496
 20
76.29899999999999
 30
0.0
 11
36.0
 21
74.6479
 31
0.0
  0
LINE
  5
A4
330
1E
100
AcDbEntity
  8
0
100
AcDbLine
 10
36.0
 20
76.012
 30
0.0
 11
36.0
 21
78.5564
 31
0.0
  0
LINE
  5
A5
330
1E
100
AcDbEntity
  8
0
100
AcDbLine
 10
36.0
 20
76.012
 30
0.0
 11
36.0
 21
74.6479
 31
0.0
  0
LINE
  5
A6
330
1E
100
AcDbEntity
  8
0
100
AcDbLine
 10
8.839999999999999
 20
76.0365
 30
0.0
 11
10.18399999999999
 21
77.5328
 31
0.0
  0
LINE
  5
A7
330
1E
100
AcDbEntity
  8
0
100
AcDbLine
 10
33.816
 20
77.5328
 30
0.0
 11
35.16
 21
76.0365
 31
0.0
  0
LINE
  5
A8
330
1E
100
AcDbEntity
  8
0
100
AcDbLine
 10
31.63199999999999
 20
78.8486
 30
0.0
 11
33.816
 21
77.5328
 31
0.0
  0
LINE
  5
A9
330
1E
100
AcDbEntity
  8
0
100
AcDbLine
 10
34.152
 20
77.84690000000001
 30
0.0
 11
35.496
 21
76.29899999999999
 31
0.0
  0
LINE
  5
AA
330
1E
100
AcDbEntity
  8
0
100
AcDbLine
 10
36.0
 20
78.5564
 30
0.0
 11
36.0
 21
82.0526
 31
0.0
  0
LINE
  5
AB
330
1E
100
AcDbEntity
  8
0
100
AcDbLine
 10
36.0
 20
78.5564
 30
0.0
 11
36.0
 21
76.012
 31
0.0
  0
LINE
  5
AC
330
1E
100
AcDbEntity
  8
0
100
AcDbLine
 10
31.912
 20
79.21420000000001
 30
0.0
 11
34.152
 21
77.84690000000001
 31
0.0
  0
LINE
  5
AD
330
1E
100
AcDbEntity
  8
0
100
AcDbLine
 10
12.368
 20
78.8486
 30
0.0
 11
15.224
 21
79.85469999999999
 31
0.0
  0
LINE
  5
AE
330
1E
100
AcDbEntity
  8
0
100
AcDbLine
 10
10.18399999999999
 20
77.5328
 30
0.0
 11
12.368
 21
78.8486
 31
0.0
  0
LINE
  5
AF
330
1E
100
AcDbEntity
  8
0
100
AcDbLine
 10
11.40409999999999
 20
142.768
 30
0.0
 11
11.64409999999999
 21
142.735
 31
0.0
  0
LINE
  5
B0
330
1E
100
AcDbEntity
  8
0
100
AcDbLine
 10
11.1921
 20
142.8229999999999
 30
0.0
 11
11.40409999999999
 21
142.768
 31
0.0
  0
LINE
  5
B1
330
1E
100
AcDbEntity
  8
0
100
AcDbLine
 10
11.0321
 20
142.895
 30
0.0
 11
11.1921
 21
142.8229999999999
 31
0.0
  0
LINE
  5
B2
330
1E
100
AcDbEntity
  8
0
100
AcDbLine
 10
10.93609999999999
 20
142.9769999999999
 30
0.0
 11
11.0321
 21
142.895
 31
0.0
  0
LINE
  5
B3
330
1E
100
AcDbEntity
  8
0
100
AcDbLine
 10
11.40409999999999
 20
143.3619999999999
 30
0.0
 11
11.64409999999999
 21
143.3939999999999
 31
0.0
  0
LINE
  5
B4
330
1E
100
AcDbEntity
  8
0
100
AcDbLine
 10
11.1921
 20
143.307
 30
0.0
 11
11.40409999999999
 21
143.3619999999999
 31
0.0
  0
LINE
  5
B5
330
1E
100
AcDbEntity
  8
0
100
AcDbLine
 10
11.0321
 20
143.234
 30
0.0
 11
11.1921
 21
143.307
 31
0.0
  0
LINE
  5
B6
330
1E
100
AcDbEntity
  8
0
100
AcDbLine
 10
10.93609999999999
 20
143.152
 30
0.0
 11
11.0321
 21
143.234
 31
0.0
  0
LINE
  5
B7
330
1E
100
AcDbEntity
  8
0
100
AcDbLine
 10
10.9001
 20
143.0649999999999
 30
0.0
 11
10.93609999999999
 21
142.9769999999999
 31
0.0
  0
LINE
  5
B8
330
1E
100
AcDbEntity
  8
0
100
AcDbLine
 10
10.9001
 20
143.0649999999999
 30
0.0
 11
10.93609999999999
 21
143.152
 31
0.0
  0
LINE
  5
B9
330
1E
100
AcDbEntity
  8
0
100
AcDbLine
 10
11.64409999999999
 20
143.3939999999999
 30
0.0
 11
11.9001
 21
143.407
 31
0.0
  0
LINE
  5
BA
330
1E
100
AcDbEntity
  8
0
100
AcDbLine
 10
11.64409999999999
 20
142.735
 30
0.0
 11
11.9001
 21
142.7229999999999
 31
0.0
  0
LINE
  5
BB
330
1E
100
AcDbEntity
  8
0
100
AcDbLine
 10
11.868
 20
150.962
 30
0.0
 11
17.204
 21
151.717
 31
0.0
  0
LINE
  5
BC
330
1E
100
AcDbEntity
  8
0
100
AcDbLine
 10
11.868
 20
137.684
 30
0.0
 11
16.3110581323378
 21
137.054511254114
 31
0.0
  0
LINE
  5
BD
330
1E
100
AcDbEntity
  8
0
100
AcDbLine
 10
11.592
 20
136.93
 30
0.0
 11
16.08200837939099
 21
136.316690884409
 31
0.0
  0
LINE
  5
BE
330
1E
100
AcDbEntity
  8
0
100
AcDbLine
 10
11.592
 20
107.4249999999999
 30
0.0
 11
17.112
 21
106.6699999999999
 31
0.0
  0
LINE
  5
BF
330
1E
100
AcDbEntity
  8
0
100
AcDbLine
 10
11.9001
 20
142.7229999999999
 30
0.0
 11
12.1561
 21
142.735
 31
0.0
  0
LINE
  5
C0
330
1E
100
AcDbEntity
  8
0
100
AcDbLine
 10
12.1561
 20
142.735
 30
0.0
 11
12.3961
 21
142.768
 31
0.0
  0
LINE
  5
C1
330
1E
100
AcDbEntity
  8
0
100
AcDbLine
 10
12.3961
 20
142.768
 30
0.0
 11
12.6081
 21
142.8229999999999
 31
0.0
  0
LINE
  5
C2
330
1E
100
AcDbEntity
  8
0
100
AcDbLine
 10
12.6081
 20
142.8229999999999
 30
0.0
 11
12.7681
 21
142.895
 31
0.0
  0
LINE
  5
C3
330
1E
100
AcDbEntity
  8
0
100
AcDbLine
 10
11.9001
 20
143.407
 30
0.0
 11
12.1561
 21
143.3939999999999
 31
0.0
  0
LINE
  5
C4
330
1E
100
AcDbEntity
  8
0
100
AcDbLine
 10
12.1561
 20
143.3939999999999
 30
0.0
 11
12.3961
 21
143.3619999999999
 31
0.0
  0
LINE
  5
C5
330
1E
100
AcDbEntity
  8
0
100
AcDbLine
 10
12.3961
 20
143.3619999999999
 30
0.0
 11
12.6081
 21
143.307
 31
0.0
  0
LINE
  5
C6
330
1E
100
AcDbEntity
  8
0
100
AcDbLine
 10
12.6081
 20
143.307
 30
0.0
 11
12.7681
 21
143.234
 31
0.0
  0
LINE
  5
C7
330
1E
100
AcDbEntity
  8
0
100
AcDbLine
 10
12.7681
 20
143.234
 30
0.0
 11
12.8641
 21
143.152
 31
0.0
  0
LINE
  5
C8
330
1E
100
AcDbEntity
  8
0
100
AcDbLine
 10
12.8641
 20
143.152
 30
0.0
 11
12.9001
 21
143.0649999999999
 31
0.0
  0
LINE
  5
C9
330
1E
100
AcDbEntity
  8
0
100
AcDbLine
 10
12.7681
 20
142.895
 30
0.0
 11
12.8641
 21
142.9769999999999
 31
0.0
  0
LINE
  5
CA
330
1E
100
AcDbEntity
  8
0
100
AcDbLine
 10
12.8641
 20
142.9769999999999
 30
0.0
 11
12.9001
 21
143.0649999999999
 31
0.0
  0
LINE
  5
CB
330
1E
100
AcDbEntity
  8
0
100
AcDbLine
 10
12.0917
 20
104.912
 30
0.0
 11
17.3167
 21
104.191
 31
0.0
  0
LINE
  5
CD
330
1E
100
AcDbEntity
  8
0
100
AcDbLine
 10
11.592
 20
104.096
 30
0.0
 11
17.112
 21
103.3439999999999
 31
0.0
  0
LINE
  5
CE
330
1E
100
AcDbEntity
  8
0
100
AcDbLine
 10
25.528
 20
80.4739
 30
0.0
 11
28.776
 21
79.85469999999999
 31
0.0
  0
LINE
  5
CF
330
1E
100
AcDbEntity
  8
0
100
AcDbLine
 10
28.776
 20
79.85469999999999
 30
0.0
 11
31.63199999999999
 21
78.8486
 31
0.0
  0
LINE
  5
D0
330
1E
100
AcDbEntity
  8
0
100
AcDbLine
 10
28.944
 20
80.2462
 30
0.0
 11
31.912
 21
79.21420000000001
 31
0.0
  0
LINE
  5
D1
330
1E
100
AcDbEntity
  8
0
100
AcDbLine
 10
22.0
 20
80.7061
 30
0.0
 11
25.528
 21
80.4739
 31
0.0
  0
LINE
  5
D2
330
1E
100
AcDbEntity
  8
0
100
AcDbLine
 10
25.584
 20
80.86530000000001
 30
0.0
 11
28.944
 21
80.2462
 31
0.0
  0
LINE
  5
D3
330
1E
100
AcDbEntity
  8
0
100
AcDbLine
 10
18.472
 20
80.4739
 30
0.0
 11
22.0
 21
80.7061
 31
0.0
  0
LINE
  5
D4
330
1E
100
AcDbEntity
  8
0
100
AcDbLine
 10
15.224
 20
79.85469999999999
 30
0.0
 11
18.472
 21
80.4739
 31
0.0
  0
LINE
  5
D5
330
1E
100
AcDbEntity
  8
0
100
AcDbLine
 10
16.0
 20
136.002
 30
0.0
 11
16.0
 21
135.6109999999999
 31
0.0
  0
LINE
  5
D6
330
1E
100
AcDbEntity
  8
0
100
AcDbLine
 10
16.924
 20
133.647
 30
0.0
 11
18.044
 21
132.7889999999999
 31
0.0
  0
LINE
  5
D7
330
1E
100
AcDbEntity
  8
0
100
AcDbLine
 10
16.924
 20
137.7019999999999
 30
0.0
 11
18.044
 21
138.4349999999999
 31
0.0
  0
LINE
  5
D8
330
1E
100
AcDbEntity
  8
0
100
AcDbLine
 10
16.25199999999999
 20
136.6719999999999
 30
0.0
 11
16.924
 21
137.7019999999999
 31
0.0
  0
LINE
  5
D9
330
1E
100
AcDbEntity
  8
0
100
AcDbLine
 10
16.25199999999999
 20
134.6249999999999
 30
0.0
 11
16.924
 21
133.647
 31
0.0
  0
LINE
  5
DA
330
1E
100
AcDbEntity
  8
0
100
AcDbLine
 10
16.0
 20
135.6109999999999
 30
0.0
 11
16.25199999999999
 21
134.6249999999999
 31
0.0
  0
LINE
  5
DB
330
1E
100
AcDbEntity
  8
0
100
AcDbLine
 10
16.0
 20
135.6109999999999
 30
0.0
 11
16.0
 21
136.002
 31
0.0
  0
LINE
  5
DC
330
1E
100
AcDbEntity
  8
0
100
AcDbLine
 10
16.0
 20
135.6109999999999
 30
0.0
 11
16.25199999999999
 21
136.6719999999999
 31
0.0
  0
LINE
  5
DD
330
1E
100
AcDbEntity
  8
0
100
AcDbLine
 10
17.112
 20
106.6699999999999
 30
0.0
 11
23.0
 21
106.387
 31
0.0
  0
LINE
  5
DE
330
1E
100
AcDbEntity
  8
0
100
AcDbLine
 10
23.0
 20
103.062
 30
0.0
 11
28.888
 21
103.3439999999999
 31
0.0
  0
LINE
  5
DF
330
1E
100
AcDbEntity
  8
0
100
AcDbLine
 10
23.0
 20
103.9089999999999
 30
0.0
 11
28.6833
 21
104.191
 31
0.0
  0
LINE
  5
E2
330
1E
100
AcDbEntity
  8
0
100
AcDbLine
 10
28.888
 20
103.3439999999999
 30
0.0
 11
34.408
 21
104.096
 31
0.0
  0
LINE
  5
E3
330
1E
100
AcDbEntity
  8
0
100
AcDbLine
 10
34.408
 20
104.096
 30
0.0
 11
39.28399999999999
 21
105.3499999999999
 31
0.0
  0
LINE
  5
E4
330
1E
100
AcDbEntity
  8
0
100
AcDbLine
 10
18.044
 20
138.4349999999999
 30
0.0
 11
19.52799999999999
 21
138.975
 31
0.0
  0
LINE
  5
E5
330
1E
100
AcDbEntity
  8
0
100
AcDbLine
 10
20.87599999999999
 20
114.2829999999999
 30
0.0
 11
21.51199999999999
 21
113.8319999999999
 31
0.0
  0
LINE
  5
E6
330
1E
100
AcDbEntity
  8
0
100
AcDbLine
 10
20.396
 20
114.881
 30
0.0
 11
20.87599999999999
 21
114.2829999999999
 31
0.0
  0
LINE
  5
E7
330
1E
100
AcDbEntity
  8
0
100
AcDbLine
 10
20.108
 20
115.558
 30
0.0
 11
20.396
 21
114.881
 31
0.0
  0
LINE
  5
E8
330
1E
100
AcDbEntity
  8
0
100
AcDbLine
 10
20.87599999999999
 20
118.275
 30
0.0
 11
21.51199999999999
 21
118.7259999999999
 31
0.0
  0
LINE
  5
E9
330
1E
100
AcDbEntity
  8
0
100
AcDbLine
 10
20.396
 20
117.6779999999999
 30
0.0
 11
20.87599999999999
 21
118.275
 31
0.0
  0
LINE
  5
EA
330
1E
100
AcDbEntity
  8
0
100
AcDbLine
 10
20.108
 20
117.0009999999999
 30
0.0
 11
20.396
 21
117.6779999999999
 31
0.0
  0
LINE
  5
EB
330
1E
100
AcDbEntity
  8
0
100
AcDbLine
 10
20.0
 20
116.2789999999999
 30
0.0
 11
20.108
 21
115.558
 31
0.0
  0
LINE
  5
EC
330
1E
100
AcDbEntity
  8
0
100
AcDbLine
 10
20.0
 20
116.2789999999999
 30
0.0
 11
20.108
 21
117.0009999999999
 31
0.0
  0
LINE
  5
ED
330
1E
100
AcDbEntity
  8
0
100
AcDbLine
 10
21.51199999999999
 20
118.7259999999999
 30
0.0
 11
22.23199999999999
 21
118.997
 31
0.0
  0
LINE
  5
EE
330
1E
100
AcDbEntity
  8
0
100
AcDbLine
 10
23.0
 20
113.46
 30
0.0
 11
23.768
 21
113.562
 31
0.0
  0
LINE
  5
EF
330
1E
100
AcDbEntity
  8
0
100
AcDbLine
 10
23.0
 20
119.0979999999999
 30
0.0
 11
23.768
 21
118.997
 31
0.0
  0
LINE
  5
F0
330
1E
100
AcDbEntity
  8
0
100
AcDbLine
 10
22.23199999999999
 20
118.997
 30
0.0
 11
23.0
 21
119.0979999999999
 31
0.0
  0
LINE
  5
F1
330
1E
100
AcDbEntity
  8
0
100
AcDbLine
 10
22.23199999999999
 20
113.562
 30
0.0
 11
23.0
 21
113.46
 31
0.0
  0
LINE
  5
F2
330
1E
100
AcDbEntity
  8
0
100
AcDbLine
 10
21.51199999999999
 20
113.8319999999999
 30
0.0
 11
22.23199999999999
 21
113.562
 31
0.0
  0
LINE
  5
F3
330
1E
100
AcDbEntity
  8
0
100
AcDbLine
 10
23.0
 20
131.786
 30
0.0
 11
24.792
 21
131.874
 31
0.0
  0
LINE
  5
F4
330
1E
100
AcDbEntity
  8
0
100
AcDbLine
 10
21.208
 20
131.874
 30
0.0
 11
23.0
 21
131.786
 31
0.0
  0
LINE
  5
F5
330
1E
100
AcDbEntity
  8
0
100
AcDbLine
 10
23.0
 20
139.561
 30
0.0
 11
24.792
 21
139.4749999999999
 31
0.0
  0
LINE
  5
F6
330
1E
100
AcDbEntity
  8
0
100
AcDbLine
 10
21.208
 20
139.4749999999999
 30
0.0
 11
23.0
 21
139.561
 31
0.0
  0
LINE
  5
F7
330
1E
100
AcDbEntity
  8
0
100
AcDbLine
 10
19.52799999999999
 20
138.975
 30
0.0
 11
21.208
 21
139.4749999999999
 31
0.0
  0
LINE
  5
F8
330
1E
100
AcDbEntity
  8
0
100
AcDbLine
 10
19.52799999999999
 20
132.147
 30
0.0
 11
21.208
 21
131.874
 31
0.0
  0
LINE
  5
F9
330
1E
100
AcDbEntity
  8
0
100
AcDbLine
 10
18.044
 20
132.7889999999999
 30
0.0
 11
19.52799999999999
 21
132.147
 31
0.0
  0
LINE
  5
FA
330
1E
100
AcDbEntity
  8
0
100
AcDbLine
 10
17.3167
 20
104.191
 30
0.0
 11
23.0
 21
103.9089999999999
 31
0.0
  0
LINE
  5
FB
330
1E
100
AcDbEntity
  8
0
100
AcDbLine
 10
33.90829999999999
 20
104.912
 30
0.0
 11
38.4917
 21
106.135
 31
0.0
  0
LINE
  5
FC
330
1E
100
AcDbEntity
  8
0
100
AcDbLine
 10
28.6833
 20
104.191
 30
0.0
 11
33.90829999999999
 21
104.912
 31
0.0
  0
LINE
  5
FD
330
1E
100
AcDbEntity
  8
0
100
AcDbLine
 10
23.768
 20
118.997
 30
0.0
 11
24.488
 21
118.7259999999999
 31
0.0
  0
LINE
  5
FE
330
1E
100
AcDbEntity
  8
0
100
AcDbLine
 10
25.124
 20
118.275
 30
0.0
 11
25.604
 21
117.6779999999999
 31
0.0
  0
LINE
  5
FF
330
1E
100
AcDbEntity
  8
0
100
AcDbLine
 10
24.488
 20
118.7259999999999
 30
0.0
 11
25.124
 21
118.275
 31
0.0
  0
LINE
  5
100
330
1E
100
AcDbEntity
  8
0
100
AcDbLine
 10
25.89199999999999
 20
117.0009999999999
 30
0.0
 11
26.0
 21
116.2789999999999
 31
0.0
  0
LINE
  5
101
330
1E
100
AcDbEntity
  8
0
100
AcDbLine
 10
25.89199999999999
 20
115.558
 30
0.0
 11
26.0
 21
116.2789999999999
 31
0.0
  0
LINE
  5
102
330
1E
100
AcDbEntity
  8
0
100
AcDbLine
 10
25.604
 20
114.881
 30
0.0
 11
25.89199999999999
 21
115.558
 31
0.0
  0
LINE
  5
103
330
1E
100
AcDbEntity
  8
0
100
AcDbLine
 10
25.604
 20
117.6779999999999
 30
0.0
 11
25.89199999999999
 21
117.0009999999999
 31
0.0
  0
LINE
  5
104
330
1E
100
AcDbEntity
  8
0
100
AcDbLine
 10
25.124
 20
114.2829999999999
 30
0.0
 11
25.604
 21
114.881
 31
0.0
  0
LINE
  5
105
330
1E
100
AcDbEntity
  8
0
100
AcDbLine
 10
24.488
 20
113.8319999999999
 30
0.0
 11
25.124
 21
114.2829999999999
 31
0.0
  0
LINE
  5
106
330
1E
100
AcDbEntity
  8
0
100
AcDbLine
 10
23.768
 20
113.562
 30
0.0
 11
24.488
 21
113.8319999999999
 31
0.0
  0
LINE
  5
107
330
1E
100
AcDbEntity
  8
0
100
AcDbLine
 10
24.792
 20
139.4749999999999
 30
0.0
 11
26.47199999999999
 21
138.975
 31
0.0
  0
LINE
  5
108
330
1E
100
AcDbEntity
  8
0
100
AcDbLine
 10
26.47199999999999
 20
138.975
 30
0.0
 11
27.956
 21
138.4349999999999
 31
0.0
  0
LINE
  5
109
330
1E
100
AcDbEntity
  8
0
100
AcDbLine
 10
27.956
 20
138.4349999999999
 30
0.0
 11
29.076
 21
137.7019999999999
 31
0.0
  0
LINE
  5
10A
330
1E
100
AcDbEntity
  8
0
100
AcDbLine
 10
29.076
 20
137.7019999999999
 30
0.0
 11
29.748
 21
136.6719999999999
 31
0.0
  0
LINE
  5
10B
330
1E
100
AcDbEntity
  8
0
100
AcDbLine
 10
29.076
 20
133.647
 30
0.0
 11
29.748
 21
134.6249999999999
 31
0.0
  0
LINE
  5
10C
330
1E
100
AcDbEntity
  8
0
100
AcDbLine
 10
27.956
 20
132.7889999999999
 30
0.0
 11
29.076
 21
133.647
 31
0.0
  0
LINE
  5
10D
330
1E
100
AcDbEntity
  8
0
100
AcDbLine
 10
26.47199999999999
 20
132.147
 30
0.0
 11
27.956
 21
132.7889999999999
 31
0.0
  0
LINE
  5
10E
330
1E
100
AcDbEntity
  8
0
100
AcDbLine
 10
24.792
 20
131.874
 30
0.0
 11
26.47199999999999
 21
132.147
 31
0.0
  0
LINE
  5
10F
330
1E
100
AcDbEntity
  8
0
100
AcDbLine
 10
29.748
 20
136.6719999999999
 30
0.0
 11
30.0
 21
135.6109999999999
 31
0.0
  0
LINE
  5
110
330
1E
100
AcDbEntity
  8
0
100
AcDbLine
 10
29.748
 20
134.6249999999999
 30
0.0
 11
30.0
 21
135.6109999999999
 31
0.0
  0
LINE
  5
111
330
1E
100
AcDbEntity
  8
0
100
AcDbLine
 10
29.6889418676622
 20
137.054511254114
 30
0.0
 11
34.13199999999999
 21
137.684
 31
0.0
  0
LINE
  5
112
330
1E
100
AcDbEntity
  8
0
100
AcDbLine
 10
28.79599999999999
 20
151.717
 30
0.0
 11
34.13199999999999
 21
150.962
 31
0.0
  0
LINE
  5
113
330
1E
100
AcDbEntity
  8
0
100
AcDbLine
 10
31.8439
 20
142.735
 30
0.0
 11
32.09989999999999
 21
142.7229999999999
 31
0.0
  0
LINE
  5
114
330
1E
100
AcDbEntity
  8
0
100
AcDbLine
 10
32.09989999999999
 20
142.7229999999999
 30
0.0
 11
32.3559
 21
142.735
 31
0.0
  0
LINE
  5
115
330
1E
100
AcDbEntity
  8
0
100
AcDbLine
 10
31.6039
 20
142.768
 30
0.0
 11
31.8439
 21
142.735
 31
0.0
  0
LINE
  5
116
330
1E
100
AcDbEntity
  8
0
100
AcDbLine
 10
31.3919
 20
142.8229999999999
 30
0.0
 11
31.6039
 21
142.768
 31
0.0
  0
LINE
  5
117
330
1E
100
AcDbEntity
  8
0
100
AcDbLine
 10
32.3559
 20
142.735
 30
0.0
 11
32.5959
 21
142.768
 31
0.0
  0
LINE
  5
118
330
1E
100
AcDbEntity
  8
0
100
AcDbLine
 10
32.5959
 20
142.768
 30
0.0
 11
32.80789999999999
 21
142.8229999999999
 31
0.0
  0
LINE
  5
119
330
1E
100
AcDbEntity
  8
0
100
AcDbLine
 10
31.2319
 20
142.895
 30
0.0
 11
31.3919
 21
142.8229999999999
 31
0.0
  0
LINE
  5
11A
330
1E
100
AcDbEntity
  8
0
100
AcDbLine
 10
31.1359
 20
142.9769999999999
 30
0.0
 11
31.2319
 21
142.895
 31
0.0
  0
LINE
  5
11B
330
1E
100
AcDbEntity
  8
0
100
AcDbLine
 10
32.80789999999999
 20
142.8229999999999
 30
0.0
 11
32.9679
 21
142.895
 31
0.0
  0
LINE
  5
11C
330
1E
100
AcDbEntity
  8
0
100
AcDbLine
 10
32.9679
 20
142.895
 30
0.0
 11
33.06389999999999
 21
142.9769999999999
 31
0.0
  0
LINE
  5
11D
330
1E
100
AcDbEntity
  8
0
100
AcDbLine
 10
33.06389999999999
 20
143.152
 30
0.0
 11
33.09989999999999
 21
143.0649999999999
 31
0.0
  0
LINE
  5
11E
330
1E
100
AcDbEntity
  8
0
100
AcDbLine
 10
32.80789999999999
 20
143.307
 30
0.0
 11
32.9679
 21
143.234
 31
0.0
  0
LINE
  5
11F
330
1E
100
AcDbEntity
  8
0
100
AcDbLine
 10
32.9679
 20
143.234
 30
0.0
 11
33.06389999999999
 21
143.152
 31
0.0
  0
LINE
  5
120
330
1E
100
AcDbEntity
  8
0
100
AcDbLine
 10
32.3559
 20
143.3939999999999
 30
0.0
 11
32.5959
 21
143.3619999999999
 31
0.0
  0
LINE
  5
121
330
1E
100
AcDbEntity
  8
0
100
AcDbLine
 10
32.5959
 20
143.3619999999999
 30
0.0
 11
32.80789999999999
 21
143.307
 31
0.0
  0
LINE
  5
122
330
1E
100
AcDbEntity
  8
0
100
AcDbLine
 10
32.09989999999999
 20
143.407
 30
0.0
 11
32.3559
 21
143.3939999999999
 31
0.0
  0
LINE
  5
123
330
1E
100
AcDbEntity
  8
0
100
AcDbLine
 10
31.8439
 20
143.3939999999999
 30
0.0
 11
32.09989999999999
 21
143.407
 31
0.0
  0
LINE
  5
124
330
1E
100
AcDbEntity
  8
0
100
AcDbLine
 10
31.6039
 20
143.3619999999999
 30
0.0
 11
31.8439
 21
143.3939999999999
 31
0.0
  0
LINE
  5
125
330
1E
100
AcDbEntity
  8
0
100
AcDbLine
 10
31.3919
 20
143.307
 30
0.0
 11
31.6039
 21
143.3619999999999
 31
0.0
  0
LINE
  5
126
330
1E
100
AcDbEntity
  8
0
100
AcDbLine
 10
31.2319
 20
143.234
 30
0.0
 11
31.3919
 21
143.307
 31
0.0
  0
LINE
  5
127
330
1E
100
AcDbEntity
  8
0
100
AcDbLine
 10
31.1359
 20
143.152
 30
0.0
 11
31.2319
 21
143.234
 31
0.0
  0
LINE
  5
128
330
1E
100
AcDbEntity
  8
0
100
AcDbLine
 10
31.0999
 20
143.0649999999999
 30
0.0
 11
31.1359
 21
142.9769999999999
 31
0.0
  0
LINE
  5
129
330
1E
100
AcDbEntity
  8
0
100
AcDbLine
 10
31.0999
 20
143.0649999999999
 30
0.0
 11
31.1359
 21
143.152
 31
0.0
  0
LINE
  5
12A
330
1E
100
AcDbEntity
  8
0
100
AcDbLine
 10
33.06389999999999
 20
142.9769999999999
 30
0.0
 11
33.09989999999999
 21
143.0649999999999
 31
0.0
  0
LINE
  5
12B
330
1E
100
AcDbEntity
  8
0
100
AcDbLine
 10
30.0
 20
136.002
 30
0.0
 11
30.0
 21
135.6109999999999
 31
0.0
  0
LINE
  5
12C
330
1E
100
AcDbEntity
  8
0
100
AcDbLine
 10
30.0
 20
135.6109999999999
 30
0.0
 11
30.0
 21
136.002
 31
0.0
  0
LINE
  5
12D
330
1E
100
AcDbEntity
  8
0
100
AcDbLine
 10
34.13199999999999
 20
137.684
 30
0.0
 11
38.824
 21
138.91
 31
0.0
  0
LINE
  5
12E
330
1E
100
AcDbEntity
  8
0
100
AcDbLine
 10
34.13199999999999
 20
150.962
 30
0.0
 11
38.824
 21
149.734
 31
0.0
  0
LINE
  5
12F
330
1E
100
AcDbEntity
  8
0
100
AcDbLine
 10
29.917991620609
 20
136.316690884409
 30
0.0
 11
34.408
 21
136.93
 31
0.0
  0
LINE
  5
130
330
1E
100
AcDbEntity
  8
0
100
AcDbLine
 10
28.888
 20
106.6699999999999
 30
0.0
 11
34.408
 21
107.4249999999999
 31
0.0
  0
LINE
  5
131
330
1E
100
AcDbEntity
  8
0
100
AcDbLine
 10
23.0
 20
106.387
 30
0.0
 11
28.888
 21
106.6699999999999
 31
0.0
  0
LINE
  5
132
330
1E
100
AcDbEntity
  8
0
100
AcDbLine
 10
23.0
 20
152.0
 30
0.0
 11
28.79599999999999
 21
151.717
 31
0.0
  0
LINE
  5
133
330
1E
100
AcDbEntity
  8
0
100
AcDbLine
 10
17.204
 20
151.717
 30
0.0
 11
23.0
 21
152.0
 31
0.0
  0
LINE
  5
134
330
1E
100
AcDbEntity
  8
0
100
AcDbLine
 10
34.408
 20
136.93
 30
0.0
 11
39.28399999999999
 21
138.189
 31
0.0
  0
LINE
  5
135
330
1E
100
AcDbEntity
  8
0
100
AcDbLine
 10
34.408
 20
107.4249999999999
 30
0.0
 11
39.28399999999999
 21
108.684
 31
0.0
  0
LINE
  5
138
330
1E
100
AcDbEntity
  8
0
100
AcDbLine
 10
17.112
 20
103.3439999999999
 30
0.0
 11
23.0
 21
103.062
 31
0.0
  0
LINE
  5
139
330
1E
100
AcDbEntity
  8
0
100
AcDbLine
 10
36.0
 20
85.0
 30
0.0
 11
36.0
 21
84.2504
 31
0.0
  0
LINE
  5
13A
330
1E
100
AcDbEntity
  8
0
100
AcDbLine
 10
36.0
 20
84.2504
 30
0.0
 11
36.0
 21
82.0526
 31
0.0
  0
LINE
  5
13B
330
1E
100
AcDbEntity
  8
0
100
AcDbLine
 10
36.0
 20
84.2504
 30
0.0
 11
36.0
 21
85.0
 31
0.0
  0
LINE
  5
13C
330
1E
100
AcDbEntity
  8
0
100
AcDbLine
 10
22.0
 20
81.0975
 30
0.0
 11
25.584
 21
80.86530000000001
 31
0.0
  0
LINE
  5
13D
330
1E
100
AcDbEntity
  8
0
100
AcDbLine
 10
38.4917
 20
106.135
 30
0.0
 11
42.06669999999999
 21
107.7029999999999
 31
0.0
  0
LINE
  5
13F
330
1E
100
AcDbEntity
  8
0
100
AcDbLine
 10
39.28399999999999
 20
105.3499999999999
 30
0.0
 11
42.964
 21
107.0119999999999
 31
0.0
  0
LINE
  5
140
330
1E
100
AcDbEntity
  8
0
100
AcDbLine
 10
42.06669999999999
 20
107.7029999999999
 30
0.0
 11
44.17499999999999
 21
109.4899999999999
 31
0.0
  0
LINE
  5
141
330
1E
100
AcDbEntity
  8
0
100
AcDbLine
 10
44.17499999999999
 20
109.4899999999999
 30
0.0
 11
45.0
 21
111.434
 31
0.0
  0
LINE
  5
142
330
1E
100
AcDbEntity
  8
0
100
AcDbLine
 10
42.964
 20
110.3509999999999
 30
0.0
 11
45.17199999999999
 21
112.2389999999999
 31
0.0
  0
LINE
  5
143
330
1E
100
AcDbEntity
  8
0
100
AcDbLine
 10
39.28399999999999
 20
108.684
 30
0.0
 11
42.964
 21
110.3509999999999
 31
0.0
  0
LINE
  5
146
330
1E
100
AcDbEntity
  8
0
100
AcDbLine
 10
42.964
 20
107.0119999999999
 30
0.0
 11
45.17199999999999
 21
108.8929999999999
 31
0.0
  0
LINE
  5
147
330
1E
100
AcDbEntity
  8
0
100
AcDbLine
 10
45.17199999999999
 20
108.8929999999999
 30
0.0
 11
46.0
 21
110.899
 31
0.0
  0
LINE
  5
148
330
1E
100
AcDbEntity
  8
0
100
AcDbLine
 10
45.0
 20
112.091927536232
 30
0.0
 11
45.0
 21
111.434
 31
0.0
  0
LINE
  5
149
330
1E
100
AcDbEntity
  8
0
100
AcDbLine
 10
45.0
 20
111.434
 30
0.0
 11
45.0
 21
112.091927536232
 31
0.0
  0
LINE
  5
14A
330
1E
100
AcDbEntity
  8
0
100
AcDbLine
 10
45.17199999999999
 20
112.2389999999999
 30
0.0
 11
46.0
 21
114.2529999999999
 31
0.0
  0
LINE
  5
14B
330
1E
100
AcDbEntity
  8
0
100
AcDbLine
 10
42.412
 20
140.5149999999999
 30
0.0
 11
44.61999999999999
 21
142.3399999999999
 31
0.0
  0
LINE
  5
14C
330
1E
100
AcDbEntity
  8
0
100
AcDbLine
 10
38.824
 20
138.91
 30
0.0
 11
42.412
 21
140.5149999999999
 31
0.0
  0
LINE
  5
14D
330
1E
100
AcDbEntity
  8
0
100
AcDbLine
 10
42.412
 20
148.13
 30
0.0
 11
44.61999999999999
 21
146.304
 31
0.0
  0
LINE
  5
14E
330
1E
100
AcDbEntity
  8
0
100
AcDbLine
 10
38.824
 20
149.734
 30
0.0
 11
42.412
 21
148.13
 31
0.0
  0
LINE
  5
14F
330
1E
100
AcDbEntity
  8
0
100
AcDbLine
 10
44.61999999999999
 20
142.3399999999999
 30
0.0
 11
45.448
 21
144.3219999999999
 31
0.0
  0
LINE
  5
150
330
1E
100
AcDbEntity
  8
0
100
AcDbLine
 10
44.61999999999999
 20
146.304
 30
0.0
 11
45.448
 21
144.3219999999999
 31
0.0
  0
LINE
  5
151
330
1E
100
AcDbEntity
  8
0
100
AcDbLine
 10
44.61999999999999
 20
146.304
 30
0.0
 11
45.17199999999999
 21
145.7729999999999
 31
0.0
  0
LINE
  5
152
330
1E
100
AcDbEntity
  8
0
100
AcDbLine
 10
45.17199999999999
 20
141.745
 30
0.0
 11
46.0
 21
143.7579999999999
 31
0.0
  0
LINE
  5
153
330
1E
100
AcDbEntity
  8
0
100
AcDbLine
 10
42.964
 20
139.857
 30
0.0
 11
45.17199999999999
 21
141.745
 31
0.0
  0
LINE
  5
154
330
1E
100
AcDbEntity
  8
0
100
AcDbLine
 10
39.28399999999999
 20
138.189
 30
0.0
 11
42.964
 21
139.857
 31
0.0
  0
LINE
  5
155
330
1E
100
AcDbEntity
  8
0
100
AcDbLine
 10
45.17199999999999
 20
145.7729999999999
 30
0.0
 11
46.0
 21
143.7579999999999
 31
0.0
  0
LINE
  5
157
330
1E
100
AcDbEntity
  8
0
100
AcDbLine
 10
46.0
 20
114.2529999999999
 30
0.0
 11
46.0
 21
143.7579999999999
 31
0.0
  0
LINE
  5
158
330
1E
100
AcDbEntity
  8
0
100
AcDbLine
 10
46.0
 20
143.7579999999999
 30
0.0
 11
46.0
 21
114.2529999999999
 31
0.0
  0
LINE
  5
159
330
1E
100
AcDbEntity
  8
0
100
AcDbLine
 10
45.30917611940299
 20
112.572662686567
 30
0.0
 11
46.0
 21
110.899
 31
0.0
  0
LINE
  5
15A
330
1E
100
AcDbEntity
  8
0
100
AcDbLine
 10
46.0
 20
110.899
 30
0.0
 11
46.0
 21
0.0
 31
0.0
  0
LINE
  5
15B
330
1E
100
AcDbEntity
  8
0
100
AcDbLine
 10
36.0
 20
82.0526
 30
0.0
 11
36.0
 21
84.2504
 31
0.0
  0
LINE
  5
15C
330
1E
100
AcDbEntity
  8
0
100
AcDbLine
 10
36.0
 20
82.0526
 30
0.0
 11
36.0
 21
78.5564
 31
0.0
  0
LINE
  5
15D
330
1E
100
AcDbEntity
  8
0
100
AcDbLine
 10
18.416
 20
80.86530000000001
 30
0.0
 11
22.0
 21
81.0975
 31
0.0
  0
LINE
  5
15E
330
1E
100
AcDbEntity
  8
0
100
AcDbLine
 10
15.056
 20
80.2462
 30
0.0
 11
18.416
 21
80.86530000000001
 31
0.0
  0
LINE
  5
15F
330
1E
100
AcDbEntity
  8
0
100
AcDbLine
 10
12.088
 20
79.21420000000001
 30
0.0
 11
15.056
 21
80.2462
 31
0.0
  0
LINE
  5
160
330
1E
100
AcDbEntity
  8
0
100
AcDbLine
 10
9.847999999999998
 20
77.84690000000001
 30
0.0
 11
12.088
 21
79.21420000000001
 31
0.0
  0
LINE
  5
161
330
1E
100
AcDbEntity
  8
0
100
AcDbLine
 10
8.503999999999999
 20
76.29899999999999
 30
0.0
 11
9.847999999999998
 21
77.84690000000001
 31
0.0
  0
LINE
  5
162
330
1E
100
AcDbEntity
  8
0
100
AcDbLine
 10
8.336
 20
74.41119999999999
 30
0.0
 11
8.839999999999999
 21
72.7776
 31
0.0
  0
LINE
  5
163
330
1E
100
AcDbEntity
  8
0
100
AcDbLine
 10
8.336
 20
74.41119999999999
 30
0.0
 11
8.839999999999999
 21
76.0365
 31
0.0
  0
LINE
  5
164
330
1E
100
AcDbEntity
  8
0
100
AcDbLine
 10
8.503999999999999
 20
72.9885
 30
0.0
 11
9.847999999999998
 21
71.4406
 31
0.0
  0
LINE
  5
165
330
1E
100
AcDbEntity
  8
0
100
AcDbLine
 10
8.0
 20
74.6479
 30
0.0
 11
8.503999999999999
 21
72.9885
 31
0.0
  0
LINE
  5
166
330
1E
100
AcDbEntity
  8
0
100
AcDbLine
 10
8.0
 20
74.6479
 30
0.0
 11
8.0
 21
76.012
 31
0.0
  0
LINE
  5
167
330
1E
100
AcDbEntity
  8
0
100
AcDbLine
 10
8.0
 20
74.6479
 30
0.0
 11
8.503999999999999
 21
76.29899999999999
 31
0.0
  0
LWPOLYLINE
  5
16D
330
1E
100
AcDbEntity
  8
0
100
AcDbPolyline
 90
       11
 70
     0
 43
0.0
 10
8.0
 20
85.0
 10
8.084967374355414
 20
86.80354856675933
 10
8.369381972969222
 20
88.88786953972346
 10
9.276798672341328
 20
91.4458996788357
 10
10.42799973686203
 20
93.5166862875991
 10
12.02912959446734
 20
95.48886054594232
 10
14.3251553891954
 20
97.28679163359345
 10
16.36676663056084
 20
98.46972188240563
 10
18.77298280418949
 20
99.22793549479827
 10
20.72396917132766
 20
99.55288398204197
 10
22.0
 20
99.56000000000001
  0
LWPOLYLINE
  5
16E
330
1E
100
AcDbEntity
  8
0
100
AcDbPolyline
 90
       11
 70
     0
 43
0.0
 10
36.0
 20
85.0
 10
35.91503262564458
 20
86.80354856675933
 10
35.63061802703078
 20
88.88786953972346
 10
34.72320132765867
 20
91.4458996788357
 10
33.57200026313796
 20
93.5166862875991
 10
31.97087040553265
 20
95.48886054594232
 10
29.67484461080459
 20
97.28679163359345
 10
27.63323336943915
 20
98.46972188240563
 10
25.2270171958105
 20
99.22793549479827
 10
23.27603082867233
 20
99.55288398204197
 10
22.0
 20
99.56000000000001
  0
ENDSEC
  0
SECTION
  2
OBJECTS
  0
DICTIONARY
  5
C
330
0
100
AcDbDictionary
  3
ACAD_GROUP
350
D
  3
ACAD_LAYOUT
350
19
  3
ACAD_MLINESTYLE
350
16
  3
ACAD_PLOTSETTINGS
350
18
  3
ACAD_PLOTSTYLENAME
350
E
  3
ACDBHEADERROUNDTRIPXREC
350
197
  3
ACDBVARIABLEDICTIONARY
350
16F
  0
DICTIONARY
  5
1B9
330
1E
100
AcDbDictionary
280
     1
  3
ACAD_LAYOUTSELFREF
360
1BA
  0
DICTIONARY
  5
1B7
330
1A
100
AcDbDictionary
280
     1
  3
ACAD_LAYOUTSELFREF
360
1B8
  0
DICTIONARY
  5
D
102
{ACAD_REACTORS
330
C
102
}
330
C
100
AcDbDictionary
  0
DICTIONARY
  5
19
102
{ACAD_REACTORS
330
C
102
}
330
C
100
AcDbDictionary
  0
DICTIONARY
  5
16
102
{ACAD_REACTORS
330
C
102
}
330
C
100
AcDbDictionary
  3
STANDARD
350
17
  0
DICTIONARY
  5
18
102
{ACAD_REACTORS
330
C
102
}
330
C
100
AcDbDictionary
  0
ACDBDICTIONARYWDFLT
  5
E
102
{ACAD_REACTORS
330
C
102
}
330
C
100
AcDbDictionary
281
     1
  3
Normal
350
F
100
AcDbDictionaryWithDefault
340
F
  0
DICTIONARY
  5
197
102
{ACAD_REACTORS
330
C
102
}
330
C
100
AcDbDictionary
  3
CEPSNTYPE
350
1A1
  3
FINGERPRINTGUID
350
1A2
  3
HYPERLINKBASE
350
19A
  3
INSUNITS
350
1A0
  3
LAYOUTDICT
350
19C
  3
LWETCUNION
350
19F
  3
PLOTSETDICT
350
19D
  3
PLOTSTYLNAMDICT
350
19E
  3
PSVPSCALE
350
1A4
  3
PUCSBASE
350
1A7
  3
PUCSORGBACK
350
1AD
  3
PUCSORGBOTTOM
350
1A9
  3
PUCSORGFRONT
350
1AC
  3
PUCSORGLEFT
350
1AA
  3
PUCSORGRIGHT
350
1AB
  3
PUCSORGTOP
350
1A8
  3
PUCSORTHOREF
350
1A5
  3
PUCSORTHOVIEW
350
1A6
  3
STYLESHEET
350
19B
  3
TSTACKALIGN
350
198
  3
TSTACKSIZE
350
199
  3
UCSBASE
350
1B0
  3
UCSORGBACK
350
1B6
  3
UCSORGBOTTOM
350
1B2
  3
UCSORGFRONT
350
1B5
  3
UCSORGLEFT
350
1B3
  3
UCSORGRIGHT
350
1B4
  3
UCSORGTOP
350
1B1
  3
UCSORTHOREF
350
1AE
  3
UCSORTHOVIEW
350
1AF
  3
VERSIONGUID
350
1A3
  0
DICTIONARY
  5
16F
102
{ACAD_REACTORS
330
C
102
}
330
C
100
AcDbDictionary
  3
DIMASSOC
350
170
  0
XRECORD
  5
1BA
102
{ACAD_REACTORS
330
1B9
102
}
330
1B9
100
AcDbXrecord
340
1E
  0
XRECORD
  5
1B8
102
{ACAD_REACTORS
330
1B7
102
}
330
1B7
100
AcDbXrecord
340
1A
  0
MLINESTYLE
  5
17
102
{ACAD_REACTORS
330
16
102
}
330
16
100
AcDbMlineStyle
  2
STANDARD
 70
     0
  3

 62
   256
 51
90.0
 52
90.0
 71
     2
 49
0.5
 62
   256
  6
BYLAYER
 49
-0.5
 62
   256
  6
BYLAYER
  0
ACDBPLACEHOLDER
  5
F
102
{ACAD_REACTORS
330
E
102
}
330
E
100
AcDbPlaceHolder
280
     0
  0
XRECORD
  5
1A1
102
{ACAD_REACTORS
330
197
102
}
330
197
100
AcDbXrecord
 90
        0
  0
XRECORD
  5
1A2
102
{ACAD_REACTORS
330
197
102
}
330
197
100
AcDbXrecord
  1
{AD1517DD-96A8-465B-B3E6-9F5414DBD2A1}
  0
XRECORD
  5
19A
102
{ACAD_REACTORS
330
197
102
}
330
197
100
AcDbXrecord
  1

  0
XRECORD
  5
1A0
102
{ACAD_REACTORS
330
197
102
}
330
197
100
AcDbXrecord
 90
        0
  0
XRECORD
  5
19C
102
{ACAD_REACTORS
330
197
102
}
330
197
100
AcDbXrecord
340
19
  0
XRECORD
  5
19F
102
{ACAD_REACTORS
330
197
102
}
330
197
100
AcDbXrecord
 90
    10781
  0
XRECORD
  5
19D
102
{ACAD_REACTORS
330
197
102
}
330
197
100
AcDbXrecord
340
18
  0
XRECORD
  5
19E
102
{ACAD_REACTORS
330
197
102
}
330
197
100
AcDbXrecord
340
E
  0
XRECORD
  5
1A4
102
{ACAD_REACTORS
330
197
102
}
330
197
100
AcDbXrecord
 40
0.0
  0
XRECORD
  5
1A7
102
{ACAD_REACTORS
330
197
102
}
330
197
100
AcDbXrecord
340
0
  0
XRECORD
  5
1AD
102
{ACAD_REACTORS
330
197
102
}
330
197
100
AcDbXrecord
 10
0.0
 20
0.0
 30
0.0
  0
XRECORD
  5
1A9
102
{ACAD_REACTORS
330
197
102
}
330
197
100
AcDbXrecord
 10
0.0
 20
0.0
 30
0.0
  0
XRECORD
  5
1AC
102
{ACAD_REACTORS
330
197
102
}
330
197
100
AcDbXrecord
 10
0.0
 20
0.0
 30
0.0
  0
XRECORD
  5
1AA
102
{ACAD_REACTORS
330
197
102
}
330
197
100
AcDbXrecord
 10
0.0
 20
0.0
 30
0.0
  0
XRECORD
  5
1AB
102
{ACAD_REACTORS
330
197
102
}
330
197
100
AcDbXrecord
 10
0.0
 20
0.0
 30
0.0
  0
XRECORD
  5
1A8
102
{ACAD_REACTORS
330
197
102
}
330
197
100
AcDbXrecord
 10
0.0
 20
0.0
 30
0.0
  0
XRECORD
  5
1A5
102
{ACAD_REACTORS
330
197
102
}
330
197
100
AcDbXrecord
340
0
  0
XRECORD
  5
1A6
102
{ACAD_REACTORS
330
197
102
}
330
197
100
AcDbXrecord
 70
     0
  0
XRECORD
  5
19B
102
{ACAD_REACTORS
330
197
102
}
330
197
100
AcDbXrecord
  1

  0
XRECORD
  5
198
102
{ACAD_REACTORS
330
197
102
}
330
197
100
AcDbXrecord
 90
        1
  0
XRECORD
  5
199
102
{ACAD_REACTORS
330
197
102
}
330
197
100
AcDbXrecord
 90
       70
  0
XRECORD
  5
1B0
102
{ACAD_REACTORS
330
197
102
}
330
197
100
AcDbXrecord
340
0
  0
XRECORD
  5
1B6
102
{ACAD_REACTORS
330
197
102
}
330
197
100
AcDbXrecord
 10
0.0
 20
0.0
 30
0.0
  0
XRECORD
  5
1B2
102
{ACAD_REACTORS
330
197
102
}
330
197
100
AcDbXrecord
 10
0.0
 20
0.0
 30
0.0
  0
XRECORD
  5
1B5
102
{ACAD_REACTORS
330
197
102
}
330
197
100
AcDbXrecord
 10
0.0
 20
0.0
 30
0.0
  0
XRECORD
  5
1B3
102
{ACAD_REACTORS
330
197
102
}
330
197
100
AcDbXrecord
 10
0.0
 20
0.0
 30
0.0
  0
XRECORD
  5
1B4
102
{ACAD_REACTORS
330
197
102
}
330
197
100
AcDbXrecord
 10
0.0
 20
0.0
 30
0.0
  0
XRECORD
  5
1B1
102
{ACAD_REACTORS
330
197
102
}
330
197
100
AcDbXrecord
 10
0.0
 20
0.0
 30
0.0
  0
XRECORD
  5
1AE
102
{ACAD_REACTORS
330
197
102
}
330
197
100
AcDbXrecord
340
0
  0
XRECORD
  5
1AF
102
{ACAD_REACTORS
330
197
102
}
330
197
100
AcDbXrecord
 70
     1
  0
XRECORD
  5
1A3
102
{ACAD_REACTORS
330
197
102
}
330
197
100
AcDbXrecord
  1
{9D1EED76-F4C1-4F15-BA3A-FDB062A49381}
  0
DICTIONARYVAR
  5
170
102
{ACAD_REACTORS
330
16F
102
}
330
16F
100
DictionaryVariables
280
     0
  1
1
  0
ENDSEC
  0
EOF
