  0
SECTION
  2
HEADER
  9
$ACADVER
  1
AC1012
  9
$DWGCODEPAGE
  3
ANSI_1252
  9
$INSBASE
 10
0.0
 20
0.0
 30
0.0
  9
$EXTMIN
 10
-0.208342500000001
 20
-0.0000000000000046
 30
0.0
  9
$EXTMAX
 10
145.2083425
 20
152.0
 30
0.0
  9
$LIMMIN
 10
0.0
 20
0.0
  9
$LIMMAX
 10
12.0
 20
9.0
  9
$ORTHOMODE
 70
     0
  9
$REGENMODE
 70
     1
  9
$FILLMODE
 70
     1
  9
$QTEXTMODE
 70
     0
  9
$MIRRTEXT
 70
     1
  9
$DRAGMODE
 70
     2
  9
$LTSCALE
 40
1.0
  9
$OSMODE
 70
    37
  9
$ATTMODE
 70
     1
  9
$TEXTSIZE
 40
0.2
  9
$TRACEWID
 40
0.05
  9
$TEXTSTYLE
  7
STANDARD
  9
$CLAYER
  8
0
  9
$CELTYPE
  6
CONTINUOUS
  9
$CECOLOR
 62
   256
  9
$CELTSCALE
 40
1.0
  9
$DELOBJ
 70
     1
  9
$DISPSILH
 70
     0
  9
$DIMSCALE
 40
1.0
  9
$DIMASZ
 40
0.18
  9
$DIMEXO
 40
0.0625
  9
$DIMDLI
 40
0.38
  9
$DIMRND
 40
0.0
  9
$DIMDLE
 40
0.0
  9
$DIMEXE
 40
0.18
  9
$DIMTP
 40
0.0
  9
$DIMTM
 40
0.0
  9
$DIMTXT
 40
0.18
  9
$DIMCEN
 40
0.09
  9
$DIMTSZ
 40
0.0
  9
$DIMTOL
 70
     0
  9
$DIMLIM
 70
     0
  9
$DIMTIH
 70
     1
  9
$DIMTOH
 70
     1
  9
$DIMSE1
 70
     0
  9
$DIMSE2
 70
     0
  9
$DIMTAD
 70
     0
  9
$DIMZIN
 70
     0
  9
$DIMBLK
  1

  9
$DIMASO
 70
     1
  9
$DIMSHO
 70
     1
  9
$DIMPOST
  1

  9
$DIMAPOST
  1

  9
$DIMALT
 70
     0
  9
$DIMALTD
 70
     2
  9
$DIMALTF
 40
25.4
  9
$DIMLFAC
 40
1.0
  9
$DIMTOFL
 70
     0
  9
$DIMTVP
 40
0.0
  9
$DIMTIX
 70
     0
  9
$DIMSOXD
 70
     0
  9
$DIMSAH
 70
     0
  9
$DIMBLK1
  1

  9
$DIMBLK2
  1

  9
$DIMSTYLE
  2
STANDARD
  9
$DIMCLRD
 70
     0
  9
$DIMCLRE
 70
     0
  9
$DIMCLRT
 70
     0
  9
$DIMTFAC
 40
1.0
  9
$DIMGAP
 40
0.09
  9
$DIMJUST
 70
     0
  9
$DIMSD1
 70
     0
  9
$DIMSD2
 70
     0
  9
$DIMTOLJ
 70
     1
  9
$DIMTZIN
 70
     0
  9
$DIMALTZ
 70
     0
  9
$DIMALTTZ
 70
     0
  9
$DIMFIT
 70
     3
  9
$DIMUPT
 70
     0
  9
$DIMUNIT
 70
     2
  9
$DIMDEC
 70
     4
  9
$DIMTDEC
 70
     4
  9
$DIMALTU
 70
     2
  9
$DIMALTTD
 70
     2
  9
$DIMTXSTY
  7
STANDARD
  9
$DIMAUNIT
 70
     0
  9
$LUNITS
 70
     2
  9
$LUPREC
 70
     4
  9
$SKETCHINC
 40
0.1
  9
$FILLETRAD
 40
0.0
  9
$AUNITS
 70
     0
  9
$AUPREC
 70
     0
  9
$MENU
  1
.
  9
$ELEVATION
 40
0.0
  9
$PELEVATION
 40
0.0
  9
$THICKNESS
 40
0.0
  9
$LIMCHECK
 70
     0
  9
$BLIPMODE
 70
     0
  9
$CHAMFERA
 40
0.0
  9
$CHAMFERB
 40
0.0
  9
$CHAMFERC
 40
0.0
  9
$CHAMFERD
 40
0.0
  9
$SKPOLY
 70
     0
  9
$TDCREATE
 40
2454697.321753102
  9
$TDUPDATE
 40
2454697.322877419
  9
$TDINDWG
 40
0.0011245023
  9
$TDUSRTIMER
 40
0.0011245023
  9
$USRTIMER
 70
     1
  9
$ANGBASE
 50
0.0
  9
$ANGDIR
 70
     0
  9
$PDMODE
 70
     0
  9
$PDSIZE
 40
0.0
  9
$PLINEWID
 40
0.0
  9
$COORDS
 70
     1
  9
$SPLFRAME
 70
     0
  9
$SPLINETYPE
 70
     6
  9
$SPLINESEGS
 70
     8
  9
$ATTDIA
 70
     0
  9
$ATTREQ
 70
     1
  9
$HANDLING
 70
 22529
  9
$HANDSEED
  5
18C
  9
$SURFTAB1
 70
     6
  9
$SURFTAB2
 70
     6
  9
$SURFTYPE
 70
     6
  9
$SURFU
 70
     6
  9
$SURFV
 70
     6
  9
$UCSNAME
  2

  9
$UCSORG
 10
0.0
 20
0.0
 30
0.0
  9
$UCSXDIR
 10
1.0
 20
0.0
 30
0.0
  9
$UCSYDIR
 10
0.0
 20
1.0
 30
0.0
  9
$PUCSNAME
  2

  9
$PUCSORG
 10
0.0
 20
0.0
 30
0.0
  9
$PUCSXDIR
 10
1.0
 20
0.0
 30
0.0
  9
$PUCSYDIR
 10
0.0
 20
1.0
 30
0.0
  9
$USERI1
 70
     0
  9
$USERI2
 70
     0
  9
$USERI3
 70
     0
  9
$USERI4
 70
     0
  9
$USERI5
 70
     0
  9
$USERR1
 40
0.0
  9
$USERR2
 40
0.0
  9
$USERR3
 40
0.0
  9
$USERR4
 40
0.0
  9
$USERR5
 40
0.0
  9
$WORLDVIEW
 70
     1
  9
$SHADEDGE
 70
     3
  9
$SHADEDIF
 70
    70
  9
$TILEMODE
 70
     1
  9
$MAXACTVP
 70
    64
  9
$PINSBASE
 10
0.0
 20
0.0
 30
0.0
  9
$PLIMCHECK
 70
     0
  9
$PEXTMIN
 10
1.000000000000000E+20
 20
1.000000000000000E+20
 30
1.000000000000000E+20
  9
$PEXTMAX
 10
-1.000000000000000E+20
 20
-1.000000000000000E+20
 30
-1.000000000000000E+20
  9
$PLIMMIN
 10
0.0
 20
0.0
  9
$PLIMMAX
 10
12.0
 20
9.0
  9
$UNITMODE
 70
     0
  9
$VISRETAIN
 70
     1
  9
$PLINEGEN
 70
     0
  9
$PSLTSCALE
 70
     1
  9
$TREEDEPTH
 70
  3020
  9
$PICKSTYLE
 70
     1
  9
$CMLSTYLE
  2
STANDARD
  9
$CMLJUST
 70
     0
  9
$CMLSCALE
 40
1.0
  9
$SAVEIMAGES
 70
     1
  0
ENDSEC
  0
SECTION
  2
CLASSES
  0
CLASS
  1
ACDBDICTIONARYWDFLT
  2
AcDbDictionaryWithDefault
  3
AutoCAD 2000
 90
    32768
280
     0
281
     0
  0
CLASS
  1
ACDBPLACEHOLDER
  2
AcDbPlaceHolder
  3
AutoCAD 2000
 90
    32768
280
     0
281
     0
  0
CLASS
  1
LAYOUT
  2
AcDbLayout
  3
AutoCAD 2000
 90
    32768
280
     0
281
     0
  0
CLASS
  1
DICTIONARYVAR
  2
AcDbDictionaryVar
  3
AutoCAD 2000
 90
    32768
280
     0
281
     0
  0
CLASS
  1
LONG_TRANSACTION
  2
AcDbLongTransaction
  3
AutoCAD 2000
 90
    32768
280
     0
281
     0
  0
CLASS
  1
LWPOLYLINE
  2
AcDbPolyline
  3
AutoCAD 2000
 90
    32768
280
     0
281
     1
  0
CLASS
  1
HATCH
  2
AcDbHatch
  3
AutoCAD 2000
 90
    32768
280
     0
281
     1
  0
CLASS
  1
XRECORD
  2
AcDbXrecord
  3
AutoCAD 2000
 90
    32768
280
     0
281
     0
  0
ENDSEC
  0
SECTION
  2
TABLES
  0
TABLE
  2
VPORT
  5
8
330
0
100
AcDbSymbolTable
 70
     4
  0
VPORT
  5
187
330
8
100
AcDbSymbolTableRecord
100
AcDbViewportTableRecord
  2
*ACTIVE
 70
     0
 10
0.0
 20
0.0
 11
1.0
 21
1.0
 12
72.50000000000001
 22
76.0
 13
0.0
 23
0.0
 14
1.0
 24
1.0
 15
0.0
 25
0.0
 16
0.0
 26
0.0
 36
1.0
 17
0.0
 27
0.0
 37
0.0
 40
153.1662404092071
 41
2.078104993597951
 42
50.0
 43
0.0
 44
0.0
 50
0.0
 51
0.0
 71
     0
 72
   100
 73
     1
 74
     3
 75
     0
 76
     0
 77
     0
 78
     0
  0
ENDTAB
  0
TABLE
  2
LTYPE
  5
5
330
0
100
AcDbSymbolTable
 70
     1
  0
LTYPE
  5
13
330
5
100
AcDbSymbolTableRecord
100
AcDbLinetypeTableRecord
  2
BYBLOCK
 70
     0
  3

 72
    65
 73
     0
 40
0.0
  0
LTYPE
  5
14
330
5
100
AcDbSymbolTableRecord
100
AcDbLinetypeTableRecord
  2
BYLAYER
 70
     0
  3

 72
    65
 73
     0
 40
0.0
  0
LTYPE
  5
15
330
5
100
AcDbSymbolTableRecord
100
AcDbLinetypeTableRecord
  2
CONTINUOUS
 70
     0
  3
Solid line
 72
    65
 73
     0
 40
0.0
  0
ENDTAB
  0
TABLE
  2
LAYER
  5
2
330
0
100
AcDbSymbolTable
 70
     1
  0
LAYER
  5
10
330
2
100
AcDbSymbolTableRecord
100
AcDbLayerTableRecord
  2
0
 70
     0
 62
     7
  6
CONTINUOUS
  0
ENDTAB
  0
TABLE
  2
STYLE
  5
3
330
0
100
AcDbSymbolTable
 70
     1
  0
STYLE
  5
11
330
3
100
AcDbSymbolTableRecord
100
AcDbTextStyleTableRecord
  2
STANDARD
 70
     0
 40
0.0
 41
1.0
 50
0.0
 71
     0
 42
0.2
  3
txt
  4

  0
ENDTAB
  0
TABLE
  2
VIEW
  5
6
330
0
100
AcDbSymbolTable
 70
     0
  0
ENDTAB
  0
TABLE
  2
UCS
  5
7
330
0
100
AcDbSymbolTable
 70
     0
  0
ENDTAB
  0
TABLE
  2
APPID
  5
9
330
0
100
AcDbSymbolTable
 70
     1
  0
APPID
  5
12
330
9
100
AcDbSymbolTableRecord
100
AcDbRegAppTableRecord
  2
ACAD
 70
     0
  0
ENDTAB
  0
TABLE
  2
DIMSTYLE
  5
A
330
0
100
AcDbSymbolTable
 70
     1
  0
DIMSTYLE
105
175
330
A
100
AcDbSymbolTableRecord
100
AcDbDimStyleTableRecord
  2
STANDARD
 70
     0
  3

  4

  5

  6

  7

 40
1.0
 41
0.18
 42
0.0625
 43
0.38
 44
0.18
 45
0.0
 46
0.0
 47
0.0
 48
0.0
140
0.18
141
0.09
142
0.0
143
25.4
144
1.0
145
0.0
146
1.0
147
0.09
 71
     0
 72
     0
 73
     1
 74
     1
 75
     0
 76
     0
 77
     0
 78
     0
170
     0
171
     2
172
     0
173
     0
174
     0
175
     0
176
     0
177
     0
178
     0
270
     2
271
     4
272
     4
273
     2
274
     2
340
11
275
     0
280
     0
281
     0
282
     0
283
     1
284
     0
285
     0
286
     0
287
     3
288
     0
  0
ENDTAB
  0
TABLE
  2
BLOCK_RECORD
  5
1
330
0
100
AcDbSymbolTable
 70
     0
  0
BLOCK_RECORD
  5
1E
102
{ACAD_XDICTIONARY
360
18A
102
}
330
1
100
AcDbSymbolTableRecord
100
AcDbBlockTableRecord
  2
*MODEL_SPACE
  0
BLOCK_RECORD
  5
1A
102
{ACAD_XDICTIONARY
360
188
102
}
330
1
100
AcDbSymbolTableRecord
100
AcDbBlockTableRecord
  2
*PAPER_SPACE
  0
ENDTAB
  0
ENDSEC
  0
SECTION
  2
BLOCKS
  0
BLOCK
  5
1F
330
1E
100
AcDbEntity
  8
0
100
AcDbBlockBegin
  2
*MODEL_SPACE
 70
     0
 10
0.0
 20
0.0
 30
0.0
  3
*MODEL_SPACE
  1

  0
ENDBLK
  5
20
330
1E
100
AcDbEntity
  8
0
100
AcDbBlockEnd
  0
BLOCK
  5
1B
330
1A
100
AcDbEntity
 67
     1
  8
0
100
AcDbBlockBegin
  2
*PAPER_SPACE
 70
     0
 10
0.0
 20
0.0
 30
0.0
  3
*PAPER_SPACE
  1

  0
ENDBLK
  5
1C
330
1A
100
AcDbEntity
 67
     1
  8
0
100
AcDbBlockEnd
  0
ENDSEC
  0
SECTION
  2
ENTITIES
  0
LINE
  5
22
330
1E
100
AcDbEntity
  8
0
100
AcDbLine
 10
23.5354425
 20
65.17279999999999
 30
0.0
 11
23.94464249999999
 21
65.03440000000001
 31
0.0
  0
LINE
  5
23
330
1E
100
AcDbEntity
  8
0
100
AcDbLine
 10
23.94464249999999
 20
65.03440000000001
 30
0.0
 11
24.33764249999999
 21
65.2974
 31
0.0
  0
LINE
  5
24
330
1E
100
AcDbEntity
  8
0
100
AcDbLine
 10
18.3518425
 20
66.9259
 30
0.0
 11
20.6708425
 21
66.1416
 31
0.0
  0
LINE
  5
25
330
1E
100
AcDbEntity
  8
0
100
AcDbLine
 10
18.60834249999999
 20
67.235
 30
0.0
 11
21.0183425
 21
66.41989999999999
 31
0.0
  0
LINE
  5
26
330
1E
100
AcDbEntity
  8
0
100
AcDbLine
 10
22.44414249999999
 20
65.5419
 30
0.0
 11
23.5354425
 21
65.17279999999999
 31
0.0
  0
LINE
  5
27
330
1E
100
AcDbEntity
  8
0
100
AcDbLine
 10
23.92834249999999
 20
65.4358
 30
0.0
 11
24.33764249999999
 21
65.2974
 31
0.0
  0
LINE
  5
28
330
1E
100
AcDbEntity
  8
0
100
AcDbLine
 10
22.8371425
 20
65.8048
 30
0.0
 11
23.92834249999999
 21
65.4358
 31
0.0
  0
LINE
  5
29
330
1E
100
AcDbEntity
  8
0
100
AcDbLine
 10
21.0183425
 20
66.41989999999999
 30
0.0
 11
22.8371425
 21
65.8048
 31
0.0
  0
LINE
  5
2A
330
1E
100
AcDbEntity
  8
0
100
AcDbLine
 10
20.6708425
 20
66.1416
 30
0.0
 11
22.44414249999999
 21
65.5419
 31
0.0
  0
LINE
  5
2B
330
1E
100
AcDbEntity
  8
0
100
AcDbLine
 10
15.88014249999999
 20
68.1576
 30
0.0
 11
18.60834249999999
 21
67.235
 31
0.0
  0
LINE
  5
2C
330
1E
100
AcDbEntity
  8
0
100
AcDbLine
 10
15.71454249999999
 20
67.81780000000001
 30
0.0
 11
18.3518425
 21
66.9259
 31
0.0
  0
LINE
  5
2D
330
1E
100
AcDbEntity
  8
0
100
AcDbLine
 10
12.8499425
 20
68.7866
 30
0.0
 11
15.71454249999999
 21
67.81780000000001
 31
0.0
  0
LINE
  5
2E
330
1E
100
AcDbEntity
  8
0
100
AcDbLine
 10
24.33764249999999
 20
65.2974
 30
0.0
 11
25.5813368945636
 21
68.97491982529999
 31
0.0
  0
LINE
  5
2F
330
1E
100
AcDbEntity
  8
0
100
AcDbLine
 10
27.12594249999999
 20
68.47069999999999
 30
0.0
 11
27.5613425
 21
68.2562
 31
0.0
  0
LINE
  5
30
330
1E
100
AcDbEntity
  8
0
100
AcDbLine
 10
27.1728425
 20
68.1557
 30
0.0
 11
27.5613425
 21
68.2562
 31
0.0
  0
LINE
  5
31
330
1E
100
AcDbEntity
  8
0
100
AcDbLine
 10
26.73074249999999
 20
68.3835
 30
0.0
 11
27.1728425
 21
68.1557
 31
0.0
  0
LINE
  5
32
330
1E
100
AcDbEntity
  8
0
100
AcDbLine
 10
1.755262499999999
 20
72.5387
 30
0.0
 11
2.164492499999999
 21
72.4003
 31
0.0
  0
LINE
  5
33
330
1E
100
AcDbEntity
  8
0
100
AcDbLine
 10
2.164492499999999
 20
72.4003
 30
0.0
 11
3.255772499999999
 21
72.0313
 31
0.0
  0
LINE
  5
34
330
1E
100
AcDbEntity
  8
0
100
AcDbLine
 10
-0.0220424999999972
 20
138.975
 30
0.0
 11
0.186057500000003
 21
138.4349999999999
 31
0.0
  0
LINE
  5
35
330
1E
100
AcDbEntity
  8
0
100
AcDbLine
 10
-0.208342500000001
 20
139.561
 30
0.0
 11
58.7591228426575
 21
140.200283392675
 31
0.0
  0
LINE
  5
36
330
1E
100
AcDbEntity
  8
0
100
AcDbLine
 10
-0.183742499999997
 20
139.4749999999999
 30
0.0
 11
-0.0220424999999972
 21
138.975
 31
0.0
  0
LINE
  5
37
330
1E
100
AcDbEntity
  8
0
100
AcDbLine
 10
-0.183742499999997
 20
139.4749999999999
 30
0.0
 11
-0.0220424999999972
 21
138.975
 31
0.0
  0
LINE
  5
38
330
1E
100
AcDbEntity
  8
0
100
AcDbLine
 10
-0.208342499999997
 20
139.561
 30
0.0
 11
58.7591228426575
 21
140.200283392675
 31
0.0
  0
LINE
  5
39
330
1E
100
AcDbEntity
  8
0
100
AcDbLine
 10
-0.208342499999997
 20
139.561
 30
0.0
 11
-0.183742499999997
 21
139.4749999999999
 31
0.0
  0
LINE
  5
3A
330
1E
100
AcDbEntity
  8
0
100
AcDbLine
 10
-0.0220424999999972
 20
138.975
 30
0.0
 11
0.186057500000003
 21
138.4349999999999
 31
0.0
  0
LINE
  5
3B
330
1E
100
AcDbEntity
  8
0
100
AcDbLine
 10
0.5305575000000031
 20
137.7019999999999
 30
0.0
 11
1.1448575
 21
136.6719999999999
 31
0.0
  0
LINE
  5
3C
330
1E
100
AcDbEntity
  8
0
100
AcDbLine
 10
0.5305575000000031
 20
137.7019999999999
 30
0.0
 11
1.1448575
 21
136.6719999999999
 31
0.0
  0
LINE
  5
3D
330
1E
100
AcDbEntity
  8
0
100
AcDbLine
 10
0.186057500000003
 20
138.4349999999999
 30
0.0
 11
0.5305575000000031
 21
137.7019999999999
 31
0.0
  0
LINE
  5
3E
330
1E
100
AcDbEntity
  8
0
100
AcDbLine
 10
1.1448575
 20
136.6719999999999
 30
0.0
 11
1.9735625
 21
135.6109999999999
 31
0.0
  0
LINE
  5
3F
330
1E
100
AcDbEntity
  8
0
100
AcDbLine
 10
1.9735625
 20
135.6109999999999
 30
0.0
 11
2.9591625
 21
134.6249999999999
 31
0.0
  0
LINE
  5
40
330
1E
100
AcDbEntity
  8
0
100
AcDbLine
 10
1.6025825
 20
72.98619999999999
 30
0.0
 11
4.02748310902585
 21
80.15637333419219
 31
0.0
  0
LINE
  5
41
330
1E
100
AcDbEntity
  8
0
100
AcDbLine
 10
1.6025825
 20
72.98619999999999
 30
0.0
 11
2.0118125
 21
72.84780000000001
 31
0.0
  0
LINE
  5
42
330
1E
100
AcDbEntity
  8
0
100
AcDbLine
 10
1.6025825
 20
72.98619999999999
 30
0.0
 11
4.02748310902585
 21
80.15637333419219
 31
0.0
  0
LINE
  5
43
330
1E
100
AcDbEntity
  8
0
100
AcDbLine
 10
1.6025825
 20
72.98619999999999
 30
0.0
 11
1.755262499999999
 21
72.5387
 31
0.0
  0
LINE
  5
44
330
1E
100
AcDbEntity
  8
0
100
AcDbLine
 10
2.0118125
 20
72.84780000000001
 30
0.0
 11
3.103092499999999
 21
72.47880000000001
 31
0.0
  0
LINE
  5
45
330
1E
100
AcDbEntity
  8
0
100
AcDbLine
 10
7.348082499999999
 20
70.6473
 30
0.0
 11
9.985342499999999
 21
69.75539999999999
 31
0.0
  0
LINE
  5
46
330
1E
100
AcDbEntity
  8
0
100
AcDbLine
 10
9.985342499999999
 20
69.75539999999999
 30
0.0
 11
12.8499425
 21
68.7866
 31
0.0
  0
LINE
  5
47
330
1E
100
AcDbEntity
  8
0
100
AcDbLine
 10
3.255772499999999
 20
72.0313
 30
0.0
 11
5.0291025
 21
71.4315
 31
0.0
  0
LINE
  5
48
330
1E
100
AcDbEntity
  8
0
100
AcDbLine
 10
3.103092499999999
 20
72.47880000000001
 30
0.0
 11
4.9218925
 21
71.8636
 31
0.0
  0
LINE
  5
49
330
1E
100
AcDbEntity
  8
0
100
AcDbLine
 10
5.0291025
 20
71.4315
 30
0.0
 11
7.348082499999999
 21
70.6473
 31
0.0
  0
LINE
  5
4A
330
1E
100
AcDbEntity
  8
0
100
AcDbLine
 10
4.9218925
 20
71.8636
 30
0.0
 11
7.331802499999999
 21
71.04859999999999
 31
0.0
  0
LINE
  5
4B
330
1E
100
AcDbEntity
  8
0
100
AcDbLine
 10
7.331802499999999
 20
71.04859999999999
 30
0.0
 11
10.06001249999999
 21
70.126
 31
0.0
  0
LINE
  5
4C
330
1E
100
AcDbEntity
  8
0
100
AcDbLine
 10
12.9701425
 20
69.1418
 30
0.0
 11
15.88014249999999
 21
68.1576
 31
0.0
  0
LINE
  5
4D
330
1E
100
AcDbEntity
  8
0
100
AcDbLine
 10
10.06001249999999
 20
70.126
 30
0.0
 11
12.9701425
 21
69.1418
 31
0.0
  0
LINE
  5
4E
330
1E
100
AcDbEntity
  8
0
100
AcDbLine
 10
9.0819725
 20
77.5328
 30
0.0
 11
11.9647425
 21
76.0365
 31
0.0
  0
LINE
  5
4F
330
1E
100
AcDbEntity
  8
0
100
AcDbLine
 10
11.9647425
 20
76.0365
 30
0.0
 11
15.0961425
 21
74.41119999999999
 31
0.0
  0
LINE
  5
50
330
1E
100
AcDbEntity
  8
0
100
AcDbLine
 10
4.608652499999999
 20
79.85469999999999
 30
0.0
 11
6.5470925
 21
78.8486
 31
0.0
  0
LINE
  5
51
330
1E
100
AcDbEntity
  8
0
100
AcDbLine
 10
4.4332925
 20
80.2462
 30
0.0
 11
6.421432499999999
 21
79.21420000000001
 31
0.0
  0
LINE
  5
52
330
1E
100
AcDbEntity
  8
0
100
AcDbLine
 10
6.5470925
 20
78.8486
 30
0.0
 11
9.0819725
 21
77.5328
 31
0.0
  0
LINE
  5
53
330
1E
100
AcDbEntity
  8
0
100
AcDbLine
 10
6.421432499999999
 20
79.21420000000001
 30
0.0
 11
9.0557125
 21
77.84690000000001
 31
0.0
  0
LINE
  5
54
330
1E
100
AcDbEntity
  8
0
100
AcDbLine
 10
9.0557125
 20
77.84690000000001
 30
0.0
 11
12.0379425
 21
76.29899999999999
 31
0.0
  0
LINE
  5
55
330
1E
100
AcDbEntity
  8
0
100
AcDbLine
 10
12.0379425
 20
76.29899999999999
 30
0.0
 11
15.21894249999999
 21
74.6479
 31
0.0
  0
LINE
  5
56
330
1E
100
AcDbEntity
  8
0
100
AcDbLine
 10
15.0961425
 20
74.41119999999999
 30
0.0
 11
18.27524249999999
 21
72.7776
 31
0.0
  0
LINE
  5
57
330
1E
100
AcDbEntity
  8
0
100
AcDbLine
 10
21.1580425
 20
71.2813
 30
0.0
 11
23.69294249999999
 21
69.96559999999999
 31
0.0
  0
LINE
  5
58
330
1E
100
AcDbEntity
  8
0
100
AcDbLine
 10
18.27524249999999
 20
72.7776
 30
0.0
 11
21.1580425
 21
71.2813
 31
0.0
  0
LINE
  5
59
330
1E
100
AcDbEntity
  8
0
100
AcDbLine
 10
24.1586665217812
 20
69.71245674506061
 30
0.0
 11
25.55844249999999
 21
68.9867
 31
0.0
  0
LINE
  5
5A
330
1E
100
AcDbEntity
  8
0
100
AcDbLine
 10
25.55844249999999
 20
68.9867
 30
0.0
 11
26.73074249999999
 21
68.3835
 31
0.0
  0
LINE
  5
5B
330
1E
100
AcDbEntity
  8
0
100
AcDbLine
 10
23.69294249999999
 20
69.96559999999999
 30
0.0
 11
25.55844249999999
 21
68.9867
 31
0.0
  0
LINE
  5
5C
330
1E
100
AcDbEntity
  8
0
100
AcDbLine
 10
25.95364249999999
 20
69.09399999999999
 30
0.0
 11
27.12594249999999
 21
68.47069999999999
 31
0.0
  0
LINE
  5
5D
330
1E
100
AcDbEntity
  8
0
100
AcDbLine
 10
24.0642425
 20
70.0733
 30
0.0
 11
25.95364249999999
 21
69.09399999999999
 31
0.0
  0
LINE
  5
5E
330
1E
100
AcDbEntity
  8
0
100
AcDbLine
 10
21.4300425
 20
71.4406
 30
0.0
 11
24.0642425
 21
70.0733
 31
0.0
  0
LINE
  5
5F
330
1E
100
AcDbEntity
  8
0
100
AcDbLine
 10
18.4477425
 20
72.9885
 30
0.0
 11
21.4300425
 21
71.4406
 31
0.0
  0
LINE
  5
60
330
1E
100
AcDbEntity
  8
0
100
AcDbLine
 10
15.21894249999999
 20
74.6479
 30
0.0
 11
18.4477425
 21
72.9885
 31
0.0
  0
LINE
  5
61
330
1E
100
AcDbEntity
  8
0
100
AcDbLine
 10
2.9591625
 20
134.6249999999999
 30
0.0
 11
4.273232499999999
 21
133.647
 31
0.0
  0
LINE
  5
62
330
1E
100
AcDbEntity
  8
0
100
AcDbLine
 10
3.2404025
 20
80.86530000000001
 30
0.0
 11
4.4332925
 21
80.2462
 31
0.0
  0
LINE
  5
63
330
1E
100
AcDbEntity
  8
0
100
AcDbLine
 10
4.411272499999999
 20
83.7094
 30
0.0
 11
7.938502499999999
 21
88.45579999999999
 31
0.0
  0
LINE
  5
64
330
1E
100
AcDbEntity
  8
0
100
AcDbLine
 10
7.938502499999999
 20
88.45579999999999
 30
0.0
 11
15.3943425
 21
94.1769
 31
0.0
  0
LINE
  5
65
330
1E
100
AcDbEntity
  8
0
100
AcDbLine
 10
5.710002499999999
 20
132.7889999999999
 30
0.0
 11
7.491562499999999
 21
132.147
 31
0.0
  0
LINE
  5
66
330
1E
100
AcDbEntity
  8
0
100
AcDbLine
 10
7.491562499999999
 20
132.147
 30
0.0
 11
9.1206525
 21
131.874
 31
0.0
  0
LINE
  5
67
330
1E
100
AcDbEntity
  8
0
100
AcDbLine
 10
10.0927125
 20
131.786
 30
0.0
 11
50.095102484955
 21
131.9949795094609
 31
0.0
  0
LINE
  5
68
330
1E
100
AcDbEntity
  8
0
100
AcDbLine
 10
10.0927125
 20
131.786
 30
0.0
 11
50.095102484955
 21
131.9949795094609
 31
0.0
  0
LINE
  5
69
330
1E
100
AcDbEntity
  8
0
100
AcDbLine
 10
9.1206525
 20
131.874
 30
0.0
 11
10.0927125
 21
131.786
 31
0.0
  0
LINE
  5
6A
330
1E
100
AcDbEntity
  8
0
100
AcDbLine
 10
4.273232499999999
 20
133.647
 30
0.0
 11
5.710002499999999
 21
132.7889999999999
 31
0.0
  0
LINE
  5
6B
330
1E
100
AcDbEntity
  8
0
100
AcDbLine
 10
24.07684249999999
 20
97.7733
 30
0.0
 11
33.3943425
 21
99.0
 31
0.0
  0
LINE
  5
6C
330
1E
100
AcDbEntity
  8
0
100
AcDbLine
 10
15.3943425
 20
94.1769
 30
0.0
 11
24.07684249999999
 21
97.7733
 31
0.0
  0
LINE
  5
6D
330
1E
100
AcDbEntity
  8
0
100
AcDbLine
 10
2.9684425
 20
80.7061
 30
0.0
 11
3.415772499999999
 21
80.4739
 31
0.0
  0
LINE
  5
6E
330
1E
100
AcDbEntity
  8
0
100
AcDbLine
 10
3.415772499999999
 20
80.4739
 30
0.0
 11
4.02748310902585
 21
80.15637333419219
 31
0.0
  0
LINE
  5
6F
330
1E
100
AcDbEntity
  8
0
100
AcDbLine
 10
3.415772499999999
 20
80.4739
 30
0.0
 11
4.02748310902585
 21
80.15637333419219
 31
0.0
  0
LINE
  5
70
330
1E
100
AcDbEntity
  8
0
100
AcDbLine
 10
3.415772499999999
 20
80.4739
 30
0.0
 11
4.608652499999999
 21
79.85469999999999
 31
0.0
  0
LINE
  5
71
330
1E
100
AcDbEntity
  8
0
100
AcDbLine
 10
2.7930725
 20
81.0975
 30
0.0
 11
4.411272499999999
 21
83.7094
 31
0.0
  0
LINE
  5
72
330
1E
100
AcDbEntity
  8
0
100
AcDbLine
 10
2.7930725
 20
81.0975
 30
0.0
 11
2.9684425
 21
80.7061
 31
0.0
  0
LINE
  5
73
330
1E
100
AcDbEntity
  8
0
100
AcDbLine
 10
2.7930725
 20
81.0975
 30
0.0
 11
3.2404025
 21
80.86530000000001
 31
0.0
  0
LINE
  5
74
330
1E
100
AcDbEntity
  8
0
100
AcDbLine
 10
25.5813368945636
 20
68.97491982529999
 30
0.0
 11
26.73074249999999
 21
68.3835
 31
0.0
  0
LINE
  5
75
330
1E
100
AcDbEntity
  8
0
100
AcDbLine
 10
27.6819425
 20
68.3969
 30
0.0
 11
27.83604249999999
 21
68.5913
 31
0.0
  0
LINE
  5
76
330
1E
100
AcDbEntity
  8
0
100
AcDbLine
 10
144.1713425
 20
-0.0000000000000046
 30
0.0
 11
145.2083425
 21
-0.0000000000000046
 31
0.0
  0
LINE
  5
77
330
1E
100
AcDbEntity
  8
0
100
AcDbLine
 10
137.9503425
 20
-0.0000000000000042
 30
0.0
 11
141.7873424999999
 21
-0.0000000000000044
 31
0.0
  0
LINE
  5
78
330
1E
100
AcDbEntity
  8
0
100
AcDbLine
 10
141.7873424999999
 20
-0.0000000000000044
 30
0.0
 11
144.1713425
 21
-0.0000000000000046
 31
0.0
  0
LINE
  5
79
330
1E
100
AcDbEntity
  8
0
100
AcDbLine
 10
132.6213424999999
 20
-0.0000000000000039
 30
0.0
 11
137.9503425
 21
-0.0000000000000042
 31
0.0
  0
LINE
  5
7A
330
1E
100
AcDbEntity
  8
0
100
AcDbLine
 10
126.8553425
 20
-0.0000000000000035
 30
0.0
 11
132.6213424999999
 21
-0.0000000000000039
 31
0.0
  0
LINE
  5
7B
330
1E
100
AcDbEntity
  8
0
100
AcDbLine
 10
120.8413425
 20
-0.0000000000000032
 30
0.0
 11
126.8553425
 21
-0.0000000000000035
 31
0.0
  0
LINE
  5
7C
330
1E
100
AcDbEntity
  8
0
100
AcDbLine
 10
96.6821425
 20
-0.0000000000000017
 30
0.0
 11
97.51164250000002
 21
-0.0000000000000017
 31
0.0
  0
LINE
  5
7D
330
1E
100
AcDbEntity
  8
0
100
AcDbLine
 10
99.7928425
 20
-0.0000000000000019
 30
0.0
 11
103.6293424999999
 21
-0.0000000000000021
 31
0.0
  0
LINE
  5
7E
330
1E
100
AcDbEntity
  8
0
100
AcDbLine
 10
103.6293424999999
 20
-0.0000000000000021
 30
0.0
 11
108.7103425
 21
-0.0000000000000024
 31
0.0
  0
LINE
  5
7F
330
1E
100
AcDbEntity
  8
0
100
AcDbLine
 10
108.7103425
 20
-0.0000000000000024
 30
0.0
 11
114.4133424999999
 21
-0.0000000000000028
 31
0.0
  0
LINE
  5
D4
330
1E
100
AcDbEntity
  8
0
100
AcDbLine
 10
135.568649617956
 20
27.69006736057789
 30
0.0
 11
145.2083425
 21
-0.0000000000000046
 31
0.0
  0
LINE
  5
F6
330
1E
100
AcDbEntity
  8
0
100
AcDbLine
 10
135.568649617956
 20
27.69006736057789
 30
0.0
 11
145.2083425
 21
0.0
 31
0.0
  0
LINE
  5
F7
330
1E
100
AcDbEntity
  8
0
100
AcDbLine
 10
97.51164250000002
 20
-0.0000000000000017
 30
0.0
 11
99.7928425
 21
-0.0000000000000019
 31
0.0
  0
LINE
  5
F8
330
1E
100
AcDbEntity
  8
0
100
AcDbLine
 10
114.4133424999999
 20
-0.0000000000000028
 30
0.0
 11
120.8413425
 21
-0.0000000000000032
 31
0.0
  0
LINE
  5
F9
330
1E
100
AcDbEntity
  8
0
100
AcDbLine
 10
27.83604249999999
 20
68.5913
 30
0.0
 11
29.3943425
 21
69.9282
 31
0.0
  0
LINE
  5
FA
330
1E
100
AcDbEntity
  8
0
100
AcDbLine
 10
33.3943425
 20
71.0
 30
0.0
 11
71.9771373380898
 21
70.9810553987305
 31
0.0
  0
LINE
  5
FB
330
1E
100
AcDbEntity
  8
0
100
AcDbLine
 10
31.32374249999999
 20
70.7274
 30
0.0
 11
33.3943425
 21
71.0
 31
0.0
  0
LINE
  5
FC
330
1E
100
AcDbEntity
  8
0
100
AcDbLine
 10
33.3943425
 20
71.0
 30
0.0
 11
71.9771373380898
 21
70.9810553987305
 31
0.0
  0
LINE
  5
FD
330
1E
100
AcDbEntity
  8
0
100
AcDbLine
 10
71.9771373380898
 20
70.9810553987305
 30
0.0
 11
96.6821425
 21
0.0
 31
0.0
  0
LINE
  5
FE
330
1E
100
AcDbEntity
  8
0
100
AcDbLine
 10
56.5155425
 20
113.562
 30
0.0
 11
56.5525425
 21
113.46
 31
0.0
  0
LINE
  5
FF
330
1E
100
AcDbEntity
  8
0
100
AcDbLine
 10
56.5525425
 20
113.46
 30
0.0
 11
56.8077619688951
 21
113.5528860895629
 31
0.0
  0
LINE
  5
100
330
1E
100
AcDbEntity
  8
0
100
AcDbLine
 10
60.355557217944
 20
106.7287736707379
 30
0.0
 11
61.3816489719655
 21
103.9092569983159
 31
0.0
  0
LINE
  5
101
330
1E
100
AcDbEntity
  8
0
100
AcDbLine
 10
60.1940425
 20
106.6699999999999
 30
0.0
 11
62.26884250000001
 21
107.4249999999999
 31
0.0
  0
LINE
  5
102
330
1E
100
AcDbEntity
  8
0
100
AcDbLine
 10
59.41604250000001
 20
106.387
 30
0.0
 11
60.1940425
 21
106.6699999999999
 31
0.0
  0
LINE
  5
103
330
1E
100
AcDbEntity
  8
0
100
AcDbLine
 10
49.7916662362366
 20
136.9365349646209
 30
0.0
 11
51.8430425
 21
137.684
 31
0.0
  0
LINE
  5
105
330
1E
100
AcDbEntity
  8
0
100
AcDbLine
 10
55.5264425
 20
116.2789999999999
 30
0.0
 11
55.7891425
 21
115.558
 31
0.0
  0
LINE
  5
106
330
1E
100
AcDbEntity
  8
0
100
AcDbLine
 10
54.8000425
 20
118.275
 30
0.0
 11
55.01754250000001
 21
117.6779999999999
 31
0.0
  0
LINE
  5
107
330
1E
100
AcDbEntity
  8
0
100
AcDbLine
 10
54.6358425
 20
118.7259999999999
 30
0.0
 11
54.8000425
 21
118.275
 31
0.0
  0
LINE
  5
108
330
1E
100
AcDbEntity
  8
0
100
AcDbLine
 10
54.5373425
 20
118.997
 30
0.0
 11
54.6358425
 21
118.7259999999999
 31
0.0
  0
LINE
  5
109
330
1E
100
AcDbEntity
  8
0
100
AcDbLine
 10
54.50044250000001
 20
119.0979999999999
 30
0.0
 11
54.75561468957
 21
119.1908738241179
 31
0.0
  0
LINE
  5
10A
330
1E
100
AcDbEntity
  8
0
100
AcDbLine
 10
54.50044250000001
 20
119.0979999999999
 30
0.0
 11
54.5373425
 21
118.997
 31
0.0
  0
LINE
  5
10B
330
1E
100
AcDbEntity
  8
0
100
AcDbLine
 10
55.01754250000001
 20
117.6779999999999
 30
0.0
 11
55.2637425
 21
117.0009999999999
 31
0.0
  0
LINE
  5
10C
330
1E
100
AcDbEntity
  8
0
100
AcDbLine
 10
55.2637425
 20
117.0009999999999
 30
0.0
 11
55.5264425
 21
116.2789999999999
 31
0.0
  0
LINE
  5
10D
330
1E
100
AcDbEntity
  8
0
100
AcDbLine
 10
56.0353425
 20
114.881
 30
0.0
 11
56.2529425
 21
114.2829999999999
 31
0.0
  0
LINE
  5
10E
330
1E
100
AcDbEntity
  8
0
100
AcDbLine
 10
56.2529425
 20
114.2829999999999
 30
0.0
 11
56.4170425
 21
113.8319999999999
 31
0.0
  0
LINE
  5
10F
330
1E
100
AcDbEntity
  8
0
100
AcDbLine
 10
56.4170425
 20
113.8319999999999
 30
0.0
 11
56.5155425
 21
113.562
 31
0.0
  0
LINE
  5
110
330
1E
100
AcDbEntity
  8
0
100
AcDbLine
 10
55.7891425
 20
115.558
 30
0.0
 11
56.0353425
 21
114.881
 31
0.0
  0
LINE
  5
111
330
1E
100
AcDbEntity
  8
0
100
AcDbLine
 10
51.8430425
 20
137.684
 30
0.0
 11
55.2147425
 21
138.91
 31
0.0
  0
LINE
  5
112
330
1E
100
AcDbEntity
  8
0
100
AcDbLine
 10
55.2147425
 20
138.91
 30
0.0
 11
59.6236425
 21
140.5149999999999
 31
0.0
  0
LINE
  5
113
330
1E
100
AcDbEntity
  8
0
100
AcDbLine
 10
59.6236425
 20
140.5149999999999
 30
0.0
 11
67.40321640492609
 21
143.346329033244
 31
0.0
  0
LINE
  5
117
330
1E
100
AcDbEntity
  8
0
100
AcDbLine
 10
50.095102484955
 20
131.9949795094609
 30
0.0
 11
54.75561468957
 21
119.1908738241179
 31
0.0
  0
LINE
  5
118
330
1E
100
AcDbEntity
  8
0
100
AcDbLine
 10
56.80272255379911
 20
113.566731177967
 30
0.0
 11
59.41604250000001
 21
106.387
 31
0.0
  0
LINE
  5
119
330
1E
100
AcDbEntity
  8
0
100
AcDbLine
 10
61.1225425
 20
103.8149999999999
 30
0.0
 11
61.89774250000001
 21
104.097
 31
0.0
  0
LINE
  5
11A
330
1E
100
AcDbEntity
  8
0
100
AcDbLine
 10
61.58654250000001
 20
103.3439999999999
 30
0.0
 11
63.6534425
 21
104.096
 31
0.0
  0
LINE
  5
11B
330
1E
100
AcDbEntity
  8
0
100
AcDbLine
 10
61.89774250000001
 20
104.097
 30
0.0
 11
63.96464250000001
 21
104.8489999999999
 31
0.0
  0
LINE
  5
11C
330
1E
100
AcDbEntity
  8
0
100
AcDbLine
 10
63.96464250000001
 20
104.8489999999999
 30
0.0
 11
67.3235425
 21
106.072
 31
0.0
  0
LINE
  5
11D
330
1E
100
AcDbEntity
  8
0
100
AcDbLine
 10
63.6534425
 20
104.096
 30
0.0
 11
67.0984425
 21
105.3499999999999
 31
0.0
  0
LINE
  5
11E
330
1E
100
AcDbEntity
  8
0
100
AcDbLine
 10
67.3235425
 20
106.072
 30
0.0
 11
71.71584250000001
 21
107.671
 31
0.0
  0
LINE
  5
11F
330
1E
100
AcDbEntity
  8
0
100
AcDbLine
 10
67.0984425
 20
105.3499999999999
 30
0.0
 11
71.6630425
 21
107.0119999999999
 31
0.0
  0
LINE
  5
120
330
1E
100
AcDbEntity
  8
0
100
AcDbLine
 10
62.26884250000001
 20
107.4249999999999
 30
0.0
 11
65.72694250000001
 21
108.684
 31
0.0
  0
LINE
  5
121
330
1E
100
AcDbEntity
  8
0
100
AcDbLine
 10
70.30884250000001
 20
110.3509999999999
 30
0.0
 11
75.4960425
 21
112.2389999999999
 31
0.0
  0
LINE
  5
122
330
1E
100
AcDbEntity
  8
0
100
AcDbLine
 10
65.72694250000001
 20
108.684
 30
0.0
 11
70.30884250000001
 21
110.3509999999999
 31
0.0
  0
LINE
  5
123
330
1E
100
AcDbEntity
  8
0
100
AcDbLine
 10
71.71584250000001
 20
107.671
 30
0.0
 11
76.7110425
 21
109.4889999999999
 31
0.0
  0
LINE
  5
124
330
1E
100
AcDbEntity
  8
0
100
AcDbLine
 10
76.7110425
 20
109.4889999999999
 30
0.0
 11
82.13694250000001
 21
111.463
 31
0.0
  0
LINE
  5
125
330
1E
100
AcDbEntity
  8
0
100
AcDbLine
 10
71.6630425
 20
107.0119999999999
 30
0.0
 11
76.8304425
 21
108.8929999999999
 31
0.0
  0
LINE
  5
126
330
1E
100
AcDbEntity
  8
0
100
AcDbLine
 10
77.8977535759926
 20
109.9207380829
 30
0.0
 11
82.0549425
 21
111.434
 31
0.0
  0
LINE
  5
127
330
1E
100
AcDbEntity
  8
0
100
AcDbLine
 10
76.8304425
 20
108.8929999999999
 30
0.0
 11
82.34244250000001
 21
110.899
 31
0.0
  0
LINE
  5
128
330
1E
100
AcDbEntity
  8
0
100
AcDbLine
 10
82.0549425
 20
111.434
 30
0.0
 11
86.48598825207821
 21
113.046088884449
 31
0.0
  0
LINE
  5
129
330
1E
100
AcDbEntity
  8
0
100
AcDbLine
 10
75.4960425
 20
112.2389999999999
 30
0.0
 11
81.0288425
 21
114.2529999999999
 31
0.0
  0
LINE
  5
12A
330
1E
100
AcDbEntity
  8
0
100
AcDbLine
 10
81.0288425
 20
114.2529999999999
 30
0.0
 11
85.65034250000001
 21
118.687
 31
0.0
  0
LINE
  5
12B
330
1E
100
AcDbEntity
  8
0
100
AcDbLine
 10
85.65034250000001
 20
118.687
 30
0.0
 11
90.01194250000001
 21
122.827
 31
0.0
  0
LINE
  5
12C
330
1E
100
AcDbEntity
  8
0
100
AcDbLine
 10
87.5626425
 20
113.4379999999999
 30
0.0
 11
92.5579425
 21
115.256
 31
0.0
  0
LINE
  5
12D
330
1E
100
AcDbEntity
  8
0
100
AcDbLine
 10
82.13694250000001
 20
111.463
 30
0.0
 11
87.5626425
 21
113.4379999999999
 31
0.0
  0
LINE
  5
12E
330
1E
100
AcDbEntity
  8
0
100
AcDbLine
 10
92.5579425
 20
115.256
 30
0.0
 11
96.95024250000001
 21
116.8549999999999
 31
0.0
  0
LINE
  5
12F
330
1E
100
AcDbEntity
  8
0
100
AcDbLine
 10
93.0217425
 20
114.786
 30
0.0
 11
97.58644250000001
 21
116.447
 31
0.0
  0
LINE
  5
130
330
1E
100
AcDbEntity
  8
0
100
AcDbLine
 10
87.85444250000001
 20
112.905
 30
0.0
 11
93.0217425
 21
114.786
 31
0.0
  0
LINE
  5
131
330
1E
100
AcDbEntity
  8
0
100
AcDbLine
 10
82.34244250000001
 20
110.899
 30
0.0
 11
87.85444250000001
 21
112.905
 31
0.0
  0
LINE
  5
132
330
1E
100
AcDbEntity
  8
0
100
AcDbLine
 10
96.61234250000001
 20
116.732
 30
0.0
 11
97.0804984981833
 21
116.9024285714479
 31
0.0
  0
LINE
  5
133
330
1E
100
AcDbEntity
  8
0
100
AcDbLine
 10
97.58644250000001
 20
116.447
 30
0.0
 11
101.0313425
 21
117.701
 31
0.0
  0
LINE
  5
134
330
1E
100
AcDbEntity
  8
0
100
AcDbLine
 10
96.07356934960241
 20
116.535850495757
 30
0.0
 11
96.95024250000001
 21
116.8549999999999
 31
0.0
  0
LINE
  5
135
330
1E
100
AcDbEntity
  8
0
100
AcDbLine
 10
96.07356934960241
 20
116.535850495757
 30
0.0
 11
96.61234250000001
 21
116.732
 31
0.0
  0
LINE
  5
136
330
1E
100
AcDbEntity
  8
0
100
AcDbLine
 10
100.3090425
 20
118.0779999999999
 30
0.0
 11
102.3763425
 21
118.8299999999999
 31
0.0
  0
LINE
  5
137
330
1E
100
AcDbEntity
  8
0
100
AcDbLine
 10
103.0983425
 20
118.4529999999999
 30
0.0
 11
103.8733424999999
 21
118.735
 31
0.0
  0
LINE
  5
138
330
1E
100
AcDbEntity
  8
0
100
AcDbLine
 10
101.0313425
 20
117.701
 30
0.0
 11
103.0983425
 21
118.4529999999999
 31
0.0
  0
LINE
  5
139
330
1E
100
AcDbEntity
  8
0
100
AcDbLine
 10
96.95024250000001
 20
116.8549999999999
 30
0.0
 11
97.0804984981833
 21
116.9024285714479
 31
0.0
  0
LINE
  5
13A
330
1E
100
AcDbEntity
  8
0
100
AcDbLine
 10
96.95024250000001
 20
116.8549999999999
 30
0.0
 11
100.3090425
 21
118.0779999999999
 31
0.0
  0
LINE
  5
13B
330
1E
100
AcDbEntity
  8
0
100
AcDbLine
 10
96.07356934960241
 20
116.535850495757
 30
0.0
 11
96.95024250000001
 21
116.8549999999999
 31
0.0
  0
LINE
  5
13C
330
1E
100
AcDbEntity
  8
0
100
AcDbLine
 10
102.3763425
 20
118.8299999999999
 30
0.0
 11
103.1513424999999
 21
119.112
 31
0.0
  0
LINE
  5
13D
330
1E
100
AcDbEntity
  8
0
100
AcDbLine
 10
90.01194250000001
 20
122.827
 30
0.0
 11
93.90784250000001
 21
126.414
 31
0.0
  0
LINE
  5
13E
330
1E
100
AcDbEntity
  8
0
100
AcDbLine
 10
93.90784250000001
 20
126.414
 30
0.0
 11
96.74844250000001
 21
129.235
 31
0.0
  0
LINE
  5
150
330
1E
100
AcDbEntity
  8
0
100
AcDbLine
 10
97.48553565812171
 20
129.9236337463419
 30
0.0
 11
99.27404250000002
 21
127.1079999999999
 31
0.0
  0
LINE
  5
152
330
1E
100
AcDbEntity
  8
0
100
AcDbLine
 10
96.74844250000001
 20
129.235
 30
0.0
 11
98.54024250000001
 21
130.9089999999999
 31
0.0
  0
LINE
  5
153
330
1E
100
AcDbEntity
  8
0
100
AcDbLine
 10
99.27404250000002
 20
127.1079999999999
 30
0.0
 11
100.9493425
 21
123.8439999999999
 31
0.0
  0
LINE
  5
154
330
1E
100
AcDbEntity
  8
0
100
AcDbLine
 10
100.9493425
 20
123.8439999999999
 30
0.0
 11
102.728315949792
 21
118.958072919795
 31
0.0
  0
LINE
  5
155
330
1E
100
AcDbEntity
  8
0
100
AcDbLine
 10
98.54024250000001
 20
130.9089999999999
 30
0.0
 11
99.22144250000002
 21
131.5169999999999
 31
0.0
  0
LINE
  5
15A
330
1E
100
AcDbEntity
  8
0
100
AcDbLine
 10
80.54494250000001
 20
148.13
 30
0.0
 11
84.95404249999999
 21
149.734
 31
0.0
  0
LINE
  5
15D
330
1E
100
AcDbEntity
  8
0
100
AcDbLine
 10
84.95404249999999
 20
149.734
 30
0.0
 11
88.32554250000001
 21
150.962
 31
0.0
  0
LINE
  5
161
330
1E
100
AcDbEntity
  8
0
100
AcDbLine
 10
90.40044250000001
 20
151.717
 30
0.0
 11
91.1784425
 21
152.0
 31
0.0
  0
LINE
  5
162
330
1E
100
AcDbEntity
  8
0
100
AcDbLine
 10
91.1784425
 20
152.0
 30
0.0
 11
91.90234250000001
 21
151.625
 31
0.0
  0
LINE
  5
163
330
1E
100
AcDbEntity
  8
0
100
AcDbLine
 10
88.32554250000001
 20
150.962
 30
0.0
 11
90.40044250000001
 21
151.717
 31
0.0
  0
LINE
  5
164
330
1E
100
AcDbEntity
  8
0
100
AcDbLine
 10
75.53084250000001
 20
146.304
 30
0.0
 11
80.54494250000001
 21
148.13
 31
0.0
  0
LINE
  5
165
330
1E
100
AcDbEntity
  8
0
100
AcDbLine
 10
70.0843425
 20
144.3219999999999
 30
0.0
 11
75.53084250000001
 21
146.304
 31
0.0
  0
LINE
  5
166
330
1E
100
AcDbEntity
  8
0
100
AcDbLine
 10
91.90234250000001
 20
151.625
 30
0.0
 11
99.22144250000002
 21
131.5169999999999
 31
0.0
  0
LINE
  5
167
330
1E
100
AcDbEntity
  8
0
100
AcDbLine
 10
67.40321640492609
 20
143.346329033244
 30
0.0
 11
70.0843425
 21
144.3219999999999
 31
0.0
  0
LINE
  5
16A
330
1E
100
AcDbEntity
  8
0
100
AcDbLine
 10
102.728315949792
 20
118.958072919795
 30
0.0
 11
103.1513424999999
 21
119.112
 31
0.0
  0
LINE
  5
16B
330
1E
100
AcDbEntity
  8
0
100
AcDbLine
 10
103.1513424999999
 20
119.112
 30
0.0
 11
103.8733424999999
 21
118.735
 31
0.0
  0
LINE
  5
16C
330
1E
100
AcDbEntity
  8
0
100
AcDbLine
 10
103.8733424999999
 20
118.735
 30
0.0
 11
135.2337555851049
 21
28.65205219160539
 31
0.0
  0
LINE
  5
16D
330
1E
100
AcDbEntity
  8
0
100
AcDbLine
 10
103.8733424999999
 20
118.735
 30
0.0
 11
135.2337555851049
 21
28.65205219160539
 31
0.0
  0
LINE
  5
16E
330
1E
100
AcDbEntity
  8
0
100
AcDbLine
 10
60.8113425
 20
103.062
 30
0.0
 11
62.2340724550961
 21
98.9742909265443
 31
0.0
  0
LINE
  5
16F
330
1E
100
AcDbEntity
  8
0
100
AcDbLine
 10
60.8113425
 20
103.062
 30
0.0
 11
61.1225425
 21
103.8149999999999
 31
0.0
  0
LINE
  5
170
330
1E
100
AcDbEntity
  8
0
100
AcDbLine
 10
60.8113425
 20
103.062
 30
0.0
 11
61.58654250000001
 21
103.3439999999999
 31
0.0
  0
LINE
  5
171
330
1E
100
AcDbEntity
  8
0
100
AcDbLine
 10
71.9771373380898
 20
70.9810553987305
 30
0.0
 11
96.6821425
 21
-0.0000000000000017
 31
0.0
  0
LINE
  5
172
330
1E
100
AcDbEntity
  8
0
100
AcDbLine
 10
33.3943425
 20
99.0
 30
0.0
 11
62.2340724550961
 21
98.9742909265443
 31
0.0
  0
LINE
  5
173
330
1E
100
AcDbEntity
  8
0
100
AcDbLine
 10
29.3943425
 20
69.9282
 30
0.0
 11
31.32374249999999
 21
70.7274
 31
0.0
  0
LINE
  5
174
330
1E
100
AcDbEntity
  8
0
100
AcDbLine
 10
27.5613425
 20
68.2562
 30
0.0
 11
27.6819425
 21
68.3969
 31
0.0
  0
LINE
  5
179
330
1E
100
AcDbEntity
  8
0
100
AcDbLine
 10
50.095102484955
 20
131.9949795094609
 30
0.0
 11
49.7916662362366
 21
136.9365349646209
 31
0.0
  0
LINE
  5
17A
330
1E
100
AcDbEntity
  8
0
100
AcDbLine
 10
135.2337555851049
 20
28.65205219160539
 30
0.0
 11
135.568649617956
 21
27.69006736057789
 31
0.0
  0
ENDSEC
  0
SECTION
  2
OBJECTS
  0
DICTIONARY
  5
C
330
0
100
AcDbDictionary
  3
ACAD_GROUP
350
D
  3
ACAD_LAYOUT
350
19
  3
ACAD_MLINESTYLE
350
16
  3
ACAD_PLOTSETTINGS
350
18
1001
ACAD
1000
TREAT_AS_HARD
1070
     0
  0
DICTIONARY
  5
18A
330
1E
100
AcDbDictionary
  3
ACAD_LAYOUTSELFREF
350
18B
  0
DICTIONARY
  5
188
330
1A
100
AcDbDictionary
  3
ACAD_LAYOUTSELFREF
350
189
  0
DICTIONARY
  5
D
102
{ACAD_REACTORS
330
C
102
}
330
C
100
AcDbDictionary
1001
ACAD
1000
TREAT_AS_HARD
1070
     0
  0
DICTIONARY
  5
19
102
{ACAD_REACTORS
330
C
102
}
330
C
100
AcDbDictionary
1001
ACAD
1000
TREAT_AS_HARD
1070
     0
  0
DICTIONARY
  5
16
102
{ACAD_REACTORS
330
C
102
}
330
C
100
AcDbDictionary
  3
STANDARD
350
17
1001
ACAD
1000
TREAT_AS_HARD
1070
     0
  0
DICTIONARY
  5
18
102
{ACAD_REACTORS
330
C
102
}
330
C
100
AcDbDictionary
1001
ACAD
1000
TREAT_AS_HARD
1070
     0
  0
XRECORD
  5
18B
102
{ACAD_REACTORS
330
18A
102
}
330
18A
100
AcDbXrecord
340
1E
  0
XRECORD
  5
189
102
{ACAD_REACTORS
330
188
102
}
330
188
100
AcDbXrecord
340
1A
  0
MLINESTYLE
  5
17
102
{ACAD_REACTORS
330
16
102
}
330
16
100
AcDbMlineStyle
  2
STANDARD
 70
     0
  3

 62
   256
 51
90.0
 52
90.0
 71
     2
 49
0.5
 62
   256
  6
BYLAYER
 49
-0.5
 62
   256
  6
BYLAYER
  0
ENDSEC
  0
EOF
