  0
SECTION
  2
HEADER
  9
$ACADVER
  1
AC1015
  9
$ACADMAINTVER
 70
    13
  9
$DWGCODEPAGE
  3
ANSI_1252
  9
$INSBASE
 10
0.0
 20
0.0
 30
0.0
  9
$EXTMIN
 10
0.0
 20
0.1939999999999626
 30
0.0
  9
$EXTMAX
 10
196.0
 20
295.8059999999998
 30
0.0
  9
$LIMMIN
 10
0.0
 20
0.0
  9
$LIMMAX
 10
12.0
 20
9.0
  9
$ORTHOMODE
 70
     0
  9
$REGENMODE
 70
     1
  9
$FILLMODE
 70
     1
  9
$QTEXTMODE
 70
     0
  9
$MIRRTEXT
 70
     1
  9
$LTSCALE
 40
1.0
  9
$ATTMODE
 70
     1
  9
$TEXTSIZE
 40
0.2
  9
$TRACEWID
 40
0.05
  9
$TEXTSTYLE
  7
Standard
  9
$CLAYER
  8
0
  9
$CELTYPE
  6
Continuous
  9
$CECOLOR
 62
   256
  9
$CELTSCALE
 40
1.0
  9
$DISPSILH
 70
     0
  9
$DIMSCALE
 40
1.0
  9
$DIMASZ
 40
0.18
  9
$DIMEXO
 40
0.0625
  9
$DIMDLI
 40
0.38
  9
$DIMRND
 40
0.0
  9
$DIMDLE
 40
0.0
  9
$DIMEXE
 40
0.18
  9
$DIMTP
 40
0.0
  9
$DIMTM
 40
0.0
  9
$DIMTXT
 40
0.18
  9
$DIMCEN
 40
0.09
  9
$DIMTSZ
 40
0.0
  9
$DIMTOL
 70
     0
  9
$DIMLIM
 70
     0
  9
$DIMTIH
 70
     1
  9
$DIMTOH
 70
     1
  9
$DIMSE1
 70
     0
  9
$DIMSE2
 70
     0
  9
$DIMTAD
 70
     0
  9
$DIMZIN
 70
     0
  9
$DIMBLK
  1

  9
$DIMASO
 70
     1
  9
$DIMSHO
 70
     1
  9
$DIMPOST
  1

  9
$DIMAPOST
  1

  9
$DIMALT
 70
     0
  9
$DIMALTD
 70
     2
  9
$DIMALTF
 40
25.4
  9
$DIMLFAC
 40
1.0
  9
$DIMTOFL
 70
     0
  9
$DIMTVP
 40
0.0
  9
$DIMTIX
 70
     0
  9
$DIMSOXD
 70
     0
  9
$DIMSAH
 70
     0
  9
$DIMBLK1
  1

  9
$DIMBLK2
  1

  9
$DIMSTYLE
  2
Standard
  9
$DIMCLRD
 70
     0
  9
$DIMCLRE
 70
     0
  9
$DIMCLRT
 70
     0
  9
$DIMTFAC
 40
1.0
  9
$DIMGAP
 40
0.09
  9
$DIMJUST
 70
     0
  9
$DIMSD1
 70
     0
  9
$DIMSD2
 70
     0
  9
$DIMTOLJ
 70
     1
  9
$DIMTZIN
 70
     0
  9
$DIMALTZ
 70
     0
  9
$DIMALTTZ
 70
     0
  9
$DIMUPT
 70
     0
  9
$DIMDEC
 70
     4
  9
$DIMTDEC
 70
     4
  9
$DIMALTU
 70
     2
  9
$DIMALTTD
 70
     2
  9
$DIMTXSTY
  7
Standard
  9
$DIMAUNIT
 70
     0
  9
$DIMADEC
 70
     0
  9
$DIMALTRND
 40
0.0
  9
$DIMAZIN
 70
     0
  9
$DIMDSEP
 70
    46
  9
$DIMATFIT
 70
     3
  9
$DIMFRAC
 70
     0
  9
$DIMLDRBLK
  1

  9
$DIMLUNIT
 70
     2
  9
$DIMLWD
 70
    -2
  9
$DIMLWE
 70
    -2
  9
$DIMTMOVE
 70
     0
  9
$LUNITS
 70
     2
  9
$LUPREC
 70
     4
  9
$SKETCHINC
 40
0.1
  9
$FILLETRAD
 40
0.0
  9
$AUNITS
 70
     0
  9
$AUPREC
 70
     0
  9
$MENU
  1
.
  9
$ELEVATION
 40
0.0
  9
$PELEVATION
 40
0.0
  9
$THICKNESS
 40
0.0
  9
$LIMCHECK
 70
     0
  9
$CHAMFERA
 40
0.0
  9
$CHAMFERB
 40
0.0
  9
$CHAMFERC
 40
0.0
  9
$CHAMFERD
 40
0.0
  9
$SKPOLY
 70
     0
  9
$TDCREATE
 40
2455655.627862766
  9
$TDUCREATE
 40
2455655.544529433
  9
$TDUPDATE
 40
2455655.630309606
  9
$TDUUPDATE
 40
2455655.546976273
  9
$TDINDWG
 40
0.0024471991
  9
$TDUSRTIMER
 40
0.0024471991
  9
$USRTIMER
 70
     1
  9
$ANGBASE
 50
0.0
  9
$ANGDIR
 70
     0
  9
$PDMODE
 70
     0
  9
$PDSIZE
 40
0.0
  9
$PLINEWID
 40
0.0
  9
$SPLFRAME
 70
     0
  9
$SPLINETYPE
 70
     6
  9
$SPLINESEGS
 70
     8
  9
$HANDSEED
  5
A5F
  9
$SURFTAB1
 70
     6
  9
$SURFTAB2
 70
     6
  9
$SURFTYPE
 70
     6
  9
$SURFU
 70
     6
  9
$SURFV
 70
     6
  9
$UCSBASE
  2

  9
$UCSNAME
  2

  9
$UCSORG
 10
0.0
 20
0.0
 30
0.0
  9
$UCSXDIR
 10
1.0
 20
0.0
 30
0.0
  9
$UCSYDIR
 10
0.0
 20
1.0
 30
0.0
  9
$UCSORTHOREF
  2

  9
$UCSORTHOVIEW
 70
     1
  9
$UCSORGTOP
 10
0.0
 20
0.0
 30
0.0
  9
$UCSORGBOTTOM
 10
0.0
 20
0.0
 30
0.0
  9
$UCSORGLEFT
 10
0.0
 20
0.0
 30
0.0
  9
$UCSORGRIGHT
 10
0.0
 20
0.0
 30
0.0
  9
$UCSORGFRONT
 10
0.0
 20
0.0
 30
0.0
  9
$UCSORGBACK
 10
0.0
 20
0.0
 30
0.0
  9
$PUCSBASE
  2

  9
$PUCSNAME
  2

  9
$PUCSORG
 10
0.0
 20
0.0
 30
0.0
  9
$PUCSXDIR
 10
1.0
 20
0.0
 30
0.0
  9
$PUCSYDIR
 10
0.0
 20
1.0
 30
0.0
  9
$PUCSORTHOREF
  2

  9
$PUCSORTHOVIEW
 70
     0
  9
$PUCSORGTOP
 10
0.0
 20
0.0
 30
0.0
  9
$PUCSORGBOTTOM
 10
0.0
 20
0.0
 30
0.0
  9
$PUCSORGLEFT
 10
0.0
 20
0.0
 30
0.0
  9
$PUCSORGRIGHT
 10
0.0
 20
0.0
 30
0.0
  9
$PUCSORGFRONT
 10
0.0
 20
0.0
 30
0.0
  9
$PUCSORGBACK
 10
0.0
 20
0.0
 30
0.0
  9
$USERI1
 70
     0
  9
$USERI2
 70
     0
  9
$USERI3
 70
     0
  9
$USERI4
 70
     0
  9
$USERI5
 70
     0
  9
$USERR1
 40
0.0
  9
$USERR2
 40
0.0
  9
$USERR3
 40
0.0
  9
$USERR4
 40
0.0
  9
$USERR5
 40
0.0
  9
$WORLDVIEW
 70
     1
  9
$SHADEDGE
 70
     3
  9
$SHADEDIF
 70
    70
  9
$TILEMODE
 70
     1
  9
$MAXACTVP
 70
    64
  9
$PINSBASE
 10
0.0
 20
0.0
 30
0.0
  9
$PLIMCHECK
 70
     0
  9
$PEXTMIN
 10
1.000000000000000E+20
 20
1.000000000000000E+20
 30
1.000000000000000E+20
  9
$PEXTMAX
 10
-1.000000000000000E+20
 20
-1.000000000000000E+20
 30
-1.000000000000000E+20
  9
$PLIMMIN
 10
0.0
 20
0.0
  9
$PLIMMAX
 10
12.0
 20
9.0
  9
$UNITMODE
 70
     0
  9
$VISRETAIN
 70
     1
  9
$PLINEGEN
 70
     0
  9
$PSLTSCALE
 70
     1
  9
$TREEDEPTH
 70
  3020
  9
$CMLSTYLE
  2
Standard
  9
$CMLJUST
 70
     0
  9
$CMLSCALE
 40
1.0
  9
$PROXYGRAPHICS
 70
     1
  9
$MEASUREMENT
 70
     0
  9
$CELWEIGHT
370
    -1
  9
$ENDCAPS
280
     0
  9
$JOINSTYLE
280
     0
  9
$LWDISPLAY
290
     0
  9
$INSUNITS
 70
     0
  9
$HYPERLINKBASE
  1

  9
$STYLESHEET
  1

  9
$XEDIT
290
     1
  9
$CEPSNTYPE
380
     0
  9
$PSTYLEMODE
290
     1
  9
$FINGERPRINTGUID
  2
{50135D9A-0743-4411-B4D0-19E39D836F62}
  9
$VERSIONGUID
  2
{A1FE8EA3-8E0E-4729-98A3-EE7886EB72E1}
  9
$EXTNAMES
290
     1
  9
$PSVPSCALE
 40
0.0
  9
$OLESTARTUP
290
     0
  0
ENDSEC
  0
SECTION
  2
CLASSES
  0
CLASS
  1
ACDBDICTIONARYWDFLT
  2
AcDbDictionaryWithDefault
  3
AutoCAD 2000
 90
        0
280
     0
281
     0
  0
CLASS
  1
ACDBPLACEHOLDER
  2
AcDbPlaceHolder
  3
AutoCAD 2000
 90
        0
280
     0
281
     0
  0
CLASS
  1
LAYOUT
  2
AcDbLayout
  3
AutoCAD 2000
 90
        0
280
     0
281
     0
  0
CLASS
  1
DICTIONARYVAR
  2
AcDbDictionaryVar
  3
AutoCAD 2000
 90
        0
280
     0
281
     0
  0
ENDSEC
  0
SECTION
  2
TABLES
  0
TABLE
  2
VPORT
  5
8
330
0
100
AcDbSymbolTable
 70
     3
  0
VPORT
  5
A5E
330
8
100
AcDbSymbolTableRecord
100
AcDbViewportTableRecord
  2
*Active
 70
     0
 10
0.0
 20
0.0
 11
1.0
 21
1.0
 12
98.0
 22
147.9999999999999
 13
0.0
 23
0.0
 14
1.0
 24
1.0
 15
0.0
 25
0.0
 16
0.0
 26
0.0
 36
1.0
 17
0.0
 27
0.0
 37
0.0
 40
297.6116302142051
 41
2.073363431151241
 42
50.0
 43
0.0
 44
0.0
 50
0.0
 51
0.0
 71
     0
 72
   100
 73
     1
 74
     3
 75
     0
 76
     0
 77
     0
 78
     0
281
     0
 65
     1
110
0.0
120
0.0
130
0.0
111
1.0
121
0.0
131
0.0
112
0.0
122
1.0
132
0.0
 79
     1
146
0.0
  0
ENDTAB
  0
TABLE
  2
LTYPE
  5
5
330
0
100
AcDbSymbolTable
 70
     1
  0
LTYPE
  5
13
330
5
100
AcDbSymbolTableRecord
100
AcDbLinetypeTableRecord
  2
ByBlock
 70
     0
  3

 72
    65
 73
     0
 40
0.0
  0
LTYPE
  5
14
330
5
100
AcDbSymbolTableRecord
100
AcDbLinetypeTableRecord
  2
ByLayer
 70
     0
  3

 72
    65
 73
     0
 40
0.0
  0
LTYPE
  5
15
330
5
100
AcDbSymbolTableRecord
100
AcDbLinetypeTableRecord
  2
Continuous
 70
     0
  3
Solid line
 72
    65
 73
     0
 40
0.0
  0
ENDTAB
  0
TABLE
  2
LAYER
  5
2
330
0
100
AcDbSymbolTable
 70
     1
  0
LAYER
  5
10
330
2
100
AcDbSymbolTableRecord
100
AcDbLayerTableRecord
  2
0
 70
     0
 62
     7
  6
Continuous
370
    -3
390
F
  0
ENDTAB
  0
TABLE
  2
STYLE
  5
3
330
0
100
AcDbSymbolTable
 70
     1
  0
STYLE
  5
11
330
3
100
AcDbSymbolTableRecord
100
AcDbTextStyleTableRecord
  2
Standard
 70
     0
 40
0.0
 41
1.0
 50
0.0
 71
     0
 42
0.2
  3
txt
  4

  0
ENDTAB
  0
TABLE
  2
VIEW
  5
6
330
0
100
AcDbSymbolTable
 70
     0
  0
ENDTAB
  0
TABLE
  2
UCS
  5
7
330
0
100
AcDbSymbolTable
 70
     0
  0
ENDTAB
  0
TABLE
  2
APPID
  5
9
330
0
100
AcDbSymbolTable
 70
     1
  0
APPID
  5
12
330
9
100
AcDbSymbolTableRecord
100
AcDbRegAppTableRecord
  2
ACAD
 70
     0
  0
ENDTAB
  0
TABLE
  2
DIMSTYLE
  5
A
330
0
100
AcDbSymbolTable
 70
     1
100
AcDbDimStyleTable
 71
     0
  0
DIMSTYLE
105
3B7
330
A
100
AcDbSymbolTableRecord
100
AcDbDimStyleTableRecord
  2
Standard
 70
     0
340
11
  0
ENDTAB
  0
TABLE
  2
BLOCK_RECORD
  5
1
330
0
100
AcDbSymbolTable
 70
     2
  0
BLOCK_RECORD
  5
1E
330
1
100
AcDbSymbolTableRecord
100
AcDbBlockTableRecord
  2
*Model_Space
340
21
  0
BLOCK_RECORD
  5
1A
330
1
100
AcDbSymbolTableRecord
100
AcDbBlockTableRecord
  2
*Paper_Space
340
1D
  0
ENDTAB
  0
ENDSEC
  0
SECTION
  2
BLOCKS
  0
BLOCK
  5
1F
330
1E
100
AcDbEntity
  8
0
100
AcDbBlockBegin
  2
*Model_Space
 70
     0
 10
0.0
 20
0.0
 30
0.0
  3
*Model_Space
  1

  0
ENDBLK
  5
20
330
1E
100
AcDbEntity
  8
0
100
AcDbBlockEnd
  0
BLOCK
  5
1B
330
1A
100
AcDbEntity
 67
     1
  8
0
100
AcDbBlockBegin
  2
*Paper_Space
 70
     0
 10
0.0
 20
0.0
 30
0.0
  3
*Paper_Space
  1

  0
ENDBLK
  5
1C
330
1A
100
AcDbEntity
 67
     1
  8
0
100
AcDbBlockEnd
  0
ENDSEC
  0
SECTION
  2
ENTITIES
  0
LINE
  5
AA
330
1E
100
AcDbEntity
  8
0
100
AcDbLine
 10
173.0
 20
0.193999999999965
 30
0.0
 11
178.8879999999999
 21
0.193999999999965
 31
0.0
  0
LINE
  5
AB
330
1E
100
AcDbEntity
  8
0
100
AcDbLine
 10
178.8879999999999
 20
0.193999999999965
 30
0.0
 11
184.4079999999999
 21
0.193999999999966
 31
0.0
  0
LINE
  5
AC
330
1E
100
AcDbEntity
  8
0
100
AcDbLine
 10
184.4079999999999
 20
0.193999999999966
 30
0.0
 11
189.284
 21
0.193999999999966
 31
0.0
  0
LINE
  5
AD
330
1E
100
AcDbEntity
  8
0
100
AcDbLine
 10
167.1119999999999
 20
0.193999999999965
 30
0.0
 11
173.0
 21
0.193999999999965
 31
0.0
  0
LINE
  5
AE
330
1E
100
AcDbEntity
  8
0
100
AcDbLine
 10
189.284
 20
0.193999999999966
 30
0.0
 11
192.964
 21
0.193999999999966
 31
0.0
  0
LINE
  5
AF
330
1E
100
AcDbEntity
  8
0
100
AcDbLine
 10
192.964
 20
0.193999999999966
 30
0.0
 11
195.172
 21
0.193999999999966
 31
0.0
  0
LINE
  5
B0
330
1E
100
AcDbEntity
  8
0
100
AcDbLine
 10
161.592
 20
0.193999999999966
 30
0.0
 11
167.1119999999999
 21
0.193999999999965
 31
0.0
  0
LINE
  5
B1
330
1E
100
AcDbEntity
  8
0
100
AcDbLine
 10
156.716
 20
0.193999999999966
 30
0.0
 11
161.592
 21
0.193999999999966
 31
0.0
  0
LINE
  5
B2
330
1E
100
AcDbEntity
  8
0
100
AcDbLine
 10
195.172
 20
0.193999999999966
 30
0.0
 11
196.0
 21
0.193999999999967
 31
0.0
  0
LINE
  5
B3
330
1E
100
AcDbEntity
  8
0
100
AcDbLine
 10
153.0359999999999
 20
0.193999999999966
 30
0.0
 11
156.716
 21
0.193999999999966
 31
0.0
  0
LINE
  5
B4
330
1E
100
AcDbEntity
  8
0
100
AcDbLine
 10
150.828
 20
0.193999999999966
 30
0.0
 11
153.0359999999999
 21
0.193999999999966
 31
0.0
  0
LINE
  5
B5
330
1E
100
AcDbEntity
  8
0
100
AcDbLine
 10
192.964
 20
0.193999999999968
 30
0.0
 11
195.172
 21
0.193999999999967
 31
0.0
  0
LINE
  5
B6
330
1E
100
AcDbEntity
  8
0
100
AcDbLine
 10
195.172
 20
0.193999999999967
 30
0.0
 11
196.0
 21
0.193999999999967
 31
0.0
  0
LINE
  5
B7
330
1E
100
AcDbEntity
  8
0
100
AcDbLine
 10
184.4079999999999
 20
0.193999999999968
 30
0.0
 11
189.284
 21
0.193999999999968
 31
0.0
  0
LINE
  5
B8
330
1E
100
AcDbEntity
  8
0
100
AcDbLine
 10
189.284
 20
0.193999999999968
 30
0.0
 11
192.964
 21
0.193999999999968
 31
0.0
  0
LINE
  5
B9
330
1E
100
AcDbEntity
  8
0
100
AcDbLine
 10
178.8879999999999
 20
0.193999999999968
 30
0.0
 11
184.4079999999999
 21
0.193999999999968
 31
0.0
  0
LINE
  5
BB
330
1E
100
AcDbEntity
  8
0
100
AcDbLine
 10
173.0
 20
0.193999999999968
 30
0.0
 11
178.8879999999999
 21
0.193999999999968
 31
0.0
  0
LINE
  5
BC
330
1E
100
AcDbEntity
  8
0
100
AcDbLine
 10
167.1119999999999
 20
0.193999999999968
 30
0.0
 11
173.0
 21
0.193999999999968
 31
0.0
  0
LINE
  5
BD
330
1E
100
AcDbEntity
  8
0
100
AcDbLine
 10
161.592
 20
0.193999999999968
 30
0.0
 11
167.1119999999999
 21
0.193999999999968
 31
0.0
  0
LINE
  5
BE
330
1E
100
AcDbEntity
  8
0
100
AcDbLine
 10
156.716
 20
0.193999999999968
 30
0.0
 11
161.592
 21
0.193999999999968
 31
0.0
  0
LINE
  5
BF
330
1E
100
AcDbEntity
  8
0
100
AcDbLine
 10
153.0359999999999
 20
0.193999999999968
 30
0.0
 11
156.716
 21
0.193999999999968
 31
0.0
  0
LINE
  5
C0
330
1E
100
AcDbEntity
  8
0
100
AcDbLine
 10
150.828
 20
0.193999999999967
 30
0.0
 11
153.0359999999999
 21
0.193999999999968
 31
0.0
  0
LINE
  5
C1
330
1E
100
AcDbEntity
  8
0
100
AcDbLine
 10
150.0
 20
0.193999999999967
 30
0.0
 11
150.828
 21
0.193999999999967
 31
0.0
  0
LINE
  5
C2
330
1E
100
AcDbEntity
  8
0
100
AcDbLine
 10
150.0
 20
0.193999999999967
 30
0.0
 11
150.828
 21
0.193999999999966
 31
0.0
  0
LINE
  5
C4
330
1E
100
AcDbEntity
  8
0
100
AcDbLine
 10
27.4488
 20
21.694
 30
0.0
 11
28.0758
 21
21.701
 31
0.0
  0
LINE
  5
C5
330
1E
100
AcDbEntity
  8
0
100
AcDbLine
 10
25.6277
 20
21.697
 30
0.0
 11
27.4488
 21
21.694
 31
0.0
  0
LINE
  5
C6
330
1E
100
AcDbEntity
  8
0
100
AcDbLine
 10
14.5237
 20
21.69599999999999
 30
0.0
 11
16.0714521375301
 21
21.6996924504275
 31
0.0
  0
LINE
  5
C7
330
1E
100
AcDbEntity
  8
0
100
AcDbLine
 10
12.886317052658
 20
21.6977982350748
 30
0.0
 11
14.5237
 21
21.69599999999999
 31
0.0
  0
LINE
  5
C8
330
1E
100
AcDbEntity
  8
0
100
AcDbLine
 10
12.6498
 20
21.697
 30
0.0
 11
14.42759999999999
 21
21.703
 31
0.0
  0
LINE
  5
CA
330
1E
100
AcDbEntity
  8
0
100
AcDbLine
 10
12.07559999999999
 20
21.70199999999999
 30
0.0
 11
12.6498
 21
21.697
 31
0.0
  0
LINE
  5
10F
330
1E
100
AcDbEntity
  8
0
100
AcDbLine
 10
23.11269999999999
 20
21.701
 30
0.0
 11
25.6277
 21
21.697
 31
0.0
  0
LINE
  5
110
330
1E
100
AcDbEntity
  8
0
100
AcDbLine
 10
20.0077
 20
21.699
 30
0.0
 11
23.11269999999999
 21
21.701
 31
0.0
  0
LINE
  5
14A
330
1E
100
AcDbEntity
  8
0
100
AcDbLine
 10
14.42759999999999
 20
21.703
 30
0.0
 11
16.9126
 21
21.69799999999999
 31
0.0
  0
LINE
  5
14B
330
1E
100
AcDbEntity
  8
0
100
AcDbLine
 10
16.9126
 20
21.69799999999999
 30
0.0
 11
20.0077
 21
21.699
 31
0.0
  0
LINE
  5
508
330
1E
100
AcDbEntity
  8
0
100
AcDbLine
 10
185.172
 20
85.19399999999995
 30
0.0
 11
184.9193173952705
 21
87.9953784115823
 31
0.0
  0
LINE
  5
509
330
1E
100
AcDbEntity
  8
0
100
AcDbLine
 10
184.9193173952705
 20
87.9953784115823
 30
0.0
 11
184.0455417140091
 21
90.80901018245294
 31
0.0
  0
LINE
  5
50A
330
1E
100
AcDbEntity
  8
0
100
AcDbLine
 10
184.0455417140091
 20
90.80901018245294
 30
0.0
 11
182.8319646259537
 21
93.18604387687253
 31
0.0
  0
LINE
  5
50B
330
1E
100
AcDbEntity
  8
0
100
AcDbLine
 10
182.8319646259537
 20
93.18604387687253
 30
0.0
 11
181.5698439504352
 21
94.83541434828566
 31
0.0
  0
LINE
  5
50C
330
1E
100
AcDbEntity
  8
0
100
AcDbLine
 10
181.5698439504352
 20
94.83541434828566
 30
0.0
 11
179.628119720239
 21
96.63031739297654
 31
0.0
  0
LINE
  5
50D
330
1E
100
AcDbEntity
  8
0
100
AcDbLine
 10
172.0553971493069
 20
99.44394916384718
 30
0.0
 11
171.1719999999999
 21
99.44399999999996
 31
0.0
  0
LINE
  5
50E
330
1E
100
AcDbEntity
  8
0
100
AcDbLine
 10
177.1038791102915
 20
98.08564383898946
 30
0.0
 11
174.4825520665072
 21
99.10437256516928
 31
0.0
  0
LINE
  5
50F
330
1E
100
AcDbEntity
  8
0
100
AcDbLine
 10
174.4825520665072
 20
99.10437256516928
 30
0.0
 11
172.0553971493069
 21
99.44394916384718
 31
0.0
  0
LINE
  5
510
330
1E
100
AcDbEntity
  8
0
100
AcDbLine
 10
179.628119720239
 20
96.63031739297654
 30
0.0
 11
177.1038791102915
 21
98.08564383898946
 31
0.0
  0
LINE
  5
511
330
1E
100
AcDbEntity
  8
0
100
AcDbLine
 10
170.288602850693
 20
99.44394916384718
 30
0.0
 11
171.1719999999999
 21
99.44399999999996
 31
0.0
  0
LINE
  5
512
330
1E
100
AcDbEntity
  8
0
100
AcDbLine
 10
167.8614479334927
 20
99.10437256516928
 30
0.0
 11
170.288602850693
 21
99.44394916384718
 31
0.0
  0
LINE
  5
513
330
1E
100
AcDbEntity
  8
0
100
AcDbLine
 10
165.2401208897084
 20
98.08564383898946
 30
0.0
 11
167.8614479334927
 21
99.10437256516928
 31
0.0
  0
LINE
  5
514
330
1E
100
AcDbEntity
  8
0
100
AcDbLine
 10
162.7158802797609
 20
96.63031739297654
 30
0.0
 11
165.2401208897084
 21
98.08564383898946
 31
0.0
  0
LINE
  5
515
330
1E
100
AcDbEntity
  8
0
100
AcDbLine
 10
160.7741560495647
 20
94.83541434828566
 30
0.0
 11
162.7158802797609
 21
96.63031739297654
 31
0.0
  0
LINE
  5
516
330
1E
100
AcDbEntity
  8
0
100
AcDbLine
 10
159.5120353740462
 20
93.18604387687253
 30
0.0
 11
160.7741560495647
 21
94.83541434828566
 31
0.0
  0
LINE
  5
517
330
1E
100
AcDbEntity
  8
0
100
AcDbLine
 10
158.2984582859907
 20
90.80901018245294
 30
0.0
 11
159.5120353740462
 21
93.18604387687253
 31
0.0
  0
LINE
  5
518
330
1E
100
AcDbEntity
  8
0
100
AcDbLine
 10
157.4246826047294
 20
87.9953784115823
 30
0.0
 11
158.2984582859907
 21
90.80901018245294
 31
0.0
  0
LINE
  5
519
330
1E
100
AcDbEntity
  8
0
100
AcDbLine
 10
157.172
 20
85.19399999999995
 30
0.0
 11
157.4246826047294
 21
87.9953784115823
 31
0.0
  0
LINE
  5
51A
330
1E
100
AcDbEntity
  8
0
100
AcDbLine
 10
157.172
 20
74.84189999999998
 30
0.0
 11
157.6759999999999
 21
76.49299999999993
 31
0.0
  0
LINE
  5
51B
330
1E
100
AcDbEntity
  8
0
100
AcDbLine
 10
157.172
 20
74.84189999999998
 30
0.0
 11
157.172
 21
76.20599999999996
 31
0.0
  0
LINE
  5
51C
330
1E
100
AcDbEntity
  8
0
100
AcDbLine
 10
157.172
 20
74.84189999999998
 30
0.0
 11
157.6759999999999
 21
73.18249999999998
 31
0.0
  0
LINE
  5
51D
330
1E
100
AcDbEntity
  8
0
100
AcDbLine
 10
157.6759999999999
 20
73.18249999999998
 30
0.0
 11
159.02
 21
71.63459999999997
 31
0.0
  0
LINE
  5
51E
330
1E
100
AcDbEntity
  8
0
100
AcDbLine
 10
157.5079999999999
 20
74.60519999999994
 30
0.0
 11
158.0119999999999
 21
76.23049999999998
 31
0.0
  0
LINE
  5
51F
330
1E
100
AcDbEntity
  8
0
100
AcDbLine
 10
157.5079999999999
 20
74.60519999999994
 30
0.0
 11
158.0119999999999
 21
72.97159999999997
 31
0.0
  0
LINE
  5
520
330
1E
100
AcDbEntity
  8
0
100
AcDbLine
 10
157.6759999999999
 20
76.49299999999993
 30
0.0
 11
159.02
 21
78.04089999999999
 31
0.0
  0
LINE
  5
521
330
1E
100
AcDbEntity
  8
0
100
AcDbLine
 10
159.02
 20
78.04089999999999
 30
0.0
 11
161.26
 21
79.40819999999999
 31
0.0
  0
LINE
  5
522
330
1E
100
AcDbEntity
  8
0
100
AcDbLine
 10
161.26
 20
79.40819999999999
 30
0.0
 11
164.2279999999999
 21
80.44019999999997
 31
0.0
  0
LINE
  5
523
330
1E
100
AcDbEntity
  8
0
100
AcDbLine
 10
164.2279999999999
 20
80.44019999999997
 30
0.0
 11
167.588
 21
81.05929999999998
 31
0.0
  0
LINE
  5
524
330
1E
100
AcDbEntity
  8
0
100
AcDbLine
 10
167.588
 20
81.05929999999998
 30
0.0
 11
171.1719999999999
 21
81.29149999999995
 31
0.0
  0
LINE
  5
525
330
1E
100
AcDbEntity
  8
0
100
AcDbLine
 10
185.172
 20
82.24659999999998
 30
0.0
 11
185.172
 21
78.75039999999995
 31
0.0
  0
LINE
  5
526
330
1E
100
AcDbEntity
  8
0
100
AcDbLine
 10
185.172
 20
82.24659999999998
 30
0.0
 11
185.172
 21
84.44439999999998
 31
0.0
  0
LINE
  5
527
330
1E
100
AcDbEntity
  8
0
100
AcDbLine
 10
195.172
 20
111.0929999999999
 30
0.0
 11
195.172
 21
0.1939999999999671
 31
0.0
  0
LINE
  5
528
330
1E
100
AcDbEntity
  8
0
100
AcDbLine
 10
194.4811761194029
 20
112.7666626865669
 30
0.0
 11
195.172
 21
111.0929999999999
 31
0.0
  0
LINE
  5
529
330
1E
100
AcDbEntity
  8
0
100
AcDbLine
 10
195.172
 20
143.9519999999997
 30
0.0
 11
195.172
 21
114.4469999999997
 31
0.0
  0
LINE
  5
52A
330
1E
100
AcDbEntity
  8
0
100
AcDbLine
 10
195.172
 20
114.4469999999997
 30
0.0
 11
195.172
 21
143.9519999999997
 31
0.0
  0
LINE
  5
52B
330
1E
100
AcDbEntity
  8
0
100
AcDbLine
 10
194.3439999999999
 20
145.9669999999998
 30
0.0
 11
195.172
 21
143.9519999999997
 31
0.0
  0
LINE
  5
52C
330
1E
100
AcDbEntity
  8
0
100
AcDbLine
 10
188.456
 20
138.3829999999999
 30
0.0
 11
192.1359999999999
 21
140.0509999999999
 31
0.0
  0
LINE
  5
52D
330
1E
100
AcDbEntity
  8
0
100
AcDbLine
 10
192.1359999999999
 20
140.0509999999999
 30
0.0
 11
194.3439999999999
 21
141.9389999999999
 31
0.0
  0
LINE
  5
52E
330
1E
100
AcDbEntity
  8
0
100
AcDbLine
 10
194.3439999999999
 20
141.9389999999999
 30
0.0
 11
195.172
 21
143.9519999999997
 31
0.0
  0
LINE
  5
52F
330
1E
100
AcDbEntity
  8
0
100
AcDbLine
 10
193.792
 20
146.4979999999999
 30
0.0
 11
194.3439999999999
 21
145.9669999999998
 31
0.0
  0
LINE
  5
530
330
1E
100
AcDbEntity
  8
0
100
AcDbLine
 10
193.792
 20
146.4979999999999
 30
0.0
 11
194.6199999999999
 21
144.5159999999998
 31
0.0
  0
LINE
  5
531
330
1E
100
AcDbEntity
  8
0
100
AcDbLine
 10
193.792
 20
142.5339999999998
 30
0.0
 11
194.6199999999999
 21
144.5159999999998
 31
0.0
  0
LINE
  5
532
330
1E
100
AcDbEntity
  8
0
100
AcDbLine
 10
187.996
 20
149.9279999999999
 30
0.0
 11
191.5839999999999
 21
148.3239999999999
 31
0.0
  0
LINE
  5
533
330
1E
100
AcDbEntity
  8
0
100
AcDbLine
 10
191.5839999999999
 20
148.3239999999999
 30
0.0
 11
193.792
 21
146.4979999999999
 31
0.0
  0
LINE
  5
534
330
1E
100
AcDbEntity
  8
0
100
AcDbLine
 10
187.996
 20
139.1039999999999
 30
0.0
 11
191.5839999999999
 21
140.7089999999998
 31
0.0
  0
LINE
  5
535
330
1E
100
AcDbEntity
  8
0
100
AcDbLine
 10
191.5839999999999
 20
140.7089999999998
 30
0.0
 11
193.792
 21
142.5339999999998
 31
0.0
  0
LINE
  5
536
330
1E
100
AcDbEntity
  8
0
100
AcDbLine
 10
194.3439999999999
 20
112.4329999999998
 30
0.0
 11
195.172
 21
114.4469999999997
 31
0.0
  0
LINE
  5
537
330
1E
100
AcDbEntity
  8
0
100
AcDbLine
 10
194.172
 20
111.6279999999999
 30
0.0
 11
194.172
 21
112.2859275362319
 31
0.0
  0
LINE
  5
538
330
1E
100
AcDbEntity
  8
0
100
AcDbLine
 10
194.172
 20
112.2859275362319
 30
0.0
 11
194.172
 21
111.6279999999999
 31
0.0
  0
LINE
  5
539
330
1E
100
AcDbEntity
  8
0
100
AcDbLine
 10
194.3439999999999
 20
109.0869999999998
 30
0.0
 11
195.172
 21
111.0929999999999
 31
0.0
  0
LINE
  5
53A
330
1E
100
AcDbEntity
  8
0
100
AcDbLine
 10
192.1359999999999
 20
107.2059999999998
 30
0.0
 11
194.3439999999999
 21
109.0869999999998
 31
0.0
  0
LINE
  5
53B
330
1E
100
AcDbEntity
  8
0
100
AcDbLine
 10
188.456
 20
108.8779999999999
 30
0.0
 11
192.1359999999999
 21
110.5449999999998
 31
0.0
  0
LINE
  5
53C
330
1E
100
AcDbEntity
  8
0
100
AcDbLine
 10
192.1359999999999
 20
110.5449999999998
 30
0.0
 11
194.3439999999999
 21
112.4329999999998
 31
0.0
  0
LINE
  5
53D
330
1E
100
AcDbEntity
  8
0
100
AcDbLine
 10
193.3469999999999
 20
109.6839999999998
 30
0.0
 11
194.172
 21
111.6279999999999
 31
0.0
  0
LINE
  5
53E
330
1E
100
AcDbEntity
  8
0
100
AcDbLine
 10
191.2386999999999
 20
107.8969999999998
 30
0.0
 11
193.3469999999999
 21
109.6839999999998
 31
0.0
  0
LINE
  5
53F
330
1E
100
AcDbEntity
  8
0
100
AcDbLine
 10
188.456
 20
105.5439999999998
 30
0.0
 11
192.1359999999999
 21
107.2059999999998
 31
0.0
  0
LINE
  5
540
330
1E
100
AcDbEntity
  8
0
100
AcDbLine
 10
187.6636999999999
 20
106.3289999999999
 30
0.0
 11
191.2386999999999
 21
107.8969999999998
 31
0.0
  0
LINE
  5
541
330
1E
100
AcDbEntity
  8
0
100
AcDbLine
 10
171.1719999999999
 20
81.29149999999995
 30
0.0
 11
174.756
 21
81.05929999999998
 31
0.0
  0
LINE
  5
542
330
1E
100
AcDbEntity
  8
0
100
AcDbLine
 10
185.172
 20
84.44439999999998
 30
0.0
 11
185.172
 21
85.19399999999995
 31
0.0
  0
LINE
  5
543
330
1E
100
AcDbEntity
  8
0
100
AcDbLine
 10
185.172
 20
84.44439999999998
 30
0.0
 11
185.172
 21
82.24659999999998
 31
0.0
  0
LINE
  5
544
330
1E
100
AcDbEntity
  8
0
100
AcDbLine
 10
185.172
 20
85.19399999999995
 30
0.0
 11
185.172
 21
84.44439999999998
 31
0.0
  0
LINE
  5
545
330
1E
100
AcDbEntity
  8
0
100
AcDbLine
 10
166.284
 20
103.5379999999998
 30
0.0
 11
172.1719999999999
 21
103.2559999999999
 31
0.0
  0
LINE
  5
546
330
1E
100
AcDbEntity
  8
0
100
AcDbLine
 10
183.58
 20
107.6189999999998
 30
0.0
 11
188.456
 21
108.8779999999999
 31
0.0
  0
LINE
  5
547
330
1E
100
AcDbEntity
  8
0
100
AcDbLine
 10
183.58
 20
137.1239999999999
 30
0.0
 11
188.456
 21
138.3829999999999
 31
0.0
  0
LINE
  5
548
330
1E
100
AcDbEntity
  8
0
100
AcDbLine
 10
166.376
 20
151.9109999999999
 30
0.0
 11
172.1719999999999
 21
152.1939999999999
 31
0.0
  0
LINE
  5
549
330
1E
100
AcDbEntity
  8
0
100
AcDbLine
 10
172.1719999999999
 20
152.1939999999999
 30
0.0
 11
177.9679999999999
 21
151.9109999999999
 31
0.0
  0
LINE
  5
54A
330
1E
100
AcDbEntity
  8
0
100
AcDbLine
 10
172.1719999999999
 20
106.5809999999999
 30
0.0
 11
178.0599999999999
 21
106.8639999999998
 31
0.0
  0
LINE
  5
54B
330
1E
100
AcDbEntity
  8
0
100
AcDbLine
 10
178.0599999999999
 20
106.8639999999998
 30
0.0
 11
183.58
 21
107.6189999999998
 31
0.0
  0
LINE
  5
54C
330
1E
100
AcDbEntity
  8
0
100
AcDbLine
 10
179.0899916206089
 20
136.5106908844089
 30
0.0
 11
183.58
 21
137.1239999999999
 31
0.0
  0
LINE
  5
54D
330
1E
100
AcDbEntity
  8
0
100
AcDbLine
 10
183.304
 20
151.1559999999999
 30
0.0
 11
187.996
 21
149.9279999999999
 31
0.0
  0
LINE
  5
54E
330
1E
100
AcDbEntity
  8
0
100
AcDbLine
 10
183.304
 20
137.8779999999999
 30
0.0
 11
187.996
 21
139.1039999999999
 31
0.0
  0
LINE
  5
54F
330
1E
100
AcDbEntity
  8
0
100
AcDbLine
 10
179.1719999999999
 20
135.8049999999998
 30
0.0
 11
179.1719999999999
 21
136.1959999999999
 31
0.0
  0
LINE
  5
550
330
1E
100
AcDbEntity
  8
0
100
AcDbLine
 10
179.1719999999999
 20
136.1959999999999
 30
0.0
 11
179.1719999999999
 21
135.8049999999998
 31
0.0
  0
LINE
  5
551
330
1E
100
AcDbEntity
  8
0
100
AcDbLine
 10
182.2358999999999
 20
143.1709999999998
 30
0.0
 11
182.2719
 21
143.2589999999998
 31
0.0
  0
LINE
  5
552
330
1E
100
AcDbEntity
  8
0
100
AcDbLine
 10
180.2718999999999
 20
143.2589999999998
 30
0.0
 11
180.3078999999999
 21
143.3459999999999
 31
0.0
  0
LINE
  5
553
330
1E
100
AcDbEntity
  8
0
100
AcDbLine
 10
180.2718999999999
 20
143.2589999999998
 30
0.0
 11
180.3078999999999
 21
143.1709999999998
 31
0.0
  0
LINE
  5
554
330
1E
100
AcDbEntity
  8
0
100
AcDbLine
 10
180.3078999999999
 20
143.3459999999999
 30
0.0
 11
180.4038999999999
 21
143.4279999999999
 31
0.0
  0
LINE
  5
555
330
1E
100
AcDbEntity
  8
0
100
AcDbLine
 10
180.4038999999999
 20
143.4279999999999
 30
0.0
 11
180.5639
 21
143.5009999999999
 31
0.0
  0
LINE
  5
556
330
1E
100
AcDbEntity
  8
0
100
AcDbLine
 10
180.5639
 20
143.5009999999999
 30
0.0
 11
180.7759
 21
143.5559999999998
 31
0.0
  0
LINE
  5
557
330
1E
100
AcDbEntity
  8
0
100
AcDbLine
 10
180.7759
 20
143.5559999999998
 30
0.0
 11
181.0159
 21
143.5879999999997
 31
0.0
  0
LINE
  5
558
330
1E
100
AcDbEntity
  8
0
100
AcDbLine
 10
181.0159
 20
143.5879999999997
 30
0.0
 11
181.2718999999999
 21
143.6009999999999
 31
0.0
  0
LINE
  5
559
330
1E
100
AcDbEntity
  8
0
100
AcDbLine
 10
181.2718999999999
 20
143.6009999999999
 30
0.0
 11
181.5279
 21
143.5879999999997
 31
0.0
  0
LINE
  5
55A
330
1E
100
AcDbEntity
  8
0
100
AcDbLine
 10
181.7679
 20
143.5559999999998
 30
0.0
 11
181.9799
 21
143.5009999999999
 31
0.0
  0
LINE
  5
55B
330
1E
100
AcDbEntity
  8
0
100
AcDbLine
 10
181.5279
 20
143.5879999999997
 30
0.0
 11
181.7679
 21
143.5559999999998
 31
0.0
  0
LINE
  5
55C
330
1E
100
AcDbEntity
  8
0
100
AcDbLine
 10
182.1398999999999
 20
143.4279999999999
 30
0.0
 11
182.2358999999999
 21
143.3459999999999
 31
0.0
  0
LINE
  5
55D
330
1E
100
AcDbEntity
  8
0
100
AcDbLine
 10
181.9799
 20
143.5009999999999
 30
0.0
 11
182.1398999999999
 21
143.4279999999999
 31
0.0
  0
LINE
  5
55E
330
1E
100
AcDbEntity
  8
0
100
AcDbLine
 10
182.2358999999999
 20
143.3459999999999
 30
0.0
 11
182.2719
 21
143.2589999999998
 31
0.0
  0
LINE
  5
55F
330
1E
100
AcDbEntity
  8
0
100
AcDbLine
 10
182.1398999999999
 20
143.0889999999999
 30
0.0
 11
182.2358999999999
 21
143.1709999999998
 31
0.0
  0
LINE
  5
560
330
1E
100
AcDbEntity
  8
0
100
AcDbLine
 10
181.9799
 20
143.0169999999998
 30
0.0
 11
182.1398999999999
 21
143.0889999999999
 31
0.0
  0
LINE
  5
561
330
1E
100
AcDbEntity
  8
0
100
AcDbLine
 10
180.3078999999999
 20
143.1709999999998
 30
0.0
 11
180.4038999999999
 21
143.0889999999999
 31
0.0
  0
LINE
  5
562
330
1E
100
AcDbEntity
  8
0
100
AcDbLine
 10
180.4038999999999
 20
143.0889999999999
 30
0.0
 11
180.5639
 21
143.0169999999998
 31
0.0
  0
LINE
  5
563
330
1E
100
AcDbEntity
  8
0
100
AcDbLine
 10
181.7679
 20
142.9619999999999
 30
0.0
 11
181.9799
 21
143.0169999999998
 31
0.0
  0
LINE
  5
564
330
1E
100
AcDbEntity
  8
0
100
AcDbLine
 10
181.5279
 20
142.9289999999999
 30
0.0
 11
181.7679
 21
142.9619999999999
 31
0.0
  0
LINE
  5
565
330
1E
100
AcDbEntity
  8
0
100
AcDbLine
 10
180.5639
 20
143.0169999999998
 30
0.0
 11
180.7759
 21
142.9619999999999
 31
0.0
  0
LINE
  5
566
330
1E
100
AcDbEntity
  8
0
100
AcDbLine
 10
180.7759
 20
142.9619999999999
 30
0.0
 11
181.0159
 21
142.9289999999999
 31
0.0
  0
LINE
  5
567
330
1E
100
AcDbEntity
  8
0
100
AcDbLine
 10
181.2718999999999
 20
142.9169999999998
 30
0.0
 11
181.5279
 21
142.9289999999999
 31
0.0
  0
LINE
  5
568
330
1E
100
AcDbEntity
  8
0
100
AcDbLine
 10
181.0159
 20
142.9289999999999
 30
0.0
 11
181.2718999999999
 21
142.9169999999998
 31
0.0
  0
LINE
  5
569
330
1E
100
AcDbEntity
  8
0
100
AcDbLine
 10
177.9679999999999
 20
151.9109999999999
 30
0.0
 11
183.304
 21
151.1559999999999
 31
0.0
  0
LINE
  5
56A
330
1E
100
AcDbEntity
  8
0
100
AcDbLine
 10
178.8609418676622
 20
137.2485112541139
 30
0.0
 11
183.304
 21
137.8779999999999
 31
0.0
  0
LINE
  5
56B
330
1E
100
AcDbEntity
  8
0
100
AcDbLine
 10
178.9199999999999
 20
134.8189999999998
 30
0.0
 11
179.1719999999999
 21
135.8049999999998
 31
0.0
  0
LINE
  5
56C
330
1E
100
AcDbEntity
  8
0
100
AcDbLine
 10
178.9199999999999
 20
136.8659999999998
 30
0.0
 11
179.1719999999999
 21
135.8049999999998
 31
0.0
  0
LINE
  5
56D
330
1E
100
AcDbEntity
  8
0
100
AcDbLine
 10
173.964
 20
132.0679999999999
 30
0.0
 11
175.6439999999999
 21
132.3409999999999
 31
0.0
  0
LINE
  5
56E
330
1E
100
AcDbEntity
  8
0
100
AcDbLine
 10
175.6439999999999
 20
132.3409999999999
 30
0.0
 11
177.128
 21
132.9829999999998
 31
0.0
  0
LINE
  5
56F
330
1E
100
AcDbEntity
  8
0
100
AcDbLine
 10
177.128
 20
132.9829999999998
 30
0.0
 11
178.248
 21
133.8409999999999
 31
0.0
  0
LINE
  5
570
330
1E
100
AcDbEntity
  8
0
100
AcDbLine
 10
178.248
 20
133.8409999999999
 30
0.0
 11
178.9199999999999
 21
134.8189999999998
 31
0.0
  0
LINE
  5
571
330
1E
100
AcDbEntity
  8
0
100
AcDbLine
 10
178.248
 20
137.8959999999998
 30
0.0
 11
178.9199999999999
 21
136.8659999999998
 31
0.0
  0
LINE
  5
572
330
1E
100
AcDbEntity
  8
0
100
AcDbLine
 10
177.128
 20
138.6289999999998
 30
0.0
 11
178.248
 21
137.8959999999998
 31
0.0
  0
LINE
  5
573
330
1E
100
AcDbEntity
  8
0
100
AcDbLine
 10
175.6439999999999
 20
139.1689999999999
 30
0.0
 11
177.128
 21
138.6289999999998
 31
0.0
  0
LINE
  5
574
330
1E
100
AcDbEntity
  8
0
100
AcDbLine
 10
173.964
 20
139.6689999999998
 30
0.0
 11
175.6439999999999
 21
139.1689999999999
 31
0.0
  0
LINE
  5
575
330
1E
100
AcDbEntity
  8
0
100
AcDbLine
 10
172.94
 20
113.7559999999999
 30
0.0
 11
173.6599999999999
 21
114.0259999999998
 31
0.0
  0
LINE
  5
576
330
1E
100
AcDbEntity
  8
0
100
AcDbLine
 10
173.6599999999999
 20
114.0259999999998
 30
0.0
 11
174.296
 21
114.4769999999998
 31
0.0
  0
LINE
  5
577
330
1E
100
AcDbEntity
  8
0
100
AcDbLine
 10
174.296
 20
114.4769999999998
 30
0.0
 11
174.7759999999999
 21
115.0749999999999
 31
0.0
  0
LINE
  5
578
330
1E
100
AcDbEntity
  8
0
100
AcDbLine
 10
174.7759999999999
 20
117.8719999999998
 30
0.0
 11
175.0639999999999
 21
117.1949999999998
 31
0.0
  0
LINE
  5
579
330
1E
100
AcDbEntity
  8
0
100
AcDbLine
 10
174.7759999999999
 20
115.0749999999999
 30
0.0
 11
175.0639999999999
 21
115.7519999999999
 31
0.0
  0
LINE
  5
57A
330
1E
100
AcDbEntity
  8
0
100
AcDbLine
 10
175.0639999999999
 20
115.7519999999999
 30
0.0
 11
175.1719999999999
 21
116.4729999999998
 31
0.0
  0
LINE
  5
57B
330
1E
100
AcDbEntity
  8
0
100
AcDbLine
 10
175.0639999999999
 20
117.1949999999998
 30
0.0
 11
175.1719999999999
 21
116.4729999999998
 31
0.0
  0
LINE
  5
57C
330
1E
100
AcDbEntity
  8
0
100
AcDbLine
 10
173.6599999999999
 20
118.9199999999998
 30
0.0
 11
174.296
 21
118.4689999999999
 31
0.0
  0
LINE
  5
57D
330
1E
100
AcDbEntity
  8
0
100
AcDbLine
 10
174.296
 20
118.4689999999999
 30
0.0
 11
174.7759999999999
 21
117.8719999999998
 31
0.0
  0
LINE
  5
57E
330
1E
100
AcDbEntity
  8
0
100
AcDbLine
 10
172.94
 20
119.1909999999999
 30
0.0
 11
173.6599999999999
 21
118.9199999999998
 31
0.0
  0
LINE
  5
57F
330
1E
100
AcDbEntity
  8
0
100
AcDbLine
 10
177.8552999999999
 20
104.3849999999999
 30
0.0
 11
183.0802999999999
 21
105.1059999999999
 31
0.0
  0
LINE
  5
580
330
1E
100
AcDbEntity
  8
0
100
AcDbLine
 10
183.0802999999999
 20
105.1059999999999
 30
0.0
 11
187.6636999999999
 21
106.3289999999999
 31
0.0
  0
LINE
  5
581
330
1E
100
AcDbEntity
  8
0
100
AcDbLine
 10
166.4887
 20
104.3849999999999
 30
0.0
 11
172.1719999999999
 21
104.1029999999998
 31
0.0
  0
LINE
  5
582
330
1E
100
AcDbEntity
  8
0
100
AcDbLine
 10
167.2159999999999
 20
132.9829999999998
 30
0.0
 11
168.6999999999999
 21
132.3409999999999
 31
0.0
  0
LINE
  5
583
330
1E
100
AcDbEntity
  8
0
100
AcDbLine
 10
168.6999999999999
 20
132.3409999999999
 30
0.0
 11
170.3799999999999
 21
132.0679999999999
 31
0.0
  0
LINE
  5
584
330
1E
100
AcDbEntity
  8
0
100
AcDbLine
 10
168.6999999999999
 20
139.1689999999999
 30
0.0
 11
170.3799999999999
 21
139.6689999999998
 31
0.0
  0
LINE
  5
585
330
1E
100
AcDbEntity
  8
0
100
AcDbLine
 10
170.3799999999999
 20
139.6689999999998
 30
0.0
 11
172.1719999999999
 21
139.7549999999999
 31
0.0
  0
LINE
  5
586
330
1E
100
AcDbEntity
  8
0
100
AcDbLine
 10
172.1719999999999
 20
139.7549999999999
 30
0.0
 11
173.964
 21
139.6689999999998
 31
0.0
  0
LINE
  5
587
330
1E
100
AcDbEntity
  8
0
100
AcDbLine
 10
170.3799999999999
 20
132.0679999999999
 30
0.0
 11
172.1719999999999
 21
131.9799999999999
 31
0.0
  0
LINE
  5
588
330
1E
100
AcDbEntity
  8
0
100
AcDbLine
 10
172.1719999999999
 20
131.9799999999999
 30
0.0
 11
173.964
 21
132.0679999999999
 31
0.0
  0
LINE
  5
589
330
1E
100
AcDbEntity
  8
0
100
AcDbLine
 10
170.6839999999999
 20
114.0259999999998
 30
0.0
 11
171.4039999999999
 21
113.7559999999999
 31
0.0
  0
LINE
  5
58A
330
1E
100
AcDbEntity
  8
0
100
AcDbLine
 10
171.4039999999999
 20
113.7559999999999
 30
0.0
 11
172.1719999999999
 21
113.6539999999999
 31
0.0
  0
LINE
  5
58B
330
1E
100
AcDbEntity
  8
0
100
AcDbLine
 10
171.4039999999999
 20
119.1909999999999
 30
0.0
 11
172.1719999999999
 21
119.2919999999998
 31
0.0
  0
LINE
  5
58C
330
1E
100
AcDbEntity
  8
0
100
AcDbLine
 10
172.1719999999999
 20
119.2919999999998
 30
0.0
 11
172.94
 21
119.1909999999999
 31
0.0
  0
LINE
  5
58D
330
1E
100
AcDbEntity
  8
0
100
AcDbLine
 10
172.1719999999999
 20
113.6539999999999
 30
0.0
 11
172.94
 21
113.7559999999999
 31
0.0
  0
LINE
  5
58E
330
1E
100
AcDbEntity
  8
0
100
AcDbLine
 10
170.6839999999999
 20
118.9199999999998
 30
0.0
 11
171.4039999999999
 21
119.1909999999999
 31
0.0
  0
LINE
  5
58F
330
1E
100
AcDbEntity
  8
0
100
AcDbLine
 10
169.172
 20
116.4729999999998
 30
0.0
 11
169.28
 21
117.1949999999998
 31
0.0
  0
LINE
  5
590
330
1E
100
AcDbEntity
  8
0
100
AcDbLine
 10
169.172
 20
116.4729999999998
 30
0.0
 11
169.28
 21
115.7519999999999
 31
0.0
  0
LINE
  5
591
330
1E
100
AcDbEntity
  8
0
100
AcDbLine
 10
169.28
 20
117.1949999999998
 30
0.0
 11
169.568
 21
117.8719999999998
 31
0.0
  0
LINE
  5
592
330
1E
100
AcDbEntity
  8
0
100
AcDbLine
 10
169.568
 20
117.8719999999998
 30
0.0
 11
170.0479999999999
 21
118.4689999999999
 31
0.0
  0
LINE
  5
593
330
1E
100
AcDbEntity
  8
0
100
AcDbLine
 10
170.0479999999999
 20
118.4689999999999
 30
0.0
 11
170.6839999999999
 21
118.9199999999998
 31
0.0
  0
LINE
  5
594
330
1E
100
AcDbEntity
  8
0
100
AcDbLine
 10
169.28
 20
115.7519999999999
 30
0.0
 11
169.568
 21
115.0749999999999
 31
0.0
  0
LINE
  5
595
330
1E
100
AcDbEntity
  8
0
100
AcDbLine
 10
169.568
 20
115.0749999999999
 30
0.0
 11
170.0479999999999
 21
114.4769999999998
 31
0.0
  0
LINE
  5
596
330
1E
100
AcDbEntity
  8
0
100
AcDbLine
 10
170.0479999999999
 20
114.4769999999998
 30
0.0
 11
170.6839999999999
 21
114.0259999999998
 31
0.0
  0
LINE
  5
597
330
1E
100
AcDbEntity
  8
0
100
AcDbLine
 10
167.2159999999999
 20
138.6289999999998
 30
0.0
 11
168.6999999999999
 21
139.1689999999999
 31
0.0
  0
LINE
  5
598
330
1E
100
AcDbEntity
  8
0
100
AcDbLine
 10
183.58
 20
104.2899999999999
 30
0.0
 11
188.456
 21
105.5439999999998
 31
0.0
  0
LINE
  5
599
330
1E
100
AcDbEntity
  8
0
100
AcDbLine
 10
178.0599999999999
 20
103.5379999999998
 30
0.0
 11
183.58
 21
104.2899999999999
 31
0.0
  0
LINE
  5
59A
330
1E
100
AcDbEntity
  8
0
100
AcDbLine
 10
172.1719999999999
 20
104.1029999999998
 30
0.0
 11
177.8552999999999
 21
104.3849999999999
 31
0.0
  0
LINE
  5
59B
330
1E
100
AcDbEntity
  8
0
100
AcDbLine
 10
172.1719999999999
 20
103.2559999999999
 30
0.0
 11
178.0599999999999
 21
103.5379999999998
 31
0.0
  0
LINE
  5
59C
330
1E
100
AcDbEntity
  8
0
100
AcDbLine
 10
166.284
 20
106.8639999999998
 30
0.0
 11
172.1719999999999
 21
106.5809999999999
 31
0.0
  0
LINE
  5
59D
330
1E
100
AcDbEntity
  8
0
100
AcDbLine
 10
165.172
 20
135.8049999999998
 30
0.0
 11
165.424
 21
136.8659999999998
 31
0.0
  0
LINE
  5
59E
330
1E
100
AcDbEntity
  8
0
100
AcDbLine
 10
165.172
 20
135.8049999999998
 30
0.0
 11
165.172
 21
136.1959999999999
 31
0.0
  0
LINE
  5
59F
330
1E
100
AcDbEntity
  8
0
100
AcDbLine
 10
165.172
 20
135.8049999999998
 30
0.0
 11
165.424
 21
134.8189999999998
 31
0.0
  0
LINE
  5
5A0
330
1E
100
AcDbEntity
  8
0
100
AcDbLine
 10
165.424
 20
134.8189999999998
 30
0.0
 11
166.0959999999999
 21
133.8409999999999
 31
0.0
  0
LINE
  5
5A1
330
1E
100
AcDbEntity
  8
0
100
AcDbLine
 10
165.424
 20
136.8659999999998
 30
0.0
 11
166.0959999999999
 21
137.8959999999998
 31
0.0
  0
LINE
  5
5A2
330
1E
100
AcDbEntity
  8
0
100
AcDbLine
 10
166.0959999999999
 20
137.8959999999998
 30
0.0
 11
167.2159999999999
 21
138.6289999999998
 31
0.0
  0
LINE
  5
5A3
330
1E
100
AcDbEntity
  8
0
100
AcDbLine
 10
166.0959999999999
 20
133.8409999999999
 30
0.0
 11
167.2159999999999
 21
132.9829999999998
 31
0.0
  0
LINE
  5
5A4
330
1E
100
AcDbEntity
  8
0
100
AcDbLine
 10
165.172
 20
136.1959999999999
 30
0.0
 11
165.172
 21
135.8049999999998
 31
0.0
  0
LINE
  5
5A5
330
1E
100
AcDbEntity
  8
0
100
AcDbLine
 10
164.3959999999999
 20
80.04869999999995
 30
0.0
 11
167.6439999999999
 21
80.66789999999997
 31
0.0
  0
LINE
  5
5A6
330
1E
100
AcDbEntity
  8
0
100
AcDbLine
 10
167.6439999999999
 20
80.66789999999997
 30
0.0
 11
171.1719999999999
 21
80.90009999999997
 31
0.0
  0
LINE
  5
5A7
330
1E
100
AcDbEntity
  8
0
100
AcDbLine
 10
174.756
 20
81.05929999999998
 30
0.0
 11
178.116
 21
80.44019999999997
 31
0.0
  0
LINE
  5
5A8
330
1E
100
AcDbEntity
  8
0
100
AcDbLine
 10
171.1719999999999
 20
80.90009999999997
 30
0.0
 11
174.7
 21
80.66789999999997
 31
0.0
  0
LINE
  5
5A9
330
1E
100
AcDbEntity
  8
0
100
AcDbLine
 10
178.116
 20
80.44019999999997
 30
0.0
 11
181.0839999999999
 21
79.40819999999999
 31
0.0
  0
LINE
  5
5AA
330
1E
100
AcDbEntity
  8
0
100
AcDbLine
 10
177.948
 20
80.04869999999995
 30
0.0
 11
180.804
 21
79.04259999999997
 31
0.0
  0
LINE
  5
5AB
330
1E
100
AcDbEntity
  8
0
100
AcDbLine
 10
174.7
 20
80.66789999999997
 30
0.0
 11
177.948
 21
80.04869999999995
 31
0.0
  0
LINE
  5
5AC
330
1E
100
AcDbEntity
  8
0
100
AcDbLine
 10
160.7639999999999
 20
104.2899999999999
 30
0.0
 11
166.284
 21
103.5379999999998
 31
0.0
  0
LINE
  5
5AD
330
1E
100
AcDbEntity
  8
0
100
AcDbLine
 10
161.2637
 20
105.1059999999999
 30
0.0
 11
166.4887
 21
104.3849999999999
 31
0.0
  0
LINE
  5
5AE
330
1E
100
AcDbEntity
  8
0
100
AcDbLine
 10
162.0361
 20
143.1709999999998
 30
0.0
 11
162.0721
 21
143.2589999999998
 31
0.0
  0
LINE
  5
5AF
330
1E
100
AcDbEntity
  8
0
100
AcDbLine
 10
161.9401
 20
143.0889999999999
 30
0.0
 11
162.0361
 21
143.1709999999998
 31
0.0
  0
LINE
  5
5B0
330
1E
100
AcDbEntity
  8
0
100
AcDbLine
 10
162.0361
 20
143.3459999999999
 30
0.0
 11
162.0721
 21
143.2589999999998
 31
0.0
  0
LINE
  5
5B1
330
1E
100
AcDbEntity
  8
0
100
AcDbLine
 10
161.9401
 20
143.4279999999999
 30
0.0
 11
162.0361
 21
143.3459999999999
 31
0.0
  0
LINE
  5
5B2
330
1E
100
AcDbEntity
  8
0
100
AcDbLine
 10
161.7800999999999
 20
143.5009999999999
 30
0.0
 11
161.9401
 21
143.4279999999999
 31
0.0
  0
LINE
  5
5B3
330
1E
100
AcDbEntity
  8
0
100
AcDbLine
 10
161.5680999999999
 20
143.5559999999998
 30
0.0
 11
161.7800999999999
 21
143.5009999999999
 31
0.0
  0
LINE
  5
5B4
330
1E
100
AcDbEntity
  8
0
100
AcDbLine
 10
161.3280999999999
 20
143.5879999999997
 30
0.0
 11
161.5680999999999
 21
143.5559999999998
 31
0.0
  0
LINE
  5
5B5
330
1E
100
AcDbEntity
  8
0
100
AcDbLine
 10
161.0721
 20
143.6009999999999
 30
0.0
 11
161.3280999999999
 21
143.5879999999997
 31
0.0
  0
LINE
  5
5B6
330
1E
100
AcDbEntity
  8
0
100
AcDbLine
 10
161.7800999999999
 20
143.0169999999998
 30
0.0
 11
161.9401
 21
143.0889999999999
 31
0.0
  0
LINE
  5
5B7
330
1E
100
AcDbEntity
  8
0
100
AcDbLine
 10
161.5680999999999
 20
142.9619999999999
 30
0.0
 11
161.7800999999999
 21
143.0169999999998
 31
0.0
  0
LINE
  5
5B8
330
1E
100
AcDbEntity
  8
0
100
AcDbLine
 10
161.3280999999999
 20
142.9289999999999
 30
0.0
 11
161.5680999999999
 21
142.9619999999999
 31
0.0
  0
LINE
  5
5B9
330
1E
100
AcDbEntity
  8
0
100
AcDbLine
 10
161.0721
 20
142.9169999999998
 30
0.0
 11
161.3280999999999
 21
142.9289999999999
 31
0.0
  0
LINE
  5
5BA
330
1E
100
AcDbEntity
  8
0
100
AcDbLine
 10
160.7639999999999
 20
107.6189999999998
 30
0.0
 11
166.284
 21
106.8639999999998
 31
0.0
  0
LINE
  5
5BB
330
1E
100
AcDbEntity
  8
0
100
AcDbLine
 10
160.7639999999999
 20
137.1239999999999
 30
0.0
 11
165.2540083793909
 21
136.5106908844089
 31
0.0
  0
LINE
  5
5BC
330
1E
100
AcDbEntity
  8
0
100
AcDbLine
 10
161.04
 20
137.8779999999999
 30
0.0
 11
165.4830581323377
 21
137.2485112541139
 31
0.0
  0
LINE
  5
5BD
330
1E
100
AcDbEntity
  8
0
100
AcDbLine
 10
161.04
 20
151.1559999999999
 30
0.0
 11
166.376
 21
151.9109999999999
 31
0.0
  0
LINE
  5
5BE
330
1E
100
AcDbEntity
  8
0
100
AcDbLine
 10
160.8160999999999
 20
142.9289999999999
 30
0.0
 11
161.0721
 21
142.9169999999998
 31
0.0
  0
LINE
  5
5BF
330
1E
100
AcDbEntity
  8
0
100
AcDbLine
 10
160.8160999999999
 20
143.5879999999997
 30
0.0
 11
161.0721
 21
143.6009999999999
 31
0.0
  0
LINE
  5
5C0
330
1E
100
AcDbEntity
  8
0
100
AcDbLine
 10
160.0721
 20
143.2589999999998
 30
0.0
 11
160.1081
 21
143.3459999999999
 31
0.0
  0
LINE
  5
5C1
330
1E
100
AcDbEntity
  8
0
100
AcDbLine
 10
160.0721
 20
143.2589999999998
 30
0.0
 11
160.1081
 21
143.1709999999998
 31
0.0
  0
LINE
  5
5C2
330
1E
100
AcDbEntity
  8
0
100
AcDbLine
 10
160.1081
 20
143.3459999999999
 30
0.0
 11
160.2041
 21
143.4279999999999
 31
0.0
  0
LINE
  5
5C3
330
1E
100
AcDbEntity
  8
0
100
AcDbLine
 10
160.2041
 20
143.4279999999999
 30
0.0
 11
160.3640999999999
 21
143.5009999999999
 31
0.0
  0
LINE
  5
5C4
330
1E
100
AcDbEntity
  8
0
100
AcDbLine
 10
160.3640999999999
 20
143.5009999999999
 30
0.0
 11
160.5760999999999
 21
143.5559999999998
 31
0.0
  0
LINE
  5
5C5
330
1E
100
AcDbEntity
  8
0
100
AcDbLine
 10
160.5760999999999
 20
143.5559999999998
 30
0.0
 11
160.8160999999999
 21
143.5879999999997
 31
0.0
  0
LINE
  5
5C6
330
1E
100
AcDbEntity
  8
0
100
AcDbLine
 10
160.1081
 20
143.1709999999998
 30
0.0
 11
160.2041
 21
143.0889999999999
 31
0.0
  0
LINE
  5
5C7
330
1E
100
AcDbEntity
  8
0
100
AcDbLine
 10
160.2041
 20
143.0889999999999
 30
0.0
 11
160.3640999999999
 21
143.0169999999998
 31
0.0
  0
LINE
  5
5C8
330
1E
100
AcDbEntity
  8
0
100
AcDbLine
 10
160.3640999999999
 20
143.0169999999998
 30
0.0
 11
160.5760999999999
 21
142.9619999999999
 31
0.0
  0
LINE
  5
5C9
330
1E
100
AcDbEntity
  8
0
100
AcDbLine
 10
160.5760999999999
 20
142.9619999999999
 30
0.0
 11
160.8160999999999
 21
142.9289999999999
 31
0.0
  0
LINE
  5
5CA
330
1E
100
AcDbEntity
  8
0
100
AcDbLine
 10
159.3559999999999
 20
77.72679999999997
 30
0.0
 11
161.5399999999999
 21
79.04259999999997
 31
0.0
  0
LINE
  5
5CB
330
1E
100
AcDbEntity
  8
0
100
AcDbLine
 10
161.5399999999999
 20
79.04259999999997
 30
0.0
 11
164.3959999999999
 21
80.04869999999995
 31
0.0
  0
LINE
  5
5CC
330
1E
100
AcDbEntity
  8
0
100
AcDbLine
 10
181.0839999999999
 20
79.40819999999999
 30
0.0
 11
183.3239999999999
 21
78.04089999999999
 31
0.0
  0
LINE
  5
5CD
330
1E
100
AcDbEntity
  8
0
100
AcDbLine
 10
185.172
 20
78.75039999999995
 30
0.0
 11
185.172
 21
76.20599999999996
 31
0.0
  0
LINE
  5
5CE
330
1E
100
AcDbEntity
  8
0
100
AcDbLine
 10
185.172
 20
78.75039999999995
 30
0.0
 11
185.172
 21
82.24659999999998
 31
0.0
  0
LINE
  5
5CF
330
1E
100
AcDbEntity
  8
0
100
AcDbLine
 10
183.3239999999999
 20
78.04089999999999
 30
0.0
 11
184.6679999999999
 21
76.49299999999993
 31
0.0
  0
LINE
  5
5D0
330
1E
100
AcDbEntity
  8
0
100
AcDbLine
 10
180.804
 20
79.04259999999997
 30
0.0
 11
182.988
 21
77.72679999999997
 31
0.0
  0
LINE
  5
5D1
330
1E
100
AcDbEntity
  8
0
100
AcDbLine
 10
182.988
 20
77.72679999999997
 30
0.0
 11
184.3319999999999
 21
76.23049999999998
 31
0.0
  0
LINE
  5
5D2
330
1E
100
AcDbEntity
  8
0
100
AcDbLine
 10
158.0119999999999
 20
76.23049999999998
 30
0.0
 11
159.3559999999999
 21
77.72679999999997
 31
0.0
  0
LINE
  5
5D3
330
1E
100
AcDbEntity
  8
0
100
AcDbLine
 10
185.172
 20
76.20599999999996
 30
0.0
 11
185.172
 21
74.84189999999998
 31
0.0
  0
LINE
  5
5D4
330
1E
100
AcDbEntity
  8
0
100
AcDbLine
 10
185.172
 20
76.20599999999996
 30
0.0
 11
185.172
 21
78.75039999999995
 31
0.0
  0
LINE
  5
5D5
330
1E
100
AcDbEntity
  8
0
100
AcDbLine
 10
184.6679999999999
 20
76.49299999999993
 30
0.0
 11
185.172
 21
74.84189999999998
 31
0.0
  0
LINE
  5
5D6
330
1E
100
AcDbEntity
  8
0
100
AcDbLine
 10
184.3319999999999
 20
76.23049999999998
 30
0.0
 11
184.8359999999999
 21
74.60519999999994
 31
0.0
  0
LINE
  5
5D7
330
1E
100
AcDbEntity
  8
0
100
AcDbLine
 10
185.172
 20
74.84189999999998
 30
0.0
 11
185.172
 21
76.20599999999996
 31
0.0
  0
LINE
  5
5D8
330
1E
100
AcDbEntity
  8
0
100
AcDbLine
 10
183.1719999999999
 20
74.60519999999994
 30
0.0
 11
183.1719999999999
 21
69.33579999999998
 31
0.0
  0
LINE
  5
5D9
330
1E
100
AcDbEntity
  8
0
100
AcDbLine
 10
159.172
 20
74.60519999999994
 30
0.0
 11
159.172
 21
69.33579999999998
 31
0.0
  0
LINE
  5
5DA
330
1E
100
AcDbEntity
  8
0
100
AcDbLine
 10
159.02
 20
71.63459999999997
 30
0.0
 11
159.172
 21
71.54181892857136
 31
0.0
  0
LINE
  5
5DB
330
1E
100
AcDbEntity
  8
0
100
AcDbLine
 10
184.6679999999999
 20
73.18249999999998
 30
0.0
 11
185.172
 21
74.84189999999998
 31
0.0
  0
LINE
  5
5DC
330
1E
100
AcDbEntity
  8
0
100
AcDbLine
 10
183.3239999999999
 20
71.63459999999997
 30
0.0
 11
184.6679999999999
 21
73.18249999999998
 31
0.0
  0
LINE
  5
5DD
330
1E
100
AcDbEntity
  8
0
100
AcDbLine
 10
184.3319999999999
 20
72.97159999999997
 30
0.0
 11
184.8359999999999
 21
74.60519999999994
 31
0.0
  0
LINE
  5
5DE
330
1E
100
AcDbEntity
  8
0
100
AcDbLine
 10
194.3439999999999
 20
0.1939999999999635
 30
0.0
 11
195.172
 21
0.193999999999964
 31
0.0
  0
LINE
  5
5DF
330
1E
100
AcDbEntity
  8
0
100
AcDbLine
 10
195.172
 20
0.193999999999964
 30
0.0
 11
195.172
 21
111.0929999999999
 31
0.0
  0
LINE
  5
5E0
330
1E
100
AcDbEntity
  8
0
100
AcDbLine
 10
192.1359999999999
 20
0.1939999999999631
 30
0.0
 11
194.3439999999999
 21
0.1939999999999635
 31
0.0
  0
LINE
  5
5E1
330
1E
100
AcDbEntity
  8
0
100
AcDbLine
 10
194.3439999999999
 20
0.1939999999999644
 30
0.0
 11
195.172
 21
0.193999999999964
 31
0.0
  0
LINE
  5
5E2
330
1E
100
AcDbEntity
  8
0
100
AcDbLine
 10
192.1359999999999
 20
0.1939999999999649
 30
0.0
 11
194.3439999999999
 21
0.1939999999999644
 31
0.0
  0
LINE
  5
5E3
330
1E
100
AcDbEntity
  8
0
100
AcDbLine
 10
188.456
 20
0.1939999999999649
 30
0.0
 11
192.1359999999999
 21
0.1939999999999649
 31
0.0
  0
LINE
  5
5E4
330
1E
100
AcDbEntity
  8
0
100
AcDbLine
 10
183.58
 20
0.1939999999999653
 30
0.0
 11
188.456
 21
0.1939999999999649
 31
0.0
  0
LINE
  5
5E5
330
1E
100
AcDbEntity
  8
0
100
AcDbLine
 10
188.456
 20
0.1939999999999631
 30
0.0
 11
192.1359999999999
 21
0.1939999999999631
 31
0.0
  0
LINE
  5
5E6
330
1E
100
AcDbEntity
  8
0
100
AcDbLine
 10
183.58
 20
0.1939999999999626
 30
0.0
 11
188.456
 21
0.1939999999999631
 31
0.0
  0
LINE
  5
5E7
330
1E
100
AcDbEntity
  8
0
100
AcDbLine
 10
183.1719999999999
 20
71.54181892857136
 30
0.0
 11
183.3239999999999
 21
71.63459999999997
 31
0.0
  0
LINE
  5
5E8
330
1E
100
AcDbEntity
  8
0
100
AcDbLine
 10
183.1719999999999
 20
71.68015059523807
 30
0.0
 11
184.3319999999999
 21
72.97159999999997
 31
0.0
  0
LINE
  5
5E9
330
1E
100
AcDbEntity
  8
0
100
AcDbLine
 10
179.6679999999999
 20
72.05759999999997
 30
0.0
 11
181.5879999999999
 21
71.24259999999996
 31
0.0
  0
LINE
  5
5EA
330
1E
100
AcDbEntity
  8
0
100
AcDbLine
 10
177.1239999999999
 20
72.67279999999999
 30
0.0
 11
179.6679999999999
 21
72.05759999999997
 31
0.0
  0
LINE
  5
5EB
330
1E
100
AcDbEntity
  8
0
100
AcDbLine
 10
174.244
 20
73.04179999999999
 30
0.0
 11
177.1239999999999
 21
72.67279999999999
 31
0.0
  0
LINE
  5
5EC
330
1E
100
AcDbEntity
  8
0
100
AcDbLine
 10
171.1719999999999
 20
73.18019999999996
 30
0.0
 11
174.244
 21
73.04179999999999
 31
0.0
  0
LINE
  5
5ED
330
1E
100
AcDbEntity
  8
0
100
AcDbLine
 10
176.98
 20
72.22529999999998
 30
0.0
 11
179.4279999999999
 21
71.62549999999995
 31
0.0
  0
LINE
  5
5EE
330
1E
100
AcDbEntity
  8
0
100
AcDbLine
 10
174.1959999999999
 20
72.59429999999998
 30
0.0
 11
176.98
 21
72.22529999999998
 31
0.0
  0
LINE
  5
5EF
330
1E
100
AcDbEntity
  8
0
100
AcDbLine
 10
171.1719999999999
 20
72.73269999999996
 30
0.0
 11
174.1959999999999
 21
72.59429999999998
 31
0.0
  0
LINE
  5
5F0
330
1E
100
AcDbEntity
  8
0
100
AcDbLine
 10
165.22
 20
72.67279999999999
 30
0.0
 11
168.1
 21
73.04179999999999
 31
0.0
  0
LINE
  5
5F1
330
1E
100
AcDbEntity
  8
0
100
AcDbLine
 10
168.1
 20
73.04179999999999
 30
0.0
 11
171.1719999999999
 21
73.18019999999996
 31
0.0
  0
LINE
  5
5F2
330
1E
100
AcDbEntity
  8
0
100
AcDbLine
 10
165.364
 20
72.22529999999998
 30
0.0
 11
168.148
 21
72.59429999999998
 31
0.0
  0
LINE
  5
5F3
330
1E
100
AcDbEntity
  8
0
100
AcDbLine
 10
168.148
 20
72.59429999999998
 30
0.0
 11
171.1719999999999
 21
72.73269999999996
 31
0.0
  0
LINE
  5
5F4
330
1E
100
AcDbEntity
  8
0
100
AcDbLine
 10
179.4279999999999
 20
71.62549999999995
 30
0.0
 11
181.2999999999999
 21
70.84129999999996
 31
0.0
  0
LINE
  5
5F5
330
1E
100
AcDbEntity
  8
0
100
AcDbLine
 10
162.676
 20
72.05759999999997
 30
0.0
 11
165.22
 21
72.67279999999999
 31
0.0
  0
LINE
  5
5F6
330
1E
100
AcDbEntity
  8
0
100
AcDbLine
 10
162.916
 20
71.62549999999995
 30
0.0
 11
165.364
 21
72.22529999999998
 31
0.0
  0
LINE
  5
5F7
330
1E
100
AcDbEntity
  8
0
100
AcDbLine
 10
182.7399999999999
 20
70.31999999999996
 30
0.0
 11
183.1719999999999
 21
69.33579999999998
 31
0.0
  0
LINE
  5
5F8
330
1E
100
AcDbEntity
  8
0
100
AcDbLine
 10
183.1719999999999
 20
69.33579999999998
 30
0.0
 11
183.1719999999999
 21
74.60519999999994
 31
0.0
  0
LINE
  5
5F9
330
1E
100
AcDbEntity
  8
0
100
AcDbLine
 10
181.5879999999999
 20
71.24259999999996
 30
0.0
 11
182.7399999999999
 21
70.31999999999996
 31
0.0
  0
LINE
  5
5FA
330
1E
100
AcDbEntity
  8
0
100
AcDbLine
 10
182.4519999999999
 20
69.94939999999997
 30
0.0
 11
182.8839999999999
 21
68.98059999999998
 31
0.0
  0
LINE
  5
5FB
330
1E
100
AcDbEntity
  8
0
100
AcDbLine
 10
182.7399999999999
 20
68.35159999999996
 30
0.0
 11
183.1719999999999
 21
69.33579999999998
 31
0.0
  0
LINE
  5
5FC
330
1E
100
AcDbEntity
  8
0
100
AcDbLine
 10
181.2999999999999
 20
70.84129999999996
 30
0.0
 11
182.4519999999999
 21
69.94939999999997
 31
0.0
  0
LINE
  5
5FD
330
1E
100
AcDbEntity
  8
0
100
AcDbLine
 10
160.756
 20
71.24259999999996
 30
0.0
 11
162.676
 21
72.05759999999997
 31
0.0
  0
LINE
  5
5FE
330
1E
100
AcDbEntity
  8
0
100
AcDbLine
 10
159.172
 20
69.33579999999998
 30
0.0
 11
159.604
 21
68.35159999999996
 31
0.0
  0
LINE
  5
5FF
330
1E
100
AcDbEntity
  8
0
100
AcDbLine
 10
159.172
 20
69.33579999999998
 30
0.0
 11
159.604
 21
70.31999999999996
 31
0.0
  0
LINE
  5
600
330
1E
100
AcDbEntity
  8
0
100
AcDbLine
 10
159.172
 20
69.33579999999998
 30
0.0
 11
159.172
 21
74.60519999999994
 31
0.0
  0
LINE
  5
601
330
1E
100
AcDbEntity
  8
0
100
AcDbLine
 10
159.604
 20
70.31999999999996
 30
0.0
 11
160.756
 21
71.24259999999996
 31
0.0
  0
LINE
  5
602
330
1E
100
AcDbEntity
  8
0
100
AcDbLine
 10
161.044
 20
70.84129999999996
 30
0.0
 11
162.916
 21
71.62549999999995
 31
0.0
  0
LINE
  5
603
330
1E
100
AcDbEntity
  8
0
100
AcDbLine
 10
159.4599999999999
 20
68.98059999999998
 30
0.0
 11
159.892
 21
68.01179999999996
 31
0.0
  0
LINE
  5
604
330
1E
100
AcDbEntity
  8
0
100
AcDbLine
 10
159.4599999999999
 20
68.98059999999998
 30
0.0
 11
159.892
 21
69.94939999999997
 31
0.0
  0
LINE
  5
605
330
1E
100
AcDbEntity
  8
0
100
AcDbLine
 10
159.892
 20
69.94939999999997
 30
0.0
 11
161.044
 21
70.84129999999996
 31
0.0
  0
LINE
  5
606
330
1E
100
AcDbEntity
  8
0
100
AcDbLine
 10
159.604
 20
68.35159999999996
 30
0.0
 11
159.892
 21
68.01179999999996
 31
0.0
  0
LINE
  5
607
330
1E
100
AcDbEntity
  8
0
100
AcDbLine
 10
159.892
 20
68.01179999999996
 30
0.0
 11
161.044
 21
67.11989999999997
 31
0.0
  0
LINE
  5
608
330
1E
100
AcDbEntity
  8
0
100
AcDbLine
 10
161.044
 20
67.11989999999997
 30
0.0
 11
162.916
 21
66.33559999999997
 31
0.0
  0
LINE
  5
609
330
1E
100
AcDbEntity
  8
0
100
AcDbLine
 10
162.916
 20
66.33559999999997
 30
0.0
 11
165.364
 21
65.73589999999995
 31
0.0
  0
LINE
  5
60A
330
1E
100
AcDbEntity
  8
0
100
AcDbLine
 10
182.4519999999999
 20
68.01179999999996
 30
0.0
 11
182.7399999999999
 21
68.35159999999996
 31
0.0
  0
LINE
  5
60B
330
1E
100
AcDbEntity
  8
0
100
AcDbLine
 10
182.4519999999999
 20
68.01179999999996
 30
0.0
 11
182.8839999999999
 21
68.98059999999998
 31
0.0
  0
LINE
  5
60C
330
1E
100
AcDbEntity
  8
0
100
AcDbLine
 10
181.2999999999999
 20
67.11989999999997
 30
0.0
 11
182.4519999999999
 21
68.01179999999996
 31
0.0
  0
LINE
  5
60D
330
1E
100
AcDbEntity
  8
0
100
AcDbLine
 10
165.364
 20
65.73589999999995
 30
0.0
 11
168.148
 21
65.36679999999996
 31
0.0
  0
LINE
  5
60E
330
1E
100
AcDbEntity
  8
0
100
AcDbLine
 10
168.148
 20
65.36679999999996
 30
0.0
 11
171.1719999999999
 21
65.22839999999996
 31
0.0
  0
LINE
  5
60F
330
1E
100
AcDbEntity
  8
0
100
AcDbLine
 10
179.4279999999999
 20
66.33559999999997
 30
0.0
 11
181.2999999999999
 21
67.11989999999997
 31
0.0
  0
LINE
  5
610
330
1E
100
AcDbEntity
  8
0
100
AcDbLine
 10
176.98
 20
65.73589999999995
 30
0.0
 11
179.4279999999999
 21
66.33559999999997
 31
0.0
  0
LINE
  5
611
330
1E
100
AcDbEntity
  8
0
100
AcDbLine
 10
174.1959999999999
 20
65.36679999999996
 30
0.0
 11
176.98
 21
65.73589999999995
 31
0.0
  0
LINE
  5
612
330
1E
100
AcDbEntity
  8
0
100
AcDbLine
 10
178.0599999999999
 20
0.1939999999999626
 30
0.0
 11
183.58
 21
0.1939999999999626
 31
0.0
  0
LINE
  5
613
330
1E
100
AcDbEntity
  8
0
100
AcDbLine
 10
178.0599999999999
 20
0.1939999999999653
 30
0.0
 11
183.58
 21
0.1939999999999653
 31
0.0
  0
LINE
  5
614
330
1E
100
AcDbEntity
  8
0
100
AcDbLine
 10
171.1719999999999
 20
65.22839999999996
 30
0.0
 11
174.1959999999999
 21
65.36679999999996
 31
0.0
  0
LINE
  5
615
330
1E
100
AcDbEntity
  8
0
100
AcDbLine
 10
166.284
 20
0.1939999999999653
 30
0.0
 11
172.1719999999999
 21
0.1939999999999653
 31
0.0
  0
LINE
  5
616
330
1E
100
AcDbEntity
  8
0
100
AcDbLine
 10
172.1719999999999
 20
0.1939999999999626
 30
0.0
 11
178.0599999999999
 21
0.1939999999999626
 31
0.0
  0
LINE
  5
617
330
1E
100
AcDbEntity
  8
0
100
AcDbLine
 10
172.1719999999999
 20
0.1939999999999653
 30
0.0
 11
178.0599999999999
 21
0.1939999999999653
 31
0.0
  0
LINE
  5
618
330
1E
100
AcDbEntity
  8
0
100
AcDbLine
 10
166.284
 20
0.1939999999999626
 30
0.0
 11
172.1719999999999
 21
0.1939999999999626
 31
0.0
  0
LINE
  5
619
330
1E
100
AcDbEntity
  8
0
100
AcDbLine
 10
160.7639999999999
 20
0.1939999999999653
 30
0.0
 11
166.284
 21
0.1939999999999653
 31
0.0
  0
LINE
  5
61A
330
1E
100
AcDbEntity
  8
0
100
AcDbLine
 10
160.7639999999999
 20
0.1939999999999626
 30
0.0
 11
166.284
 21
0.1939999999999626
 31
0.0
  0
LINE
  5
61B
330
1E
100
AcDbEntity
  8
0
100
AcDbLine
 10
158.0119999999999
 20
72.97159999999997
 30
0.0
 11
159.172
 21
71.68015059523807
 31
0.0
  0
LINE
  5
61C
330
1E
100
AcDbEntity
  8
0
100
AcDbLine
 10
157.172
 20
76.20599999999996
 30
0.0
 11
157.172
 21
78.75039999999995
 31
0.0
  0
LINE
  5
61D
330
1E
100
AcDbEntity
  8
0
100
AcDbLine
 10
157.172
 20
76.20599999999996
 30
0.0
 11
157.172
 21
74.84189999999998
 31
0.0
  0
LINE
  5
61E
330
1E
100
AcDbEntity
  8
0
100
AcDbLine
 10
157.172
 20
82.24659999999998
 30
0.0
 11
157.172
 21
78.75039999999995
 31
0.0
  0
LINE
  5
61F
330
1E
100
AcDbEntity
  8
0
100
AcDbLine
 10
157.172
 20
82.24659999999998
 30
0.0
 11
157.172
 21
84.44439999999998
 31
0.0
  0
LINE
  5
620
330
1E
100
AcDbEntity
  8
0
100
AcDbLine
 10
157.172
 20
84.44439999999998
 30
0.0
 11
157.172
 21
85.19399999999995
 31
0.0
  0
LINE
  5
621
330
1E
100
AcDbEntity
  8
0
100
AcDbLine
 10
157.172
 20
84.44439999999998
 30
0.0
 11
157.172
 21
82.24659999999998
 31
0.0
  0
LINE
  5
622
330
1E
100
AcDbEntity
  8
0
100
AcDbLine
 10
157.172
 20
85.19399999999995
 30
0.0
 11
157.172
 21
84.44439999999998
 31
0.0
  0
LINE
  5
623
330
1E
100
AcDbEntity
  8
0
100
AcDbLine
 10
149.1719999999999
 20
111.0929999999999
 30
0.0
 11
149.862823880597
 21
112.7666626865669
 31
0.0
  0
LINE
  5
624
330
1E
100
AcDbEntity
  8
0
100
AcDbLine
 10
149.1719999999999
 20
111.0929999999999
 30
0.0
 11
149.862823880597
 21
112.7666626865669
 31
0.0
  0
LINE
  5
625
330
1E
100
AcDbEntity
  8
0
100
AcDbLine
 10
149.1719999999999
 20
111.0929999999999
 30
0.0
 11
150.0
 21
109.0869999999998
 31
0.0
  0
LINE
  5
626
330
1E
100
AcDbEntity
  8
0
100
AcDbLine
 10
149.1719999999999
 20
111.0929999999999
 30
0.0
 11
149.1719999999999
 21
0.1939999999999671
 31
0.0
  0
LINE
  5
627
330
1E
100
AcDbEntity
  8
0
100
AcDbLine
 10
150.0
 20
112.4329999999998
 30
0.0
 11
152.208
 21
110.5449999999998
 31
0.0
  0
LINE
  5
628
330
1E
100
AcDbEntity
  8
0
100
AcDbLine
 10
150.0
 20
141.9389999999999
 30
0.0
 11
152.208
 21
140.0509999999999
 31
0.0
  0
LINE
  5
629
330
1E
100
AcDbEntity
  8
0
100
AcDbLine
 10
152.208
 20
140.0509999999999
 30
0.0
 11
155.888
 21
138.3829999999999
 31
0.0
  0
LINE
  5
62A
330
1E
100
AcDbEntity
  8
0
100
AcDbLine
 10
150.5519999999999
 20
142.5339999999998
 30
0.0
 11
152.7599999999999
 21
140.7089999999998
 31
0.0
  0
LINE
  5
62B
330
1E
100
AcDbEntity
  8
0
100
AcDbLine
 10
152.7599999999999
 20
140.7089999999998
 30
0.0
 11
156.348
 21
139.1039999999999
 31
0.0
  0
LINE
  5
62C
330
1E
100
AcDbEntity
  8
0
100
AcDbLine
 10
150.5519999999999
 20
142.5339999999998
 30
0.0
 11
152.7599999999999
 21
140.7089999999998
 31
0.0
  0
LINE
  5
62D
330
1E
100
AcDbEntity
  8
0
100
AcDbLine
 10
152.7599999999999
 20
148.3239999999999
 30
0.0
 11
156.348
 21
149.9279999999999
 31
0.0
  0
LINE
  5
62E
330
1E
100
AcDbEntity
  8
0
100
AcDbLine
 10
156.348
 20
149.9279999999999
 30
0.0
 11
161.04
 21
151.1559999999999
 31
0.0
  0
LINE
  5
62F
330
1E
100
AcDbEntity
  8
0
100
AcDbLine
 10
150.5519999999999
 20
146.4979999999999
 30
0.0
 11
152.7599999999999
 21
148.3239999999999
 31
0.0
  0
LINE
  5
630
330
1E
100
AcDbEntity
  8
0
100
AcDbLine
 10
150.5519999999999
 20
146.4979999999999
 30
0.0
 11
152.7599999999999
 21
148.3239999999999
 31
0.0
  0
LINE
  5
631
330
1E
100
AcDbEntity
  8
0
100
AcDbLine
 10
155.888
 20
138.3829999999999
 30
0.0
 11
160.7639999999999
 21
137.1239999999999
 31
0.0
  0
LINE
  5
632
330
1E
100
AcDbEntity
  8
0
100
AcDbLine
 10
156.348
 20
139.1039999999999
 30
0.0
 11
161.04
 21
137.8779999999999
 31
0.0
  0
LINE
  5
633
330
1E
100
AcDbEntity
  8
0
100
AcDbLine
 10
150.0
 20
145.9669999999998
 30
0.0
 11
150.5519999999999
 21
146.4979999999999
 31
0.0
  0
LINE
  5
634
330
1E
100
AcDbEntity
  8
0
100
AcDbLine
 10
150.1719999999999
 20
111.6279999999999
 30
0.0
 11
150.1719999999999
 21
112.2859275362319
 31
0.0
  0
LINE
  5
635
330
1E
100
AcDbEntity
  8
0
100
AcDbLine
 10
150.1719999999999
 20
111.6279999999999
 30
0.0
 11
150.9969999999999
 21
109.6839999999998
 31
0.0
  0
LINE
  5
636
330
1E
100
AcDbEntity
  8
0
100
AcDbLine
 10
150.1719999999999
 20
112.2859275362319
 30
0.0
 11
150.1719999999999
 21
111.6279999999999
 31
0.0
  0
LINE
  5
637
330
1E
100
AcDbEntity
  8
0
100
AcDbLine
 10
149.1719999999999
 20
114.4469999999997
 30
0.0
 11
149.1719999999999
 21
143.9519999999997
 31
0.0
  0
LINE
  5
638
330
1E
100
AcDbEntity
  8
0
100
AcDbLine
 10
149.1719999999999
 20
114.4469999999997
 30
0.0
 11
150.0
 21
112.4329999999998
 31
0.0
  0
LINE
  5
639
330
1E
100
AcDbEntity
  8
0
100
AcDbLine
 10
149.1719999999999
 20
143.9519999999997
 30
0.0
 11
150.0
 21
145.9669999999998
 31
0.0
  0
LINE
  5
63A
330
1E
100
AcDbEntity
  8
0
100
AcDbLine
 10
149.1719999999999
 20
143.9519999999997
 30
0.0
 11
150.0
 21
141.9389999999999
 31
0.0
  0
LINE
  5
63B
330
1E
100
AcDbEntity
  8
0
100
AcDbLine
 10
149.1719999999999
 20
143.9519999999997
 30
0.0
 11
149.1719999999999
 21
114.4469999999997
 31
0.0
  0
LINE
  5
63C
330
1E
100
AcDbEntity
  8
0
100
AcDbLine
 10
149.7239999999999
 20
144.5159999999998
 30
0.0
 11
150.5519999999999
 21
146.4979999999999
 31
0.0
  0
LINE
  5
63D
330
1E
100
AcDbEntity
  8
0
100
AcDbLine
 10
149.7239999999999
 20
144.5159999999998
 30
0.0
 11
150.5519999999999
 21
142.5339999999998
 31
0.0
  0
LINE
  5
63E
330
1E
100
AcDbEntity
  8
0
100
AcDbLine
 10
150.0
 20
109.0869999999998
 30
0.0
 11
152.208
 21
107.2059999999998
 31
0.0
  0
LINE
  5
63F
330
1E
100
AcDbEntity
  8
0
100
AcDbLine
 10
152.208
 20
107.2059999999998
 30
0.0
 11
155.888
 21
105.5439999999998
 31
0.0
  0
LINE
  5
640
330
1E
100
AcDbEntity
  8
0
100
AcDbLine
 10
152.208
 20
110.5449999999998
 30
0.0
 11
155.888
 21
108.8779999999999
 31
0.0
  0
LINE
  5
641
330
1E
100
AcDbEntity
  8
0
100
AcDbLine
 10
155.888
 20
108.8779999999999
 30
0.0
 11
160.7639999999999
 21
107.6189999999998
 31
0.0
  0
LINE
  5
642
330
1E
100
AcDbEntity
  8
0
100
AcDbLine
 10
150.9969999999999
 20
109.6839999999998
 30
0.0
 11
153.10533
 21
107.8969999999998
 31
0.0
  0
LINE
  5
643
330
1E
100
AcDbEntity
  8
0
100
AcDbLine
 10
153.10533
 20
107.8969999999998
 30
0.0
 11
156.68033
 21
106.3289999999999
 31
0.0
  0
LINE
  5
644
330
1E
100
AcDbEntity
  8
0
100
AcDbLine
 10
155.888
 20
105.5439999999998
 30
0.0
 11
160.7639999999999
 21
104.2899999999999
 31
0.0
  0
LINE
  5
645
330
1E
100
AcDbEntity
  8
0
100
AcDbLine
 10
156.68033
 20
106.3289999999999
 30
0.0
 11
161.2637
 21
105.1059999999999
 31
0.0
  0
LINE
  5
646
330
1E
100
AcDbEntity
  8
0
100
AcDbLine
 10
157.172
 20
78.75039999999995
 30
0.0
 11
157.172
 21
76.20599999999996
 31
0.0
  0
LINE
  5
647
330
1E
100
AcDbEntity
  8
0
100
AcDbLine
 10
157.172
 20
78.75039999999995
 30
0.0
 11
157.172
 21
82.24659999999998
 31
0.0
  0
LINE
  5
648
330
1E
100
AcDbEntity
  8
0
100
AcDbLine
 10
149.1719999999999
 20
0.193999999999964
 30
0.0
 11
149.1719999999999
 21
111.0929999999999
 31
0.0
  0
LINE
  5
649
330
1E
100
AcDbEntity
  8
0
100
AcDbLine
 10
149.1719999999999
 20
0.193999999999964
 30
0.0
 11
150.0
 21
0.1939999999999635
 31
0.0
  0
LINE
  5
64A
330
1E
100
AcDbEntity
  8
0
100
AcDbLine
 10
149.1719999999999
 20
0.193999999999964
 30
0.0
 11
150.0003
 21
0.1939999999999644
 31
0.0
  0
LINE
  5
64B
330
1E
100
AcDbEntity
  8
0
100
AcDbLine
 10
150.0003
 20
0.1939999999999644
 30
0.0
 11
152.208
 21
0.1939999999999649
 31
0.0
  0
LINE
  5
64C
330
1E
100
AcDbEntity
  8
0
100
AcDbLine
 10
152.208
 20
0.1939999999999649
 30
0.0
 11
155.888
 21
0.1939999999999649
 31
0.0
  0
LINE
  5
64D
330
1E
100
AcDbEntity
  8
0
100
AcDbLine
 10
155.888
 20
0.1939999999999649
 30
0.0
 11
160.7639999999999
 21
0.1939999999999653
 31
0.0
  0
LINE
  5
64E
330
1E
100
AcDbEntity
  8
0
100
AcDbLine
 10
150.0
 20
0.1939999999999635
 30
0.0
 11
152.208
 21
0.1939999999999631
 31
0.0
  0
LINE
  5
64F
330
1E
100
AcDbEntity
  8
0
100
AcDbLine
 10
152.208
 20
0.1939999999999631
 30
0.0
 11
155.888
 21
0.1939999999999631
 31
0.0
  0
LINE
  5
650
330
1E
100
AcDbEntity
  8
0
100
AcDbLine
 10
155.888
 20
0.1939999999999631
 30
0.0
 11
160.7639999999999
 21
0.1939999999999626
 31
0.0
  0
LINE
  5
858
330
1E
100
AcDbEntity
  8
0
100
AcDbLine
 10
8.0
 20
174.359
 30
0.0
 11
8.0
 21
140.772
 31
0.0
  0
LINE
  5
859
330
1E
100
AcDbEntity
  8
0
100
AcDbLine
 10
32.0
 20
174.359
 30
0.0
 11
32.0
 21
140.772
 31
0.0
  0
LINE
  5
85A
330
1E
100
AcDbEntity
  8
0
100
AcDbLine
 10
32.0
 20
140.772
 30
0.0
 11
32.0
 21
174.359
 31
0.0
  0
LINE
  5
85B
330
1E
100
AcDbEntity
  8
0
100
AcDbLine
 10
8.0
 20
140.772
 30
0.0
 11
8.0
 21
174.359
 31
0.0
  0
LINE
  5
85C
330
1E
100
AcDbEntity
  8
0
100
AcDbLine
 10
12.03159999999999
 20
77.70019999999998
 30
0.0
 11
12.05969999999999
 21
54.703
 31
0.0
  0
LINE
  5
85D
330
1E
100
AcDbEntity
  8
0
100
AcDbLine
 10
28.03059999999999
 20
77.7092
 30
0.0
 11
28.0596
 21
54.702
 31
0.0
  0
LINE
  5
85E
330
1E
100
AcDbEntity
  8
0
100
AcDbLine
 10
20.0077
 20
21.699
 30
0.0
 11
23.11269999999999
 21
21.701
 31
0.0
  0
LINE
  5
85F
330
1E
100
AcDbEntity
  8
0
100
AcDbLine
 10
12.05969999999999
 20
54.703
 30
0.0
 11
12.07559999999999
 21
21.70199999999999
 31
0.0
  0
LINE
  5
860
330
1E
100
AcDbEntity
  8
0
100
AcDbLine
 10
12.64979999999999
 20
21.697
 30
0.0
 11
14.42759999999998
 21
21.703
 31
0.0
  0
LINE
  5
861
330
1E
100
AcDbEntity
  8
0
100
AcDbLine
 10
12.886317052658
 20
21.6977982350748
 30
0.0
 11
14.5237
 21
21.69599999999999
 31
0.0
  0
LINE
  5
862
330
1E
100
AcDbEntity
  8
0
100
AcDbLine
 10
12.07559999999999
 20
21.70199999999999
 30
0.0
 11
12.64979999999999
 21
21.697
 31
0.0
  0
LINE
  5
863
330
1E
100
AcDbEntity
  8
0
100
AcDbLine
 10
16.91259999999999
 20
21.69799999999999
 30
0.0
 11
20.0077
 21
21.699
 31
0.0
  0
LINE
  5
864
330
1E
100
AcDbEntity
  8
0
100
AcDbLine
 10
14.42759999999998
 20
21.703
 30
0.0
 11
16.91259999999999
 21
21.69799999999999
 31
0.0
  0
LINE
  5
865
330
1E
100
AcDbEntity
  8
0
100
AcDbLine
 10
14.5237
 20
21.69599999999999
 30
0.0
 11
16.0714521375301
 21
21.6996924504275
 31
0.0
  0
LINE
  5
866
330
1E
100
AcDbEntity
  8
0
100
AcDbLine
 10
28.0596
 20
54.702
 30
0.0
 11
28.0758
 21
21.701
 31
0.0
  0
LINE
  5
867
330
1E
100
AcDbEntity
  8
0
100
AcDbLine
 10
23.11269999999999
 20
21.701
 30
0.0
 11
25.6277
 21
21.697
 31
0.0
  0
LINE
  5
868
330
1E
100
AcDbEntity
  8
0
100
AcDbLine
 10
27.4488
 20
21.694
 30
0.0
 11
28.0758
 21
21.701
 31
0.0
  0
LINE
  5
869
330
1E
100
AcDbEntity
  8
0
100
AcDbLine
 10
25.6277
 20
21.697
 30
0.0
 11
27.4488
 21
21.694
 31
0.0
  0
LINE
  5
86A
330
1E
100
AcDbEntity
  8
0
100
AcDbLine
 10
5.0
 20
147.608
 30
0.0
 11
8.0
 21
147.608
 31
0.0
  0
LINE
  5
86B
330
1E
100
AcDbEntity
  8
0
100
AcDbLine
 10
5.0
 20
147.608
 30
0.0
 11
8.0
 21
147.608
 31
0.0
  0
LINE
  5
86C
330
1E
100
AcDbEntity
  8
0
100
AcDbLine
 10
5.688999999999992
 20
136.857
 30
0.0
 11
6.5715
 21
136.495
 31
0.0
  0
LINE
  5
86D
330
1E
100
AcDbEntity
  8
0
100
AcDbLine
 10
6.068100000000001
 20
90.42579999999999
 30
0.0
 11
7.087900000000004
 21
89.9657
 31
0.0
  0
LINE
  5
86E
330
1E
100
AcDbEntity
  8
0
100
AcDbLine
 10
5.0
 20
147.608
 30
0.0
 11
5.0
 21
97.60229999999999
 31
0.0
  0
LINE
  5
86F
330
1E
100
AcDbEntity
  8
0
100
AcDbLine
 10
5.0
 20
137.5739999999999
 30
0.0
 11
5.0
 21
97.60229999999999
 31
0.0
  0
LINE
  5
870
330
1E
100
AcDbEntity
  8
0
100
AcDbLine
 10
5.0
 20
97.60229999999999
 30
0.0
 11
5.0
 21
147.608
 31
0.0
  0
LINE
  5
871
330
1E
100
AcDbEntity
  8
0
100
AcDbLine
 10
5.0
 20
97.60229999999999
 30
0.0
 11
5.0
 21
137.5739999999999
 31
0.0
  0
LINE
  5
872
330
1E
100
AcDbEntity
  8
0
100
AcDbLine
 10
5.0
 20
97.60229999999999
 30
0.0
 11
5.0
 21
91.3391
 31
0.0
  0
LINE
  5
873
330
1E
100
AcDbEntity
  8
0
100
AcDbLine
 10
5.0
 20
91.3391
 30
0.0
 11
5.147599999999997
 21
91.09219999999998
 31
0.0
  0
LINE
  5
874
330
1E
100
AcDbEntity
  8
0
100
AcDbLine
 10
5.147599999999997
 20
91.09219999999998
 30
0.0
 11
5.440200000000004
 21
90.82460000000001
 31
0.0
  0
LINE
  5
875
330
1E
100
AcDbEntity
  8
0
100
AcDbLine
 10
5.440200000000004
 20
90.82460000000001
 30
0.0
 11
6.068100000000001
 21
90.42579999999999
 31
0.0
  0
LINE
  5
876
330
1E
100
AcDbEntity
  8
0
100
AcDbLine
 10
5.0
 20
147.608
 30
0.0
 11
5.0
 21
137.5739999999999
 31
0.0
  0
LINE
  5
877
330
1E
100
AcDbEntity
  8
0
100
AcDbLine
 10
5.0
 20
137.5739999999999
 30
0.0
 11
5.0
 21
147.608
 31
0.0
  0
LINE
  5
878
330
1E
100
AcDbEntity
  8
0
100
AcDbLine
 10
5.116100000000002
 20
137.335
 30
0.0
 11
5.688999999999992
 21
136.857
 31
0.0
  0
LINE
  5
879
330
1E
100
AcDbEntity
  8
0
100
AcDbLine
 10
5.0
 20
137.5739999999999
 30
0.0
 11
5.116100000000002
 21
137.335
 31
0.0
  0
LINE
  5
87A
330
1E
100
AcDbEntity
  8
0
100
AcDbLine
 10
35.0
 20
137.5739999999999
 30
0.0
 11
35.0
 21
97.60229999999999
 31
0.0
  0
LINE
  5
87B
330
1E
100
AcDbEntity
  8
0
100
AcDbLine
 10
31.4795
 20
136.024
 30
0.0
 11
31.5039
 21
89.60779999999997
 31
0.0
  0
LINE
  5
87C
330
1E
100
AcDbEntity
  8
0
100
AcDbLine
 10
10.7166
 20
136.233
 30
0.0
 11
10.82719999999999
 21
89.83369999999997
 31
0.0
  0
LINE
  5
87D
330
1E
100
AcDbEntity
  8
0
100
AcDbLine
 10
11.98969999999998
 20
102.497
 30
0.0
 11
12.03159999999999
 21
77.70019999999998
 31
0.0
  0
LINE
  5
87E
330
1E
100
AcDbEntity
  8
0
100
AcDbLine
 10
27.98959999999999
 20
102.506
 30
0.0
 11
28.03059999999999
 21
77.7092
 31
0.0
  0
LINE
  5
87F
330
1E
100
AcDbEntity
  8
0
100
AcDbLine
 10
35.0
 20
97.60229999999999
 30
0.0
 11
35.0
 21
137.5739999999999
 31
0.0
  0
LINE
  5
880
330
1E
100
AcDbEntity
  8
0
100
AcDbLine
 10
29.17289999999999
 20
89.83369999999997
 30
0.0
 11
29.2834
 21
136.233
 31
0.0
  0
LINE
  5
881
330
1E
100
AcDbEntity
  8
0
100
AcDbLine
 10
8.495999999999995
 20
89.60779999999997
 30
0.0
 11
10.82719999999999
 21
89.83369999999997
 31
0.0
  0
LINE
  5
882
330
1E
100
AcDbEntity
  8
0
100
AcDbLine
 10
7.087900000000004
 20
89.9657
 30
0.0
 11
8.495999999999995
 21
89.60779999999997
 31
0.0
  0
LINE
  5
883
330
1E
100
AcDbEntity
  8
0
100
AcDbLine
 10
11.82239999999998
 20
93.22309999999999
 30
0.0
 11
12.0053211234526
 21
93.25227746949222
 31
0.0
  0
LINE
  5
884
330
1E
100
AcDbEntity
  8
0
100
AcDbLine
 10
11.82239999999998
 20
93.22309999999999
 30
0.0
 11
12.0053211234526
 21
93.25227746949222
 31
0.0
  0
LINE
  5
885
330
1E
100
AcDbEntity
  8
0
100
AcDbLine
 10
10.8197960054523
 20
92.9398497668688
 30
0.0
 11
11.82239999999998
 21
93.22309999999999
 31
0.0
  0
LINE
  5
886
330
1E
100
AcDbEntity
  8
0
100
AcDbLine
 10
29.17289999999999
 20
89.83369999999997
 30
0.0
 11
31.5039
 21
89.60779999999997
 31
0.0
  0
LINE
  5
887
330
1E
100
AcDbEntity
  8
0
100
AcDbLine
 10
28.00490316367549
 20
93.25064660904187
 30
0.0
 11
28.17759999999999
 21
93.22309999999999
 31
0.0
  0
LINE
  5
888
330
1E
100
AcDbEntity
  8
0
100
AcDbLine
 10
28.17759999999999
 20
93.22309999999999
 30
0.0
 11
29.1802972374238
 21
92.93982342439807
 31
0.0
  0
LINE
  5
889
330
1E
100
AcDbEntity
  8
0
100
AcDbLine
 10
32.91210000000001
 20
89.9657
 30
0.0
 11
33.9318
 21
90.42579999999999
 31
0.0
  0
LINE
  5
88A
330
1E
100
AcDbEntity
  8
0
100
AcDbLine
 10
31.5039
 20
89.60779999999997
 30
0.0
 11
32.91210000000001
 21
89.9657
 31
0.0
  0
LINE
  5
88B
330
1E
100
AcDbEntity
  8
0
100
AcDbLine
 10
35.0
 20
97.60229999999999
 30
0.0
 11
35.0
 21
91.3391
 31
0.0
  0
LINE
  5
88C
330
1E
100
AcDbEntity
  8
0
100
AcDbLine
 10
35.0
 20
91.3391
 30
0.0
 11
35.0
 21
97.60229999999999
 31
0.0
  0
LINE
  5
88D
330
1E
100
AcDbEntity
  8
0
100
AcDbLine
 10
33.9318
 20
90.42579999999999
 30
0.0
 11
34.55979999999999
 21
90.82460000000001
 31
0.0
  0
LINE
  5
88E
330
1E
100
AcDbEntity
  8
0
100
AcDbLine
 10
34.55979999999999
 20
90.82460000000001
 30
0.0
 11
34.8524
 21
91.09219999999998
 31
0.0
  0
LINE
  5
88F
330
1E
100
AcDbEntity
  8
0
100
AcDbLine
 10
34.8524
 20
91.09219999999998
 30
0.0
 11
35.0
 21
91.3391
 31
0.0
  0
LINE
  5
890
330
1E
100
AcDbEntity
  8
0
100
AcDbLine
 10
20.0
 20
135.776
 30
0.0
 11
23.0533
 21
135.882
 31
0.0
  0
LINE
  5
891
330
1E
100
AcDbEntity
  8
0
100
AcDbLine
 10
20.0
 20
106.4899999999999
 30
0.0
 11
22.29999999999998
 21
106.5679999999999
 31
0.0
  0
LINE
  5
892
330
1E
100
AcDbEntity
  8
0
100
AcDbLine
 10
13.59999999999999
 20
107.1629999999999
 30
0.0
 11
15.5
 21
106.7999999999999
 31
0.0
  0
LINE
  5
893
330
1E
100
AcDbEntity
  8
0
100
AcDbLine
 10
11.9783213374299
 20
107.795150176669
 30
0.0
 11
11.98969999999998
 21
102.497
 31
0.0
  0
LINE
  5
894
330
1E
100
AcDbEntity
  8
0
100
AcDbLine
 10
12.19999999999998
 20
107.655
 30
0.0
 11
13.59999999999999
 21
107.1629999999999
 31
0.0
  0
LINE
  5
895
330
1E
100
AcDbEntity
  8
0
100
AcDbLine
 10
11.9783213374299
 20
107.795150176669
 30
0.0
 11
11.98969999999998
 21
102.497
 31
0.0
  0
LINE
  5
896
330
1E
100
AcDbEntity
  8
0
100
AcDbLine
 10
11.29999999999999
 20
108.2239999999998
 30
0.0
 11
12.19999999999998
 21
107.655
 31
0.0
  0
LINE
  5
897
330
1E
100
AcDbEntity
  8
0
100
AcDbLine
 10
10.77468264109859
 20
111.865966644423
 30
0.0
 11
11.0
 21
108.8189999999999
 31
0.0
  0
LINE
  5
898
330
1E
100
AcDbEntity
  8
0
100
AcDbLine
 10
11.0
 20
108.8189999999999
 30
0.0
 11
11.29999999999999
 21
108.2239999999998
 31
0.0
  0
LINE
  5
899
330
1E
100
AcDbEntity
  8
0
100
AcDbLine
 10
17.7
 20
106.5679999999999
 30
0.0
 11
20.0
 21
106.4899999999999
 31
0.0
  0
LINE
  5
89A
330
1E
100
AcDbEntity
  8
0
100
AcDbLine
 10
15.5
 20
106.7999999999999
 30
0.0
 11
17.7
 21
106.5679999999999
 31
0.0
  0
LINE
  5
89B
330
1E
100
AcDbEntity
  8
0
100
AcDbLine
 10
12.29999999999999
 20
136.5999999999999
 30
0.0
 11
14.28099999999999
 21
136.196
 31
0.0
  0
LINE
  5
89C
330
1E
100
AcDbEntity
  8
0
100
AcDbLine
 10
9.4097
 20
136.5989999999999
 30
0.0
 11
10.7166
 21
136.233
 31
0.0
  0
LINE
  5
89D
330
1E
100
AcDbEntity
  8
0
100
AcDbLine
 10
6.5715
 20
136.495
 30
0.0
 11
8.520499999999998
 21
136.024
 31
0.0
  0
LINE
  5
89E
330
1E
100
AcDbEntity
  8
0
100
AcDbLine
 10
8.520499999999998
 20
136.024
 30
0.0
 11
10.7166
 21
136.233
 31
0.0
  0
LINE
  5
89F
330
1E
100
AcDbEntity
  8
0
100
AcDbLine
 10
9.504999999999995
 20
137.6929999999999
 30
0.0
 11
10.72679999999999
 21
137.047
 31
0.0
  0
LINE
  5
8A0
330
1E
100
AcDbEntity
  8
0
100
AcDbLine
 10
8.0
 20
140.772
 30
0.0
 11
9.0
 21
138.524
 31
0.0
  0
LINE
  5
8A1
330
1E
100
AcDbEntity
  8
0
100
AcDbLine
 10
8.348500000000001
 20
138.6709999999998
 30
0.0
 11
8.826529717453382
 21
138.913961195165
 31
0.0
  0
LINE
  5
8A2
330
1E
100
AcDbEntity
  8
0
100
AcDbLine
 10
8.125100000000003
 20
137.59
 30
0.0
 11
8.404300000000006
 21
137.11
 31
0.0
  0
LINE
  5
8A3
330
1E
100
AcDbEntity
  8
0
100
AcDbLine
 10
8.125100000000003
 20
137.59
 30
0.0
 11
8.125100000000003
 21
138.0409999999999
 31
0.0
  0
LINE
  5
8A4
330
1E
100
AcDbEntity
  8
0
100
AcDbLine
 10
8.404300000000006
 20
137.11
 30
0.0
 11
9.4097
 21
136.5989999999999
 31
0.0
  0
LINE
  5
8A5
330
1E
100
AcDbEntity
  8
0
100
AcDbLine
 10
9.0
 20
138.524
 30
0.0
 11
9.504999999999995
 21
137.6929999999999
 31
0.0
  0
LINE
  5
8A6
330
1E
100
AcDbEntity
  8
0
100
AcDbLine
 10
8.125100000000003
 20
138.0409999999999
 30
0.0
 11
8.348500000000001
 21
138.6709999999998
 31
0.0
  0
LINE
  5
8A7
330
1E
100
AcDbEntity
  8
0
100
AcDbLine
 10
8.125100000000003
 20
138.0409999999999
 30
0.0
 11
8.131234784851628
 21
137.5794530919459
 31
0.0
  0
LINE
  5
8A8
330
1E
100
AcDbEntity
  8
0
100
AcDbLine
 10
10.72679999999999
 20
137.047
 30
0.0
 11
12.29999999999999
 21
136.5999999999999
 31
0.0
  0
LINE
  5
8A9
330
1E
100
AcDbEntity
  8
0
100
AcDbLine
 10
16.94669999999999
 20
135.882
 30
0.0
 11
20.0
 21
135.776
 31
0.0
  0
LINE
  5
8AA
330
1E
100
AcDbEntity
  8
0
100
AcDbLine
 10
14.28099999999999
 20
136.196
 30
0.0
 11
16.94669999999999
 21
135.882
 31
0.0
  0
LINE
  5
8AB
330
1E
100
AcDbEntity
  8
0
100
AcDbLine
 10
24.5
 20
106.7999999999999
 30
0.0
 11
26.4
 21
107.1629999999999
 31
0.0
  0
LINE
  5
8AC
330
1E
100
AcDbEntity
  8
0
100
AcDbLine
 10
22.29999999999998
 20
106.5679999999999
 30
0.0
 11
24.5
 21
106.7999999999999
 31
0.0
  0
LINE
  5
8AD
330
1E
100
AcDbEntity
  8
0
100
AcDbLine
 10
27.97809020071019
 20
107.7675925824488
 30
0.0
 11
27.98959999999999
 21
102.506
 31
0.0
  0
LINE
  5
8AE
330
1E
100
AcDbEntity
  8
0
100
AcDbLine
 10
26.4
 20
107.1629999999999
 30
0.0
 11
27.79999999999999
 21
107.655
 31
0.0
  0
LINE
  5
8AF
330
1E
100
AcDbEntity
  8
0
100
AcDbLine
 10
29.0
 20
108.8189999999999
 30
0.0
 11
29.22537162241039
 21
111.8667004498559
 31
0.0
  0
LINE
  5
8B0
330
1E
100
AcDbEntity
  8
0
100
AcDbLine
 10
28.7
 20
108.2239999999998
 30
0.0
 11
29.0
 21
108.8189999999999
 31
0.0
  0
LINE
  5
8B1
330
1E
100
AcDbEntity
  8
0
100
AcDbLine
 10
27.79999999999999
 20
107.655
 30
0.0
 11
28.7
 21
108.2239999999998
 31
0.0
  0
LINE
  5
8B2
330
1E
100
AcDbEntity
  8
0
100
AcDbLine
 10
29.2834
 20
136.233
 30
0.0
 11
30.59019999999999
 21
136.5989999999999
 31
0.0
  0
LINE
  5
8B3
330
1E
100
AcDbEntity
  8
0
100
AcDbLine
 10
29.2834
 20
136.233
 30
0.0
 11
31.4795
 21
136.024
 31
0.0
  0
LINE
  5
8B4
330
1E
100
AcDbEntity
  8
0
100
AcDbLine
 10
29.27319999999999
 20
137.047
 30
0.0
 11
30.495
 21
137.6929999999999
 31
0.0
  0
LINE
  5
8B5
330
1E
100
AcDbEntity
  8
0
100
AcDbLine
 10
25.71899999999999
 20
136.196
 30
0.0
 11
27.7
 21
136.5999999999999
 31
0.0
  0
LINE
  5
8B6
330
1E
100
AcDbEntity
  8
0
100
AcDbLine
 10
23.0533
 20
135.882
 30
0.0
 11
25.71899999999999
 21
136.196
 31
0.0
  0
LINE
  5
8B7
330
1E
100
AcDbEntity
  8
0
100
AcDbLine
 10
27.7
 20
136.5999999999999
 30
0.0
 11
29.27319999999999
 21
137.047
 31
0.0
  0
LINE
  5
8B8
330
1E
100
AcDbEntity
  8
0
100
AcDbLine
 10
31.4795
 20
136.024
 30
0.0
 11
33.4285
 21
136.495
 31
0.0
  0
LINE
  5
8B9
330
1E
100
AcDbEntity
  8
0
100
AcDbLine
 10
32.0
 20
147.608
 30
0.0
 11
35.0
 21
147.608
 31
0.0
  0
LINE
  5
8BA
330
1E
100
AcDbEntity
  8
0
100
AcDbLine
 10
31.1734702825466
 20
138.913961195165
 30
0.0
 11
31.6515
 21
138.6709999999998
 31
0.0
  0
LINE
  5
8BB
330
1E
100
AcDbEntity
  8
0
100
AcDbLine
 10
31.0
 20
138.524
 30
0.0
 11
32.0
 21
140.772
 31
0.0
  0
LINE
  5
8BC
330
1E
100
AcDbEntity
  8
0
100
AcDbLine
 10
30.59019999999999
 20
136.5989999999999
 30
0.0
 11
31.5956
 21
137.11
 31
0.0
  0
LINE
  5
8BD
330
1E
100
AcDbEntity
  8
0
100
AcDbLine
 10
30.495
 20
137.6929999999999
 30
0.0
 11
31.0
 21
138.524
 31
0.0
  0
LINE
  5
8BE
330
1E
100
AcDbEntity
  8
0
100
AcDbLine
 10
31.875
 20
138.0409999999999
 30
0.0
 11
31.875
 21
137.59
 31
0.0
  0
LINE
  5
8BF
330
1E
100
AcDbEntity
  8
0
100
AcDbLine
 10
31.6515
 20
138.6709999999998
 30
0.0
 11
31.875
 21
138.0409999999999
 31
0.0
  0
LINE
  5
8C0
330
1E
100
AcDbEntity
  8
0
100
AcDbLine
 10
31.875
 20
137.59
 30
0.0
 11
31.875
 21
138.0409999999999
 31
0.0
  0
LINE
  5
8C1
330
1E
100
AcDbEntity
  8
0
100
AcDbLine
 10
31.86886429016761
 20
137.579459052543
 30
0.0
 11
31.875
 21
138.0409999999999
 31
0.0
  0
LINE
  5
8C2
330
1E
100
AcDbEntity
  8
0
100
AcDbLine
 10
31.5956
 20
137.11
 30
0.0
 11
31.875
 21
137.59
 31
0.0
  0
LINE
  5
8C3
330
1E
100
AcDbEntity
  8
0
100
AcDbLine
 10
35.0
 20
147.608
 30
0.0
 11
35.0
 21
137.5739999999999
 31
0.0
  0
LINE
  5
8C4
330
1E
100
AcDbEntity
  8
0
100
AcDbLine
 10
35.0
 20
137.5739999999999
 30
0.0
 11
35.0
 21
147.608
 31
0.0
  0
LINE
  5
8C5
330
1E
100
AcDbEntity
  8
0
100
AcDbLine
 10
33.4285
 20
136.495
 30
0.0
 11
34.31110000000001
 21
136.857
 31
0.0
  0
LINE
  5
8C6
330
1E
100
AcDbEntity
  8
0
100
AcDbLine
 10
34.31110000000001
 20
136.857
 30
0.0
 11
34.88389999999998
 21
137.335
 31
0.0
  0
LINE
  5
8C7
330
1E
100
AcDbEntity
  8
0
100
AcDbLine
 10
34.88389999999998
 20
137.335
 30
0.0
 11
35.0
 21
137.5739999999999
 31
0.0
  0
LINE
  5
8C8
330
1E
100
AcDbEntity
  8
0
100
AcDbLine
 10
34.1421
 20
290.168
 30
0.0
 11
37.3205
 21
286.1809999999998
 31
0.0
  0
LINE
  5
8C9
330
1E
100
AcDbEntity
  8
0
100
AcDbLine
 10
35.58850000000001
 20
278.974
 30
0.0
 11
37.38669999999999
 21
274.7959999999999
 31
0.0
  0
LINE
  5
8CA
330
1E
100
AcDbEntity
  8
0
100
AcDbLine
 10
35.58850000000001
 20
261.649
 30
0.0
 11
37.38669999999999
 21
265.8269999999999
 31
0.0
  0
LINE
  5
8CB
330
1E
100
AcDbEntity
  8
0
100
AcDbLine
 10
32.0
 20
256.2359999999999
 30
0.0
 11
32.0
 21
230.186
 31
0.0
  0
LINE
  5
8CC
330
1E
100
AcDbEntity
  8
0
100
AcDbLine
 10
32.0
 20
230.186
 30
0.0
 11
32.0
 21
256.2359999999999
 31
0.0
  0
LINE
  5
8CD
330
1E
100
AcDbEntity
  8
0
100
AcDbLine
 10
8.0
 20
230.186
 30
0.0
 11
8.0
 21
256.2359999999999
 31
0.0
  0
LINE
  5
8CE
330
1E
100
AcDbEntity
  8
0
100
AcDbLine
 10
8.0
 20
256.2359999999999
 30
0.0
 11
8.0
 21
230.186
 31
0.0
  0
LINE
  5
8CF
330
1E
100
AcDbEntity
  8
0
100
AcDbLine
 10
8.0
 20
174.359
 30
0.0
 11
8.0
 21
203.472
 31
0.0
  0
LINE
  5
8D0
330
1E
100
AcDbEntity
  8
0
100
AcDbLine
 10
32.0
 20
203.472
 30
0.0
 11
32.0
 21
174.359
 31
0.0
  0
LINE
  5
8D1
330
1E
100
AcDbEntity
  8
0
100
AcDbLine
 10
32.0
 20
174.359
 30
0.0
 11
32.0
 21
203.472
 31
0.0
  0
LINE
  5
8D2
330
1E
100
AcDbEntity
  8
0
100
AcDbLine
 10
23.47199999999999
 20
193.233
 30
0.0
 11
23.85599999999999
 21
194.1629999999999
 31
0.0
  0
LINE
  5
8D3
330
1E
100
AcDbEntity
  8
0
100
AcDbLine
 10
16.144
 20
194.1629999999999
 30
0.0
 11
16.52799999999999
 21
193.233
 31
0.0
  0
LINE
  5
8D4
330
1E
100
AcDbEntity
  8
0
100
AcDbLine
 10
8.0
 20
203.472
 30
0.0
 11
8.0
 21
174.359
 31
0.0
  0
LINE
  5
8D5
330
1E
100
AcDbEntity
  8
0
100
AcDbLine
 10
21.024
 20
191.417
 30
0.0
 11
21.984
 21
191.789
 31
0.0
  0
LINE
  5
8D6
330
1E
100
AcDbEntity
  8
0
100
AcDbLine
 10
17.168
 20
192.4099999999999
 30
0.0
 11
18.01599999999999
 21
191.789
 31
0.0
  0
LINE
  5
8D7
330
1E
100
AcDbEntity
  8
0
100
AcDbLine
 10
16.52799999999999
 20
193.233
 30
0.0
 11
17.168
 21
192.4099999999999
 31
0.0
  0
LINE
  5
8D8
330
1E
100
AcDbEntity
  8
0
100
AcDbLine
 10
18.97599999999998
 20
191.417
 30
0.0
 11
20.0
 21
191.277
 31
0.0
  0
LINE
  5
8D9
330
1E
100
AcDbEntity
  8
0
100
AcDbLine
 10
18.01599999999999
 20
191.789
 30
0.0
 11
18.97599999999998
 21
191.417
 31
0.0
  0
LINE
  5
8DA
330
1E
100
AcDbEntity
  8
0
100
AcDbLine
 10
20.0
 20
191.277
 30
0.0
 11
21.024
 21
191.417
 31
0.0
  0
LINE
  5
8DB
330
1E
100
AcDbEntity
  8
0
100
AcDbLine
 10
21.984
 20
191.789
 30
0.0
 11
22.83199999999999
 21
192.4099999999999
 31
0.0
  0
LINE
  5
8DC
330
1E
100
AcDbEntity
  8
0
100
AcDbLine
 10
22.83199999999999
 20
192.4099999999999
 30
0.0
 11
23.47199999999999
 21
193.233
 31
0.0
  0
LINE
  5
8DD
330
1E
100
AcDbEntity
  8
0
100
AcDbLine
 10
21.024
 20
229.915
 30
0.0
 11
21.984
 21
229.543
 31
0.0
  0
LINE
  5
8DE
330
1E
100
AcDbEntity
  8
0
100
AcDbLine
 10
16.0
 20
195.1559999999999
 30
0.0
 11
16.0
 21
226.177
 31
0.0
  0
LINE
  5
8DF
330
1E
100
AcDbEntity
  8
0
100
AcDbLine
 10
16.0
 20
226.177
 30
0.0
 11
16.0
 21
195.1559999999999
 31
0.0
  0
LINE
  5
8E0
330
1E
100
AcDbEntity
  8
0
100
AcDbLine
 10
8.0
 20
203.472
 30
0.0
 11
8.0
 21
230.186
 31
0.0
  0
LINE
  5
8E1
330
1E
100
AcDbEntity
  8
0
100
AcDbLine
 10
8.0
 20
230.186
 30
0.0
 11
8.0
 21
203.472
 31
0.0
  0
LINE
  5
8E2
330
1E
100
AcDbEntity
  8
0
100
AcDbLine
 10
16.0
 20
195.1559999999999
 30
0.0
 11
16.144
 21
194.1629999999999
 31
0.0
  0
LINE
  5
8E3
330
1E
100
AcDbEntity
  8
0
100
AcDbLine
 10
16.52799999999999
 20
228.1
 30
0.0
 11
17.168
 21
228.9219999999999
 31
0.0
  0
LINE
  5
8E4
330
1E
100
AcDbEntity
  8
0
100
AcDbLine
 10
16.144
 20
227.17
 30
0.0
 11
16.52799999999999
 21
228.1
 31
0.0
  0
LINE
  5
8E5
330
1E
100
AcDbEntity
  8
0
100
AcDbLine
 10
16.0
 20
226.177
 30
0.0
 11
16.144
 21
227.17
 31
0.0
  0
LINE
  5
8E6
330
1E
100
AcDbEntity
  8
0
100
AcDbLine
 10
17.168
 20
228.9219999999999
 30
0.0
 11
18.01599999999999
 21
229.543
 31
0.0
  0
LINE
  5
8E7
330
1E
100
AcDbEntity
  8
0
100
AcDbLine
 10
18.97599999999998
 20
229.915
 30
0.0
 11
20.0
 21
230.055
 31
0.0
  0
LINE
  5
8E8
330
1E
100
AcDbEntity
  8
0
100
AcDbLine
 10
18.01599999999999
 20
229.543
 30
0.0
 11
18.97599999999998
 21
229.915
 31
0.0
  0
LINE
  5
8E9
330
1E
100
AcDbEntity
  8
0
100
AcDbLine
 10
20.0
 20
230.055
 30
0.0
 11
21.024
 21
229.915
 31
0.0
  0
LINE
  5
8EA
330
1E
100
AcDbEntity
  8
0
100
AcDbLine
 10
32.0
 20
203.472
 30
0.0
 11
32.0
 21
230.186
 31
0.0
  0
LINE
  5
8EB
330
1E
100
AcDbEntity
  8
0
100
AcDbLine
 10
32.0
 20
230.186
 30
0.0
 11
32.0
 21
203.472
 31
0.0
  0
LINE
  5
8EC
330
1E
100
AcDbEntity
  8
0
100
AcDbLine
 10
24.0
 20
226.177
 30
0.0
 11
24.0
 21
195.1559999999999
 31
0.0
  0
LINE
  5
8ED
330
1E
100
AcDbEntity
  8
0
100
AcDbLine
 10
24.0
 20
195.1559999999999
 30
0.0
 11
24.0
 21
226.177
 31
0.0
  0
LINE
  5
8EE
330
1E
100
AcDbEntity
  8
0
100
AcDbLine
 10
23.85599999999999
 20
194.1629999999999
 30
0.0
 11
24.0
 21
195.1559999999999
 31
0.0
  0
LINE
  5
8EF
330
1E
100
AcDbEntity
  8
0
100
AcDbLine
 10
22.83199999999999
 20
228.9219999999999
 30
0.0
 11
23.47199999999999
 21
228.1
 31
0.0
  0
LINE
  5
8F0
330
1E
100
AcDbEntity
  8
0
100
AcDbLine
 10
23.47199999999999
 20
228.1
 30
0.0
 11
23.85599999999999
 21
227.17
 31
0.0
  0
LINE
  5
8F1
330
1E
100
AcDbEntity
  8
0
100
AcDbLine
 10
23.85599999999999
 20
227.17
 30
0.0
 11
24.0
 21
226.177
 31
0.0
  0
LINE
  5
8F2
330
1E
100
AcDbEntity
  8
0
100
AcDbLine
 10
21.984
 20
229.543
 30
0.0
 11
22.83199999999999
 21
228.9219999999999
 31
0.0
  0
LINE
  5
8F3
330
1E
100
AcDbEntity
  8
0
100
AcDbLine
 10
5.857799999999997
 20
290.168
 30
0.0
 11
10.0
 21
293.227
 31
0.0
  0
LINE
  5
8F4
330
1E
100
AcDbEntity
  8
0
100
AcDbLine
 10
4.411500000000003
 20
278.974
 30
0.0
 11
7.272000000000005
 21
282.562
 31
0.0
  0
LINE
  5
8F5
330
1E
100
AcDbEntity
  8
0
100
AcDbLine
 10
5.277500000000003
 20
278.243
 30
0.0
 11
7.979199999999991
 21
281.632
 31
0.0
  0
LINE
  5
8F6
330
1E
100
AcDbEntity
  8
0
100
AcDbLine
 10
4.411500000000003
 20
261.649
 30
0.0
 11
7.272000000000005
 21
258.0609999999999
 31
0.0
  0
LINE
  5
8F7
330
1E
100
AcDbEntity
  8
0
100
AcDbLine
 10
5.277500000000003
 20
261.8809999999999
 30
0.0
 11
7.979199999999991
 21
258.492
 31
0.0
  0
LINE
  5
8F8
330
1E
100
AcDbEntity
  8
0
100
AcDbLine
 10
2.679500000000004
 20
286.1809999999998
 30
0.0
 11
5.857799999999997
 21
290.168
 31
0.0
  0
LINE
  5
8F9
330
1E
100
AcDbEntity
  8
0
100
AcDbLine
 10
2.679500000000004
 20
286.1809999999998
 30
0.0
 11
5.857799999999997
 21
290.168
 31
0.0
  0
LINE
  5
8FA
330
1E
100
AcDbEntity
  8
0
100
AcDbLine
 10
2.613299999999995
 20
265.8269999999999
 30
0.0
 11
4.411500000000003
 21
261.649
 31
0.0
  0
LINE
  5
8FB
330
1E
100
AcDbEntity
  8
0
100
AcDbLine
 10
3.5792
 20
265.8269999999999
 30
0.0
 11
5.277500000000003
 21
261.8809999999999
 31
0.0
  0
LINE
  5
8FC
330
1E
100
AcDbEntity
  8
0
100
AcDbLine
 10
0.0
 20
276.5559999999999
 30
0.0
 11
0.6814999999999998
 21
271.574
 31
0.0
  0
LINE
  5
8FD
330
1E
100
AcDbEntity
  8
0
100
AcDbLine
 10
2.613299999999995
 20
274.7959999999999
 30
0.0
 11
4.411500000000003
 21
278.974
 31
0.0
  0
LINE
  5
8FE
330
1E
100
AcDbEntity
  8
0
100
AcDbLine
 10
3.5792
 20
274.297
 30
0.0
 11
5.277500000000003
 21
278.243
 31
0.0
  0
LINE
  5
8FF
330
1E
100
AcDbEntity
  8
0
100
AcDbLine
 10
2.0
 20
270.312
 30
0.0
 11
2.613299999999995
 21
274.7959999999999
 31
0.0
  0
LINE
  5
900
330
1E
100
AcDbEntity
  8
0
100
AcDbLine
 10
2.0
 20
270.312
 30
0.0
 11
2.613299999999995
 21
265.8269999999999
 31
0.0
  0
LINE
  5
901
330
1E
100
AcDbEntity
  8
0
100
AcDbLine
 10
1.647400000000004
 20
268.825
 30
0.0
 11
2.613299999999995
 21
265.8269999999999
 31
0.0
  0
LINE
  5
902
330
1E
100
AcDbEntity
  8
0
100
AcDbLine
 10
0.6814999999999998
 20
271.574
 30
0.0
 11
1.647400000000004
 21
268.825
 31
0.0
  0
LINE
  5
903
330
1E
100
AcDbEntity
  8
0
100
AcDbLine
 10
0.6814999999999998
 20
271.574
 30
0.0
 11
1.647400000000004
 21
268.825
 31
0.0
  0
LINE
  5
904
330
1E
100
AcDbEntity
  8
0
100
AcDbLine
 10
3.0
 20
270.062
 30
0.0
 11
3.5792
 21
265.8269999999999
 31
0.0
  0
LINE
  5
905
330
1E
100
AcDbEntity
  8
0
100
AcDbLine
 10
3.0
 20
270.062
 30
0.0
 11
3.5792
 21
274.297
 31
0.0
  0
LINE
  5
906
330
1E
100
AcDbEntity
  8
0
100
AcDbLine
 10
0.6814999999999998
 20
281.538
 30
0.0
 11
2.679500000000004
 21
286.1809999999998
 31
0.0
  0
LINE
  5
907
330
1E
100
AcDbEntity
  8
0
100
AcDbLine
 10
0.6814999999999998
 20
281.538
 30
0.0
 11
2.679500000000004
 21
286.1809999999998
 31
0.0
  0
LINE
  5
908
330
1E
100
AcDbEntity
  8
0
100
AcDbLine
 10
0.0
 20
276.5559999999999
 30
0.0
 11
0.6814999999999998
 21
281.538
 31
0.0
  0
LINE
  5
909
330
1E
100
AcDbEntity
  8
0
100
AcDbLine
 10
24.65869999999999
 20
287.047
 30
0.0
 11
29.0
 21
285.3149999999999
 31
0.0
  0
LINE
  5
90A
330
1E
100
AcDbEntity
  8
0
100
AcDbLine
 10
11.0
 20
285.3149999999999
 30
0.0
 11
15.3413
 21
287.047
 31
0.0
  0
LINE
  5
90B
330
1E
100
AcDbEntity
  8
0
100
AcDbLine
 10
20.0
 20
286.424
 30
0.0
 11
24.39989999999998
 21
285.867
 31
0.0
  0
LINE
  5
90C
330
1E
100
AcDbEntity
  8
0
100
AcDbLine
 10
20.0
 20
257.1899999999999
 30
0.0
 11
23.32649999999999
 21
257.6319999999999
 31
0.0
  0
LINE
  5
90D
330
1E
100
AcDbEntity
  8
0
100
AcDbLine
 10
20.0
 20
257.281
 30
0.0
 11
23.28819999999999
 21
257.722
 31
0.0
  0
LINE
  5
90E
330
1E
100
AcDbEntity
  8
0
100
AcDbLine
 10
20.0
 20
281.9379999999998
 30
0.0
 11
23.28819999999999
 21
281.4959999999998
 31
0.0
  0
LINE
  5
90F
330
1E
100
AcDbEntity
  8
0
100
AcDbLine
 10
21.55289999999999
 20
263.859
 30
0.0
 11
22.30669999999999
 21
263.755
 31
0.0
  0
LINE
  5
910
330
1E
100
AcDbEntity
  8
0
100
AcDbLine
 10
21.31669999999999
 20
276.7709999999999
 30
0.0
 11
22.07049999999999
 21
276.875
 31
0.0
  0
LINE
  5
911
330
1E
100
AcDbEntity
  8
0
100
AcDbLine
 10
21.55289999999999
 20
275.0159999999999
 30
0.0
 11
22.30669999999999
 21
275.12
 31
0.0
  0
LINE
  5
912
330
1E
100
AcDbEntity
  8
0
100
AcDbLine
 10
21.64179999999999
 20
271.1279999999999
 30
0.0
 11
22.09799999999999
 21
271.7149999999999
 31
0.0
  0
LINE
  5
913
330
1E
100
AcDbEntity
  8
0
100
AcDbLine
 10
21.64179999999999
 20
271.1279999999999
 30
0.0
 11
21.732
 21
270.3999999999999
 31
0.0
  0
LINE
  5
914
330
1E
100
AcDbEntity
  8
0
100
AcDbLine
 10
21.64179999999999
 20
267.747
 30
0.0
 11
22.09799999999999
 21
267.16
 31
0.0
  0
LINE
  5
915
330
1E
100
AcDbEntity
  8
0
100
AcDbLine
 10
21.64179999999999
 20
267.747
 30
0.0
 11
21.732
 21
268.475
 31
0.0
  0
LINE
  5
916
330
1E
100
AcDbEntity
  8
0
100
AcDbLine
 10
21.31669999999999
 20
262.104
 30
0.0
 11
22.07049999999999
 21
262.0
 31
0.0
  0
LINE
  5
917
330
1E
100
AcDbEntity
  8
0
100
AcDbLine
 10
20.0
 20
252.9869999999998
 30
0.0
 11
24.65869999999999
 21
253.5769999999998
 31
0.0
  0
LINE
  5
918
330
1E
100
AcDbEntity
  8
0
100
AcDbLine
 10
20.0
 20
253.6999999999999
 30
0.0
 11
24.39989999999998
 21
254.2569999999999
 31
0.0
  0
LINE
  5
919
330
1E
100
AcDbEntity
  8
0
100
AcDbLine
 10
20.95439999999999
 20
263.406
 30
0.0
 11
21.55289999999999
 21
263.859
 31
0.0
  0
LINE
  5
91A
330
1E
100
AcDbEntity
  8
0
100
AcDbLine
 10
8.758800000000007
 20
263.483
 30
0.0
 11
10.82349999999999
 21
260.8709999999999
 31
0.0
  0
LINE
  5
91B
330
1E
100
AcDbEntity
  8
0
100
AcDbLine
 10
8.911799999999999
 20
263.4629999999999
 30
0.0
 11
10.93819999999999
 21
260.887
 31
0.0
  0
LINE
  5
91C
330
1E
100
AcDbEntity
  8
0
100
AcDbLine
 10
9.607699999999994
 20
263.663
 30
0.0
 11
10.21749999999998
 21
263.223
 31
0.0
  0
LINE
  5
91D
330
1E
100
AcDbEntity
  8
0
100
AcDbLine
 10
10.97369999999999
 20
263.31
 30
0.0
 11
11.42989999999999
 21
263.897
 31
0.0
  0
LINE
  5
91E
330
1E
100
AcDbEntity
  8
0
100
AcDbLine
 10
11.0
 20
255.308
 30
0.0
 11
15.3413
 21
253.5769999999998
 31
0.0
  0
LINE
  5
91F
330
1E
100
AcDbEntity
  8
0
100
AcDbLine
 10
11.5
 20
255.892
 30
0.0
 11
15.60009999999999
 21
254.2569999999999
 31
0.0
  0
LINE
  5
920
330
1E
100
AcDbEntity
  8
0
100
AcDbLine
 10
13.5382
 20
258.8829999999999
 30
0.0
 11
16.6735
 21
257.6319999999999
 31
0.0
  0
LINE
  5
921
330
1E
100
AcDbEntity
  8
0
100
AcDbLine
 10
13.61469999999998
 20
258.937
 30
0.0
 11
16.71179999999999
 21
257.722
 31
0.0
  0
LINE
  5
922
330
1E
100
AcDbEntity
  8
0
100
AcDbLine
 10
13.63389999999999
 20
260.7499999999999
 30
0.0
 11
14.24379999999999
 21
261.189
 31
0.0
  0
LINE
  5
923
330
1E
100
AcDbEntity
  8
0
100
AcDbLine
 10
13.5437
 20
260.0219999999999
 30
0.0
 11
14.0
 21
259.4349999999999
 31
0.0
  0
LINE
  5
924
330
1E
100
AcDbEntity
  8
0
100
AcDbLine
 10
7.272000000000005
 20
258.0609999999999
 30
0.0
 11
11.0
 21
255.308
 31
0.0
  0
LINE
  5
925
330
1E
100
AcDbEntity
  8
0
100
AcDbLine
 10
7.979199999999991
 20
258.492
 30
0.0
 11
11.5
 21
255.892
 31
0.0
  0
LINE
  5
926
330
1E
100
AcDbEntity
  8
0
100
AcDbLine
 10
8.0
 20
256.2359999999999
 30
0.0
 11
8.0
 21
257.523396995708
 31
0.0
  0
LINE
  5
927
330
1E
100
AcDbEntity
  8
0
100
AcDbLine
 10
8.0
 20
257.523396995708
 30
0.0
 11
8.0
 21
256.2359999999999
 31
0.0
  0
LINE
  5
928
330
1E
100
AcDbEntity
  8
0
100
AcDbLine
 10
10.82349999999999
 20
260.8709999999999
 30
0.0
 11
13.5382
 21
258.8829999999999
 31
0.0
  0
LINE
  5
929
330
1E
100
AcDbEntity
  8
0
100
AcDbLine
 10
10.93819999999999
 20
260.887
 30
0.0
 11
13.61469999999998
 21
258.937
 31
0.0
  0
LINE
  5
92A
330
1E
100
AcDbEntity
  8
0
100
AcDbLine
 10
10.21749999999998
 20
263.223
 30
0.0
 11
10.97369999999999
 21
263.31
 31
0.0
  0
LINE
  5
92B
330
1E
100
AcDbEntity
  8
0
100
AcDbLine
 10
13.5437
 20
260.0219999999999
 30
0.0
 11
13.63389999999999
 21
260.7499999999999
 31
0.0
  0
LINE
  5
92C
330
1E
100
AcDbEntity
  8
0
100
AcDbLine
 10
16.6735
 20
257.6319999999999
 30
0.0
 11
20.0
 21
257.1899999999999
 31
0.0
  0
LINE
  5
92D
330
1E
100
AcDbEntity
  8
0
100
AcDbLine
 10
16.71179999999999
 20
257.722
 30
0.0
 11
20.0
 21
257.281
 31
0.0
  0
LINE
  5
92E
330
1E
100
AcDbEntity
  8
0
100
AcDbLine
 10
15.3413
 20
253.5769999999998
 30
0.0
 11
20.0
 21
252.9869999999998
 31
0.0
  0
LINE
  5
92F
330
1E
100
AcDbEntity
  8
0
100
AcDbLine
 10
15.60009999999999
 20
254.2569999999999
 30
0.0
 11
20.0
 21
253.6999999999999
 31
0.0
  0
LINE
  5
930
330
1E
100
AcDbEntity
  8
0
100
AcDbLine
 10
15.36599999999998
 20
259.787
 30
0.0
 11
15.45619999999999
 21
260.515
 31
0.0
  0
LINE
  5
931
330
1E
100
AcDbEntity
  8
0
100
AcDbLine
 10
14.7562
 20
259.348
 30
0.0
 11
15.36599999999998
 21
259.787
 31
0.0
  0
LINE
  5
932
330
1E
100
AcDbEntity
  8
0
100
AcDbLine
 10
14.0
 20
259.4349999999999
 30
0.0
 11
14.7562
 21
259.348
 31
0.0
  0
LINE
  5
933
330
1E
100
AcDbEntity
  8
0
100
AcDbLine
 10
14.24379999999999
 20
261.189
 30
0.0
 11
15.0
 21
261.102
 31
0.0
  0
LINE
  5
934
330
1E
100
AcDbEntity
  8
0
100
AcDbLine
 10
15.0
 20
261.214540320628
 30
0.0
 11
15.0
 21
261.102
 31
0.0
  0
LINE
  5
935
330
1E
100
AcDbEntity
  8
0
100
AcDbLine
 10
15.0
 20
261.102
 30
0.0
 11
15.0
 21
261.214540320628
 31
0.0
  0
LINE
  5
936
330
1E
100
AcDbEntity
  8
0
100
AcDbLine
 10
15.0
 20
261.102
 30
0.0
 11
15.45619999999999
 21
260.515
 31
0.0
  0
LINE
  5
937
330
1E
100
AcDbEntity
  8
0
100
AcDbLine
 10
19.29999999999999
 20
258.176
 30
0.0
 11
20.0
 21
257.8879999999999
 31
0.0
  0
LINE
  5
938
330
1E
100
AcDbEntity
  8
0
100
AcDbLine
 10
19.29999999999999
 20
259.5239999999999
 30
0.0
 11
20.0
 21
259.8129999999999
 31
0.0
  0
LINE
  5
939
330
1E
100
AcDbEntity
  8
0
100
AcDbLine
 10
19.0
 20
258.85
 30
0.0
 11
19.29999999999999
 21
259.5239999999999
 31
0.0
  0
LINE
  5
93A
330
1E
100
AcDbEntity
  8
0
100
AcDbLine
 10
19.0
 20
258.85
 30
0.0
 11
19.29999999999999
 21
258.176
 31
0.0
  0
LINE
  5
93B
330
1E
100
AcDbEntity
  8
0
100
AcDbLine
 10
20.84579999999999
 20
262.68
 30
0.0
 11
20.95439999999999
 21
263.406
 31
0.0
  0
LINE
  5
93C
330
1E
100
AcDbEntity
  8
0
100
AcDbLine
 10
20.84579999999999
 20
262.68
 30
0.0
 11
21.31669999999999
 21
262.104
 31
0.0
  0
LINE
  5
93D
330
1E
100
AcDbEntity
  8
0
100
AcDbLine
 10
20.69999999999998
 20
258.176
 30
0.0
 11
21.0
 21
258.85
 31
0.0
  0
LINE
  5
93E
330
1E
100
AcDbEntity
  8
0
100
AcDbLine
 10
20.69999999999998
 20
259.5239999999999
 30
0.0
 11
21.0
 21
258.85
 31
0.0
  0
LINE
  5
93F
330
1E
100
AcDbEntity
  8
0
100
AcDbLine
 10
20.0
 20
257.8879999999999
 30
0.0
 11
20.69999999999998
 21
258.176
 31
0.0
  0
LINE
  5
940
330
1E
100
AcDbEntity
  8
0
100
AcDbLine
 10
20.0
 20
259.8129999999999
 30
0.0
 11
20.69999999999998
 21
259.5239999999999
 31
0.0
  0
LINE
  5
941
330
1E
100
AcDbEntity
  8
0
100
AcDbLine
 10
13.63389999999999
 20
278.125
 30
0.0
 11
14.24379999999999
 21
277.6859999999999
 31
0.0
  0
LINE
  5
942
330
1E
100
AcDbEntity
  8
0
100
AcDbLine
 10
13.73349999999999
 20
270.3559999999999
 30
0.0
 11
14.20439999999999
 21
270.932
 31
0.0
  0
LINE
  5
943
330
1E
100
AcDbEntity
  8
0
100
AcDbLine
 10
13.61469999999998
 20
280.281
 30
0.0
 11
16.71179999999999
 21
281.4959999999998
 31
0.0
  0
LINE
  5
944
330
1E
100
AcDbEntity
  8
0
100
AcDbLine
 10
13.5437
 20
278.853
 30
0.0
 11
14.0
 21
279.4399999999999
 31
0.0
  0
LINE
  5
945
330
1E
100
AcDbEntity
  8
0
100
AcDbLine
 10
13.49729999999999
 20
272.1109999999999
 30
0.0
 11
14.09579999999999
 21
271.6579999999999
 31
0.0
  0
LINE
  5
946
330
1E
100
AcDbEntity
  8
0
100
AcDbLine
 10
11.5
 20
284.232
 30
0.0
 11
15.60009999999999
 21
285.867
 31
0.0
  0
LINE
  5
947
330
1E
100
AcDbEntity
  8
0
100
AcDbLine
 10
10.97369999999999
 20
275.565
 30
0.0
 11
11.42989999999999
 21
274.978
 31
0.0
  0
LINE
  5
948
330
1E
100
AcDbEntity
  8
0
100
AcDbLine
 10
9.517499999999998
 20
274.485
 30
0.0
 11
9.607699999999994
 21
275.212
 31
0.0
  0
LINE
  5
949
330
1E
100
AcDbEntity
  8
0
100
AcDbLine
 10
7.650000000000005
 20
272.774
 30
0.0
 11
8.911799999999999
 21
275.755
 31
0.0
  0
LINE
  5
94A
330
1E
100
AcDbEntity
  8
0
100
AcDbLine
 10
9.973699999999993
 20
273.8979999999999
 30
0.0
 11
10.7299
 21
273.8109999999999
 31
0.0
  0
LINE
  5
94B
330
1E
100
AcDbEntity
  8
0
100
AcDbLine
 10
9.973699999999993
 20
264.977
 30
0.0
 11
10.7299
 21
265.064
 31
0.0
  0
LINE
  5
94C
330
1E
100
AcDbEntity
  8
0
100
AcDbLine
 10
9.700000000000002
 20
268.764
 30
0.0
 11
10.0
 21
269.437
 31
0.0
  0
LINE
  5
94D
330
1E
100
AcDbEntity
  8
0
100
AcDbLine
 10
8.0
 20
269.437
 30
0.0
 11
8.299999999999997
 21
268.764
 31
0.0
  0
LINE
  5
94E
330
1E
100
AcDbEntity
  8
0
100
AcDbLine
 10
7.191199999999994
 20
269.609
 30
0.0
 11
7.650000000000005
 21
266.444
 31
0.0
  0
LINE
  5
94F
330
1E
100
AcDbEntity
  8
0
100
AcDbLine
 10
7.0
 20
269.7029999999999
 30
0.0
 11
7.458799999999996
 21
266.5009999999999
 31
0.0
  0
LINE
  5
950
330
1E
100
AcDbEntity
  8
0
100
AcDbLine
 10
7.458799999999996
 20
266.5009999999999
 30
0.0
 11
8.758800000000007
 21
263.483
 31
0.0
  0
LINE
  5
951
330
1E
100
AcDbEntity
  8
0
100
AcDbLine
 10
7.650000000000005
 20
266.444
 30
0.0
 11
8.911799999999999
 21
263.4629999999999
 31
0.0
  0
LINE
  5
952
330
1E
100
AcDbEntity
  8
0
100
AcDbLine
 10
9.517499999999998
 20
264.3899999999999
 30
0.0
 11
9.973699999999993
 21
264.977
 31
0.0
  0
LINE
  5
953
330
1E
100
AcDbEntity
  8
0
100
AcDbLine
 10
9.517499999999998
 20
264.3899999999999
 30
0.0
 11
9.607699999999994
 21
263.663
 31
0.0
  0
LINE
  5
954
330
1E
100
AcDbEntity
  8
0
100
AcDbLine
 10
9.0
 20
268.475
 30
0.0
 11
9.700000000000002
 21
268.764
 31
0.0
  0
LINE
  5
955
330
1E
100
AcDbEntity
  8
0
100
AcDbLine
 10
8.299999999999997
 20
268.764
 30
0.0
 11
9.0
 21
268.475
 31
0.0
  0
LINE
  5
956
330
1E
100
AcDbEntity
  8
0
100
AcDbLine
 10
8.0
 20
269.437
 30
0.0
 11
8.299999999999997
 21
270.1109999999999
 31
0.0
  0
LINE
  5
957
330
1E
100
AcDbEntity
  8
0
100
AcDbLine
 10
8.0
 20
269.437
 30
0.0
 11
8.0
 21
269.562
 31
0.0
  0
LINE
  5
958
330
1E
100
AcDbEntity
  8
0
100
AcDbLine
 10
8.0
 20
269.562
 30
0.0
 11
8.0
 21
269.437
 31
0.0
  0
LINE
  5
959
330
1E
100
AcDbEntity
  8
0
100
AcDbLine
 10
7.0
 20
269.795720726152
 30
0.0
 11
7.0
 21
269.7029999999999
 31
0.0
  0
LINE
  5
95A
330
1E
100
AcDbEntity
  8
0
100
AcDbLine
 10
7.191199999999994
 20
269.609
 30
0.0
 11
7.650000000000005
 21
272.774
 31
0.0
  0
LINE
  5
95B
330
1E
100
AcDbEntity
  8
0
100
AcDbLine
 10
7.0
 20
269.7029999999999
 30
0.0
 11
7.0
 21
269.795720726152
 31
0.0
  0
LINE
  5
95C
330
1E
100
AcDbEntity
  8
0
100
AcDbLine
 10
9.0
 20
270.3999999999999
 30
0.0
 11
9.700000000000002
 21
270.1109999999999
 31
0.0
  0
LINE
  5
95D
330
1E
100
AcDbEntity
  8
0
100
AcDbLine
 10
9.700000000000002
 20
270.1109999999999
 30
0.0
 11
10.0
 21
269.437
 31
0.0
  0
LINE
  5
95E
330
1E
100
AcDbEntity
  8
0
100
AcDbLine
 10
9.517499999999998
 20
274.485
 30
0.0
 11
9.973699999999993
 21
273.8979999999999
 31
0.0
  0
LINE
  5
95F
330
1E
100
AcDbEntity
  8
0
100
AcDbLine
 10
10.0
 20
269.562
 30
0.0
 11
10.0
 21
269.437
 31
0.0
  0
LINE
  5
960
330
1E
100
AcDbEntity
  8
0
100
AcDbLine
 10
10.0
 20
269.437
 30
0.0
 11
10.0
 21
269.562
 31
0.0
  0
LINE
  5
961
330
1E
100
AcDbEntity
  8
0
100
AcDbLine
 10
8.299999999999997
 20
270.1109999999999
 30
0.0
 11
9.0
 21
270.3999999999999
 31
0.0
  0
LINE
  5
962
330
1E
100
AcDbEntity
  8
0
100
AcDbLine
 10
11.33969999999999
 20
264.625
 30
0.0
 11
11.33969999999999
 21
264.75712585512
 31
0.0
  0
LINE
  5
963
330
1E
100
AcDbEntity
  8
0
100
AcDbLine
 10
11.33969999999999
 20
264.625
 30
0.0
 11
11.42989999999999
 21
263.897
 31
0.0
  0
LINE
  5
964
330
1E
100
AcDbEntity
  8
0
100
AcDbLine
 10
11.33969999999999
 20
264.75712585512
 30
0.0
 11
11.33969999999999
 21
264.625
 31
0.0
  0
LINE
  5
965
330
1E
100
AcDbEntity
  8
0
100
AcDbLine
 10
10.7299
 20
265.064
 30
0.0
 11
11.33969999999999
 21
264.625
 31
0.0
  0
LINE
  5
966
330
1E
100
AcDbEntity
  8
0
100
AcDbLine
 10
11.33969999999999
 20
274.25
 30
0.0
 11
11.42989999999999
 21
274.978
 31
0.0
  0
LINE
  5
967
330
1E
100
AcDbEntity
  8
0
100
AcDbLine
 10
10.7299
 20
273.8109999999999
 30
0.0
 11
11.33969999999999
 21
274.25
 31
0.0
  0
LINE
  5
968
330
1E
100
AcDbEntity
  8
0
100
AcDbLine
 10
12.74349999999999
 20
272.0059999999999
 30
0.0
 11
13.49729999999999
 21
272.1109999999999
 31
0.0
  0
LINE
  5
969
330
1E
100
AcDbEntity
  8
0
100
AcDbLine
 10
12.97969999999999
 20
270.252
 30
0.0
 11
13.73349999999999
 21
270.3559999999999
 31
0.0
  0
LINE
  5
96A
330
1E
100
AcDbEntity
  8
0
100
AcDbLine
 10
12.27259999999999
 20
271.43
 30
0.0
 11
12.27259999999999
 21
271.558483906548
 31
0.0
  0
LINE
  5
96B
330
1E
100
AcDbEntity
  8
0
100
AcDbLine
 10
12.27259999999999
 20
271.43
 30
0.0
 11
12.3812
 21
270.7049999999999
 31
0.0
  0
LINE
  5
96C
330
1E
100
AcDbEntity
  8
0
100
AcDbLine
 10
12.27259999999999
 20
271.43
 30
0.0
 11
12.74349999999999
 21
272.0059999999999
 31
0.0
  0
LINE
  5
96D
330
1E
100
AcDbEntity
  8
0
100
AcDbLine
 10
12.27259999999999
 20
271.558483906548
 30
0.0
 11
12.27259999999999
 21
271.43
 31
0.0
  0
LINE
  5
96E
330
1E
100
AcDbEntity
  8
0
100
AcDbLine
 10
12.3812
 20
270.7049999999999
 30
0.0
 11
12.97969999999999
 21
270.252
 31
0.0
  0
LINE
  5
96F
330
1E
100
AcDbEntity
  8
0
100
AcDbLine
 10
8.911799999999999
 20
275.755
 30
0.0
 11
10.93819999999999
 21
278.3309999999999
 31
0.0
  0
LINE
  5
970
330
1E
100
AcDbEntity
  8
0
100
AcDbLine
 10
9.607699999999994
 20
275.212
 30
0.0
 11
10.21749999999998
 21
275.652
 31
0.0
  0
LINE
  5
971
330
1E
100
AcDbEntity
  8
0
100
AcDbLine
 10
7.272000000000005
 20
282.562
 30
0.0
 11
11.0
 21
285.3149999999999
 31
0.0
  0
LINE
  5
972
330
1E
100
AcDbEntity
  8
0
100
AcDbLine
 10
7.979199999999991
 20
281.632
 30
0.0
 11
11.5
 21
284.232
 31
0.0
  0
LINE
  5
973
330
1E
100
AcDbEntity
  8
0
100
AcDbLine
 10
9.607699999999994
 20
275.212
 30
0.0
 11
9.607699999999994
 21
275.3287829413348
 31
0.0
  0
LINE
  5
974
330
1E
100
AcDbEntity
  8
0
100
AcDbLine
 10
9.607699999999994
 20
275.3287829413348
 30
0.0
 11
9.607699999999994
 21
275.212
 31
0.0
  0
LINE
  5
975
330
1E
100
AcDbEntity
  8
0
100
AcDbLine
 10
10.93819999999999
 20
278.3309999999999
 30
0.0
 11
13.61469999999998
 21
280.281
 31
0.0
  0
LINE
  5
976
330
1E
100
AcDbEntity
  8
0
100
AcDbLine
 10
10.21749999999998
 20
275.652
 30
0.0
 11
10.97369999999999
 21
275.565
 31
0.0
  0
LINE
  5
977
330
1E
100
AcDbEntity
  8
0
100
AcDbLine
 10
13.5437
 20
278.853
 30
0.0
 11
13.63389999999999
 21
278.125
 31
0.0
  0
LINE
  5
978
330
1E
100
AcDbEntity
  8
0
100
AcDbLine
 10
17.1457
 20
267.0729999999999
 30
0.0
 11
17.90189999999999
 21
267.16
 31
0.0
  0
LINE
  5
979
330
1E
100
AcDbEntity
  8
0
100
AcDbLine
 10
17.6581
 20
268.914
 30
0.0
 11
18.26789999999999
 21
268.475
 31
0.0
  0
LINE
  5
97A
330
1E
100
AcDbEntity
  8
0
100
AcDbLine
 10
17.1457
 20
271.802
 30
0.0
 11
17.90189999999999
 21
271.7149999999999
 31
0.0
  0
LINE
  5
97B
330
1E
100
AcDbEntity
  8
0
100
AcDbLine
 10
17.6581
 20
269.961
 30
0.0
 11
18.26789999999999
 21
270.3999999999999
 31
0.0
  0
LINE
  5
97C
330
1E
100
AcDbEntity
  8
0
100
AcDbLine
 10
15.7573
 20
265.354
 30
0.0
 11
16.0402
 21
264.673
 31
0.0
  0
LINE
  5
97D
330
1E
100
AcDbEntity
  8
0
100
AcDbLine
 10
15.7573
 20
263.993
 30
0.0
 11
16.0402
 21
264.673
 31
0.0
  0
LINE
  5
97E
330
1E
100
AcDbEntity
  8
0
100
AcDbLine
 10
15.7573
 20
265.354
 30
0.0
 11
15.7573
 21
265.478556236568
 31
0.0
  0
LINE
  5
97F
330
1E
100
AcDbEntity
  8
0
100
AcDbLine
 10
15.7573
 20
265.478556236568
 30
0.0
 11
15.7573
 21
265.354
 31
0.0
  0
LINE
  5
980
330
1E
100
AcDbEntity
  8
0
100
AcDbLine
 10
15.0502
 20
263.721
 30
0.0
 11
15.7573
 21
263.993
 31
0.0
  0
LINE
  5
981
330
1E
100
AcDbEntity
  8
0
100
AcDbLine
 10
15.0502
 20
265.6259999999999
 30
0.0
 11
15.7573
 21
265.354
 31
0.0
  0
LINE
  5
982
330
1E
100
AcDbEntity
  8
0
100
AcDbLine
 10
14.34309999999999
 20
263.993
 30
0.0
 11
15.0502
 21
263.721
 31
0.0
  0
LINE
  5
983
330
1E
100
AcDbEntity
  8
0
100
AcDbLine
 10
14.06029999999999
 20
264.673
 30
0.0
 11
14.34309999999999
 21
265.354
 31
0.0
  0
LINE
  5
984
330
1E
100
AcDbEntity
  8
0
100
AcDbLine
 10
14.06029999999999
 20
264.673
 30
0.0
 11
14.34309999999999
 21
263.993
 31
0.0
  0
LINE
  5
985
330
1E
100
AcDbEntity
  8
0
100
AcDbLine
 10
14.34309999999999
 20
265.354
 30
0.0
 11
15.0502
 21
265.6259999999999
 31
0.0
  0
LINE
  5
986
330
1E
100
AcDbEntity
  8
0
100
AcDbLine
 10
16.90189999999999
 20
268.827
 30
0.0
 11
17.6581
 21
268.914
 31
0.0
  0
LINE
  5
987
330
1E
100
AcDbEntity
  8
0
100
AcDbLine
 10
16.53589999999999
 20
267.512
 30
0.0
 11
17.1457
 21
267.0729999999999
 31
0.0
  0
LINE
  5
988
330
1E
100
AcDbEntity
  8
0
100
AcDbLine
 10
16.44569999999998
 20
268.24
 30
0.0
 11
16.90189999999999
 21
268.827
 31
0.0
  0
LINE
  5
989
330
1E
100
AcDbEntity
  8
0
100
AcDbLine
 10
16.44569999999998
 20
268.24
 30
0.0
 11
16.53589999999999
 21
267.512
 31
0.0
  0
LINE
  5
98A
330
1E
100
AcDbEntity
  8
0
100
AcDbLine
 10
14.09579999999999
 20
271.6579999999999
 30
0.0
 11
14.20439999999999
 21
270.932
 31
0.0
  0
LINE
  5
98B
330
1E
100
AcDbEntity
  8
0
100
AcDbLine
 10
14.20439999999999
 20
271.059375848123
 30
0.0
 11
14.20439999999999
 21
270.932
 31
0.0
  0
LINE
  5
98C
330
1E
100
AcDbEntity
  8
0
100
AcDbLine
 10
14.20439999999999
 20
270.932
 30
0.0
 11
14.20439999999999
 21
271.059375848123
 31
0.0
  0
LINE
  5
98D
330
1E
100
AcDbEntity
  8
0
100
AcDbLine
 10
16.90189999999999
 20
270.048
 30
0.0
 11
17.6581
 21
269.961
 31
0.0
  0
LINE
  5
98E
330
1E
100
AcDbEntity
  8
0
100
AcDbLine
 10
16.53589999999999
 20
271.362
 30
0.0
 11
16.53589999999999
 21
271.4842609804449
 31
0.0
  0
LINE
  5
98F
330
1E
100
AcDbEntity
  8
0
100
AcDbLine
 10
16.53589999999999
 20
271.362
 30
0.0
 11
17.1457
 21
271.802
 31
0.0
  0
LINE
  5
990
330
1E
100
AcDbEntity
  8
0
100
AcDbLine
 10
16.53589999999999
 20
271.4842609804449
 30
0.0
 11
16.53589999999999
 21
271.362
 31
0.0
  0
LINE
  5
991
330
1E
100
AcDbEntity
  8
0
100
AcDbLine
 10
16.44569999999998
 20
270.635
 30
0.0
 11
16.90189999999999
 21
270.048
 31
0.0
  0
LINE
  5
992
330
1E
100
AcDbEntity
  8
0
100
AcDbLine
 10
16.44569999999998
 20
270.635
 30
0.0
 11
16.53589999999999
 21
271.362
 31
0.0
  0
LINE
  5
993
330
1E
100
AcDbEntity
  8
0
100
AcDbLine
 10
19.29999999999999
 20
267.2239999999999
 30
0.0
 11
20.0
 21
267.512
 31
0.0
  0
LINE
  5
994
330
1E
100
AcDbEntity
  8
0
100
AcDbLine
 10
19.29999999999999
 20
265.876
 30
0.0
 11
20.0
 21
265.5879999999999
 31
0.0
  0
LINE
  5
995
330
1E
100
AcDbEntity
  8
0
100
AcDbLine
 10
19.0
 20
266.55
 30
0.0
 11
19.29999999999999
 21
267.2239999999999
 31
0.0
  0
LINE
  5
996
330
1E
100
AcDbEntity
  8
0
100
AcDbLine
 10
19.0
 20
266.55
 30
0.0
 11
19.29999999999999
 21
265.876
 31
0.0
  0
LINE
  5
997
330
1E
100
AcDbEntity
  8
0
100
AcDbLine
 10
18.26789999999999
 20
268.475
 30
0.0
 11
18.26789999999999
 21
268.6010029783789
 31
0.0
  0
LINE
  5
998
330
1E
100
AcDbEntity
  8
0
100
AcDbLine
 10
18.26789999999999
 20
268.475
 30
0.0
 11
18.3581
 21
267.747
 31
0.0
  0
LINE
  5
999
330
1E
100
AcDbEntity
  8
0
100
AcDbLine
 10
18.3581
 20
267.9817312288919
 30
0.0
 11
18.3581
 21
267.747
 31
0.0
  0
LINE
  5
99A
330
1E
100
AcDbEntity
  8
0
100
AcDbLine
 10
18.3581
 20
267.747
 30
0.0
 11
18.3581
 21
267.9817312288919
 31
0.0
  0
LINE
  5
99B
330
1E
100
AcDbEntity
  8
0
100
AcDbLine
 10
17.90189999999999
 20
267.16
 30
0.0
 11
18.3581
 21
267.747
 31
0.0
  0
LINE
  5
99C
330
1E
100
AcDbEntity
  8
0
100
AcDbLine
 10
18.26789999999999
 20
268.6010029783789
 30
0.0
 11
18.26789999999999
 21
268.475
 31
0.0
  0
LINE
  5
99D
330
1E
100
AcDbEntity
  8
0
100
AcDbLine
 10
21.64179999999999
 20
267.747
 30
0.0
 11
21.64179999999999
 21
267.981827475239
 31
0.0
  0
LINE
  5
99E
330
1E
100
AcDbEntity
  8
0
100
AcDbLine
 10
21.64179999999999
 20
267.981827475239
 30
0.0
 11
21.64179999999999
 21
267.747
 31
0.0
  0
LINE
  5
99F
330
1E
100
AcDbEntity
  8
0
100
AcDbLine
 10
20.69999999999998
 20
265.876
 30
0.0
 11
21.0
 21
266.55
 31
0.0
  0
LINE
  5
9A0
330
1E
100
AcDbEntity
  8
0
100
AcDbLine
 10
20.0
 20
267.512
 30
0.0
 11
20.69999999999998
 21
267.2239999999999
 31
0.0
  0
LINE
  5
9A1
330
1E
100
AcDbEntity
  8
0
100
AcDbLine
 10
20.69999999999998
 20
267.2239999999999
 30
0.0
 11
21.0
 21
266.55
 31
0.0
  0
LINE
  5
9A2
330
1E
100
AcDbEntity
  8
0
100
AcDbLine
 10
20.0
 20
265.5879999999999
 30
0.0
 11
20.69999999999998
 21
265.876
 31
0.0
  0
LINE
  5
9A3
330
1E
100
AcDbEntity
  8
0
100
AcDbLine
 10
19.29999999999999
 20
272.999
 30
0.0
 11
20.0
 21
273.287
 31
0.0
  0
LINE
  5
9A4
330
1E
100
AcDbEntity
  8
0
100
AcDbLine
 10
19.29999999999999
 20
271.6509999999999
 30
0.0
 11
20.0
 21
271.362
 31
0.0
  0
LINE
  5
9A5
330
1E
100
AcDbEntity
  8
0
100
AcDbLine
 10
19.0
 20
272.3249999999999
 30
0.0
 11
19.29999999999999
 21
271.6509999999999
 31
0.0
  0
LINE
  5
9A6
330
1E
100
AcDbEntity
  8
0
100
AcDbLine
 10
19.0
 20
272.3249999999999
 30
0.0
 11
19.29999999999999
 21
272.999
 31
0.0
  0
LINE
  5
9A7
330
1E
100
AcDbEntity
  8
0
100
AcDbLine
 10
18.26789999999999
 20
270.3999999999999
 30
0.0
 11
18.3581
 21
271.1279999999999
 31
0.0
  0
LINE
  5
9A8
330
1E
100
AcDbEntity
  8
0
100
AcDbLine
 10
17.90189999999999
 20
271.7149999999999
 30
0.0
 11
18.3581
 21
271.1279999999999
 31
0.0
  0
LINE
  5
9A9
330
1E
100
AcDbEntity
  8
0
100
AcDbLine
 10
20.69999999999998
 20
272.999
 30
0.0
 11
21.0
 21
272.3249999999999
 31
0.0
  0
LINE
  5
9AA
330
1E
100
AcDbEntity
  8
0
100
AcDbLine
 10
20.69999999999998
 20
271.6509999999999
 30
0.0
 11
21.0
 21
272.3249999999999
 31
0.0
  0
LINE
  5
9AB
330
1E
100
AcDbEntity
  8
0
100
AcDbLine
 10
20.0
 20
273.287
 30
0.0
 11
20.69999999999998
 21
272.999
 31
0.0
  0
LINE
  5
9AC
330
1E
100
AcDbEntity
  8
0
100
AcDbLine
 10
20.0
 20
271.362
 30
0.0
 11
20.69999999999998
 21
271.6509999999999
 31
0.0
  0
LINE
  5
9AD
330
1E
100
AcDbEntity
  8
0
100
AcDbLine
 10
15.60009999999999
 20
285.867
 30
0.0
 11
20.0
 21
286.424
 31
0.0
  0
LINE
  5
9AE
330
1E
100
AcDbEntity
  8
0
100
AcDbLine
 10
17.69329999999999
 20
275.12
 30
0.0
 11
18.4471
 21
275.0159999999999
 31
0.0
  0
LINE
  5
9AF
330
1E
100
AcDbEntity
  8
0
100
AcDbLine
 10
17.33089999999998
 20
276.422
 30
0.0
 11
17.9294
 21
276.875
 31
0.0
  0
LINE
  5
9B0
330
1E
100
AcDbEntity
  8
0
100
AcDbLine
 10
16.71179999999999
 20
281.4959999999998
 30
0.0
 11
20.0
 21
281.9379999999998
 31
0.0
  0
LINE
  5
9B1
330
1E
100
AcDbEntity
  8
0
100
AcDbLine
 10
15.36599999999998
 20
279.0879999999999
 30
0.0
 11
15.45619999999999
 21
278.36
 31
0.0
  0
LINE
  5
9B2
330
1E
100
AcDbEntity
  8
0
100
AcDbLine
 10
14.7562
 20
279.5269999999999
 30
0.0
 11
15.36599999999998
 21
279.0879999999999
 31
0.0
  0
LINE
  5
9B3
330
1E
100
AcDbEntity
  8
0
100
AcDbLine
 10
15.0
 20
277.7729999999999
 30
0.0
 11
15.45619999999999
 21
278.36
 31
0.0
  0
LINE
  5
9B4
330
1E
100
AcDbEntity
  8
0
100
AcDbLine
 10
14.24379999999999
 20
277.6859999999999
 30
0.0
 11
15.0
 21
277.7729999999999
 31
0.0
  0
LINE
  5
9B5
330
1E
100
AcDbEntity
  8
0
100
AcDbLine
 10
14.0
 20
279.4399999999999
 30
0.0
 11
14.0
 21
279.5789516152468
 31
0.0
  0
LINE
  5
9B6
330
1E
100
AcDbEntity
  8
0
100
AcDbLine
 10
14.0
 20
279.4399999999999
 30
0.0
 11
14.7562
 21
279.5269999999999
 31
0.0
  0
LINE
  5
9B7
330
1E
100
AcDbEntity
  8
0
100
AcDbLine
 10
14.0
 20
279.5789516152468
 30
0.0
 11
14.0
 21
279.4399999999999
 31
0.0
  0
LINE
  5
9B8
330
1E
100
AcDbEntity
  8
0
100
AcDbLine
 10
17.2223
 20
275.6959999999998
 30
0.0
 11
17.69329999999999
 21
275.12
 31
0.0
  0
LINE
  5
9B9
330
1E
100
AcDbEntity
  8
0
100
AcDbLine
 10
17.2223
 20
275.6959999999998
 30
0.0
 11
17.33089999999998
 21
276.422
 31
0.0
  0
LINE
  5
9BA
330
1E
100
AcDbEntity
  8
0
100
AcDbLine
 10
20.0
 20
280.987
 30
0.0
 11
20.69999999999998
 21
280.699
 31
0.0
  0
LINE
  5
9BB
330
1E
100
AcDbEntity
  8
0
100
AcDbLine
 10
19.29999999999999
 20
280.699
 30
0.0
 11
20.0
 21
280.987
 31
0.0
  0
LINE
  5
9BC
330
1E
100
AcDbEntity
  8
0
100
AcDbLine
 10
19.29999999999999
 20
279.3509999999999
 30
0.0
 11
20.0
 21
279.062
 31
0.0
  0
LINE
  5
9BD
330
1E
100
AcDbEntity
  8
0
100
AcDbLine
 10
19.0456
 20
275.469
 30
0.0
 11
19.1542
 21
276.194
 31
0.0
  0
LINE
  5
9BE
330
1E
100
AcDbEntity
  8
0
100
AcDbLine
 10
19.0
 20
280.0249999999999
 30
0.0
 11
19.29999999999999
 21
279.3509999999999
 31
0.0
  0
LINE
  5
9BF
330
1E
100
AcDbEntity
  8
0
100
AcDbLine
 10
19.0
 20
280.0249999999999
 30
0.0
 11
19.29999999999999
 21
280.699
 31
0.0
  0
LINE
  5
9C0
330
1E
100
AcDbEntity
  8
0
100
AcDbLine
 10
18.68319999999998
 20
276.7709999999999
 30
0.0
 11
19.1542
 21
276.194
 31
0.0
  0
LINE
  5
9C1
330
1E
100
AcDbEntity
  8
0
100
AcDbLine
 10
17.9294
 20
276.875
 30
0.0
 11
17.9294
 21
276.9881290864939
 31
0.0
  0
LINE
  5
9C2
330
1E
100
AcDbEntity
  8
0
100
AcDbLine
 10
17.9294
 20
276.875
 30
0.0
 11
18.68319999999998
 21
276.7709999999999
 31
0.0
  0
LINE
  5
9C3
330
1E
100
AcDbEntity
  8
0
100
AcDbLine
 10
17.9294
 20
276.9881290864939
 30
0.0
 11
17.9294
 21
276.875
 31
0.0
  0
LINE
  5
9C4
330
1E
100
AcDbEntity
  8
0
100
AcDbLine
 10
18.4471
 20
275.0159999999999
 30
0.0
 11
19.0456
 21
275.469
 31
0.0
  0
LINE
  5
9C5
330
1E
100
AcDbEntity
  8
0
100
AcDbLine
 10
20.69999999999998
 20
280.699
 30
0.0
 11
21.0
 21
280.0249999999999
 31
0.0
  0
LINE
  5
9C6
330
1E
100
AcDbEntity
  8
0
100
AcDbLine
 10
20.84579999999999
 20
276.194
 30
0.0
 11
20.95439999999999
 21
275.469
 31
0.0
  0
LINE
  5
9C7
330
1E
100
AcDbEntity
  8
0
100
AcDbLine
 10
20.84579999999999
 20
276.194
 30
0.0
 11
21.31669999999999
 21
276.7709999999999
 31
0.0
  0
LINE
  5
9C8
330
1E
100
AcDbEntity
  8
0
100
AcDbLine
 10
20.95439999999999
 20
275.469
 30
0.0
 11
21.55289999999999
 21
275.0159999999999
 31
0.0
  0
LINE
  5
9C9
330
1E
100
AcDbEntity
  8
0
100
AcDbLine
 10
20.69999999999998
 20
279.3509999999999
 30
0.0
 11
21.0
 21
280.0249999999999
 31
0.0
  0
LINE
  5
9CA
330
1E
100
AcDbEntity
  8
0
100
AcDbLine
 10
20.0
 20
279.062
 30
0.0
 11
20.69999999999998
 21
279.3509999999999
 31
0.0
  0
LINE
  5
9CB
330
1E
100
AcDbEntity
  8
0
100
AcDbLine
 10
34.72239999999999
 20
261.8809999999999
 30
0.0
 11
36.42069999999998
 21
265.8269999999999
 31
0.0
  0
LINE
  5
9CC
330
1E
100
AcDbEntity
  8
0
100
AcDbLine
 10
28.56999999999999
 20
263.897
 30
0.0
 11
29.0262
 21
263.31
 31
0.0
  0
LINE
  5
9CD
330
1E
100
AcDbEntity
  8
0
100
AcDbLine
 10
29.7825
 20
263.223
 30
0.0
 11
30.39229999999999
 21
263.663
 31
0.0
  0
LINE
  5
9CE
330
1E
100
AcDbEntity
  8
0
100
AcDbLine
 10
29.1764
 20
260.8709999999999
 30
0.0
 11
31.24109999999999
 21
263.483
 31
0.0
  0
LINE
  5
9CF
330
1E
100
AcDbEntity
  8
0
100
AcDbLine
 10
29.06169999999999
 20
260.887
 30
0.0
 11
31.0882
 21
263.4629999999999
 31
0.0
  0
LINE
  5
9D0
330
1E
100
AcDbEntity
  8
0
100
AcDbLine
 10
22.30669999999999
 20
263.755
 30
0.0
 11
22.7776
 21
263.179
 31
0.0
  0
LINE
  5
9D1
330
1E
100
AcDbEntity
  8
0
100
AcDbLine
 10
29.0262
 20
263.31
 30
0.0
 11
29.7825
 21
263.223
 31
0.0
  0
LINE
  5
9D2
330
1E
100
AcDbEntity
  8
0
100
AcDbLine
 10
28.5
 20
255.892
 30
0.0
 11
32.0208
 21
258.492
 31
0.0
  0
LINE
  5
9D3
330
1E
100
AcDbEntity
  8
0
100
AcDbLine
 10
29.0
 20
255.308
 30
0.0
 11
32.7279
 21
258.0609999999999
 31
0.0
  0
LINE
  5
9D4
330
1E
100
AcDbEntity
  8
0
100
AcDbLine
 10
25.24379999999999
 20
259.348
 30
0.0
 11
26.0
 21
259.4349999999999
 31
0.0
  0
LINE
  5
9D5
330
1E
100
AcDbEntity
  8
0
100
AcDbLine
 10
25.0
 20
261.102
 30
0.0
 11
25.7562
 21
261.189
 31
0.0
  0
LINE
  5
9D6
330
1E
100
AcDbEntity
  8
0
100
AcDbLine
 10
23.32649999999999
 20
257.6319999999999
 30
0.0
 11
26.46179999999999
 21
258.8829999999999
 31
0.0
  0
LINE
  5
9D7
330
1E
100
AcDbEntity
  8
0
100
AcDbLine
 10
23.28819999999999
 20
257.722
 30
0.0
 11
26.3853
 21
258.937
 31
0.0
  0
LINE
  5
9D8
330
1E
100
AcDbEntity
  8
0
100
AcDbLine
 10
24.65869999999999
 20
253.5769999999998
 30
0.0
 11
29.0
 21
255.308
 31
0.0
  0
LINE
  5
9D9
330
1E
100
AcDbEntity
  8
0
100
AcDbLine
 10
24.39989999999998
 20
254.2569999999999
 30
0.0
 11
28.5
 21
255.892
 31
0.0
  0
LINE
  5
9DA
330
1E
100
AcDbEntity
  8
0
100
AcDbLine
 10
22.66899999999999
 20
262.4529999999999
 30
0.0
 11
22.7776
 21
263.179
 31
0.0
  0
LINE
  5
9DB
330
1E
100
AcDbEntity
  8
0
100
AcDbLine
 10
22.07049999999999
 20
262.0
 30
0.0
 11
22.66899999999999
 21
262.4529999999999
 31
0.0
  0
LINE
  5
9DC
330
1E
100
AcDbEntity
  8
0
100
AcDbLine
 10
24.63389999999999
 20
259.787
 30
0.0
 11
25.24379999999999
 21
259.348
 31
0.0
  0
LINE
  5
9DD
330
1E
100
AcDbEntity
  8
0
100
AcDbLine
 10
24.5437
 20
260.515
 30
0.0
 11
24.63389999999999
 21
259.787
 31
0.0
  0
LINE
  5
9DE
330
1E
100
AcDbEntity
  8
0
100
AcDbLine
 10
24.5437
 20
260.515
 30
0.0
 11
25.0
 21
261.102
 31
0.0
  0
LINE
  5
9DF
330
1E
100
AcDbEntity
  8
0
100
AcDbLine
 10
26.46179999999999
 20
258.8829999999999
 30
0.0
 11
29.1764
 21
260.8709999999999
 31
0.0
  0
LINE
  5
9E0
330
1E
100
AcDbEntity
  8
0
100
AcDbLine
 10
26.3853
 20
258.937
 30
0.0
 11
29.06169999999999
 21
260.887
 31
0.0
  0
LINE
  5
9E1
330
1E
100
AcDbEntity
  8
0
100
AcDbLine
 10
26.0
 20
259.4349999999999
 30
0.0
 11
26.45619999999999
 21
260.0219999999999
 31
0.0
  0
LINE
  5
9E2
330
1E
100
AcDbEntity
  8
0
100
AcDbLine
 10
26.366
 20
260.7499999999999
 30
0.0
 11
26.45619999999999
 21
260.0219999999999
 31
0.0
  0
LINE
  5
9E3
330
1E
100
AcDbEntity
  8
0
100
AcDbLine
 10
25.7562
 20
261.189
 30
0.0
 11
26.366
 21
260.7499999999999
 31
0.0
  0
LINE
  5
9E4
330
1E
100
AcDbEntity
  8
0
100
AcDbLine
 10
32.0208
 20
258.492
 30
0.0
 11
34.72239999999999
 21
261.8809999999999
 31
0.0
  0
LINE
  5
9E5
330
1E
100
AcDbEntity
  8
0
100
AcDbLine
 10
32.7279
 20
258.0609999999999
 30
0.0
 11
35.58850000000001
 21
261.649
 31
0.0
  0
LINE
  5
9E6
330
1E
100
AcDbEntity
  8
0
100
AcDbLine
 10
32.0
 20
256.2359999999999
 30
0.0
 11
32.0
 21
257.5234564231869
 31
0.0
  0
LINE
  5
9E7
330
1E
100
AcDbEntity
  8
0
100
AcDbLine
 10
32.0
 20
257.5234564231869
 30
0.0
 11
32.0
 21
256.2359999999999
 31
0.0
  0
LINE
  5
9E8
330
1E
100
AcDbEntity
  8
0
100
AcDbLine
 10
28.5
 20
284.232
 30
0.0
 11
32.0208
 21
281.632
 31
0.0
  0
LINE
  5
9E9
330
1E
100
AcDbEntity
  8
0
100
AcDbLine
 10
29.0
 20
285.3149999999999
 30
0.0
 11
32.7279
 21
282.562
 31
0.0
  0
LINE
  5
9EA
330
1E
100
AcDbEntity
  8
0
100
AcDbLine
 10
29.06169999999999
 20
278.3309999999999
 30
0.0
 11
31.0882
 21
275.755
 31
0.0
  0
LINE
  5
9EB
330
1E
100
AcDbEntity
  8
0
100
AcDbLine
 10
29.0262
 20
275.565
 30
0.0
 11
29.7825
 21
275.652
 31
0.0
  0
LINE
  5
9EC
330
1E
100
AcDbEntity
  8
0
100
AcDbLine
 10
29.26999999999998
 20
273.8109999999999
 30
0.0
 11
30.0262
 21
273.8979999999999
 31
0.0
  0
LINE
  5
9ED
330
1E
100
AcDbEntity
  8
0
100
AcDbLine
 10
29.26999999999998
 20
265.064
 30
0.0
 11
30.0262
 21
264.977
 31
0.0
  0
LINE
  5
9EE
330
1E
100
AcDbEntity
  8
0
100
AcDbLine
 10
28.56999999999999
 20
274.978
 30
0.0
 11
29.0262
 21
275.565
 31
0.0
  0
LINE
  5
9EF
330
1E
100
AcDbEntity
  8
0
100
AcDbLine
 10
24.9497
 20
275.1539999999999
 30
0.0
 11
25.6568
 21
274.882
 31
0.0
  0
LINE
  5
9F0
330
1E
100
AcDbEntity
  8
0
100
AcDbLine
 10
24.24259999999999
 20
274.882
 30
0.0
 11
24.9497
 21
275.1539999999999
 31
0.0
  0
LINE
  5
9F1
330
1E
100
AcDbEntity
  8
0
100
AcDbLine
 10
24.9497
 20
273.249
 30
0.0
 11
25.6568
 21
273.5209999999999
 31
0.0
  0
LINE
  5
9F2
330
1E
100
AcDbEntity
  8
0
100
AcDbLine
 10
23.4641
 20
267.512
 30
0.0
 11
23.55429999999999
 21
268.24
 31
0.0
  0
LINE
  5
9F3
330
1E
100
AcDbEntity
  8
0
100
AcDbLine
 10
22.85429999999999
 20
267.0729999999999
 30
0.0
 11
23.4641
 21
267.512
 31
0.0
  0
LINE
  5
9F4
330
1E
100
AcDbEntity
  8
0
100
AcDbLine
 10
23.098
 20
268.827
 30
0.0
 11
23.55429999999999
 21
268.24
 31
0.0
  0
LINE
  5
9F5
330
1E
100
AcDbEntity
  8
0
100
AcDbLine
 10
22.34179999999999
 20
268.914
 30
0.0
 11
23.098
 21
268.827
 31
0.0
  0
LINE
  5
9F6
330
1E
100
AcDbEntity
  8
0
100
AcDbLine
 10
22.09799999999999
 20
267.16
 30
0.0
 11
22.85429999999999
 21
267.0729999999999
 31
0.0
  0
LINE
  5
9F7
330
1E
100
AcDbEntity
  8
0
100
AcDbLine
 10
21.732
 20
268.475
 30
0.0
 11
21.732
 21
268.6010584599919
 31
0.0
  0
LINE
  5
9F8
330
1E
100
AcDbEntity
  8
0
100
AcDbLine
 10
21.732
 20
268.475
 30
0.0
 11
22.34179999999999
 21
268.914
 31
0.0
  0
LINE
  5
9F9
330
1E
100
AcDbEntity
  8
0
100
AcDbLine
 10
21.732
 20
268.6010584599919
 30
0.0
 11
21.732
 21
268.475
 31
0.0
  0
LINE
  5
9FA
330
1E
100
AcDbEntity
  8
0
100
AcDbLine
 10
23.4641
 20
271.362
 30
0.0
 11
23.4641
 21
271.4842609804449
 31
0.0
  0
LINE
  5
9FB
330
1E
100
AcDbEntity
  8
0
100
AcDbLine
 10
23.4641
 20
271.362
 30
0.0
 11
23.55429999999999
 21
270.635
 31
0.0
  0
LINE
  5
9FC
330
1E
100
AcDbEntity
  8
0
100
AcDbLine
 10
23.4641
 20
271.4842609804449
 30
0.0
 11
23.4641
 21
271.362
 31
0.0
  0
LINE
  5
9FD
330
1E
100
AcDbEntity
  8
0
100
AcDbLine
 10
22.85429999999999
 20
271.802
 30
0.0
 11
23.4641
 21
271.362
 31
0.0
  0
LINE
  5
9FE
330
1E
100
AcDbEntity
  8
0
100
AcDbLine
 10
23.098
 20
270.048
 30
0.0
 11
23.55429999999999
 21
270.635
 31
0.0
  0
LINE
  5
9FF
330
1E
100
AcDbEntity
  8
0
100
AcDbLine
 10
22.09799999999999
 20
271.7149999999999
 30
0.0
 11
22.85429999999999
 21
271.802
 31
0.0
  0
LINE
  5
A00
330
1E
100
AcDbEntity
  8
0
100
AcDbLine
 10
22.34179999999999
 20
269.961
 30
0.0
 11
23.098
 21
270.048
 31
0.0
  0
LINE
  5
A01
330
1E
100
AcDbEntity
  8
0
100
AcDbLine
 10
21.732
 20
270.3999999999999
 30
0.0
 11
22.34179999999999
 21
269.961
 31
0.0
  0
LINE
  5
A02
330
1E
100
AcDbEntity
  8
0
100
AcDbLine
 10
24.24259999999999
 20
273.5209999999999
 30
0.0
 11
24.9497
 21
273.249
 31
0.0
  0
LINE
  5
A03
330
1E
100
AcDbEntity
  8
0
100
AcDbLine
 10
23.9598
 20
274.202
 30
0.0
 11
24.24259999999999
 21
274.882
 31
0.0
  0
LINE
  5
A04
330
1E
100
AcDbEntity
  8
0
100
AcDbLine
 10
23.9598
 20
274.202
 30
0.0
 11
24.24259999999999
 21
273.5209999999999
 31
0.0
  0
LINE
  5
A05
330
1E
100
AcDbEntity
  8
0
100
AcDbLine
 10
27.2564
 20
266.868
 30
0.0
 11
27.7274
 21
267.4449999999999
 31
0.0
  0
LINE
  5
A06
330
1E
100
AcDbEntity
  8
0
100
AcDbLine
 10
27.02029999999999
 20
268.623
 30
0.0
 11
27.61879999999999
 21
268.17
 31
0.0
  0
LINE
  5
A07
330
1E
100
AcDbEntity
  8
0
100
AcDbLine
 10
26.5026
 20
266.764
 30
0.0
 11
27.2564
 21
266.868
 31
0.0
  0
LINE
  5
A08
330
1E
100
AcDbEntity
  8
0
100
AcDbLine
 10
26.26650000000001
 20
268.5189999999999
 30
0.0
 11
27.02029999999999
 21
268.623
 31
0.0
  0
LINE
  5
A09
330
1E
100
AcDbEntity
  8
0
100
AcDbLine
 10
25.7955
 20
267.9429999999999
 30
0.0
 11
25.7955
 21
268.0651342541529
 31
0.0
  0
LINE
  5
A0A
330
1E
100
AcDbEntity
  8
0
100
AcDbLine
 10
25.7955
 20
267.9429999999999
 30
0.0
 11
25.9041
 21
267.2169999999999
 31
0.0
  0
LINE
  5
A0B
330
1E
100
AcDbEntity
  8
0
100
AcDbLine
 10
25.7955
 20
267.9429999999999
 30
0.0
 11
26.26650000000001
 21
268.5189999999999
 31
0.0
  0
LINE
  5
A0C
330
1E
100
AcDbEntity
  8
0
100
AcDbLine
 10
25.9041
 20
267.2169999999999
 30
0.0
 11
26.5026
 21
266.764
 31
0.0
  0
LINE
  5
A0D
330
1E
100
AcDbEntity
  8
0
100
AcDbLine
 10
25.7955
 20
268.0651342541529
 30
0.0
 11
25.7955
 21
267.9429999999999
 31
0.0
  0
LINE
  5
A0E
330
1E
100
AcDbEntity
  8
0
100
AcDbLine
 10
28.6602
 20
264.625
 30
0.0
 11
28.6602
 21
264.7571813367338
 31
0.0
  0
LINE
  5
A0F
330
1E
100
AcDbEntity
  8
0
100
AcDbLine
 10
28.6602
 20
264.625
 30
0.0
 11
29.26999999999998
 21
265.064
 31
0.0
  0
LINE
  5
A10
330
1E
100
AcDbEntity
  8
0
100
AcDbLine
 10
28.56999999999999
 20
263.897
 30
0.0
 11
28.6602
 21
264.625
 31
0.0
  0
LINE
  5
A11
330
1E
100
AcDbEntity
  8
0
100
AcDbLine
 10
28.6602
 20
264.7571813367338
 30
0.0
 11
28.6602
 21
264.625
 31
0.0
  0
LINE
  5
A12
330
1E
100
AcDbEntity
  8
0
100
AcDbLine
 10
27.61879999999999
 20
268.17
 30
0.0
 11
27.7274
 21
267.4449999999999
 31
0.0
  0
LINE
  5
A13
330
1E
100
AcDbEntity
  8
0
100
AcDbLine
 10
27.7274
 20
267.5661617868239
 30
0.0
 11
27.7274
 21
267.4449999999999
 31
0.0
  0
LINE
  5
A14
330
1E
100
AcDbEntity
  8
0
100
AcDbLine
 10
27.7274
 20
267.4449999999999
 30
0.0
 11
27.7274
 21
267.5661617868239
 31
0.0
  0
LINE
  5
A15
330
1E
100
AcDbEntity
  8
0
100
AcDbLine
 10
25.6568
 20
274.882
 30
0.0
 11
25.6568
 21
275.0071066055649
 31
0.0
  0
LINE
  5
A16
330
1E
100
AcDbEntity
  8
0
100
AcDbLine
 10
25.6568
 20
274.882
 30
0.0
 11
25.9397
 21
274.202
 31
0.0
  0
LINE
  5
A17
330
1E
100
AcDbEntity
  8
0
100
AcDbLine
 10
25.6568
 20
273.5209999999999
 30
0.0
 11
25.9397
 21
274.202
 31
0.0
  0
LINE
  5
A18
330
1E
100
AcDbEntity
  8
0
100
AcDbLine
 10
25.6568
 20
275.0071066055649
 30
0.0
 11
25.6568
 21
274.882
 31
0.0
  0
LINE
  5
A19
330
1E
100
AcDbEntity
  8
0
100
AcDbLine
 10
28.56999999999999
 20
274.978
 30
0.0
 11
28.6602
 21
274.25
 31
0.0
  0
LINE
  5
A1A
330
1E
100
AcDbEntity
  8
0
100
AcDbLine
 10
28.6602
 20
274.25
 30
0.0
 11
29.26999999999998
 21
273.8109999999999
 31
0.0
  0
LINE
  5
A1B
330
1E
100
AcDbEntity
  8
0
100
AcDbLine
 10
24.39989999999998
 20
285.867
 30
0.0
 11
28.5
 21
284.232
 31
0.0
  0
LINE
  5
A1C
330
1E
100
AcDbEntity
  8
0
100
AcDbLine
 10
25.24379999999999
 20
279.5269999999999
 30
0.0
 11
26.0
 21
279.4399999999999
 31
0.0
  0
LINE
  5
A1D
330
1E
100
AcDbEntity
  8
0
100
AcDbLine
 10
25.0
 20
277.7729999999999
 30
0.0
 11
25.7562
 21
277.6859999999999
 31
0.0
  0
LINE
  5
A1E
330
1E
100
AcDbEntity
  8
0
100
AcDbLine
 10
23.28819999999999
 20
281.4959999999998
 30
0.0
 11
26.3853
 21
280.281
 31
0.0
  0
LINE
  5
A1F
330
1E
100
AcDbEntity
  8
0
100
AcDbLine
 10
22.66899999999999
 20
276.422
 30
0.0
 11
22.7776
 21
275.6959999999998
 31
0.0
  0
LINE
  5
A20
330
1E
100
AcDbEntity
  8
0
100
AcDbLine
 10
22.07049999999999
 20
276.875
 30
0.0
 11
22.07049999999999
 21
276.987770440252
 31
0.0
  0
LINE
  5
A21
330
1E
100
AcDbEntity
  8
0
100
AcDbLine
 10
22.07049999999999
 20
276.875
 30
0.0
 11
22.66899999999999
 21
276.422
 31
0.0
  0
LINE
  5
A22
330
1E
100
AcDbEntity
  8
0
100
AcDbLine
 10
22.07049999999999
 20
276.987770440252
 30
0.0
 11
22.07049999999999
 21
276.875
 31
0.0
  0
LINE
  5
A23
330
1E
100
AcDbEntity
  8
0
100
AcDbLine
 10
22.30669999999999
 20
275.12
 30
0.0
 11
22.7776
 21
275.6959999999998
 31
0.0
  0
LINE
  5
A24
330
1E
100
AcDbEntity
  8
0
100
AcDbLine
 10
24.63389999999999
 20
279.0879999999999
 30
0.0
 11
25.24379999999999
 21
279.5269999999999
 31
0.0
  0
LINE
  5
A25
330
1E
100
AcDbEntity
  8
0
100
AcDbLine
 10
24.5437
 20
278.36
 30
0.0
 11
24.63389999999999
 21
279.0879999999999
 31
0.0
  0
LINE
  5
A26
330
1E
100
AcDbEntity
  8
0
100
AcDbLine
 10
24.5437
 20
278.36
 30
0.0
 11
25.0
 21
277.7729999999999
 31
0.0
  0
LINE
  5
A27
330
1E
100
AcDbEntity
  8
0
100
AcDbLine
 10
26.3853
 20
280.281
 30
0.0
 11
29.06169999999999
 21
278.3309999999999
 31
0.0
  0
LINE
  5
A28
330
1E
100
AcDbEntity
  8
0
100
AcDbLine
 10
26.366
 20
278.125
 30
0.0
 11
26.45619999999999
 21
278.853
 31
0.0
  0
LINE
  5
A29
330
1E
100
AcDbEntity
  8
0
100
AcDbLine
 10
26.0
 20
279.5789516152468
 30
0.0
 11
26.0
 21
279.4399999999999
 31
0.0
  0
LINE
  5
A2A
330
1E
100
AcDbEntity
  8
0
100
AcDbLine
 10
26.0
 20
279.4399999999999
 30
0.0
 11
26.0
 21
279.5789516152468
 31
0.0
  0
LINE
  5
A2B
330
1E
100
AcDbEntity
  8
0
100
AcDbLine
 10
26.0
 20
279.4399999999999
 30
0.0
 11
26.45619999999999
 21
278.853
 31
0.0
  0
LINE
  5
A2C
330
1E
100
AcDbEntity
  8
0
100
AcDbLine
 10
25.7562
 20
277.6859999999999
 30
0.0
 11
26.366
 21
278.125
 31
0.0
  0
LINE
  5
A2D
330
1E
100
AcDbEntity
  8
0
100
AcDbLine
 10
34.72239999999999
 20
278.243
 30
0.0
 11
36.42069999999998
 21
274.297
 31
0.0
  0
LINE
  5
A2E
330
1E
100
AcDbEntity
  8
0
100
AcDbLine
 10
31.0882
 20
275.755
 30
0.0
 11
32.34999999999999
 21
272.774
 31
0.0
  0
LINE
  5
A2F
330
1E
100
AcDbEntity
  8
0
100
AcDbLine
 10
30.39229999999999
 20
275.212
 30
0.0
 11
30.4825
 21
274.485
 31
0.0
  0
LINE
  5
A30
330
1E
100
AcDbEntity
  8
0
100
AcDbLine
 10
32.5411
 20
266.5009999999999
 30
0.0
 11
33.0
 21
269.7029999999999
 31
0.0
  0
LINE
  5
A31
330
1E
100
AcDbEntity
  8
0
100
AcDbLine
 10
32.34999999999999
 20
266.444
 30
0.0
 11
32.80879999999999
 21
269.609
 31
0.0
  0
LINE
  5
A32
330
1E
100
AcDbEntity
  8
0
100
AcDbLine
 10
31.69999999999999
 20
268.764
 30
0.0
 11
32.0
 21
269.437
 31
0.0
  0
LINE
  5
A33
330
1E
100
AcDbEntity
  8
0
100
AcDbLine
 10
30.0
 20
269.437
 30
0.0
 11
30.29999999999999
 21
268.764
 31
0.0
  0
LINE
  5
A34
330
1E
100
AcDbEntity
  8
0
100
AcDbLine
 10
31.24109999999999
 20
263.483
 30
0.0
 11
32.5411
 21
266.5009999999999
 31
0.0
  0
LINE
  5
A35
330
1E
100
AcDbEntity
  8
0
100
AcDbLine
 10
31.0
 20
268.475
 30
0.0
 11
31.69999999999999
 21
268.764
 31
0.0
  0
LINE
  5
A36
330
1E
100
AcDbEntity
  8
0
100
AcDbLine
 10
31.0882
 20
263.4629999999999
 30
0.0
 11
32.34999999999999
 21
266.444
 31
0.0
  0
LINE
  5
A37
330
1E
100
AcDbEntity
  8
0
100
AcDbLine
 10
30.39229999999999
 20
263.663
 30
0.0
 11
30.4825
 21
264.3899999999999
 31
0.0
  0
LINE
  5
A38
330
1E
100
AcDbEntity
  8
0
100
AcDbLine
 10
30.0262
 20
264.977
 30
0.0
 11
30.4825
 21
264.3899999999999
 31
0.0
  0
LINE
  5
A39
330
1E
100
AcDbEntity
  8
0
100
AcDbLine
 10
30.29999999999999
 20
268.764
 30
0.0
 11
31.0
 21
268.475
 31
0.0
  0
LINE
  5
A3A
330
1E
100
AcDbEntity
  8
0
100
AcDbLine
 10
31.0
 20
270.3999999999999
 30
0.0
 11
31.69999999999999
 21
270.1109999999999
 31
0.0
  0
LINE
  5
A3B
330
1E
100
AcDbEntity
  8
0
100
AcDbLine
 10
30.0262
 20
273.8979999999999
 30
0.0
 11
30.4825
 21
274.485
 31
0.0
  0
LINE
  5
A3C
330
1E
100
AcDbEntity
  8
0
100
AcDbLine
 10
30.29999999999999
 20
270.1109999999999
 30
0.0
 11
31.0
 21
270.3999999999999
 31
0.0
  0
LINE
  5
A3D
330
1E
100
AcDbEntity
  8
0
100
AcDbLine
 10
30.0
 20
269.437
 30
0.0
 11
30.0
 21
269.562
 31
0.0
  0
LINE
  5
A3E
330
1E
100
AcDbEntity
  8
0
100
AcDbLine
 10
30.0
 20
269.437
 30
0.0
 11
30.29999999999999
 21
270.1109999999999
 31
0.0
  0
LINE
  5
A3F
330
1E
100
AcDbEntity
  8
0
100
AcDbLine
 10
30.0
 20
269.562
 30
0.0
 11
30.0
 21
269.437
 31
0.0
  0
LINE
  5
A40
330
1E
100
AcDbEntity
  8
0
100
AcDbLine
 10
33.0
 20
269.7957209754138
 30
0.0
 11
33.0
 21
269.7029999999999
 31
0.0
  0
LINE
  5
A41
330
1E
100
AcDbEntity
  8
0
100
AcDbLine
 10
33.0
 20
269.7029999999999
 30
0.0
 11
33.0
 21
269.7957209754138
 31
0.0
  0
LINE
  5
A42
330
1E
100
AcDbEntity
  8
0
100
AcDbLine
 10
32.34999999999999
 20
272.774
 30
0.0
 11
32.80879999999999
 21
269.609
 31
0.0
  0
LINE
  5
A43
330
1E
100
AcDbEntity
  8
0
100
AcDbLine
 10
32.0
 20
269.562
 30
0.0
 11
32.0
 21
269.437
 31
0.0
  0
LINE
  5
A44
330
1E
100
AcDbEntity
  8
0
100
AcDbLine
 10
32.0
 20
269.437
 30
0.0
 11
32.0
 21
269.562
 31
0.0
  0
LINE
  5
A45
330
1E
100
AcDbEntity
  8
0
100
AcDbLine
 10
31.69999999999999
 20
270.1109999999999
 30
0.0
 11
32.0
 21
269.437
 31
0.0
  0
LINE
  5
A46
330
1E
100
AcDbEntity
  8
0
100
AcDbLine
 10
36.42069999999998
 20
265.8269999999999
 30
0.0
 11
37.0
 21
270.062
 31
0.0
  0
LINE
  5
A47
330
1E
100
AcDbEntity
  8
0
100
AcDbLine
 10
36.42069999999998
 20
274.297
 30
0.0
 11
37.0
 21
270.062
 31
0.0
  0
LINE
  5
A48
330
1E
100
AcDbEntity
  8
0
100
AcDbLine
 10
32.0208
 20
281.632
 30
0.0
 11
34.72239999999999
 21
278.243
 31
0.0
  0
LINE
  5
A49
330
1E
100
AcDbEntity
  8
0
100
AcDbLine
 10
32.7279
 20
282.562
 30
0.0
 11
35.58850000000001
 21
278.974
 31
0.0
  0
LINE
  5
A4A
330
1E
100
AcDbEntity
  8
0
100
AcDbLine
 10
29.7825
 20
275.652
 30
0.0
 11
30.39229999999999
 21
275.212
 31
0.0
  0
LINE
  5
A4B
330
1E
100
AcDbEntity
  8
0
100
AcDbLine
 10
30.39229999999999
 20
275.212
 30
0.0
 11
30.39229999999999
 21
275.3287829413348
 31
0.0
  0
LINE
  5
A4C
330
1E
100
AcDbEntity
  8
0
100
AcDbLine
 10
30.39229999999999
 20
275.3287829413348
 30
0.0
 11
30.39229999999999
 21
275.212
 31
0.0
  0
LINE
  5
A4D
330
1E
100
AcDbEntity
  8
0
100
AcDbLine
 10
20.0
 20
295.8059999999998
 30
0.0
 11
25.1764
 21
295.151
 31
0.0
  0
LINE
  5
A4E
330
1E
100
AcDbEntity
  8
0
100
AcDbLine
 10
20.0
 20
287.637
 30
0.0
 11
24.65869999999999
 21
287.047
 31
0.0
  0
LINE
  5
A4F
330
1E
100
AcDbEntity
  8
0
100
AcDbLine
 10
10.0
 20
293.227
 30
0.0
 11
14.82359999999999
 21
295.151
 31
0.0
  0
LINE
  5
A50
330
1E
100
AcDbEntity
  8
0
100
AcDbLine
 10
14.82359999999999
 20
295.151
 30
0.0
 11
20.0
 21
295.8059999999998
 31
0.0
  0
LINE
  5
A51
330
1E
100
AcDbEntity
  8
0
100
AcDbLine
 10
15.3413
 20
287.047
 30
0.0
 11
20.0
 21
287.637
 31
0.0
  0
LINE
  5
A52
330
1E
100
AcDbEntity
  8
0
100
AcDbLine
 10
25.1764
 20
295.151
 30
0.0
 11
30.0
 21
293.227
 31
0.0
  0
LINE
  5
A53
330
1E
100
AcDbEntity
  8
0
100
AcDbLine
 10
30.0
 20
293.227
 30
0.0
 11
34.1421
 21
290.168
 31
0.0
  0
LINE
  5
A54
330
1E
100
AcDbEntity
  8
0
100
AcDbLine
 10
39.3185
 20
271.574
 30
0.0
 11
40.0
 21
276.5559999999999
 31
0.0
  0
LINE
  5
A55
330
1E
100
AcDbEntity
  8
0
100
AcDbLine
 10
37.38669999999999
 20
265.8269999999999
 30
0.0
 11
38.0
 21
270.312
 31
0.0
  0
LINE
  5
A56
330
1E
100
AcDbEntity
  8
0
100
AcDbLine
 10
38.35259999999999
 20
268.825
 30
0.0
 11
39.3185
 21
271.574
 31
0.0
  0
LINE
  5
A57
330
1E
100
AcDbEntity
  8
0
100
AcDbLine
 10
37.38669999999999
 20
265.8269999999999
 30
0.0
 11
38.35259999999999
 21
268.825
 31
0.0
  0
LINE
  5
A58
330
1E
100
AcDbEntity
  8
0
100
AcDbLine
 10
37.38669999999999
 20
274.7959999999999
 30
0.0
 11
38.0
 21
270.312
 31
0.0
  0
LINE
  5
A59
330
1E
100
AcDbEntity
  8
0
100
AcDbLine
 10
39.3185
 20
281.538
 30
0.0
 11
40.0
 21
276.5559999999999
 31
0.0
  0
LINE
  5
A5A
330
1E
100
AcDbEntity
  8
0
100
AcDbLine
 10
37.3205
 20
286.1809999999998
 30
0.0
 11
39.3185
 21
281.538
 31
0.0
  0
ENDSEC
  0
SECTION
  2
OBJECTS
  0
DICTIONARY
  5
C
330
0
100
AcDbDictionary
281
     1
  3
ACAD_GROUP
350
D
  3
ACAD_LAYOUT
350
19
  3
ACAD_MLINESTYLE
350
16
  3
ACAD_PLOTSETTINGS
350
18
  3
ACAD_PLOTSTYLENAME
350
E
  3
AcDbVariableDictionary
350
A5C
  0
DICTIONARY
  5
D
102
{ACAD_REACTORS
330
C
102
}
330
C
100
AcDbDictionary
281
     1
  0
DICTIONARY
  5
19
102
{ACAD_REACTORS
330
C
102
}
330
C
100
AcDbDictionary
281
     1
  3
Layout1
350
1D
  3
Model
350
21
  0
DICTIONARY
  5
16
102
{ACAD_REACTORS
330
C
102
}
330
C
100
AcDbDictionary
281
     1
  3
Standard
350
17
  0
DICTIONARY
  5
18
102
{ACAD_REACTORS
330
C
102
}
330
C
100
AcDbDictionary
281
     1
  0
ACDBDICTIONARYWDFLT
  5
E
102
{ACAD_REACTORS
330
C
102
}
330
C
100
AcDbDictionary
281
     1
  3
Normal
350
F
100
AcDbDictionaryWithDefault
340
F
  0
DICTIONARY
  5
A5C
102
{ACAD_REACTORS
330
C
102
}
330
C
100
AcDbDictionary
281
     1
  3
DIMASSOC
350
A5D
  0
LAYOUT
  5
1D
102
{ACAD_REACTORS
330
19
102
}
330
19
100
AcDbPlotSettings
  1

  2
C:\Programme\AutoCAD LT 2002 Deu\plotters\DWF ePlot (optimized for plotting).pc3
  4

  6

 40
0.0
 41
0.0
 42
0.0
 43
0.0
 44
0.0
 45
0.0
 46
0.0
 47
0.0
 48
0.0
 49
0.0
140
0.0
141
0.0
142
1.0
143
1.0
 70
   688
 72
     0
 73
     0
 74
     5
  7

 75
    16
147
1.0
148
0.0
149
0.0
100
AcDbLayout
  1
Layout1
 70
     1
 71
     1
 10
0.0
 20
0.0
 11
12.0
 21
9.0
 12
0.0
 22
0.0
 32
0.0
 14
1.000000000000000E+20
 24
1.000000000000000E+20
 34
1.000000000000000E+20
 15
-1.000000000000000E+20
 25
-1.000000000000000E+20
 35
-1.000000000000000E+20
146
0.0
 13
0.0
 23
0.0
 33
0.0
 16
1.0
 26
0.0
 36
0.0
 17
0.0
 27
1.0
 37
0.0
 76
     0
330
1A
  0
LAYOUT
  5
21
102
{ACAD_REACTORS
330
19
102
}
330
19
100
AcDbPlotSettings
  1

  2
C:\Programme\AutoCAD LT 2002 Deu\plotters\DWF ePlot (optimized for plotting).pc3
  4

  6

 40
0.0
 41
0.0
 42
0.0
 43
0.0
 44
0.0
 45
0.0
 46
0.0
 47
0.0
 48
0.0
 49
0.0
140
0.0
141
0.0
142
1.0
143
1.0
 70
  1712
 72
     0
 73
     0
 74
     0
  7

 75
     0
147
1.0
148
0.0
149
0.0
100
AcDbLayout
  1
Model
 70
     1
 71
     0
 10
0.0
 20
0.0
 11
12.0
 21
9.0
 12
0.0
 22
0.0
 32
0.0
 14
0.0
 24
0.0
 34
0.0
 15
0.0
 25
0.0
 35
0.0
146
0.0
 13
0.0
 23
0.0
 33
0.0
 16
1.0
 26
0.0
 36
0.0
 17
0.0
 27
1.0
 37
0.0
 76
     0
330
1E
  0
MLINESTYLE
  5
17
102
{ACAD_REACTORS
330
16
102
}
330
16
100
AcDbMlineStyle
  2
STANDARD
 70
     0
  3

 62
   256
 51
90.0
 52
90.0
 71
     2
 49
0.5
 62
   256
  6
BYLAYER
 49
-0.5
 62
   256
  6
BYLAYER
  0
ACDBPLACEHOLDER
  5
F
102
{ACAD_REACTORS
330
E
102
}
330
E
  0
DICTIONARYVAR
  5
A5D
102
{ACAD_REACTORS
330
A5C
102
}
330
A5C
100
DictionaryVariables
280
     0
  1
1
  0
ENDSEC
  0
EOF
