  0
SECTION
  2
HEADER
  9
$ACADVER
  1
AC1014
  9
$ACADMAINTVER
 70
     9
  9
$DWGCODEPAGE
  3
ANSI_1252
  9
$INSBASE
 10
0.0
 20
0.0
 30
0.0
  9
$EXTMIN
 10
0.0212435000000015
 20
-0.0000000000000013
 30
0.0
  9
$EXTMAX
 10
70.02124350000001
 20
108.0
 30
0.0
  9
$LIMMIN
 10
0.0
 20
0.0
  9
$LIMMAX
 10
12.0
 20
9.0
  9
$ORTHOMODE
 70
     0
  9
$REGENMODE
 70
     1
  9
$FILLMODE
 70
     1
  9
$QTEXTMODE
 70
     0
  9
$MIRRTEXT
 70
     1
  9
$DRAGMODE
 70
     2
  9
$LTSCALE
 40
1.0
  9
$OSMODE
 70
    37
  9
$ATTMODE
 70
     1
  9
$TEXTSIZE
 40
0.2
  9
$TRACEWID
 40
0.05
  9
$TEXTSTYLE
  7
STANDARD
  9
$CLAYER
  8
0
  9
$CELTYPE
  6
CONTINUOUS
  9
$CECOLOR
 62
   256
  9
$CELTSCALE
 40
1.0
  9
$DELOBJ
 70
     1
  9
$DISPSILH
 70
     0
  9
$DIMSCALE
 40
1.0
  9
$DIMASZ
 40
0.18
  9
$DIMEXO
 40
0.0625
  9
$DIMDLI
 40
0.38
  9
$DIMRND
 40
0.0
  9
$DIMDLE
 40
0.0
  9
$DIMEXE
 40
0.18
  9
$DIMTP
 40
0.0
  9
$DIMTM
 40
0.0
  9
$DIMTXT
 40
0.18
  9
$DIMCEN
 40
0.09
  9
$DIMTSZ
 40
0.0
  9
$DIMTOL
 70
     0
  9
$DIMLIM
 70
     0
  9
$DIMTIH
 70
     1
  9
$DIMTOH
 70
     1
  9
$DIMSE1
 70
     0
  9
$DIMSE2
 70
     0
  9
$DIMTAD
 70
     0
  9
$DIMZIN
 70
     0
  9
$DIMBLK
  1

  9
$DIMASO
 70
     1
  9
$DIMSHO
 70
     1
  9
$DIMPOST
  1

  9
$DIMAPOST
  1

  9
$DIMALT
 70
     0
  9
$DIMALTD
 70
     2
  9
$DIMALTF
 40
25.4
  9
$DIMLFAC
 40
1.0
  9
$DIMTOFL
 70
     0
  9
$DIMTVP
 40
0.0
  9
$DIMTIX
 70
     0
  9
$DIMSOXD
 70
     0
  9
$DIMSAH
 70
     0
  9
$DIMBLK1
  1

  9
$DIMBLK2
  1

  9
$DIMSTYLE
  2
STANDARD
  9
$DIMCLRD
 70
     0
  9
$DIMCLRE
 70
     0
  9
$DIMCLRT
 70
     0
  9
$DIMTFAC
 40
1.0
  9
$DIMGAP
 40
0.09
  9
$DIMJUST
 70
     0
  9
$DIMSD1
 70
     0
  9
$DIMSD2
 70
     0
  9
$DIMTOLJ
 70
     1
  9
$DIMTZIN
 70
     0
  9
$DIMALTZ
 70
     0
  9
$DIMALTTZ
 70
     0
  9
$DIMFIT
 70
     3
  9
$DIMUPT
 70
     0
  9
$DIMUNIT
 70
     2
  9
$DIMDEC
 70
     4
  9
$DIMTDEC
 70
     4
  9
$DIMALTU
 70
     2
  9
$DIMALTTD
 70
     2
  9
$DIMTXSTY
  7
STANDARD
  9
$DIMAUNIT
 70
     0
  9
$LUNITS
 70
     2
  9
$LUPREC
 70
     4
  9
$SKETCHINC
 40
0.1
  9
$FILLETRAD
 40
0.0
  9
$AUNITS
 70
     0
  9
$AUPREC
 70
     0
  9
$MENU
  1
.
  9
$ELEVATION
 40
0.0
  9
$PELEVATION
 40
0.0
  9
$THICKNESS
 40
0.0
  9
$LIMCHECK
 70
     0
  9
$BLIPMODE
 70
     0
  9
$CHAMFERA
 40
0.0
  9
$CHAMFERB
 40
0.0
  9
$CHAMFERC
 40
0.0
  9
$CHAMFERD
 40
0.0
  9
$SKPOLY
 70
     0
  9
$TDCREATE
 40
2454697.556376770
  9
$TDUPDATE
 40
2454697.556899595
  9
$TDINDWG
 40
0.0005228241
  9
$TDUSRTIMER
 40
0.0005228241
  9
$USRTIMER
 70
     1
  9
$ANGBASE
 50
0.0
  9
$ANGDIR
 70
     0
  9
$PDMODE
 70
     0
  9
$PDSIZE
 40
0.0
  9
$PLINEWID
 40
0.0
  9
$COORDS
 70
     1
  9
$SPLFRAME
 70
     0
  9
$SPLINETYPE
 70
     6
  9
$SPLINESEGS
 70
     8
  9
$ATTDIA
 70
     0
  9
$ATTREQ
 70
     1
  9
$HANDLING
 70
 22529
  9
$HANDSEED
  5
13D
  9
$SURFTAB1
 70
     6
  9
$SURFTAB2
 70
     6
  9
$SURFTYPE
 70
     6
  9
$SURFU
 70
     6
  9
$SURFV
 70
     6
  9
$UCSNAME
  2

  9
$UCSORG
 10
0.0
 20
0.0
 30
0.0
  9
$UCSXDIR
 10
1.0
 20
0.0
 30
0.0
  9
$UCSYDIR
 10
0.0
 20
1.0
 30
0.0
  9
$PUCSNAME
  2

  9
$PUCSORG
 10
0.0
 20
0.0
 30
0.0
  9
$PUCSXDIR
 10
1.0
 20
0.0
 30
0.0
  9
$PUCSYDIR
 10
0.0
 20
1.0
 30
0.0
  9
$USERI1
 70
     0
  9
$USERI2
 70
     0
  9
$USERI3
 70
     0
  9
$USERI4
 70
     0
  9
$USERI5
 70
     0
  9
$USERR1
 40
0.0
  9
$USERR2
 40
0.0
  9
$USERR3
 40
0.0
  9
$USERR4
 40
0.0
  9
$USERR5
 40
0.0
  9
$WORLDVIEW
 70
     1
  9
$SHADEDGE
 70
     3
  9
$SHADEDIF
 70
    70
  9
$TILEMODE
 70
     1
  9
$MAXACTVP
 70
    64
  9
$PINSBASE
 10
0.0
 20
0.0
 30
0.0
  9
$PLIMCHECK
 70
     0
  9
$PEXTMIN
 10
1.000000000000000E+20
 20
1.000000000000000E+20
 30
1.000000000000000E+20
  9
$PEXTMAX
 10
-1.000000000000000E+20
 20
-1.000000000000000E+20
 30
-1.000000000000000E+20
  9
$PLIMMIN
 10
0.0
 20
0.0
  9
$PLIMMAX
 10
12.0
 20
9.0
  9
$UNITMODE
 70
     0
  9
$VISRETAIN
 70
     1
  9
$PLINEGEN
 70
     0
  9
$PSLTSCALE
 70
     1
  9
$TREEDEPTH
 70
  3020
  9
$PICKSTYLE
 70
     1
  9
$CMLSTYLE
  2
STANDARD
  9
$CMLJUST
 70
     0
  9
$CMLSCALE
 40
1.0
  9
$PROXYGRAPHICS
 70
     1
  9
$MEASUREMENT
 70
     0
  0
ENDSEC
  0
SECTION
  2
CLASSES
  0
CLASS
  1
ACDBDICTIONARYWDFLT
  2
AcDbDictionaryWithDefault
  3
AutoCAD 2000
 90
        0
280
     0
281
     0
  0
CLASS
  1
ACDBPLACEHOLDER
  2
AcDbPlaceHolder
  3
AutoCAD 2000
 90
        0
280
     0
281
     0
  0
CLASS
  1
LAYOUT
  2
AcDbLayout
  3
AutoCAD 2000
 90
        0
280
     0
281
     0
  0
CLASS
  1
DICTIONARYVAR
  2
AcDbDictionaryVar
  3
AutoCAD 2000
 90
        0
280
     0
281
     0
  0
CLASS
  1
LONG_TRANSACTION
  2
AcDbLongTransaction
  3
AutoCAD 2000
 90
        0
280
     0
281
     0
  0
CLASS
  1
LWPOLYLINE
  2
AcDbPolyline
  3
AutoCAD 2000
 90
        0
280
     0
281
     1
  0
CLASS
  1
HATCH
  2
AcDbHatch
  3
AutoCAD 2000
 90
        0
280
     0
281
     1
  0
CLASS
  1
XRECORD
  2
AcDbXrecord
  3
AutoCAD 2000
 90
        0
280
     0
281
     0
  0
ENDSEC
  0
SECTION
  2
TABLES
  0
TABLE
  2
VPORT
  5
8
330
0
100
AcDbSymbolTable
 70
     2
  0
VPORT
  5
118
330
8
100
AcDbSymbolTableRecord
100
AcDbViewportTableRecord
  2
*ACTIVE
 70
     0
 10
0.0
 20
0.0
 11
1.0
 21
1.0
 12
35.02124350000001
 22
54.0
 13
0.0
 23
0.0
 14
1.0
 24
1.0
 15
0.0
 25
0.0
 16
0.0
 26
0.0
 36
1.0
 17
0.0
 27
0.0
 37
0.0
 40
108.8286445012787
 41
2.078104993597951
 42
50.0
 43
0.0
 44
0.0
 50
0.0
 51
0.0
 71
     0
 72
   100
 73
     1
 74
     3
 75
     0
 76
     0
 77
     0
 78
     0
  0
ENDTAB
  0
TABLE
  2
LTYPE
  5
5
330
0
100
AcDbSymbolTable
 70
     1
  0
LTYPE
  5
13
330
5
100
AcDbSymbolTableRecord
100
AcDbLinetypeTableRecord
  2
BYBLOCK
 70
     0
  3

 72
    65
 73
     0
 40
0.0
  0
LTYPE
  5
14
330
5
100
AcDbSymbolTableRecord
100
AcDbLinetypeTableRecord
  2
BYLAYER
 70
     0
  3

 72
    65
 73
     0
 40
0.0
  0
LTYPE
  5
15
330
5
100
AcDbSymbolTableRecord
100
AcDbLinetypeTableRecord
  2
CONTINUOUS
 70
     0
  3
Solid line
 72
    65
 73
     0
 40
0.0
  0
ENDTAB
  0
TABLE
  2
LAYER
  5
2
330
0
100
AcDbSymbolTable
 70
     1
  0
LAYER
  5
10
330
2
100
AcDbSymbolTableRecord
100
AcDbLayerTableRecord
  2
0
 70
     0
 62
     7
  6
CONTINUOUS
  0
ENDTAB
  0
TABLE
  2
STYLE
  5
3
330
0
100
AcDbSymbolTable
 70
     1
  0
STYLE
  5
11
330
3
100
AcDbSymbolTableRecord
100
AcDbTextStyleTableRecord
  2
STANDARD
 70
     0
 40
0.0
 41
1.0
 50
0.0
 71
     0
 42
0.2
  3
txt
  4

  0
ENDTAB
  0
TABLE
  2
VIEW
  5
6
330
0
100
AcDbSymbolTable
 70
     0
  0
ENDTAB
  0
TABLE
  2
UCS
  5
7
330
0
100
AcDbSymbolTable
 70
     0
  0
ENDTAB
  0
TABLE
  2
APPID
  5
9
330
0
100
AcDbSymbolTable
 70
     1
  0
APPID
  5
12
330
9
100
AcDbSymbolTableRecord
100
AcDbRegAppTableRecord
  2
ACAD
 70
     0
  0
ENDTAB
  0
TABLE
  2
DIMSTYLE
  5
A
330
0
100
AcDbSymbolTable
 70
     1
  0
DIMSTYLE
105
111
330
A
100
AcDbSymbolTableRecord
100
AcDbDimStyleTableRecord
  2
STANDARD
 70
     0
  3

  4

  5

  6

  7

 40
1.0
 41
0.18
 42
0.0625
 43
0.38
 44
0.18
 45
0.0
 46
0.0
 47
0.0
 48
0.0
140
0.18
141
0.09
142
0.0
143
25.4
144
1.0
145
0.0
146
1.0
147
0.09
 71
     0
 72
     0
 73
     1
 74
     1
 75
     0
 76
     0
 77
     0
 78
     0
170
     0
171
     2
172
     0
173
     0
174
     0
175
     0
176
     0
177
     0
178
     0
270
     2
271
     4
272
     4
273
     2
274
     2
340
11
275
     0
280
     0
281
     0
282
     0
283
     1
284
     0
285
     0
286
     0
287
     3
288
     0
  0
ENDTAB
  0
TABLE
  2
BLOCK_RECORD
  5
1
330
0
100
AcDbSymbolTable
 70
     0
  0
BLOCK_RECORD
  5
1E
102
{ACAD_XDICTIONARY
360
13B
102
}
330
1
100
AcDbSymbolTableRecord
100
AcDbBlockTableRecord
  2
*MODEL_SPACE
  0
BLOCK_RECORD
  5
1A
102
{ACAD_XDICTIONARY
360
139
102
}
330
1
100
AcDbSymbolTableRecord
100
AcDbBlockTableRecord
  2
*PAPER_SPACE
  0
ENDTAB
  0
ENDSEC
  0
SECTION
  2
BLOCKS
  0
BLOCK
  5
1F
330
1E
100
AcDbEntity
  8
0
100
AcDbBlockBegin
  2
*MODEL_SPACE
 70
     0
 10
0.0
 20
0.0
 30
0.0
  3
*MODEL_SPACE
  1

  0
ENDBLK
  5
20
330
1E
100
AcDbEntity
  8
0
100
AcDbBlockEnd
  0
BLOCK
  5
1B
330
1A
100
AcDbEntity
 67
     1
  8
0
100
AcDbBlockBegin
  2
*PAPER_SPACE
 70
     0
 10
0.0
 20
0.0
 30
0.0
  3
*PAPER_SPACE
  1

  0
ENDBLK
  5
1C
330
1A
100
AcDbEntity
 67
     1
  8
0
100
AcDbBlockEnd
  0
ENDSEC
  0
SECTION
  2
ENTITIES
  0
LINE
  5
24
330
1E
100
AcDbEntity
  8
0
100
AcDbLine
 10
18.30694349999999
 20
34.9154
 30
0.0
 11
29.7355435
 21
30.7127
 31
0.0
  0
LINE
  5
25
330
1E
100
AcDbEntity
  8
0
100
AcDbLine
 10
29.7355435
 20
30.7127
 30
0.0
 11
41.1641435
 21
28.3111
 31
0.0
  0
LINE
  5
26
330
1E
100
AcDbEntity
  8
0
100
AcDbLine
 10
0.4783865000000011
 20
51.1261
 30
0.0
 11
4.021243499999999
 21
44.88199999999999
 31
0.0
  0
LINE
  5
27
330
1E
100
AcDbEntity
  8
0
100
AcDbLine
 10
0.0212435000000015
 20
54.008
 30
0.0
 11
0.4783865000000011
 21
51.1261
 31
0.0
  0
LINE
  5
28
330
1E
100
AcDbEntity
  8
0
100
AcDbLine
 10
0.478386500000002
 20
56.8898
 30
0.0
 11
4.021243499999999
 21
63.1339
 31
0.0
  0
LINE
  5
29
330
1E
100
AcDbEntity
  8
0
100
AcDbLine
 10
0.4603781139323181
 20
56.7762762952296
 30
0.0
 11
0.478386500000002
 21
56.8898
 31
0.0
  0
LINE
  5
2A
330
1E
100
AcDbEntity
  8
0
100
AcDbLine
 10
0.4783865000000011
 20
56.8898
 30
0.0
 11
4.021243499999999
 21
63.1339
 31
0.0
  0
LINE
  5
2B
330
1E
100
AcDbEntity
  8
0
100
AcDbLine
 10
0.0212435000000015
 20
54.008
 30
0.0
 11
0.4783865000000011
 21
51.1261
 31
0.0
  0
LINE
  5
2C
330
1E
100
AcDbEntity
  8
0
100
AcDbLine
 10
0.4783865000000011
 20
51.1261
 30
0.0
 11
4.021243499999999
 21
44.88199999999999
 31
0.0
  0
LINE
  5
2D
330
1E
100
AcDbEntity
  8
0
100
AcDbLine
 10
4.021243499999999
 20
63.1339
 30
0.0
 11
7.449813499999999
 21
69.6182
 31
0.0
  0
LINE
  5
2F
330
1E
100
AcDbEntity
  8
0
100
AcDbLine
 10
5.621243499999999
 20
64.815
 30
0.0
 11
9.164103499999999
 21
67.5769
 31
0.0
  0
LINE
  5
31
330
1E
100
AcDbEntity
  8
0
100
AcDbLine
 10
4.021243499999999
 20
62.7737
 30
0.0
 11
5.621243499999999
 21
64.815
 31
0.0
  0
LINE
  5
32
330
1E
100
AcDbEntity
  8
0
100
AcDbLine
 10
7.449813499999999
 20
69.6182
 30
0.0
 11
12.5926435
 21
75.6221
 31
0.0
  0
LINE
  5
33
330
1E
100
AcDbEntity
  8
0
100
AcDbLine
 10
12.5926435
 20
75.6221
 30
0.0
 11
20.5926435
 21
81.0257
 31
0.0
  0
LINE
  5
35
330
1E
100
AcDbEntity
  8
0
100
AcDbLine
 10
9.164103499999999
 20
67.5769
 30
0.0
 11
18.30694349999999
 21
72.37999999999999
 31
0.0
  0
LINE
  5
36
330
1E
100
AcDbEntity
  8
0
100
AcDbLine
 10
18.30694349999999
 20
72.37999999999999
 30
0.0
 11
29.7355435
 21
76.4627
 31
0.0
  0
LINE
  5
37
330
1E
100
AcDbEntity
  8
0
100
AcDbLine
 10
29.7355435
 20
76.4627
 30
0.0
 11
41.1641435
 21
78.7442
 31
0.0
  0
LINE
  5
38
330
1E
100
AcDbEntity
  8
0
100
AcDbLine
 10
41.1641435
 20
78.7442
 30
0.0
 11
47.4498435
 21
79.94499999999999
 31
0.0
  0
LINE
  5
39
330
1E
100
AcDbEntity
  8
0
100
AcDbLine
 10
20.5926435
 20
81.0257
 30
0.0
 11
32.0212435
 21
85.2284
 31
0.0
  0
LINE
  5
3A
330
1E
100
AcDbEntity
  8
0
100
AcDbLine
 10
32.0212435
 20
85.2284
 30
0.0
 11
45.7355435
 21
87.62999999999999
 31
0.0
  0
LINE
  5
3B
330
1E
100
AcDbEntity
  8
0
100
AcDbLine
 10
45.7355435
 20
87.62999999999999
 30
0.0
 11
47.4498435
 21
80.90560000000001
 31
0.0
  0
LINE
  5
3C
330
1E
100
AcDbEntity
  8
0
100
AcDbLine
 10
45.7355435
 20
87.62999999999999
 30
0.0
 11
45.7355435
 21
87.26980000000001
 31
0.0
  0
LINE
  5
3D
330
1E
100
AcDbEntity
  8
0
100
AcDbLine
 10
45.7355435
 20
87.26980000000001
 30
0.0
 11
45.7355435
 21
87.62999999999999
 31
0.0
  0
LINE
  5
3E
330
1E
100
AcDbEntity
  8
0
100
AcDbLine
 10
45.7355435
 20
87.26980000000001
 30
0.0
 11
45.7355435
 21
85.94889999999999
 31
0.0
  0
LINE
  5
3F
330
1E
100
AcDbEntity
  8
0
100
AcDbLine
 10
45.7355435
 20
85.94889999999999
 30
0.0
 11
45.7355435
 21
87.26980000000001
 31
0.0
  0
LINE
  5
40
330
1E
100
AcDbEntity
  8
0
100
AcDbLine
 10
45.7355435
 20
85.94889999999999
 30
0.0
 11
47.4498435
 21
79.94499999999999
 31
0.0
  0
LINE
  5
41
330
1E
100
AcDbEntity
  8
0
100
AcDbLine
 10
4.021243499999999
 20
44.88199999999999
 30
0.0
 11
9.164103499999999
 21
39.9587
 31
0.0
  0
LINE
  5
42
330
1E
100
AcDbEntity
  8
0
100
AcDbLine
 10
9.164103499999999
 20
39.9587
 30
0.0
 11
18.30694349999999
 21
34.9154
 31
0.0
  0
LINE
  5
49
330
1E
100
AcDbEntity
  8
0
100
AcDbLine
 10
41.1641435
 20
28.3111
 30
0.0
 11
47.4498435
 21
27.1103
 31
0.0
  0
LINE
  5
4A
330
1E
100
AcDbEntity
  8
0
100
AcDbLine
 10
50.8783435
 20
26.63
 30
0.0
 11
52.0212435
 21
27.59059999999999
 31
0.0
  0
LINE
  5
4B
330
1E
100
AcDbEntity
  8
0
100
AcDbLine
 10
50.8783435
 20
26.63
 30
0.0
 11
50.8783435
 21
27.59059999999999
 31
0.0
  0
LINE
  5
4C
330
1E
100
AcDbEntity
  8
0
100
AcDbLine
 10
52.0212435
 20
27.59059999999999
 30
0.0
 11
52.0212435
 21
28.5513
 31
0.0
  0
LINE
  5
4D
330
1E
100
AcDbEntity
  8
0
100
AcDbLine
 10
50.8783435
 20
34.6753
 30
0.0
 11
50.8783435
 21
30.35239999999999
 31
0.0
  0
LINE
  5
4E
330
1E
100
AcDbEntity
  8
0
100
AcDbLine
 10
50.8783435
 20
34.6753
 30
0.0
 11
50.8783435
 21
40.319
 31
0.0
  0
LINE
  5
4F
330
1E
100
AcDbEntity
  8
0
100
AcDbLine
 10
50.8783435
 20
40.319
 30
0.0
 11
50.8783435
 21
46.9233
 31
0.0
  0
LINE
  5
50
330
1E
100
AcDbEntity
  8
0
100
AcDbLine
 10
52.0212435
 20
40.7993
 30
0.0
 11
52.0212435
 21
47.1635
 31
0.0
  0
LINE
  5
51
330
1E
100
AcDbEntity
  8
0
100
AcDbLine
 10
50.8783435
 20
46.9233
 30
0.0
 11
50.8783435
 21
40.319
 31
0.0
  0
LINE
  5
52
330
1E
100
AcDbEntity
  8
0
100
AcDbLine
 10
50.8783435
 20
46.9233
 30
0.0
 11
50.8783435
 21
54.008
 31
0.0
  0
LINE
  5
53
330
1E
100
AcDbEntity
  8
0
100
AcDbLine
 10
52.0212435
 20
35.39569999999999
 30
0.0
 11
52.0212435
 21
40.7993
 31
0.0
  0
LINE
  5
54
330
1E
100
AcDbEntity
  8
0
100
AcDbLine
 10
52.0212435
 20
31.0729
 30
0.0
 11
52.0212435
 21
35.39569999999999
 31
0.0
  0
LINE
  5
55
330
1E
100
AcDbEntity
  8
0
100
AcDbLine
 10
52.0212435
 20
28.5513
 30
0.0
 11
52.0212435
 21
31.0729
 31
0.0
  0
LINE
  5
56
330
1E
100
AcDbEntity
  8
0
100
AcDbLine
 10
50.8783435
 20
30.35239999999999
 30
0.0
 11
50.8783435
 21
27.59059999999999
 31
0.0
  0
LINE
  5
57
330
1E
100
AcDbEntity
  8
0
100
AcDbLine
 10
50.8783435
 20
30.35239999999999
 30
0.0
 11
50.8783435
 21
34.6753
 31
0.0
  0
LINE
  5
58
330
1E
100
AcDbEntity
  8
0
100
AcDbLine
 10
50.8783435
 20
27.59059999999999
 30
0.0
 11
50.8783435
 21
26.63
 31
0.0
  0
LINE
  5
59
330
1E
100
AcDbEntity
  8
0
100
AcDbLine
 10
50.8783435
 20
27.59059999999999
 30
0.0
 11
50.8783435
 21
30.35239999999999
 31
0.0
  0
LINE
  5
5A
330
1E
100
AcDbEntity
  8
0
100
AcDbLine
 10
70.02124350000001
 20
-0.0000000000000013
 30
0.0
 11
70.02124350000001
 21
0.8999999999999989
 31
0.0
  0
LINE
  5
5B
330
1E
100
AcDbEntity
  8
0
100
AcDbLine
 10
59.02124350000001
 20
2.0
 30
0.0
 11
59.02124350000001
 21
2.799999999999999
 31
0.0
  0
LINE
  5
5C
330
1E
100
AcDbEntity
  8
0
100
AcDbLine
 10
59.02124350000001
 20
2.0
 30
0.0
 11
61.0212435
 21
-0.0000000000000007
 31
0.0
  0
LINE
  5
5D
330
1E
100
AcDbEntity
  8
0
100
AcDbLine
 10
59.02124350000001
 20
2.0
 30
0.0
 11
61.0212435
 21
-0.0000000000000007
 31
0.0
  0
LINE
  5
5E
330
1E
100
AcDbEntity
  8
0
100
AcDbLine
 10
59.02124350000001
 20
2.799999999999999
 30
0.0
 11
59.02124350000001
 21
5.2
 31
0.0
  0
LINE
  5
5F
330
1E
100
AcDbEntity
  8
0
100
AcDbLine
 10
59.02124350000001
 20
2.799999999999999
 30
0.0
 11
59.02124350000001
 21
2.0
 31
0.0
  0
LINE
  5
60
330
1E
100
AcDbEntity
  8
0
100
AcDbLine
 10
59.02124350000001
 20
5.2
 30
0.0
 11
59.02124350000001
 21
9.0
 31
0.0
  0
LINE
  5
61
330
1E
100
AcDbEntity
  8
0
100
AcDbLine
 10
59.02124350000001
 20
5.2
 30
0.0
 11
59.02124350000001
 21
2.799999999999999
 31
0.0
  0
LINE
  5
62
330
1E
100
AcDbEntity
  8
0
100
AcDbLine
 10
59.02124350000001
 20
9.0
 30
0.0
 11
59.02124350000001
 21
14.59999999999999
 31
0.0
  0
LINE
  5
63
330
1E
100
AcDbEntity
  8
0
100
AcDbLine
 10
59.02124350000001
 20
9.0
 30
0.0
 11
59.02124350000001
 21
5.2
 31
0.0
  0
LINE
  5
64
330
1E
100
AcDbEntity
  8
0
100
AcDbLine
 10
59.02124350000001
 20
14.59999999999999
 30
0.0
 11
59.02124350000001
 21
20.6
 31
0.0
  0
LINE
  5
65
330
1E
100
AcDbEntity
  8
0
100
AcDbLine
 10
59.02124350000001
 20
14.59999999999999
 30
0.0
 11
59.02124350000001
 21
9.0
 31
0.0
  0
LINE
  5
66
330
1E
100
AcDbEntity
  8
0
100
AcDbLine
 10
59.02124350000001
 20
28.0
 30
0.0
 11
59.02124350000001
 21
28.39999999999999
 31
0.0
  0
LINE
  5
67
330
1E
100
AcDbEntity
  8
0
100
AcDbLine
 10
59.02124350000001
 20
28.39999999999999
 30
0.0
 11
59.02124350000001
 21
29.6
 31
0.0
  0
LINE
  5
68
330
1E
100
AcDbEntity
  8
0
100
AcDbLine
 10
59.02124350000001
 20
28.39999999999999
 30
0.0
 11
59.02124350000001
 21
28.0
 31
0.0
  0
LINE
  5
69
330
1E
100
AcDbEntity
  8
0
100
AcDbLine
 10
59.02124350000001
 20
31.5
 30
0.0
 11
59.02124350000001
 21
29.6
 31
0.0
  0
LINE
  5
6A
330
1E
100
AcDbEntity
  8
0
100
AcDbLine
 10
59.02124350000001
 20
31.5
 30
0.0
 11
59.02124350000001
 21
34.1
 31
0.0
  0
LINE
  5
6B
330
1E
100
AcDbEntity
  8
0
100
AcDbLine
 10
59.02124350000001
 20
34.1
 30
0.0
 11
59.02124350000001
 21
31.5
 31
0.0
  0
LINE
  5
6C
330
1E
100
AcDbEntity
  8
0
100
AcDbLine
 10
59.02124350000001
 20
34.1
 30
0.0
 11
59.02124350000001
 21
37.29999999999999
 31
0.0
  0
LINE
  5
6D
330
1E
100
AcDbEntity
  8
0
100
AcDbLine
 10
59.02124350000001
 20
37.29999999999999
 30
0.0
 11
59.02124350000001
 21
34.1
 31
0.0
  0
LINE
  5
6E
330
1E
100
AcDbEntity
  8
0
100
AcDbLine
 10
59.02124350000001
 20
37.29999999999999
 30
0.0
 11
59.02124350000001
 21
41.0
 31
0.0
  0
LINE
  5
6F
330
1E
100
AcDbEntity
  8
0
100
AcDbLine
 10
59.02124350000001
 20
41.0
 30
0.0
 11
59.02124350000001
 21
37.29999999999999
 31
0.0
  0
LINE
  5
70
330
1E
100
AcDbEntity
  8
0
100
AcDbLine
 10
59.02124350000001
 20
41.0
 30
0.0
 11
59.02124350000001
 21
45.1
 31
0.0
  0
LINE
  5
71
330
1E
100
AcDbEntity
  8
0
100
AcDbLine
 10
59.02124350000001
 20
36.2
 30
0.0
 11
59.02124350000001
 21
28.1
 31
0.0
  0
LINE
  5
72
330
1E
100
AcDbEntity
  8
0
100
AcDbLine
 10
59.02124350000001
 20
36.2
 30
0.0
 11
59.02124350000001
 21
45.1
 31
0.0
  0
LINE
  5
73
330
1E
100
AcDbEntity
  8
0
100
AcDbLine
 10
59.02124350000001
 20
45.1
 30
0.0
 11
59.02124350000001
 21
36.2
 31
0.0
  0
LINE
  5
74
330
1E
100
AcDbEntity
  8
0
100
AcDbLine
 10
59.02124350000001
 20
45.1
 30
0.0
 11
59.02124350000001
 21
54.0
 31
0.0
  0
LINE
  5
75
330
1E
100
AcDbEntity
  8
0
100
AcDbLine
 10
59.02124350000001
 20
45.1
 30
0.0
 11
59.02124350000001
 21
41.0
 31
0.0
  0
LINE
  5
76
330
1E
100
AcDbEntity
  8
0
100
AcDbLine
 10
59.02124350000001
 20
45.1
 30
0.0
 11
59.02124350000001
 21
49.5
 31
0.0
  0
LINE
  5
77
330
1E
100
AcDbEntity
  8
0
100
AcDbLine
 10
59.02124350000001
 20
29.6
 30
0.0
 11
59.02124350000001
 21
30.0
 31
0.0
  0
LINE
  5
78
330
1E
100
AcDbEntity
  8
0
100
AcDbLine
 10
59.02124350000001
 20
29.6
 30
0.0
 11
59.02124350000001
 21
28.39999999999999
 31
0.0
  0
LINE
  5
79
330
1E
100
AcDbEntity
  8
0
100
AcDbLine
 10
59.02124350000001
 20
29.6
 30
0.0
 11
59.02124350000001
 21
31.5
 31
0.0
  0
LINE
  5
7A
330
1E
100
AcDbEntity
  8
0
100
AcDbLine
 10
59.02124350000001
 20
30.0
 30
0.0
 11
59.02124350000001
 21
28.1
 31
0.0
  0
LINE
  5
7B
330
1E
100
AcDbEntity
  8
0
100
AcDbLine
 10
59.02124350000001
 20
30.0
 30
0.0
 11
59.02124350000001
 21
29.6
 31
0.0
  0
LINE
  5
7C
330
1E
100
AcDbEntity
  8
0
100
AcDbLine
 10
59.02124350000001
 20
20.6
 30
0.0
 11
59.02124350000001
 21
28.1
 31
0.0
  0
LINE
  5
7D
330
1E
100
AcDbEntity
  8
0
100
AcDbLine
 10
59.02124350000001
 20
20.6
 30
0.0
 11
59.02124350000001
 21
14.59999999999999
 31
0.0
  0
LINE
  5
7E
330
1E
100
AcDbEntity
  8
0
100
AcDbLine
 10
61.0212435
 20
0.8999999999999989
 30
0.0
 11
61.0212435
 21
-0.0000000000000007
 31
0.0
  0
LINE
  5
7F
330
1E
100
AcDbEntity
  8
0
100
AcDbLine
 10
61.0212435
 20
0.8999999999999989
 30
0.0
 11
61.0212435
 21
3.399999999999999
 31
0.0
  0
LINE
  5
80
330
1E
100
AcDbEntity
  8
0
100
AcDbLine
 10
61.0212435
 20
3.399999999999999
 30
0.0
 11
61.0212435
 21
0.8999999999999989
 31
0.0
  0
LINE
  5
81
330
1E
100
AcDbEntity
  8
0
100
AcDbLine
 10
61.0212435
 20
3.399999999999999
 30
0.0
 11
61.0212435
 21
7.2
 31
0.0
  0
LINE
  5
82
330
1E
100
AcDbEntity
  8
0
100
AcDbLine
 10
61.0212435
 20
7.2
 30
0.0
 11
61.0212435
 21
3.399999999999999
 31
0.0
  0
LINE
  5
83
330
1E
100
AcDbEntity
  8
0
100
AcDbLine
 10
61.0212435
 20
7.2
 30
0.0
 11
61.0212435
 21
13.0
 31
0.0
  0
LINE
  5
84
330
1E
100
AcDbEntity
  8
0
100
AcDbLine
 10
61.0212435
 20
13.0
 30
0.0
 11
61.0212435
 21
7.2
 31
0.0
  0
LINE
  5
85
330
1E
100
AcDbEntity
  8
0
100
AcDbLine
 10
61.0212435
 20
13.0
 30
0.0
 11
61.0212435
 21
19.19999999999999
 31
0.0
  0
LINE
  5
86
330
1E
100
AcDbEntity
  8
0
100
AcDbLine
 10
61.0212435
 20
19.19999999999999
 30
0.0
 11
61.0212435
 21
13.0
 31
0.0
  0
LINE
  5
87
330
1E
100
AcDbEntity
  8
0
100
AcDbLine
 10
61.0212435
 20
19.19999999999999
 30
0.0
 11
61.0212435
 21
27.1
 31
0.0
  0
LINE
  5
88
330
1E
100
AcDbEntity
  8
0
100
AcDbLine
 10
61.0212435
 20
27.1
 30
0.0
 11
61.0212435
 21
19.19999999999999
 31
0.0
  0
LINE
  5
89
330
1E
100
AcDbEntity
  8
0
100
AcDbLine
 10
61.0212435
 20
27.1
 30
0.0
 11
61.0212435
 21
35.5
 31
0.0
  0
LINE
  5
8A
330
1E
100
AcDbEntity
  8
0
100
AcDbLine
 10
61.0212435
 20
35.5
 30
0.0
 11
61.0212435
 21
27.1
 31
0.0
  0
LINE
  5
8B
330
1E
100
AcDbEntity
  8
0
100
AcDbLine
 10
61.0212435
 20
35.5
 30
0.0
 11
61.0212435
 21
44.7
 31
0.0
  0
LINE
  5
8C
330
1E
100
AcDbEntity
  8
0
100
AcDbLine
 10
70.02124350000001
 20
0.8999999999999989
 30
0.0
 11
70.02124350000001
 21
3.399999999999999
 31
0.0
  0
LINE
  5
8D
330
1E
100
AcDbEntity
  8
0
100
AcDbLine
 10
70.02124350000001
 20
3.399999999999999
 30
0.0
 11
70.02124350000001
 21
7.2
 31
0.0
  0
LINE
  5
8E
330
1E
100
AcDbEntity
  8
0
100
AcDbLine
 10
70.02124350000001
 20
7.2
 30
0.0
 11
70.02124350000001
 21
13.0
 31
0.0
  0
LINE
  5
8F
330
1E
100
AcDbEntity
  8
0
100
AcDbLine
 10
70.02124350000001
 20
13.0
 30
0.0
 11
70.02124350000001
 21
19.19999999999999
 31
0.0
  0
LINE
  5
90
330
1E
100
AcDbEntity
  8
0
100
AcDbLine
 10
70.02124350000001
 20
19.19999999999999
 30
0.0
 11
70.02124350000001
 21
27.1
 31
0.0
  0
LINE
  5
91
330
1E
100
AcDbEntity
  8
0
100
AcDbLine
 10
70.02124350000001
 20
29.6
 30
0.0
 11
70.02124350000001
 21
31.5
 31
0.0
  0
LINE
  5
92
330
1E
100
AcDbEntity
  8
0
100
AcDbLine
 10
70.02124350000001
 20
31.5
 30
0.0
 11
70.02124350000001
 21
29.6
 31
0.0
  0
LINE
  5
93
330
1E
100
AcDbEntity
  8
0
100
AcDbLine
 10
70.02124350000001
 20
31.5
 30
0.0
 11
70.02124350000001
 21
34.1
 31
0.0
  0
LINE
  5
94
330
1E
100
AcDbEntity
  8
0
100
AcDbLine
 10
70.02124350000001
 20
34.1
 30
0.0
 11
70.02124350000001
 21
31.5
 31
0.0
  0
LINE
  5
95
330
1E
100
AcDbEntity
  8
0
100
AcDbLine
 10
70.02124350000001
 20
34.1
 30
0.0
 11
70.02124350000001
 21
35.5
 31
0.0
  0
LINE
  5
96
330
1E
100
AcDbEntity
  8
0
100
AcDbLine
 10
70.02124350000001
 20
27.1
 30
0.0
 11
70.02124350000001
 21
35.5
 31
0.0
  0
LINE
  5
97
330
1E
100
AcDbEntity
  8
0
100
AcDbLine
 10
70.02124350000001
 20
35.5
 30
0.0
 11
70.02124350000001
 21
44.7
 31
0.0
  0
LINE
  5
98
330
1E
100
AcDbEntity
  8
0
100
AcDbLine
 10
70.02124350000001
 20
35.5
 30
0.0
 11
70.02124350000001
 21
34.1
 31
0.0
  0
LINE
  5
99
330
1E
100
AcDbEntity
  8
0
100
AcDbLine
 10
61.0212435
 20
44.7
 30
0.0
 11
61.0212435
 21
35.5
 31
0.0
  0
LINE
  5
9A
330
1E
100
AcDbEntity
  8
0
100
AcDbLine
 10
61.0212435
 20
44.7
 30
0.0
 11
61.0212435
 21
54.0
 31
0.0
  0
LINE
  5
9B
330
1E
100
AcDbEntity
  8
0
100
AcDbLine
 10
70.02124350000001
 20
44.7
 30
0.0
 11
70.02124350000001
 21
54.0
 31
0.0
  0
LINE
  5
9C
330
1E
100
AcDbEntity
  8
0
100
AcDbLine
 10
59.02124350000001
 20
28.1
 30
0.0
 11
59.02124350000001
 21
30.0
 31
0.0
  0
LINE
  5
9D
330
1E
100
AcDbEntity
  8
0
100
AcDbLine
 10
59.02124350000001
 20
28.1
 30
0.0
 11
59.02124350000001
 21
20.6
 31
0.0
  0
LINE
  5
9E
330
1E
100
AcDbEntity
  8
0
100
AcDbLine
 10
59.02124350000001
 20
28.1
 30
0.0
 11
59.02124350000001
 21
36.2
 31
0.0
  0
LINE
  5
9F
330
1E
100
AcDbEntity
  8
0
100
AcDbLine
 10
61.0212435
 20
-0.0000000000000007
 30
0.0
 11
70.02124350000001
 21
-0.0000000000000013
 31
0.0
  0
LINE
  5
A0
330
1E
100
AcDbEntity
  8
0
100
AcDbLine
 10
61.0212435
 20
-0.0000000000000007
 30
0.0
 11
61.0212435
 21
0.8999999999999989
 31
0.0
  0
LINE
  5
A1
330
1E
100
AcDbEntity
  8
0
100
AcDbLine
 10
52.0212435
 20
30.0
 30
0.0
 11
59.02124350000001
 21
30.0
 31
0.0
  0
LINE
  5
A8
330
1E
100
AcDbEntity
  8
0
100
AcDbLine
 10
47.4498435
 20
80.90560000000001
 30
0.0
 11
47.4498435
 21
79.94499999999999
 31
0.0
  0
LINE
  5
A9
330
1E
100
AcDbEntity
  8
0
100
AcDbLine
 10
47.4498435
 20
80.90560000000001
 30
0.0
 11
50.8783435
 21
81.3859
 31
0.0
  0
LINE
  5
AA
330
1E
100
AcDbEntity
  8
0
100
AcDbLine
 10
47.4498435
 20
79.94499999999999
 30
0.0
 11
47.4498435
 21
80.90560000000001
 31
0.0
  0
LINE
  5
AE
330
1E
100
AcDbEntity
  8
0
100
AcDbLine
 10
52.0212435
 20
47.1635
 30
0.0
 11
52.0212435
 21
54.008
 31
0.0
  0
LINE
  5
AF
330
1E
100
AcDbEntity
  8
0
100
AcDbLine
 10
59.02124350000001
 20
49.5
 30
0.0
 11
59.02124350000001
 21
45.1
 31
0.0
  0
LINE
  5
B0
330
1E
100
AcDbEntity
  8
0
100
AcDbLine
 10
59.02124350000001
 20
49.5
 30
0.0
 11
59.02124350000001
 21
54.0
 31
0.0
  0
LINE
  5
B1
330
1E
100
AcDbEntity
  8
0
100
AcDbLine
 10
70.02124350000001
 20
54.0
 30
0.0
 11
70.02124350000001
 21
63.3
 31
0.0
  0
LINE
  5
B2
330
1E
100
AcDbEntity
  8
0
100
AcDbLine
 10
59.02124350000001
 20
54.0
 30
0.0
 11
59.02124350000001
 21
45.1
 31
0.0
  0
LINE
  5
B3
330
1E
100
AcDbEntity
  8
0
100
AcDbLine
 10
59.02124350000001
 20
54.0
 30
0.0
 11
59.02124350000001
 21
49.5
 31
0.0
  0
LINE
  5
B4
330
1E
100
AcDbEntity
  8
0
100
AcDbLine
 10
59.02124350000001
 20
54.0
 30
0.0
 11
59.02124350000001
 21
62.9
 31
0.0
  0
LINE
  5
B5
330
1E
100
AcDbEntity
  8
0
100
AcDbLine
 10
59.02124350000001
 20
54.0
 30
0.0
 11
59.02124350000001
 21
58.5
 31
0.0
  0
LINE
  5
B6
330
1E
100
AcDbEntity
  8
0
100
AcDbLine
 10
52.0212435
 20
54.008
 30
0.0
 11
52.0212435
 21
60.8524
 31
0.0
  0
LINE
  5
B7
330
1E
100
AcDbEntity
  8
0
100
AcDbLine
 10
50.8783435
 20
61.09259999999999
 30
0.0
 11
50.8783435
 21
54.008
 31
0.0
  0
LINE
  5
B8
330
1E
100
AcDbEntity
  8
0
100
AcDbLine
 10
50.8783435
 20
61.09259999999999
 30
0.0
 11
50.8783435
 21
67.6969
 31
0.0
  0
LINE
  5
B9
330
1E
100
AcDbEntity
  8
0
100
AcDbLine
 10
50.8783435
 20
67.6969
 30
0.0
 11
50.8783435
 21
61.09259999999999
 31
0.0
  0
LINE
  5
BA
330
1E
100
AcDbEntity
  8
0
100
AcDbLine
 10
50.8783435
 20
67.6969
 30
0.0
 11
50.8783435
 21
73.3406
 31
0.0
  0
LINE
  5
BB
330
1E
100
AcDbEntity
  8
0
100
AcDbLine
 10
50.8783435
 20
73.3406
 30
0.0
 11
50.8783435
 21
67.6969
 31
0.0
  0
LINE
  5
BC
330
1E
100
AcDbEntity
  8
0
100
AcDbLine
 10
50.8783435
 20
73.3406
 30
0.0
 11
50.8783435
 21
77.6635
 31
0.0
  0
LINE
  5
BD
330
1E
100
AcDbEntity
  8
0
100
AcDbLine
 10
50.8783435
 20
77.6635
 30
0.0
 11
50.8783435
 21
73.3406
 31
0.0
  0
LINE
  5
BE
330
1E
100
AcDbEntity
  8
0
100
AcDbLine
 10
50.8783435
 20
77.6635
 30
0.0
 11
50.8783435
 21
80.42529999999999
 31
0.0
  0
LINE
  5
BF
330
1E
100
AcDbEntity
  8
0
100
AcDbLine
 10
50.8783435
 20
80.42529999999999
 30
0.0
 11
50.8783435
 21
77.6635
 31
0.0
  0
LINE
  5
C0
330
1E
100
AcDbEntity
  8
0
100
AcDbLine
 10
50.8783435
 20
80.42529999999999
 30
0.0
 11
50.8783435
 21
81.3859
 31
0.0
  0
LINE
  5
C1
330
1E
100
AcDbEntity
  8
0
100
AcDbLine
 10
52.0212435
 20
60.8524
 30
0.0
 11
52.0212435
 21
67.21659999999999
 31
0.0
  0
LINE
  5
C2
330
1E
100
AcDbEntity
  8
0
100
AcDbLine
 10
52.0212435
 20
67.21659999999999
 30
0.0
 11
52.0212435
 21
72.62019999999999
 31
0.0
  0
LINE
  5
C3
330
1E
100
AcDbEntity
  8
0
100
AcDbLine
 10
52.0212435
 20
72.62019999999999
 30
0.0
 11
52.0212435
 21
76.943
 31
0.0
  0
LINE
  5
C4
330
1E
100
AcDbEntity
  8
0
100
AcDbLine
 10
52.0212435
 20
76.943
 30
0.0
 11
52.0212435
 21
79.4646
 31
0.0
  0
LINE
  5
C5
330
1E
100
AcDbEntity
  8
0
100
AcDbLine
 10
52.0212435
 20
79.4646
 30
0.0
 11
52.0212435
 21
80.42529999999999
 31
0.0
  0
LINE
  5
C6
330
1E
100
AcDbEntity
  8
0
100
AcDbLine
 10
50.8783435
 20
81.3859
 30
0.0
 11
50.8783435
 21
80.42529999999999
 31
0.0
  0
LINE
  5
C7
330
1E
100
AcDbEntity
  8
0
100
AcDbLine
 10
50.8783435
 20
81.3859
 30
0.0
 11
52.0212435
 21
80.42529999999999
 31
0.0
  0
LINE
  5
C8
330
1E
100
AcDbEntity
  8
0
100
AcDbLine
 10
50.8783435
 20
54.008
 30
0.0
 11
50.8783435
 21
46.9233
 31
0.0
  0
LINE
  5
C9
330
1E
100
AcDbEntity
  8
0
100
AcDbLine
 10
50.8783435
 20
54.008
 30
0.0
 11
50.8783435
 21
61.09259999999999
 31
0.0
  0
LINE
  5
CA
330
1E
100
AcDbEntity
  8
0
100
AcDbLine
 10
59.02124350000001
 20
58.5
 30
0.0
 11
59.02124350000001
 21
54.0
 31
0.0
  0
LINE
  5
CB
330
1E
100
AcDbEntity
  8
0
100
AcDbLine
 10
59.02124350000001
 20
58.5
 30
0.0
 11
59.02124350000001
 21
62.9
 31
0.0
  0
LINE
  5
CC
330
1E
100
AcDbEntity
  8
0
100
AcDbLine
 10
59.02124350000001
 20
62.9
 30
0.0
 11
59.02124350000001
 21
54.0
 31
0.0
  0
LINE
  5
CD
330
1E
100
AcDbEntity
  8
0
100
AcDbLine
 10
59.02124350000001
 20
62.9
 30
0.0
 11
59.02124350000001
 21
58.5
 31
0.0
  0
LINE
  5
CE
330
1E
100
AcDbEntity
  8
0
100
AcDbLine
 10
59.02124350000001
 20
62.9
 30
0.0
 11
59.02124350000001
 21
71.79999999999999
 31
0.0
  0
LINE
  5
CF
330
1E
100
AcDbEntity
  8
0
100
AcDbLine
 10
59.02124350000001
 20
62.9
 30
0.0
 11
59.02124350000001
 21
67.0
 31
0.0
  0
LINE
  5
D0
330
1E
100
AcDbEntity
  8
0
100
AcDbLine
 10
70.02124350000001
 20
63.3
 30
0.0
 11
70.02124350000001
 21
72.5
 31
0.0
  0
LINE
  5
D1
330
1E
100
AcDbEntity
  8
0
100
AcDbLine
 10
59.02124350000001
 20
78.0
 30
0.0
 11
59.02124350000001
 21
79.90000000000001
 31
0.0
  0
LINE
  5
D2
330
1E
100
AcDbEntity
  8
0
100
AcDbLine
 10
59.02124350000001
 20
78.0
 30
0.0
 11
59.02124350000001
 21
78.4
 31
0.0
  0
LINE
  5
D3
330
1E
100
AcDbEntity
  8
0
100
AcDbLine
 10
59.02124350000001
 20
79.59999999999999
 30
0.0
 11
59.02124350000001
 21
78.4
 31
0.0
  0
LINE
  5
D4
330
1E
100
AcDbEntity
  8
0
100
AcDbLine
 10
59.02124350000001
 20
79.59999999999999
 30
0.0
 11
59.02124350000001
 21
80.0
 31
0.0
  0
LINE
  5
D5
330
1E
100
AcDbEntity
  8
0
100
AcDbLine
 10
59.02124350000001
 20
78.4
 30
0.0
 11
59.02124350000001
 21
76.5
 31
0.0
  0
LINE
  5
D6
330
1E
100
AcDbEntity
  8
0
100
AcDbLine
 10
59.02124350000001
 20
78.4
 30
0.0
 11
59.02124350000001
 21
79.59999999999999
 31
0.0
  0
LINE
  5
D7
330
1E
100
AcDbEntity
  8
0
100
AcDbLine
 10
59.02124350000001
 20
78.4
 30
0.0
 11
59.02124350000001
 21
78.0
 31
0.0
  0
LINE
  5
D8
330
1E
100
AcDbEntity
  8
0
100
AcDbLine
 10
59.02124350000001
 20
76.5
 30
0.0
 11
59.02124350000001
 21
73.9
 31
0.0
  0
LINE
  5
D9
330
1E
100
AcDbEntity
  8
0
100
AcDbLine
 10
59.02124350000001
 20
76.5
 30
0.0
 11
59.02124350000001
 21
78.4
 31
0.0
  0
LINE
  5
DA
330
1E
100
AcDbEntity
  8
0
100
AcDbLine
 10
59.02124350000001
 20
73.9
 30
0.0
 11
59.02124350000001
 21
70.7
 31
0.0
  0
LINE
  5
DB
330
1E
100
AcDbEntity
  8
0
100
AcDbLine
 10
59.02124350000001
 20
73.9
 30
0.0
 11
59.02124350000001
 21
76.5
 31
0.0
  0
LINE
  5
DC
330
1E
100
AcDbEntity
  8
0
100
AcDbLine
 10
59.02124350000001
 20
70.7
 30
0.0
 11
59.02124350000001
 21
67.0
 31
0.0
  0
LINE
  5
DD
330
1E
100
AcDbEntity
  8
0
100
AcDbLine
 10
59.02124350000001
 20
70.7
 30
0.0
 11
59.02124350000001
 21
73.9
 31
0.0
  0
LINE
  5
DE
330
1E
100
AcDbEntity
  8
0
100
AcDbLine
 10
59.02124350000001
 20
67.0
 30
0.0
 11
59.02124350000001
 21
62.9
 31
0.0
  0
LINE
  5
DF
330
1E
100
AcDbEntity
  8
0
100
AcDbLine
 10
59.02124350000001
 20
67.0
 30
0.0
 11
59.02124350000001
 21
70.7
 31
0.0
  0
LINE
  5
E0
330
1E
100
AcDbEntity
  8
0
100
AcDbLine
 10
59.02124350000001
 20
80.0
 30
0.0
 11
59.02124350000001
 21
79.59999999999999
 31
0.0
  0
LINE
  5
E1
330
1E
100
AcDbEntity
  8
0
100
AcDbLine
 10
59.02124350000001
 20
79.90000000000001
 30
0.0
 11
59.02124350000001
 21
71.79999999999999
 31
0.0
  0
LINE
  5
E2
330
1E
100
AcDbEntity
  8
0
100
AcDbLine
 10
59.02124350000001
 20
79.90000000000001
 30
0.0
 11
59.02124350000001
 21
87.4
 31
0.0
  0
LINE
  5
E3
330
1E
100
AcDbEntity
  8
0
100
AcDbLine
 10
59.02124350000001
 20
79.90000000000001
 30
0.0
 11
59.02124350000001
 21
78.0
 31
0.0
  0
LINE
  5
E4
330
1E
100
AcDbEntity
  8
0
100
AcDbLine
 10
59.02124350000001
 20
71.79999999999999
 30
0.0
 11
59.02124350000001
 21
62.9
 31
0.0
  0
LINE
  5
E5
330
1E
100
AcDbEntity
  8
0
100
AcDbLine
 10
59.02124350000001
 20
71.79999999999999
 30
0.0
 11
59.02124350000001
 21
79.90000000000001
 31
0.0
  0
LINE
  5
E6
330
1E
100
AcDbEntity
  8
0
100
AcDbLine
 10
59.02124350000001
 20
93.40000000000001
 30
0.0
 11
59.02124350000001
 21
99.0
 31
0.0
  0
LINE
  5
E7
330
1E
100
AcDbEntity
  8
0
100
AcDbLine
 10
59.02124350000001
 20
87.4
 30
0.0
 11
59.02124350000001
 21
79.90000000000001
 31
0.0
  0
LINE
  5
E8
330
1E
100
AcDbEntity
  8
0
100
AcDbLine
 10
59.02124350000001
 20
87.4
 30
0.0
 11
59.02124350000001
 21
93.40000000000001
 31
0.0
  0
LINE
  5
E9
330
1E
100
AcDbEntity
  8
0
100
AcDbLine
 10
59.02124350000001
 20
106.0
 30
0.0
 11
59.02124350000001
 21
105.2
 31
0.0
  0
LINE
  5
EA
330
1E
100
AcDbEntity
  8
0
100
AcDbLine
 10
59.02124350000001
 20
106.0
 30
0.0
 11
61.0212435
 21
108.0
 31
0.0
  0
LINE
  5
EB
330
1E
100
AcDbEntity
  8
0
100
AcDbLine
 10
59.02124350000001
 20
105.2
 30
0.0
 11
59.02124350000001
 21
102.8
 31
0.0
  0
LINE
  5
EC
330
1E
100
AcDbEntity
  8
0
100
AcDbLine
 10
59.02124350000001
 20
105.2
 30
0.0
 11
59.02124350000001
 21
106.0
 31
0.0
  0
LINE
  5
ED
330
1E
100
AcDbEntity
  8
0
100
AcDbLine
 10
59.02124350000001
 20
102.8
 30
0.0
 11
59.02124350000001
 21
99.0
 31
0.0
  0
LINE
  5
EE
330
1E
100
AcDbEntity
  8
0
100
AcDbLine
 10
59.02124350000001
 20
102.8
 30
0.0
 11
59.02124350000001
 21
105.2
 31
0.0
  0
LINE
  5
EF
330
1E
100
AcDbEntity
  8
0
100
AcDbLine
 10
59.02124350000001
 20
99.0
 30
0.0
 11
59.02124350000001
 21
93.40000000000001
 31
0.0
  0
LINE
  5
F0
330
1E
100
AcDbEntity
  8
0
100
AcDbLine
 10
59.02124350000001
 20
99.0
 30
0.0
 11
59.02124350000001
 21
102.8
 31
0.0
  0
LINE
  5
F1
330
1E
100
AcDbEntity
  8
0
100
AcDbLine
 10
61.0212435
 20
100.8
 30
0.0
 11
61.0212435
 21
95.0
 31
0.0
  0
LINE
  5
F2
330
1E
100
AcDbEntity
  8
0
100
AcDbLine
 10
61.0212435
 20
100.8
 30
0.0
 11
61.0212435
 21
104.6
 31
0.0
  0
LINE
  5
F3
330
1E
100
AcDbEntity
  8
0
100
AcDbLine
 10
61.0212435
 20
95.0
 30
0.0
 11
61.0212435
 21
88.8
 31
0.0
  0
LINE
  5
F4
330
1E
100
AcDbEntity
  8
0
100
AcDbLine
 10
61.0212435
 20
95.0
 30
0.0
 11
61.0212435
 21
100.8
 31
0.0
  0
LINE
  5
F5
330
1E
100
AcDbEntity
  8
0
100
AcDbLine
 10
61.0212435
 20
88.8
 30
0.0
 11
61.0212435
 21
80.90000000000001
 31
0.0
  0
LINE
  5
F6
330
1E
100
AcDbEntity
  8
0
100
AcDbLine
 10
61.0212435
 20
88.8
 30
0.0
 11
61.0212435
 21
95.0
 31
0.0
  0
LINE
  5
F7
330
1E
100
AcDbEntity
  8
0
100
AcDbLine
 10
61.0212435
 20
80.90000000000001
 30
0.0
 11
61.0212435
 21
72.5
 31
0.0
  0
LINE
  5
F8
330
1E
100
AcDbEntity
  8
0
100
AcDbLine
 10
61.0212435
 20
80.90000000000001
 30
0.0
 11
61.0212435
 21
88.8
 31
0.0
  0
LINE
  5
F9
330
1E
100
AcDbEntity
  8
0
100
AcDbLine
 10
61.0212435
 20
104.6
 30
0.0
 11
61.0212435
 21
107.0999999999999
 31
0.0
  0
LINE
  5
FA
330
1E
100
AcDbEntity
  8
0
100
AcDbLine
 10
70.02124350000001
 20
107.0999999999999
 30
0.0
 11
70.02124350000001
 21
108.0
 31
0.0
  0
LINE
  5
FB
330
1E
100
AcDbEntity
  8
0
100
AcDbLine
 10
61.0212435
 20
108.0
 30
0.0
 11
61.0212435
 21
107.0999999999999
 31
0.0
  0
LINE
  5
FC
330
1E
100
AcDbEntity
  8
0
100
AcDbLine
 10
61.0212435
 20
108.0
 30
0.0
 11
70.02124350000001
 21
108.0
 31
0.0
  0
LINE
  5
FD
330
1E
100
AcDbEntity
  8
0
100
AcDbLine
 10
61.0212435
 20
107.0999999999999
 30
0.0
 11
61.0212435
 21
104.6
 31
0.0
  0
LINE
  5
FE
330
1E
100
AcDbEntity
  8
0
100
AcDbLine
 10
61.0212435
 20
107.0999999999999
 30
0.0
 11
61.0212435
 21
108.0
 31
0.0
  0
LINE
  5
FF
330
1E
100
AcDbEntity
  8
0
100
AcDbLine
 10
70.02124350000001
 20
104.6
 30
0.0
 11
70.02124350000001
 21
107.0999999999999
 31
0.0
  0
LINE
  5
100
330
1E
100
AcDbEntity
  8
0
100
AcDbLine
 10
70.02124350000001
 20
100.8
 30
0.0
 11
70.02124350000001
 21
104.6
 31
0.0
  0
LINE
  5
101
330
1E
100
AcDbEntity
  8
0
100
AcDbLine
 10
70.02124350000001
 20
95.0
 30
0.0
 11
70.02124350000001
 21
100.8
 31
0.0
  0
LINE
  5
102
330
1E
100
AcDbEntity
  8
0
100
AcDbLine
 10
70.02124350000001
 20
88.8
 30
0.0
 11
70.02124350000001
 21
95.0
 31
0.0
  0
LINE
  5
103
330
1E
100
AcDbEntity
  8
0
100
AcDbLine
 10
70.02124350000001
 20
80.90000000000001
 30
0.0
 11
70.02124350000001
 21
88.8
 31
0.0
  0
LINE
  5
104
330
1E
100
AcDbEntity
  8
0
100
AcDbLine
 10
70.02124350000001
 20
72.5
 30
0.0
 11
70.02124350000001
 21
80.90000000000001
 31
0.0
  0
LINE
  5
105
330
1E
100
AcDbEntity
  8
0
100
AcDbLine
 10
61.0212435
 20
72.5
 30
0.0
 11
61.0212435
 21
63.3
 31
0.0
  0
LINE
  5
106
330
1E
100
AcDbEntity
  8
0
100
AcDbLine
 10
61.0212435
 20
72.5
 30
0.0
 11
61.0212435
 21
80.90000000000001
 31
0.0
  0
LINE
  5
107
330
1E
100
AcDbEntity
  8
0
100
AcDbLine
 10
61.0212435
 20
63.3
 30
0.0
 11
61.0212435
 21
54.0
 31
0.0
  0
LINE
  5
108
330
1E
100
AcDbEntity
  8
0
100
AcDbLine
 10
61.0212435
 20
63.3
 30
0.0
 11
61.0212435
 21
72.5
 31
0.0
  0
LINE
  5
109
330
1E
100
AcDbEntity
  8
0
100
AcDbLine
 10
52.0212435
 20
78.0
 30
0.0
 11
59.02124350000001
 21
78.0
 31
0.0
  0
LINE
  5
10A
330
1E
100
AcDbEntity
  8
0
100
AcDbLine
 10
61.0212435
 20
54.0
 30
0.0
 11
61.0212435
 21
44.7
 31
0.0
  0
LINE
  5
10B
330
1E
100
AcDbEntity
  8
0
100
AcDbLine
 10
61.0212435
 20
54.0
 30
0.0
 11
61.0212435
 21
63.3
 31
0.0
  0
LINE
  5
110
330
1E
100
AcDbEntity
  8
0
100
AcDbLine
 10
47.4498435
 20
27.1103
 30
0.0
 11
50.8783435
 21
26.63
 31
0.0
  0
LINE
  5
115
330
1E
100
AcDbEntity
  8
0
100
AcDbLine
 10
0.4603781139323181
 20
56.7762762952296
 30
0.0
 11
0.0212435000000015
 21
54.008
 31
0.0
  0
ENDSEC
  0
SECTION
  2
OBJECTS
  0
DICTIONARY
  5
C
330
0
100
AcDbDictionary
  3
ACAD_GROUP
350
D
  3
ACAD_LAYOUT
350
19
  3
ACAD_MLINESTYLE
350
16
  3
ACAD_PLOTSETTINGS
350
18
  3
ACAD_PLOTSTYLENAME
350
E
  3
ACDBHEADERROUNDTRIPXREC
350
119
  3
ACDBVARIABLEDICTIONARY
350
116
  0
DICTIONARY
  5
13B
330
1E
100
AcDbDictionary
280
     1
  3
ACAD_LAYOUTSELFREF
360
13C
  0
DICTIONARY
  5
139
330
1A
100
AcDbDictionary
280
     1
  3
ACAD_LAYOUTSELFREF
360
13A
  0
DICTIONARY
  5
D
102
{ACAD_REACTORS
330
C
102
}
330
C
100
AcDbDictionary
  0
DICTIONARY
  5
19
102
{ACAD_REACTORS
330
C
102
}
330
C
100
AcDbDictionary
  0
DICTIONARY
  5
16
102
{ACAD_REACTORS
330
C
102
}
330
C
100
AcDbDictionary
  3
STANDARD
350
17
  0
DICTIONARY
  5
18
102
{ACAD_REACTORS
330
C
102
}
330
C
100
AcDbDictionary
  0
ACDBDICTIONARYWDFLT
  5
E
102
{ACAD_REACTORS
330
C
102
}
330
C
100
AcDbDictionary
281
     1
  3
Normal
350
F
100
AcDbDictionaryWithDefault
340
F
  0
DICTIONARY
  5
119
102
{ACAD_REACTORS
330
C
102
}
330
C
100
AcDbDictionary
  3
CEPSNTYPE
350
123
  3
FINGERPRINTGUID
350
124
  3
HYPERLINKBASE
350
11C
  3
INSUNITS
350
122
  3
LAYOUTDICT
350
11E
  3
LWETCUNION
350
121
  3
PLOTSETDICT
350
11F
  3
PLOTSTYLNAMDICT
350
120
  3
PSVPSCALE
350
126
  3
PUCSBASE
350
129
  3
PUCSORGBACK
350
12F
  3
PUCSORGBOTTOM
350
12B
  3
PUCSORGFRONT
350
12E
  3
PUCSORGLEFT
350
12C
  3
PUCSORGRIGHT
350
12D
  3
PUCSORGTOP
350
12A
  3
PUCSORTHOREF
350
127
  3
PUCSORTHOVIEW
350
128
  3
STYLESHEET
350
11D
  3
TSTACKALIGN
350
11A
  3
TSTACKSIZE
350
11B
  3
UCSBASE
350
132
  3
UCSORGBACK
350
138
  3
UCSORGBOTTOM
350
134
  3
UCSORGFRONT
350
137
  3
UCSORGLEFT
350
135
  3
UCSORGRIGHT
350
136
  3
UCSORGTOP
350
133
  3
UCSORTHOREF
350
130
  3
UCSORTHOVIEW
350
131
  3
VERSIONGUID
350
125
  0
DICTIONARY
  5
116
102
{ACAD_REACTORS
330
C
102
}
330
C
100
AcDbDictionary
  3
DIMASSOC
350
117
  0
XRECORD
  5
13C
102
{ACAD_REACTORS
330
13B
102
}
330
13B
100
AcDbXrecord
340
1E
  0
XRECORD
  5
13A
102
{ACAD_REACTORS
330
139
102
}
330
139
100
AcDbXrecord
340
1A
  0
MLINESTYLE
  5
17
102
{ACAD_REACTORS
330
16
102
}
330
16
100
AcDbMlineStyle
  2
STANDARD
 70
     0
  3

 62
   256
 51
90.0
 52
90.0
 71
     2
 49
0.5
 62
   256
  6
BYLAYER
 49
-0.5
 62
   256
  6
BYLAYER
  0
ACDBPLACEHOLDER
  5
F
102
{ACAD_REACTORS
330
E
102
}
330
E
100
AcDbPlaceHolder
280
     0
  0
XRECORD
  5
123
102
{ACAD_REACTORS
330
119
102
}
330
119
100
AcDbXrecord
 90
        0
  0
XRECORD
  5
124
102
{ACAD_REACTORS
330
119
102
}
330
119
100
AcDbXrecord
  1
{BBB11674-52E2-472F-AD1A-9F64748C7B78}
  0
XRECORD
  5
11C
102
{ACAD_REACTORS
330
119
102
}
330
119
100
AcDbXrecord
  1

  0
XRECORD
  5
122
102
{ACAD_REACTORS
330
119
102
}
330
119
100
AcDbXrecord
 90
        0
  0
XRECORD
  5
11E
102
{ACAD_REACTORS
330
119
102
}
330
119
100
AcDbXrecord
340
19
  0
XRECORD
  5
121
102
{ACAD_REACTORS
330
119
102
}
330
119
100
AcDbXrecord
 90
    10781
  0
XRECORD
  5
11F
102
{ACAD_REACTORS
330
119
102
}
330
119
100
AcDbXrecord
340
18
  0
XRECORD
  5
120
102
{ACAD_REACTORS
330
119
102
}
330
119
100
AcDbXrecord
340
E
  0
XRECORD
  5
126
102
{ACAD_REACTORS
330
119
102
}
330
119
100
AcDbXrecord
 40
0.0
  0
XRECORD
  5
129
102
{ACAD_REACTORS
330
119
102
}
330
119
100
AcDbXrecord
340
0
  0
XRECORD
  5
12F
102
{ACAD_REACTORS
330
119
102
}
330
119
100
AcDbXrecord
 10
0.0
 20
0.0
 30
0.0
  0
XRECORD
  5
12B
102
{ACAD_REACTORS
330
119
102
}
330
119
100
AcDbXrecord
 10
0.0
 20
0.0
 30
0.0
  0
XRECORD
  5
12E
102
{ACAD_REACTORS
330
119
102
}
330
119
100
AcDbXrecord
 10
0.0
 20
0.0
 30
0.0
  0
XRECORD
  5
12C
102
{ACAD_REACTORS
330
119
102
}
330
119
100
AcDbXrecord
 10
0.0
 20
0.0
 30
0.0
  0
XRECORD
  5
12D
102
{ACAD_REACTORS
330
119
102
}
330
119
100
AcDbXrecord
 10
0.0
 20
0.0
 30
0.0
  0
XRECORD
  5
12A
102
{ACAD_REACTORS
330
119
102
}
330
119
100
AcDbXrecord
 10
0.0
 20
0.0
 30
0.0
  0
XRECORD
  5
127
102
{ACAD_REACTORS
330
119
102
}
330
119
100
AcDbXrecord
340
0
  0
XRECORD
  5
128
102
{ACAD_REACTORS
330
119
102
}
330
119
100
AcDbXrecord
 70
     0
  0
XRECORD
  5
11D
102
{ACAD_REACTORS
330
119
102
}
330
119
100
AcDbXrecord
  1

  0
XRECORD
  5
11A
102
{ACAD_REACTORS
330
119
102
}
330
119
100
AcDbXrecord
 90
        1
  0
XRECORD
  5
11B
102
{ACAD_REACTORS
330
119
102
}
330
119
100
AcDbXrecord
 90
       70
  0
XRECORD
  5
132
102
{ACAD_REACTORS
330
119
102
}
330
119
100
AcDbXrecord
340
0
  0
XRECORD
  5
138
102
{ACAD_REACTORS
330
119
102
}
330
119
100
AcDbXrecord
 10
0.0
 20
0.0
 30
0.0
  0
XRECORD
  5
134
102
{ACAD_REACTORS
330
119
102
}
330
119
100
AcDbXrecord
 10
0.0
 20
0.0
 30
0.0
  0
XRECORD
  5
137
102
{ACAD_REACTORS
330
119
102
}
330
119
100
AcDbXrecord
 10
0.0
 20
0.0
 30
0.0
  0
XRECORD
  5
135
102
{ACAD_REACTORS
330
119
102
}
330
119
100
AcDbXrecord
 10
0.0
 20
0.0
 30
0.0
  0
XRECORD
  5
136
102
{ACAD_REACTORS
330
119
102
}
330
119
100
AcDbXrecord
 10
0.0
 20
0.0
 30
0.0
  0
XRECORD
  5
133
102
{ACAD_REACTORS
330
119
102
}
330
119
100
AcDbXrecord
 10
0.0
 20
0.0
 30
0.0
  0
XRECORD
  5
130
102
{ACAD_REACTORS
330
119
102
}
330
119
100
AcDbXrecord
340
0
  0
XRECORD
  5
131
102
{ACAD_REACTORS
330
119
102
}
330
119
100
AcDbXrecord
 70
     1
  0
XRECORD
  5
125
102
{ACAD_REACTORS
330
119
102
}
330
119
100
AcDbXrecord
  1
{D114170C-8850-41A3-9E86-F100DBA88C17}
  0
DICTIONARYVAR
  5
117
102
{ACAD_REACTORS
330
116
102
}
330
116
100
DictionaryVariables
280
     0
  1
1
  0
ENDSEC
  0
EOF
