  0
SECTION
  2
HEADER
  9
$ACADVER
  1
AC1015
  9
$ACADMAINTVER
 70
    13
  9
$DWGCODEPAGE
  3
ANSI_1252
  9
$INSBASE
 10
0.0
 20
0.0
 30
0.0
  9
$EXTMIN
 10
0.0
 20
-0.0000000000000023
 30
0.0
  9
$EXTMAX
 10
151.0
 20
169.0
 30
0.0
  9
$LIMMIN
 10
0.0
 20
0.0
  9
$LIMMAX
 10
12.0
 20
9.0
  9
$ORTHOMODE
 70
     0
  9
$REGENMODE
 70
     1
  9
$FILLMODE
 70
     1
  9
$QTEXTMODE
 70
     0
  9
$MIRRTEXT
 70
     1
  9
$LTSCALE
 40
1.0
  9
$ATTMODE
 70
     1
  9
$TEXTSIZE
 40
0.2
  9
$TRACEWID
 40
0.05
  9
$TEXTSTYLE
  7
Standard
  9
$CLAYER
  8
0
  9
$CELTYPE
  6
Continuous
  9
$CECOLOR
 62
   256
  9
$CELTSCALE
 40
1.0
  9
$DISPSILH
 70
     0
  9
$DIMSCALE
 40
1.0
  9
$DIMASZ
 40
0.18
  9
$DIMEXO
 40
0.0625
  9
$DIMDLI
 40
0.38
  9
$DIMRND
 40
0.0
  9
$DIMDLE
 40
0.0
  9
$DIMEXE
 40
0.18
  9
$DIMTP
 40
0.0
  9
$DIMTM
 40
0.0
  9
$DIMTXT
 40
0.18
  9
$DIMCEN
 40
0.09
  9
$DIMTSZ
 40
0.0
  9
$DIMTOL
 70
     0
  9
$DIMLIM
 70
     0
  9
$DIMTIH
 70
     1
  9
$DIMTOH
 70
     1
  9
$DIMSE1
 70
     0
  9
$DIMSE2
 70
     0
  9
$DIMTAD
 70
     0
  9
$DIMZIN
 70
     0
  9
$DIMBLK
  1

  9
$DIMASO
 70
     1
  9
$DIMSHO
 70
     1
  9
$DIMPOST
  1

  9
$DIMAPOST
  1

  9
$DIMALT
 70
     0
  9
$DIMALTD
 70
     2
  9
$DIMALTF
 40
25.4
  9
$DIMLFAC
 40
1.0
  9
$DIMTOFL
 70
     0
  9
$DIMTVP
 40
0.0
  9
$DIMTIX
 70
     0
  9
$DIMSOXD
 70
     0
  9
$DIMSAH
 70
     0
  9
$DIMBLK1
  1

  9
$DIMBLK2
  1

  9
$DIMSTYLE
  2
Standard
  9
$DIMCLRD
 70
     0
  9
$DIMCLRE
 70
     0
  9
$DIMCLRT
 70
     0
  9
$DIMTFAC
 40
1.0
  9
$DIMGAP
 40
0.09
  9
$DIMJUST
 70
     0
  9
$DIMSD1
 70
     0
  9
$DIMSD2
 70
     0
  9
$DIMTOLJ
 70
     1
  9
$DIMTZIN
 70
     0
  9
$DIMALTZ
 70
     0
  9
$DIMALTTZ
 70
     0
  9
$DIMUPT
 70
     0
  9
$DIMDEC
 70
     4
  9
$DIMTDEC
 70
     4
  9
$DIMALTU
 70
     2
  9
$DIMALTTD
 70
     2
  9
$DIMTXSTY
  7
Standard
  9
$DIMAUNIT
 70
     0
  9
$DIMADEC
 70
     0
  9
$DIMALTRND
 40
0.0
  9
$DIMAZIN
 70
     0
  9
$DIMDSEP
 70
    46
  9
$DIMATFIT
 70
     3
  9
$DIMFRAC
 70
     0
  9
$DIMLDRBLK
  1

  9
$DIMLUNIT
 70
     2
  9
$DIMLWD
 70
    -2
  9
$DIMLWE
 70
    -2
  9
$DIMTMOVE
 70
     0
  9
$LUNITS
 70
     2
  9
$LUPREC
 70
     4
  9
$SKETCHINC
 40
0.1
  9
$FILLETRAD
 40
0.0
  9
$AUNITS
 70
     0
  9
$AUPREC
 70
     0
  9
$MENU
  1
.
  9
$ELEVATION
 40
0.0
  9
$PELEVATION
 40
0.0
  9
$THICKNESS
 40
0.0
  9
$LIMCHECK
 70
     0
  9
$CHAMFERA
 40
0.0
  9
$CHAMFERB
 40
0.0
  9
$CHAMFERC
 40
0.0
  9
$CHAMFERD
 40
0.0
  9
$SKPOLY
 70
     0
  9
$TDCREATE
 40
2455649.565090231
  9
$TDUCREATE
 40
2455649.481756898
  9
$TDUPDATE
 40
2455649.573015578
  9
$TDUUPDATE
 40
2455649.489682245
  9
$TDINDWG
 40
0.0079253472
  9
$TDUSRTIMER
 40
0.0079253472
  9
$USRTIMER
 70
     1
  9
$ANGBASE
 50
0.0
  9
$ANGDIR
 70
     0
  9
$PDMODE
 70
     0
  9
$PDSIZE
 40
0.0
  9
$PLINEWID
 40
0.0
  9
$SPLFRAME
 70
     0
  9
$SPLINETYPE
 70
     6
  9
$SPLINESEGS
 70
     8
  9
$HANDSEED
  5
561
  9
$SURFTAB1
 70
     6
  9
$SURFTAB2
 70
     6
  9
$SURFTYPE
 70
     6
  9
$SURFU
 70
     6
  9
$SURFV
 70
     6
  9
$UCSBASE
  2

  9
$UCSNAME
  2

  9
$UCSORG
 10
0.0
 20
0.0
 30
0.0
  9
$UCSXDIR
 10
1.0
 20
0.0
 30
0.0
  9
$UCSYDIR
 10
0.0
 20
1.0
 30
0.0
  9
$UCSORTHOREF
  2

  9
$UCSORTHOVIEW
 70
     1
  9
$UCSORGTOP
 10
0.0
 20
0.0
 30
0.0
  9
$UCSORGBOTTOM
 10
0.0
 20
0.0
 30
0.0
  9
$UCSORGLEFT
 10
0.0
 20
0.0
 30
0.0
  9
$UCSORGRIGHT
 10
0.0
 20
0.0
 30
0.0
  9
$UCSORGFRONT
 10
0.0
 20
0.0
 30
0.0
  9
$UCSORGBACK
 10
0.0
 20
0.0
 30
0.0
  9
$PUCSBASE
  2

  9
$PUCSNAME
  2

  9
$PUCSORG
 10
0.0
 20
0.0
 30
0.0
  9
$PUCSXDIR
 10
1.0
 20
0.0
 30
0.0
  9
$PUCSYDIR
 10
0.0
 20
1.0
 30
0.0
  9
$PUCSORTHOREF
  2

  9
$PUCSORTHOVIEW
 70
     0
  9
$PUCSORGTOP
 10
0.0
 20
0.0
 30
0.0
  9
$PUCSORGBOTTOM
 10
0.0
 20
0.0
 30
0.0
  9
$PUCSORGLEFT
 10
0.0
 20
0.0
 30
0.0
  9
$PUCSORGRIGHT
 10
0.0
 20
0.0
 30
0.0
  9
$PUCSORGFRONT
 10
0.0
 20
0.0
 30
0.0
  9
$PUCSORGBACK
 10
0.0
 20
0.0
 30
0.0
  9
$USERI1
 70
     0
  9
$USERI2
 70
     0
  9
$USERI3
 70
     0
  9
$USERI4
 70
     0
  9
$USERI5
 70
     0
  9
$USERR1
 40
0.0
  9
$USERR2
 40
0.0
  9
$USERR3
 40
0.0
  9
$USERR4
 40
0.0
  9
$USERR5
 40
0.0
  9
$WORLDVIEW
 70
     1
  9
$SHADEDGE
 70
     3
  9
$SHADEDIF
 70
    70
  9
$TILEMODE
 70
     1
  9
$MAXACTVP
 70
    64
  9
$PINSBASE
 10
0.0
 20
0.0
 30
0.0
  9
$PLIMCHECK
 70
     0
  9
$PEXTMIN
 10
1.000000000000000E+20
 20
1.000000000000000E+20
 30
1.000000000000000E+20
  9
$PEXTMAX
 10
-1.000000000000000E+20
 20
-1.000000000000000E+20
 30
-1.000000000000000E+20
  9
$PLIMMIN
 10
0.0
 20
0.0
  9
$PLIMMAX
 10
12.0
 20
9.0
  9
$UNITMODE
 70
     0
  9
$VISRETAIN
 70
     1
  9
$PLINEGEN
 70
     0
  9
$PSLTSCALE
 70
     1
  9
$TREEDEPTH
 70
  3020
  9
$CMLSTYLE
  2
Standard
  9
$CMLJUST
 70
     0
  9
$CMLSCALE
 40
1.0
  9
$PROXYGRAPHICS
 70
     1
  9
$MEASUREMENT
 70
     0
  9
$CELWEIGHT
370
    -1
  9
$ENDCAPS
280
     0
  9
$JOINSTYLE
280
     0
  9
$LWDISPLAY
290
     0
  9
$INSUNITS
 70
     0
  9
$HYPERLINKBASE
  1

  9
$STYLESHEET
  1

  9
$XEDIT
290
     1
  9
$CEPSNTYPE
380
     0
  9
$PSTYLEMODE
290
     1
  9
$FINGERPRINTGUID
  2
{5647189A-0F05-49BD-AD42-BF626B2DC5D6}
  9
$VERSIONGUID
  2
{E10A9038-3C8E-4510-92B1-F9EC2A18DFE5}
  9
$EXTNAMES
290
     1
  9
$PSVPSCALE
 40
0.0
  9
$OLESTARTUP
290
     0
  0
ENDSEC
  0
SECTION
  2
CLASSES
  0
CLASS
  1
ACDBDICTIONARYWDFLT
  2
AcDbDictionaryWithDefault
  3
AutoCAD 2000
 90
        0
280
     0
281
     0
  0
CLASS
  1
ACDBPLACEHOLDER
  2
AcDbPlaceHolder
  3
AutoCAD 2000
 90
        0
280
     0
281
     0
  0
CLASS
  1
LAYOUT
  2
AcDbLayout
  3
AutoCAD 2000
 90
        0
280
     0
281
     0
  0
CLASS
  1
DICTIONARYVAR
  2
AcDbDictionaryVar
  3
AutoCAD 2000
 90
        0
280
     0
281
     0
  0
ENDSEC
  0
SECTION
  2
TABLES
  0
TABLE
  2
VPORT
  5
8
330
0
100
AcDbSymbolTable
 70
    11
  0
VPORT
  5
560
330
8
100
AcDbSymbolTableRecord
100
AcDbViewportTableRecord
  2
*Active
 70
     0
 10
0.0
 20
0.0
 11
1.0
 21
1.0
 12
75.5
 22
84.50000000000001
 13
0.0
 23
0.0
 14
1.0
 24
1.0
 15
0.0
 25
0.0
 16
0.0
 26
0.0
 36
1.0
 17
0.0
 27
0.0
 37
0.0
 40
170.1431792559188
 41
2.073363431151241
 42
50.0
 43
0.0
 44
0.0
 50
0.0
 51
0.0
 71
     0
 72
   100
 73
     1
 74
     3
 75
     0
 76
     0
 77
     0
 78
     0
281
     0
 65
     1
110
0.0
120
0.0
130
0.0
111
1.0
121
0.0
131
0.0
112
0.0
122
1.0
132
0.0
 79
     1
146
0.0
  0
ENDTAB
  0
TABLE
  2
LTYPE
  5
5
330
0
100
AcDbSymbolTable
 70
     1
  0
LTYPE
  5
13
330
5
100
AcDbSymbolTableRecord
100
AcDbLinetypeTableRecord
  2
ByBlock
 70
     0
  3

 72
    65
 73
     0
 40
0.0
  0
LTYPE
  5
14
330
5
100
AcDbSymbolTableRecord
100
AcDbLinetypeTableRecord
  2
ByLayer
 70
     0
  3

 72
    65
 73
     0
 40
0.0
  0
LTYPE
  5
15
330
5
100
AcDbSymbolTableRecord
100
AcDbLinetypeTableRecord
  2
Continuous
 70
     0
  3
Solid line
 72
    65
 73
     0
 40
0.0
  0
ENDTAB
  0
TABLE
  2
LAYER
  5
2
330
0
100
AcDbSymbolTable
 70
     1
  0
LAYER
  5
10
330
2
100
AcDbSymbolTableRecord
100
AcDbLayerTableRecord
  2
0
 70
     0
 62
     7
  6
Continuous
370
    -3
390
F
  0
ENDTAB
  0
TABLE
  2
STYLE
  5
3
330
0
100
AcDbSymbolTable
 70
     1
  0
STYLE
  5
11
330
3
100
AcDbSymbolTableRecord
100
AcDbTextStyleTableRecord
  2
Standard
 70
     0
 40
0.0
 41
1.0
 50
0.0
 71
     0
 42
0.2
  3
txt
  4

  0
ENDTAB
  0
TABLE
  2
VIEW
  5
6
330
0
100
AcDbSymbolTable
 70
     0
  0
ENDTAB
  0
TABLE
  2
UCS
  5
7
330
0
100
AcDbSymbolTable
 70
     0
  0
ENDTAB
  0
TABLE
  2
APPID
  5
9
330
0
100
AcDbSymbolTable
 70
     1
  0
APPID
  5
12
330
9
100
AcDbSymbolTableRecord
100
AcDbRegAppTableRecord
  2
ACAD
 70
     0
  0
ENDTAB
  0
TABLE
  2
DIMSTYLE
  5
A
330
0
100
AcDbSymbolTable
 70
     1
100
AcDbDimStyleTable
 71
     0
  0
DIMSTYLE
105
3BA
330
A
100
AcDbSymbolTableRecord
100
AcDbDimStyleTableRecord
  2
Standard
 70
     0
340
11
  0
ENDTAB
  0
TABLE
  2
BLOCK_RECORD
  5
1
330
0
100
AcDbSymbolTable
 70
     0
  0
BLOCK_RECORD
  5
1E
330
1
100
AcDbSymbolTableRecord
100
AcDbBlockTableRecord
  2
*Model_Space
340
21
  0
BLOCK_RECORD
  5
1A
330
1
100
AcDbSymbolTableRecord
100
AcDbBlockTableRecord
  2
*Paper_Space
340
1D
  0
ENDTAB
  0
ENDSEC
  0
SECTION
  2
BLOCKS
  0
BLOCK
  5
1F
330
1E
100
AcDbEntity
  8
0
100
AcDbBlockBegin
  2
*Model_Space
 70
     0
 10
0.0
 20
0.0
 30
0.0
  3
*Model_Space
  1

  0
ENDBLK
  5
20
330
1E
100
AcDbEntity
  8
0
100
AcDbBlockEnd
  0
BLOCK
  5
1B
330
1A
100
AcDbEntity
 67
     1
  8
0
100
AcDbBlockBegin
  2
*Paper_Space
 70
     0
 10
0.0
 20
0.0
 30
0.0
  3
*Paper_Space
  1

  0
ENDBLK
  5
1C
330
1A
100
AcDbEntity
 67
     1
  8
0
100
AcDbBlockEnd
  0
ENDSEC
  0
SECTION
  2
ENTITIES
  0
LINE
  5
22
330
1E
100
AcDbEntity
  8
0
100
AcDbLine
 10
0.5000000000000031
 20
51.0
 30
0.0
 11
0.9411760000000029
 21
49.6
 31
0.0
  0
LINE
  5
23
330
1E
100
AcDbEntity
  8
0
100
AcDbLine
 10
0.5000000000000031
 20
51.0
 30
0.0
 11
0.5000000000000031
 21
61.0
 31
0.0
  0
LINE
  5
24
330
1E
100
AcDbEntity
  8
0
100
AcDbLine
 10
3.147059999999999
 20
48.0
 30
0.0
 11
3.85294
 21
48.0
 31
0.0
  0
LINE
  5
25
330
1E
100
AcDbEntity
  8
0
100
AcDbLine
 10
1.911759999999999
 20
48.5
 30
0.0
 11
3.147059999999999
 21
48.0
 31
0.0
  0
LINE
  5
26
330
1E
100
AcDbEntity
  8
0
100
AcDbLine
 10
0.9411760000000029
 20
49.6
 30
0.0
 11
1.911759999999999
 21
48.5
 31
0.0
  0
LINE
  5
27
330
1E
100
AcDbEntity
  8
0
100
AcDbLine
 10
3.85294
 20
48.0
 30
0.0
 11
5.794119999999999
 21
48.0
 31
0.0
  0
LINE
  5
28
330
1E
100
AcDbEntity
  8
0
100
AcDbLine
 10
5.794119999999999
 20
48.0
 30
0.0
 11
8.794119999999999
 21
48.0
 31
0.0
  0
LINE
  5
29
330
1E
100
AcDbEntity
  8
0
100
AcDbLine
 10
8.794119999999999
 20
48.0
 30
0.0
 11
12.8529
 21
48.0
 31
0.0
  0
LINE
  5
2A
330
1E
100
AcDbEntity
  8
0
100
AcDbLine
 10
14.5
 20
61.0
 30
0.0
 11
14.5
 21
96.0
 31
0.0
  0
LINE
  5
2B
330
1E
100
AcDbEntity
  8
0
100
AcDbLine
 10
12.8529
 20
48.0
 30
0.0
 11
18.14709999999999
 21
48.0
 31
0.0
  0
LINE
  5
2C
330
1E
100
AcDbEntity
  8
0
100
AcDbLine
 10
24.4118
 20
48.0
 30
0.0
 11
31.5588
 21
48.0
 31
0.0
  0
LINE
  5
2D
330
1E
100
AcDbEntity
  8
0
100
AcDbLine
 10
18.14709999999999
 20
48.0
 30
0.0
 11
24.4118
 21
48.0
 31
0.0
  0
LINE
  5
2E
330
1E
100
AcDbEntity
  8
0
100
AcDbLine
 10
16.1176
 20
61.0
 30
0.0
 11
22.5588
 21
61.0
 31
0.0
  0
LINE
  5
2F
330
1E
100
AcDbEntity
  8
0
100
AcDbLine
 10
10.55879999999999
 20
61.0
 30
0.0
 11
16.1176
 21
61.0
 31
0.0
  0
LINE
  5
30
330
1E
100
AcDbEntity
  8
0
100
AcDbLine
 10
6.323529999999999
 20
61.0
 30
0.0
 11
10.55879999999999
 21
61.0
 31
0.0
  0
LINE
  5
31
330
1E
100
AcDbEntity
  8
0
100
AcDbLine
 10
3.235289999999999
 20
61.0
 30
0.0
 11
6.323529999999999
 21
61.0
 31
0.0
  0
LINE
  5
32
330
1E
100
AcDbEntity
  8
0
100
AcDbLine
 10
1.294118
 20
61.0
 30
0.0
 11
3.235289999999999
 21
61.0
 31
0.0
  0
LINE
  5
33
330
1E
100
AcDbEntity
  8
0
100
AcDbLine
 10
0.5000000000000031
 20
61.0
 30
0.0
 11
1.294118
 21
61.0
 31
0.0
  0
LINE
  5
34
330
1E
100
AcDbEntity
  8
0
100
AcDbLine
 10
0.5000000000000031
 20
61.0
 30
0.0
 11
0.5000000000000031
 21
51.0
 31
0.0
  0
LINE
  5
35
330
1E
100
AcDbEntity
  8
0
100
AcDbLine
 10
22.5588
 20
61.0
 30
0.0
 11
29.8824
 21
61.0
 31
0.0
  0
LINE
  5
36
330
1E
100
AcDbEntity
  8
0
100
AcDbLine
 10
39.5
 20
48.0
 30
0.0
 11
47.8824
 21
48.0
 31
0.0
  0
LINE
  5
37
330
1E
100
AcDbEntity
  8
0
100
AcDbLine
 10
31.5588
 20
48.0
 30
0.0
 11
39.5
 21
48.0
 31
0.0
  0
LINE
  5
38
330
1E
100
AcDbEntity
  8
0
100
AcDbLine
 10
29.8824
 20
61.0
 30
0.0
 11
38.1765
 21
61.0
 31
0.0
  0
LINE
  5
39
330
1E
100
AcDbEntity
  8
0
100
AcDbLine
 10
38.1765
 20
61.0
 30
0.0
 11
46.8235
 21
61.0
 31
0.0
  0
LINE
  5
3B
330
1E
100
AcDbEntity
  8
0
100
AcDbLine
 10
57.8793306080108
 20
6.91440490899289
 30
0.0
 11
57.99800000000001
 21
6.689899999999999
 31
0.0
  0
LINE
  5
3D
330
1E
100
AcDbEntity
  8
0
100
AcDbLine
 10
57.534
 20
7.1135
 30
0.0
 11
57.8793306080108
 21
6.91440490899289
 31
0.0
  0
LINE
  5
3E
330
1E
100
AcDbEntity
  8
0
100
AcDbLine
 10
57.019
 20
7.275699999999999
 30
0.0
 11
57.534
 21
7.1135
 31
0.0
  0
LINE
  5
3F
330
1E
100
AcDbEntity
  8
0
100
AcDbLine
 10
56.458
 20
7.410899999999999
 30
0.0
 11
57.019
 21
7.275699999999999
 31
0.0
  0
LINE
  5
40
330
1E
100
AcDbEntity
  8
0
100
AcDbLine
 10
55.697
 20
7.604199999999999
 30
0.0
 11
56.458
 21
7.410899999999999
 31
0.0
  0
LINE
  5
44
330
1E
100
AcDbEntity
  8
0
100
AcDbLine
 10
53.519
 20
8.9672
 30
0.0
 11
53.619
 21
8.676800000000008
 31
0.0
  0
LINE
  5
49
330
1E
100
AcDbEntity
  8
0
100
AcDbLine
 10
53.619
 20
8.676800000000008
 30
0.0
 11
53.749
 21
8.5226
 31
0.0
  0
LINE
  5
4A
330
1E
100
AcDbEntity
  8
0
100
AcDbLine
 10
54.67
 20
7.924699999999999
 30
0.0
 11
55.437
 21
7.6753
 31
0.0
  0
LINE
  5
52
330
1E
100
AcDbEntity
  8
0
100
AcDbLine
 10
53.95
 20
8.316300000000008
 30
0.0
 11
54.199
 21
8.142000000000001
 31
0.0
  0
LINE
  5
53
330
1E
100
AcDbEntity
  8
0
100
AcDbLine
 10
53.749
 20
8.5226
 30
0.0
 11
53.95
 21
8.316300000000008
 31
0.0
  0
LINE
  5
54
330
1E
100
AcDbEntity
  8
0
100
AcDbLine
 10
54.199
 20
8.142000000000001
 30
0.0
 11
54.67
 21
7.924699999999999
 31
0.0
  0
LINE
  5
57
330
1E
100
AcDbEntity
  8
0
100
AcDbLine
 10
55.437
 20
7.6753
 30
0.0
 11
55.697
 21
7.604199999999999
 31
0.0
  0
LINE
  5
67
330
1E
100
AcDbEntity
  8
0
100
AcDbLine
 10
58.001
 20
6.684899999999999
 30
0.0
 11
59.037
 21
4.4145
 31
0.0
  0
LINE
  5
69
330
1E
100
AcDbEntity
  8
0
100
AcDbLine
 10
53.5
 20
9.119500000000009
 30
0.0
 11
53.5
 21
41.4672
 31
0.0
  0
LINE
  5
6C
330
1E
100
AcDbEntity
  8
0
100
AcDbLine
 10
53.5
 20
9.119500000000009
 30
0.0
 11
53.519
 21
8.9672
 31
0.0
  0
LINE
  5
6D
330
1E
100
AcDbEntity
  8
0
100
AcDbLine
 10
60.466
 20
1.627399999999999
 30
0.0
 11
60.637
 21
1.4852
 31
0.0
  0
LINE
  5
6E
330
1E
100
AcDbEntity
  8
0
100
AcDbLine
 10
60.078
 20
2.134199999999999
 30
0.0
 11
60.26600000000001
 21
1.8367
 31
0.0
  0
LINE
  5
7A
330
1E
100
AcDbEntity
  8
0
100
AcDbLine
 10
60.045
 20
2.2063
 30
0.0
 11
60.073
 21
2.145199999999999
 31
0.0
  0
LINE
  5
7B
330
1E
100
AcDbEntity
  8
0
100
AcDbLine
 10
60.045
 20
2.2063
 30
0.0
 11
60.078
 21
2.134199999999999
 31
0.0
  0
LINE
  5
7C
330
1E
100
AcDbEntity
  8
0
100
AcDbLine
 10
59.037
 20
4.4145
 30
0.0
 11
60.073
 21
2.145199999999999
 31
0.0
  0
LINE
  5
7D
330
1E
100
AcDbEntity
  8
0
100
AcDbLine
 10
60.26600000000001
 20
1.8367
 30
0.0
 11
60.466
 21
1.627399999999999
 31
0.0
  0
LINE
  5
83
330
1E
100
AcDbEntity
  8
0
100
AcDbLine
 10
53.5
 20
41.4672
 30
0.0
 11
53.5
 21
9.119500000000009
 31
0.0
  0
LINE
  5
84
330
1E
100
AcDbEntity
  8
0
100
AcDbLine
 10
53.567
 20
41.7496
 30
0.0
 11
53.75
 21
41.9329
 31
0.0
  0
LINE
  5
85
330
1E
100
AcDbEntity
  8
0
100
AcDbLine
 10
53.75
 20
41.9329
 30
0.0
 11
54.0
 21
42.0
 31
0.0
  0
LINE
  5
86
330
1E
100
AcDbEntity
  8
0
100
AcDbLine
 10
53.5
 20
41.4993
 30
0.0
 11
53.567
 21
41.7496
 31
0.0
  0
LINE
  5
88
330
1E
100
AcDbEntity
  8
0
100
AcDbLine
 10
54.0
 20
42.8
 30
0.0
 11
54.10386133547159
 21
41.9559382426512
 31
0.0
  0
LINE
  5
89
330
1E
100
AcDbEntity
  8
0
100
AcDbLine
 10
54.0
 20
42.8
 30
0.0
 11
54.0
 21
48.0
 31
0.0
  0
LINE
  5
8A
330
1E
100
AcDbEntity
  8
0
100
AcDbLine
 10
55.4090538541842
 20
39.68277306223519
 30
0.0
 11
55.76699999999999
 21
39.283
 31
0.0
  0
LINE
  5
8B
330
1E
100
AcDbEntity
  8
0
100
AcDbLine
 10
55.76699999999999
 20
39.283
 30
0.0
 11
56.871
 21
38.42069999999999
 31
0.0
  0
LINE
  5
8D
330
1E
100
AcDbEntity
  8
0
100
AcDbLine
 10
54.245
 20
41.0917
 30
0.0
 11
54.10386133547159
 21
41.9559382426512
 31
0.0
  0
LINE
  5
8E
330
1E
100
AcDbEntity
  8
0
100
AcDbLine
 10
54.245
 20
41.0917
 30
0.0
 11
54.96
 21
40.1843
 31
0.0
  0
LINE
  5
8F
330
1E
100
AcDbEntity
  8
0
100
AcDbLine
 10
54.042
 20
42.0
 30
0.0
 11
54.0984395604396
 21
42.0
 31
0.0
  0
LINE
  5
90
330
1E
100
AcDbEntity
  8
0
100
AcDbLine
 10
54.96
 20
40.1843
 30
0.0
 11
55.4090538541842
 21
39.68277306223519
 31
0.0
  0
LINE
  5
92
330
1E
100
AcDbEntity
  8
0
100
AcDbLine
 10
56.871
 20
38.42069999999999
 30
0.0
 11
58.261
 21
37.6115
 31
0.0
  0
LINE
  5
93
330
1E
100
AcDbEntity
  8
0
100
AcDbLine
 10
58.261
 20
37.6115
 30
0.0
 11
59.921
 21
36.8674
 31
0.0
  0
LINE
  5
94
330
1E
100
AcDbEntity
  8
0
100
AcDbLine
 10
56.8667
 20
48.0
 30
0.0
 11
90.5
 21
48.0
 31
0.0
  0
LINE
  5
95
330
1E
100
AcDbEntity
  8
0
100
AcDbLine
 10
54.8063
 20
48.0
 30
0.0
 11
56.8667
 21
48.0
 31
0.0
  0
LINE
  5
96
330
1E
100
AcDbEntity
  8
0
100
AcDbLine
 10
54.0
 20
48.0
 30
0.0
 11
54.0
 21
42.8
 31
0.0
  0
LINE
  5
97
330
1E
100
AcDbEntity
  8
0
100
AcDbLine
 10
54.0
 20
48.0
 30
0.0
 11
54.8063
 21
48.0
 31
0.0
  0
LINE
  5
99
330
1E
100
AcDbEntity
  8
0
100
AcDbLine
 10
59.921
 20
36.8674
 30
0.0
 11
61.644
 21
36.2575
 31
0.0
  0
LINE
  5
9A
330
1E
100
AcDbEntity
  8
0
100
AcDbLine
 10
60.36039999999999
 20
48.0
 30
0.0
 11
60.5
 21
48.0
 31
0.0
  0
LINE
  5
9C
330
1E
100
AcDbEntity
  8
0
100
AcDbLine
 10
60.637
 20
1.4852
 30
0.0
 11
60.91899999999999
 21
1.333
 31
0.0
  0
LINE
  5
9F
330
1E
100
AcDbEntity
  8
0
100
AcDbLine
 10
61.883
 20
1.0215
 30
0.0
 11
62.662
 21
0.843199999999997
 31
0.0
  0
LINE
  5
A0
330
1E
100
AcDbEntity
  8
0
100
AcDbLine
 10
61.623
 20
1.093599999999999
 30
0.0
 11
61.883
 21
1.0215
 31
0.0
  0
LINE
  5
A1
330
1E
100
AcDbEntity
  8
0
100
AcDbLine
 10
61.311
 20
1.1847
 30
0.0
 11
61.623
 21
1.093599999999999
 31
0.0
  0
LINE
  5
A2
330
1E
100
AcDbEntity
  8
0
100
AcDbLine
 10
60.91899999999999
 20
1.333
 30
0.0
 11
61.311
 21
1.1847
 31
0.0
  0
LINE
  5
A3
330
1E
100
AcDbEntity
  8
0
100
AcDbLine
 10
61.644
 20
36.2575
 30
0.0
 11
61.9
 21
36.18558958660389
 31
0.0
  0
LINE
  5
AA
330
1E
100
AcDbEntity
  8
0
100
AcDbLine
 10
62.662
 20
0.843199999999997
 30
0.0
 11
63.65
 21
0.672999999999996
 31
0.0
  0
LINE
  5
AD
330
1E
100
AcDbEntity
  8
0
100
AcDbLine
 10
63.65
 20
0.672999999999996
 30
0.0
 11
64.87
 21
0.5107999999999981
 31
0.0
  0
LINE
  5
AE
330
1E
100
AcDbEntity
  8
0
100
AcDbLine
 10
64.87
 20
0.5107999999999981
 30
0.0
 11
64.98499999999999
 21
0.4976999999999971
 31
0.0
  0
LINE
  5
AF
330
1E
100
AcDbEntity
  8
0
100
AcDbLine
 10
64.98499999999999
 20
0.4976999999999971
 30
0.0
 11
66.201
 21
0.3725999999999989
 31
0.0
  0
LINE
  5
B7
330
1E
100
AcDbEntity
  8
0
100
AcDbLine
 10
47.8824
 20
48.0
 30
0.0
 11
54.0
 21
48.0
 31
0.0
  0
LINE
  5
B8
330
1E
100
AcDbEntity
  8
0
100
AcDbLine
 10
46.8235
 20
61.0
 30
0.0
 11
56.1765
 21
61.0
 31
0.0
  0
LINE
  5
B9
330
1E
100
AcDbEntity
  8
0
100
AcDbLine
 10
0.5280000000000031
 20
96.0
 30
0.0
 11
1.167999999999999
 21
96.0
 31
0.0
  0
LINE
  5
BA
330
1E
100
AcDbEntity
  8
0
100
AcDbLine
 10
0.144000000000003
 20
96.0
 30
0.0
 11
0.5280000000000031
 21
96.0
 31
0.0
  0
LINE
  5
BB
330
1E
100
AcDbEntity
  8
0
100
AcDbLine
 10
0.5280000000000031
 20
96.0
 30
0.0
 11
1.167999999999999
 21
96.0
 31
0.0
  0
LINE
  5
BC
330
1E
100
AcDbEntity
  8
0
100
AcDbLine
 10
1.0
 20
96.0
 30
0.0
 11
6.0
 21
96.0
 31
0.0
  0
LINE
  5
BD
330
1E
100
AcDbEntity
  8
0
100
AcDbLine
 10
1.167999999999999
 20
96.0
 30
0.0
 11
2.016
 21
96.0
 31
0.0
  0
LINE
  5
BE
330
1E
100
AcDbEntity
  8
0
100
AcDbLine
 10
2.016
 20
96.0
 30
0.0
 11
2.976
 21
96.0
 31
0.0
  0
LINE
  5
BF
330
1E
100
AcDbEntity
  8
0
100
AcDbLine
 10
1.0
 20
96.0
 30
0.0
 11
6.0
 21
96.0
 31
0.0
  0
LINE
  5
C0
330
1E
100
AcDbEntity
  8
0
100
AcDbLine
 10
2.937399999999999
 20
96.0
 30
0.0
 11
14.5
 21
96.0
 31
0.0
  0
LINE
  5
C1
330
1E
100
AcDbEntity
  8
0
100
AcDbLine
 10
2.937399999999999
 20
96.0
 30
0.0
 11
26.6618
 21
96.0
 31
0.0
  0
LINE
  5
C2
330
1E
100
AcDbEntity
  8
0
100
AcDbLine
 10
4.0
 20
96.0
 30
0.0
 11
5.024
 21
96.0
 31
0.0
  0
LINE
  5
C3
330
1E
100
AcDbEntity
  8
0
100
AcDbLine
 10
2.976
 20
96.0
 30
0.0
 11
4.0
 21
96.0
 31
0.0
  0
LINE
  5
C4
330
1E
100
AcDbEntity
  8
0
100
AcDbLine
 10
5.024
 20
96.0
 30
0.0
 11
5.983999999999999
 21
96.0
 31
0.0
  0
LINE
  5
C5
330
1E
100
AcDbEntity
  8
0
100
AcDbLine
 10
5.983999999999999
 20
96.0
 30
0.0
 11
6.832
 21
96.0
 31
0.0
  0
LINE
  5
C6
330
1E
100
AcDbEntity
  8
0
100
AcDbLine
 10
5.610319999999999
 20
96.0
 30
0.0
 11
5.754319999999999
 21
96.0
 31
0.0
  0
LINE
  5
C7
330
1E
100
AcDbEntity
  8
0
100
AcDbLine
 10
5.754319999999999
 20
96.0
 30
0.0
 11
6.138319999999999
 21
96.0
 31
0.0
  0
LINE
  5
C8
330
1E
100
AcDbEntity
  8
0
100
AcDbLine
 10
6.138319999999999
 20
96.0
 30
0.0
 11
6.778319999999999
 21
96.0
 31
0.0
  0
LINE
  5
C9
330
1E
100
AcDbEntity
  8
0
100
AcDbLine
 10
6.34241
 20
96.0
 30
0.0
 11
14.5
 21
96.0
 31
0.0
  0
LINE
  5
CA
330
1E
100
AcDbEntity
  8
0
100
AcDbLine
 10
6.34241
 20
96.0
 30
0.0
 11
17.0462
 21
96.0
 31
0.0
  0
LINE
  5
CB
330
1E
100
AcDbEntity
  8
0
100
AcDbLine
 10
7.472
 20
96.0
 30
0.0
 11
7.855999999999999
 21
96.0
 31
0.0
  0
LINE
  5
CC
330
1E
100
AcDbEntity
  8
0
100
AcDbLine
 10
6.832
 20
96.0
 30
0.0
 11
7.472
 21
96.0
 31
0.0
  0
LINE
  5
CD
330
1E
100
AcDbEntity
  8
0
100
AcDbLine
 10
6.778319999999999
 20
96.0
 30
0.0
 11
7.626319999999999
 21
96.0
 31
0.0
  0
LINE
  5
CE
330
1E
100
AcDbEntity
  8
0
100
AcDbLine
 10
7.855999999999999
 20
96.0
 30
0.0
 11
8.0
 21
96.0
 31
0.0
  0
LINE
  5
CF
330
1E
100
AcDbEntity
  8
0
100
AcDbLine
 10
12.44229999999999
 20
96.0
 30
0.0
 11
13.0823
 21
96.0
 31
0.0
  0
LINE
  5
D0
330
1E
100
AcDbEntity
  8
0
100
AcDbLine
 10
11.5943
 20
96.0
 30
0.0
 11
12.44229999999999
 21
96.0
 31
0.0
  0
LINE
  5
D1
330
1E
100
AcDbEntity
  8
0
100
AcDbLine
 10
10.6343
 20
96.0
 30
0.0
 11
11.5943
 21
96.0
 31
0.0
  0
LINE
  5
D2
330
1E
100
AcDbEntity
  8
0
100
AcDbLine
 10
9.610319999999999
 20
96.0
 30
0.0
 11
10.6343
 21
96.0
 31
0.0
  0
LINE
  5
D3
330
1E
100
AcDbEntity
  8
0
100
AcDbLine
 10
7.626319999999999
 20
96.0
 30
0.0
 11
8.586319999999998
 21
96.0
 31
0.0
  0
LINE
  5
D4
330
1E
100
AcDbEntity
  8
0
100
AcDbLine
 10
8.586319999999998
 20
96.0
 30
0.0
 11
9.610319999999999
 21
96.0
 31
0.0
  0
LINE
  5
D5
330
1E
100
AcDbEntity
  8
0
100
AcDbLine
 10
6.684919999999999
 20
96.0
 30
0.0
 11
14.5
 21
96.0
 31
0.0
  0
LINE
  5
D6
330
1E
100
AcDbEntity
  8
0
100
AcDbLine
 10
6.684919999999999
 20
96.0
 30
0.0
 11
17.855
 21
96.0
 31
0.0
  0
LINE
  5
D7
330
1E
100
AcDbEntity
  8
0
100
AcDbLine
 10
6.34241
 20
96.0
 30
0.0
 11
6.684919999999999
 21
96.0
 31
0.0
  0
LINE
  5
D8
330
1E
100
AcDbEntity
  8
0
100
AcDbLine
 10
6.34241
 20
96.0
 30
0.0
 11
14.5
 21
96.0
 31
0.0
  0
LINE
  5
D9
330
1E
100
AcDbEntity
  8
0
100
AcDbLine
 10
6.34241
 20
96.0
 30
0.0
 11
17.0462
 21
96.0
 31
0.0
  0
LINE
  5
DA
330
1E
100
AcDbEntity
  8
0
100
AcDbLine
 10
4.195509999999999
 20
96.0
 30
0.0
 11
14.5
 21
96.0
 31
0.0
  0
LINE
  5
DB
330
1E
100
AcDbEntity
  8
0
100
AcDbLine
 10
4.195509999999999
 20
96.0
 30
0.0
 11
25.3138
 21
96.0
 31
0.0
  0
LINE
  5
DC
330
1E
100
AcDbEntity
  8
0
100
AcDbLine
 10
4.195509999999999
 20
96.0
 30
0.0
 11
14.5
 21
96.0
 31
0.0
  0
LINE
  5
DD
330
1E
100
AcDbEntity
  8
0
100
AcDbLine
 10
4.195509999999999
 20
96.0
 30
0.0
 11
25.3138
 21
96.0
 31
0.0
  0
LINE
  5
DE
330
1E
100
AcDbEntity
  8
0
100
AcDbLine
 10
2.937399999999999
 20
96.0
 30
0.0
 11
4.195509999999999
 21
96.0
 31
0.0
  0
LINE
  5
DF
330
1E
100
AcDbEntity
  8
0
100
AcDbLine
 10
2.937399999999999
 20
96.0
 30
0.0
 11
14.5
 21
96.0
 31
0.0
  0
LINE
  5
E0
330
1E
100
AcDbEntity
  8
0
100
AcDbLine
 10
2.937399999999999
 20
96.0
 30
0.0
 11
26.6618
 21
96.0
 31
0.0
  0
LINE
  5
E1
330
1E
100
AcDbEntity
  8
0
100
AcDbLine
 10
2.0
 20
96.0
 30
0.0
 11
50.8
 21
96.0
 31
0.0
  0
LINE
  5
E2
330
1E
100
AcDbEntity
  8
0
100
AcDbLine
 10
0.0000000000000026
 20
96.0
 30
0.0
 11
2.0
 21
96.0
 31
0.0
  0
LINE
  5
E3
330
1E
100
AcDbEntity
  8
0
100
AcDbLine
 10
2.0
 20
96.0
 30
0.0
 11
14.5
 21
96.0
 31
0.0
  0
LINE
  5
E4
330
1E
100
AcDbEntity
  8
0
100
AcDbLine
 10
0.0
 20
96.0
 30
0.0
 11
14.5
 21
96.0
 31
0.0
  0
LINE
  5
E5
330
1E
100
AcDbEntity
  8
0
100
AcDbLine
 10
0.0
 20
96.0
 30
0.0
 11
50.0
 21
96.0
 31
0.0
  0
LINE
  5
E6
330
1E
100
AcDbEntity
  8
0
100
AcDbLine
 10
0.0000000000000026
 20
96.0
 30
0.0
 11
0.0000000000000026
 21
100.0
 31
0.0
  0
LINE
  5
E7
330
1E
100
AcDbEntity
  8
0
100
AcDbLine
 10
0.0000000000000026
 20
96.0
 30
0.0
 11
2.0
 21
96.0
 31
0.0
  0
LINE
  5
E8
330
1E
100
AcDbEntity
  8
0
100
AcDbLine
 10
0.0000000000000026
 20
96.0
 30
0.0
 11
14.5
 21
96.0
 31
0.0
  0
LINE
  5
E9
330
1E
100
AcDbEntity
  8
0
100
AcDbLine
 10
0.0000000000000026
 20
96.0
 30
0.0
 11
50.0
 21
96.0
 31
0.0
  0
LINE
  5
EA
330
1E
100
AcDbEntity
  8
0
100
AcDbLine
 10
0.0000000000000026
 20
96.0
 30
0.0
 11
0.144000000000003
 21
96.0
 31
0.0
  0
LINE
  5
EB
330
1E
100
AcDbEntity
  8
0
100
AcDbLine
 10
13.4663
 20
96.0
 30
0.0
 11
13.6103
 21
96.0
 31
0.0
  0
LINE
  5
EC
330
1E
100
AcDbEntity
  8
0
100
AcDbLine
 10
13.0823
 20
96.0
 30
0.0
 11
13.4663
 21
96.0
 31
0.0
  0
LINE
  5
ED
330
1E
100
AcDbEntity
  8
0
100
AcDbLine
 10
13.25599999999999
 20
96.0
 30
0.0
 11
14.5
 21
96.0
 31
0.0
  0
LINE
  5
EE
330
1E
100
AcDbEntity
  8
0
100
AcDbLine
 10
13.25599999999999
 20
96.0
 30
0.0
 11
14.76799999999999
 21
96.0
 31
0.0
  0
LINE
  5
EF
330
1E
100
AcDbEntity
  8
0
100
AcDbLine
 10
12.5
 20
96.0
 30
0.0
 11
13.25599999999999
 21
96.0
 31
0.0
  0
LINE
  5
F0
330
1E
100
AcDbEntity
  8
0
100
AcDbLine
 10
0.0
 20
100.0
 30
0.0
 11
50.0
 21
100.0
 31
0.0
  0
LINE
  5
F1
330
1E
100
AcDbEntity
  8
0
100
AcDbLine
 10
12.5
 20
127.0
 30
0.0
 11
12.5
 21
127.72
 31
0.0
  0
LINE
  5
F2
330
1E
100
AcDbEntity
  8
0
100
AcDbLine
 10
12.5
 20
127.0
 30
0.0
 11
14.5
 21
127.0
 31
0.0
  0
LINE
  5
F3
330
1E
100
AcDbEntity
  8
0
100
AcDbLine
 10
12.5
 20
129.64
 30
0.0
 11
12.5
 21
127.72
 31
0.0
  0
LINE
  5
F4
330
1E
100
AcDbEntity
  8
0
100
AcDbLine
 10
12.5
 20
129.64
 30
0.0
 11
12.5
 21
132.84
 31
0.0
  0
LINE
  5
F5
330
1E
100
AcDbEntity
  8
0
100
AcDbLine
 10
12.5
 20
132.244
 30
0.0
 11
12.5
 21
134.9639999999999
 31
0.0
  0
LINE
  5
F6
330
1E
100
AcDbEntity
  8
0
100
AcDbLine
 10
12.5
 20
132.244
 30
0.0
 11
12.5
 21
130.6119999999999
 31
0.0
  0
LINE
  5
F7
330
1E
100
AcDbEntity
  8
0
100
AcDbLine
 10
12.5
 20
142.6479999999999
 30
0.0
 11
12.5
 21
147.0
 31
0.0
  0
LINE
  5
F8
330
1E
100
AcDbEntity
  8
0
100
AcDbLine
 10
12.5
 20
142.6479999999999
 30
0.0
 11
12.5
 21
138.5679999999999
 31
0.0
  0
LINE
  5
F9
330
1E
100
AcDbEntity
  8
0
100
AcDbLine
 10
12.5
 20
138.5679999999999
 30
0.0
 11
12.5
 21
142.6479999999999
 31
0.0
  0
LINE
  5
FA
330
1E
100
AcDbEntity
  8
0
100
AcDbLine
 10
12.5
 20
138.5679999999999
 30
0.0
 11
12.5
 21
134.9639999999999
 31
0.0
  0
LINE
  5
FB
330
1E
100
AcDbEntity
  8
0
100
AcDbLine
 10
12.5
 20
141.88
 30
0.0
 11
12.5
 21
137.08
 31
0.0
  0
LINE
  5
FC
330
1E
100
AcDbEntity
  8
0
100
AcDbLine
 10
12.5
 20
141.88
 30
0.0
 11
12.5
 21
147.0
 31
0.0
  0
LINE
  5
FD
330
1E
100
AcDbEntity
  8
0
100
AcDbLine
 10
12.5
 20
134.9639999999999
 30
0.0
 11
12.5
 21
138.5679999999999
 31
0.0
  0
LINE
  5
FE
330
1E
100
AcDbEntity
  8
0
100
AcDbLine
 10
12.5
 20
134.9639999999999
 30
0.0
 11
12.5
 21
132.244
 31
0.0
  0
LINE
  5
FF
330
1E
100
AcDbEntity
  8
0
100
AcDbLine
 10
12.5
 20
137.08
 30
0.0
 11
12.5
 21
132.84
 31
0.0
  0
LINE
  5
100
330
1E
100
AcDbEntity
  8
0
100
AcDbLine
 10
12.5
 20
137.08
 30
0.0
 11
12.5
 21
141.88
 31
0.0
  0
LINE
  5
101
330
1E
100
AcDbEntity
  8
0
100
AcDbLine
 10
12.5
 20
132.84
 30
0.0
 11
12.5
 21
129.64
 31
0.0
  0
LINE
  5
102
330
1E
100
AcDbEntity
  8
0
100
AcDbLine
 10
12.5
 20
132.84
 30
0.0
 11
12.5
 21
137.08
 31
0.0
  0
LINE
  5
103
330
1E
100
AcDbEntity
  8
0
100
AcDbLine
 10
12.5
 20
130.6119999999999
 30
0.0
 11
12.5
 21
132.244
 31
0.0
  0
LINE
  5
104
330
1E
100
AcDbEntity
  8
0
100
AcDbLine
 10
12.5
 20
130.6119999999999
 30
0.0
 11
12.5
 21
130.0
 31
0.0
  0
LINE
  5
105
330
1E
100
AcDbEntity
  8
0
100
AcDbLine
 10
12.5
 20
130.0
 30
0.0
 11
12.5
 21
130.6119999999999
 31
0.0
  0
LINE
  5
106
330
1E
100
AcDbEntity
  8
0
100
AcDbLine
 10
12.5
 20
127.72
 30
0.0
 11
12.5
 21
127.0
 31
0.0
  0
LINE
  5
107
330
1E
100
AcDbEntity
  8
0
100
AcDbLine
 10
12.5
 20
127.72
 30
0.0
 11
12.5
 21
129.64
 31
0.0
  0
LINE
  5
108
330
1E
100
AcDbEntity
  8
0
100
AcDbLine
 10
12.5
 20
151.3519999999999
 30
0.0
 11
12.5
 21
147.0
 31
0.0
  0
LINE
  5
109
330
1E
100
AcDbEntity
  8
0
100
AcDbLine
 10
12.5
 20
151.3519999999999
 30
0.0
 11
12.5
 21
155.432
 31
0.0
  0
LINE
  5
10A
330
1E
100
AcDbEntity
  8
0
100
AcDbLine
 10
12.5
 20
155.432
 30
0.0
 11
12.5
 21
151.3519999999999
 31
0.0
  0
LINE
  5
10B
330
1E
100
AcDbEntity
  8
0
100
AcDbLine
 10
12.5
 20
155.432
 30
0.0
 11
12.5
 21
159.0359999999999
 31
0.0
  0
LINE
  5
10C
330
1E
100
AcDbEntity
  8
0
100
AcDbLine
 10
12.5
 20
147.0
 30
0.0
 11
12.5
 21
152.12
 31
0.0
  0
LINE
  5
10D
330
1E
100
AcDbEntity
  8
0
100
AcDbLine
 10
12.5
 20
147.0
 30
0.0
 11
12.5
 21
151.3519999999999
 31
0.0
  0
LINE
  5
10E
330
1E
100
AcDbEntity
  8
0
100
AcDbLine
 10
12.5
 20
147.0
 30
0.0
 11
12.5
 21
141.88
 31
0.0
  0
LINE
  5
10F
330
1E
100
AcDbEntity
  8
0
100
AcDbLine
 10
12.5
 20
147.0
 30
0.0
 11
12.5
 21
142.6479999999999
 31
0.0
  0
LINE
  5
110
330
1E
100
AcDbEntity
  8
0
100
AcDbLine
 10
12.5
 20
152.12
 30
0.0
 11
12.5
 21
156.9199999999999
 31
0.0
  0
LINE
  5
111
330
1E
100
AcDbEntity
  8
0
100
AcDbLine
 10
12.5
 20
152.12
 30
0.0
 11
12.5
 21
147.0
 31
0.0
  0
LINE
  5
112
330
1E
100
AcDbEntity
  8
0
100
AcDbLine
 10
12.5
 20
159.0359999999999
 30
0.0
 11
12.5
 21
155.432
 31
0.0
  0
LINE
  5
113
330
1E
100
AcDbEntity
  8
0
100
AcDbLine
 10
12.5
 20
159.0359999999999
 30
0.0
 11
12.5
 21
161.756
 31
0.0
  0
LINE
  5
114
330
1E
100
AcDbEntity
  8
0
100
AcDbLine
 10
12.5
 20
161.756
 30
0.0
 11
12.5
 21
159.0359999999999
 31
0.0
  0
LINE
  5
115
330
1E
100
AcDbEntity
  8
0
100
AcDbLine
 10
12.5
 20
161.756
 30
0.0
 11
12.5
 21
163.3879999999999
 31
0.0
  0
LINE
  5
116
330
1E
100
AcDbEntity
  8
0
100
AcDbLine
 10
12.5
 20
163.3879999999999
 30
0.0
 11
12.5
 21
161.756
 31
0.0
  0
LINE
  5
117
330
1E
100
AcDbEntity
  8
0
100
AcDbLine
 10
12.5
 20
163.3879999999999
 30
0.0
 11
12.5
 21
164.0
 31
0.0
  0
LINE
  5
118
330
1E
100
AcDbEntity
  8
0
100
AcDbLine
 10
12.5
 20
164.0
 30
0.0
 11
12.5
 21
163.3879999999999
 31
0.0
  0
LINE
  5
119
330
1E
100
AcDbEntity
  8
0
100
AcDbLine
 10
12.5
 20
156.9199999999999
 30
0.0
 11
12.5
 21
161.1599999999999
 31
0.0
  0
LINE
  5
11A
330
1E
100
AcDbEntity
  8
0
100
AcDbLine
 10
12.5
 20
156.9199999999999
 30
0.0
 11
12.5
 21
152.12
 31
0.0
  0
LINE
  5
11B
330
1E
100
AcDbEntity
  8
0
100
AcDbLine
 10
12.5
 20
161.1599999999999
 30
0.0
 11
12.5
 21
164.36
 31
0.0
  0
LINE
  5
11C
330
1E
100
AcDbEntity
  8
0
100
AcDbLine
 10
12.5
 20
161.1599999999999
 30
0.0
 11
12.5
 21
156.9199999999999
 31
0.0
  0
LINE
  5
11D
330
1E
100
AcDbEntity
  8
0
100
AcDbLine
 10
12.5
 20
164.36
 30
0.0
 11
12.5
 21
166.28
 31
0.0
  0
LINE
  5
11E
330
1E
100
AcDbEntity
  8
0
100
AcDbLine
 10
12.5
 20
164.36
 30
0.0
 11
12.5
 21
161.1599999999999
 31
0.0
  0
LINE
  5
11F
330
1E
100
AcDbEntity
  8
0
100
AcDbLine
 10
12.5
 20
166.28
 30
0.0
 11
12.5
 21
167.0
 31
0.0
  0
LINE
  5
120
330
1E
100
AcDbEntity
  8
0
100
AcDbLine
 10
12.5
 20
166.28
 30
0.0
 11
12.5
 21
164.36
 31
0.0
  0
LINE
  5
121
330
1E
100
AcDbEntity
  8
0
100
AcDbLine
 10
12.5
 20
167.0
 30
0.0
 11
14.5
 21
167.0
 31
0.0
  0
LINE
  5
122
330
1E
100
AcDbEntity
  8
0
100
AcDbLine
 10
12.5
 20
167.0
 30
0.0
 11
12.5
 21
166.28
 31
0.0
  0
LINE
  5
123
330
1E
100
AcDbEntity
  8
0
100
AcDbLine
 10
0.0000000000000026
 20
100.0
 30
0.0
 11
0.0000000000000026
 21
96.0
 31
0.0
  0
LINE
  5
124
330
1E
100
AcDbEntity
  8
0
100
AcDbLine
 10
14.5
 20
96.0
 30
0.0
 11
14.5
 21
61.0
 31
0.0
  0
LINE
  5
125
330
1E
100
AcDbEntity
  8
0
100
AcDbLine
 10
14.5
 20
127.0
 30
0.0
 11
14.9072
 21
127.72
 31
0.0
  0
LINE
  5
126
330
1E
100
AcDbEntity
  8
0
100
AcDbLine
 10
14.5
 20
127.0
 30
0.0
 11
14.5
 21
100.0
 31
0.0
  0
LINE
  5
127
330
1E
100
AcDbEntity
  8
0
100
AcDbLine
 10
14.5
 20
169.0
 30
0.0
 11
14.5
 21
167.0
 31
0.0
  0
LINE
  5
128
330
1E
100
AcDbEntity
  8
0
100
AcDbLine
 10
14.5
 20
169.0
 30
0.0
 11
15.1421
 21
169.0
 31
0.0
  0
LINE
  5
129
330
1E
100
AcDbEntity
  8
0
100
AcDbLine
 10
14.5
 20
167.0
 30
0.0
 11
14.5
 21
169.0
 31
0.0
  0
LINE
  5
12A
330
1E
100
AcDbEntity
  8
0
100
AcDbLine
 10
14.5
 20
167.0
 30
0.0
 11
14.9072
 21
166.28
 31
0.0
  0
LINE
  5
12B
330
1E
100
AcDbEntity
  8
0
100
AcDbLine
 10
14.76799999999999
 20
96.0
 30
0.0
 11
17.54
 21
96.0
 31
0.0
  0
LINE
  5
12C
330
1E
100
AcDbEntity
  8
0
100
AcDbLine
 10
17.0462
 20
96.0
 30
0.0
 11
17.855
 21
96.0
 31
0.0
  0
LINE
  5
12D
330
1E
100
AcDbEntity
  8
0
100
AcDbLine
 10
25.3138
 20
96.0
 30
0.0
 11
26.6618
 21
96.0
 31
0.0
  0
LINE
  5
12E
330
1E
100
AcDbEntity
  8
0
100
AcDbLine
 10
28.7507
 20
96.0
 30
0.0
 11
29.7747
 21
96.0
 31
0.0
  0
LINE
  5
12F
330
1E
100
AcDbEntity
  8
0
100
AcDbLine
 10
29.7747
 20
96.0
 30
0.0
 11
30.7347
 21
96.0
 31
0.0
  0
LINE
  5
130
330
1E
100
AcDbEntity
  8
0
100
AcDbLine
 10
30.7347
 20
96.0
 30
0.0
 11
31.58269999999999
 21
96.0
 31
0.0
  0
LINE
  5
131
330
1E
100
AcDbEntity
  8
0
100
AcDbLine
 10
27.7267
 20
96.0
 30
0.0
 11
28.7507
 21
96.0
 31
0.0
  0
LINE
  5
132
330
1E
100
AcDbEntity
  8
0
100
AcDbLine
 10
26.7667
 20
96.0
 30
0.0
 11
27.7267
 21
96.0
 31
0.0
  0
LINE
  5
133
330
1E
100
AcDbEntity
  8
0
100
AcDbLine
 10
25.9187
 20
96.0
 30
0.0
 11
26.7667
 21
96.0
 31
0.0
  0
LINE
  5
134
330
1E
100
AcDbEntity
  8
0
100
AcDbLine
 10
25.2787
 20
96.0
 30
0.0
 11
25.9187
 21
96.0
 31
0.0
  0
LINE
  5
135
330
1E
100
AcDbEntity
  8
0
100
AcDbLine
 10
24.8947
 20
96.0
 30
0.0
 11
25.2787
 21
96.0
 31
0.0
  0
LINE
  5
136
330
1E
100
AcDbEntity
  8
0
100
AcDbLine
 10
24.7507
 20
96.0
 30
0.0
 11
24.8947
 21
96.0
 31
0.0
  0
LINE
  5
137
330
1E
100
AcDbEntity
  8
0
100
AcDbLine
 10
25.604
 20
96.0
 30
0.0
 11
31.148
 21
96.0
 31
0.0
  0
LINE
  5
138
330
1E
100
AcDbEntity
  8
0
100
AcDbLine
 10
20.81599999999999
 20
96.0
 30
0.0
 11
25.604
 21
96.0
 31
0.0
  0
LINE
  5
139
330
1E
100
AcDbEntity
  8
0
100
AcDbLine
 10
17.54
 20
96.0
 30
0.0
 11
20.81599999999999
 21
96.0
 31
0.0
  0
LINE
  5
13A
330
1E
100
AcDbEntity
  8
0
100
AcDbLine
 10
31.58269999999999
 20
96.0
 30
0.0
 11
32.2227
 21
96.0
 31
0.0
  0
LINE
  5
13B
330
1E
100
AcDbEntity
  8
0
100
AcDbLine
 10
40.3391
 20
96.0
 30
0.0
 11
49.3304
 21
96.0
 31
0.0
  0
LINE
  5
13C
330
1E
100
AcDbEntity
  8
0
100
AcDbLine
 10
37.6417
 20
96.0
 30
0.0
 11
48.07159999999999
 21
96.0
 31
0.0
  0
LINE
  5
13D
330
1E
100
AcDbEntity
  8
0
100
AcDbLine
 10
37.6417
 20
96.0
 30
0.0
 11
40.3391
 21
96.0
 31
0.0
  0
LINE
  5
13E
330
1E
100
AcDbEntity
  8
0
100
AcDbLine
 10
32.2227
 20
96.0
 30
0.0
 11
32.60669999999999
 21
96.0
 31
0.0
  0
LINE
  5
13F
330
1E
100
AcDbEntity
  8
0
100
AcDbLine
 10
32.60669999999999
 20
96.0
 30
0.0
 11
32.7507
 21
96.0
 31
0.0
  0
LINE
  5
140
330
1E
100
AcDbEntity
  8
0
100
AcDbLine
 10
31.148
 20
96.0
 30
0.0
 11
37.19599999999999
 21
96.0
 31
0.0
  0
LINE
  5
141
330
1E
100
AcDbEntity
  8
0
100
AcDbLine
 10
37.19599999999999
 20
96.0
 30
0.0
 11
44.25199999999999
 21
96.0
 31
0.0
  0
LINE
  5
142
330
1E
100
AcDbEntity
  8
0
100
AcDbLine
 10
50.626
 20
96.0
 30
0.0
 11
51.65
 21
96.0
 31
0.0
  0
LINE
  5
143
330
1E
100
AcDbEntity
  8
0
100
AcDbLine
 10
49.666
 20
96.0
 30
0.0
 11
50.626
 21
96.0
 31
0.0
  0
LINE
  5
144
330
1E
100
AcDbEntity
  8
0
100
AcDbLine
 10
48.81800000000001
 20
96.0
 30
0.0
 11
49.666
 21
96.0
 31
0.0
  0
LINE
  5
145
330
1E
100
AcDbEntity
  8
0
100
AcDbLine
 10
48.178
 20
96.0
 30
0.0
 11
48.81800000000001
 21
96.0
 31
0.0
  0
LINE
  5
146
330
1E
100
AcDbEntity
  8
0
100
AcDbLine
 10
47.79399999999999
 20
96.0
 30
0.0
 11
48.178
 21
96.0
 31
0.0
  0
LINE
  5
147
330
1E
100
AcDbEntity
  8
0
100
AcDbLine
 10
47.64999999999999
 20
96.0
 30
0.0
 11
47.79399999999999
 21
96.0
 31
0.0
  0
LINE
  5
148
330
1E
100
AcDbEntity
  8
0
100
AcDbLine
 10
48.07159999999999
 20
96.0
 30
0.0
 11
49.3304
 21
96.0
 31
0.0
  0
LINE
  5
149
330
1E
100
AcDbEntity
  8
0
100
AcDbLine
 10
52.0539
 20
96.0
 30
0.0
 11
54.02429999999999
 21
96.0
 31
0.0
  0
LINE
  5
14A
330
1E
100
AcDbEntity
  8
0
100
AcDbLine
 10
52.0539
 20
96.0
 30
0.0
 11
53.916
 21
96.0
 31
0.0
  0
LINE
  5
14B
330
1E
100
AcDbEntity
  8
0
100
AcDbLine
 10
54.02429999999999
 20
96.0
 30
0.0
 11
55.98399999999999
 21
96.0
 31
0.0
  0
LINE
  5
14C
330
1E
100
AcDbEntity
  8
0
100
AcDbLine
 10
53.916
 20
96.0
 30
0.0
 11
55.98399999999999
 21
96.0
 31
0.0
  0
LINE
  5
14D
330
1E
100
AcDbEntity
  8
0
100
AcDbLine
 10
52.674
 20
96.0
 30
0.0
 11
53.63399999999999
 21
96.0
 31
0.0
  0
LINE
  5
14E
330
1E
100
AcDbEntity
  8
0
100
AcDbLine
 10
53.63399999999999
 20
96.0
 30
0.0
 11
54.48199999999999
 21
96.0
 31
0.0
  0
LINE
  5
14F
330
1E
100
AcDbEntity
  8
0
100
AcDbLine
 10
54.48199999999999
 20
96.0
 30
0.0
 11
55.12199999999999
 21
96.0
 31
0.0
  0
LINE
  5
150
330
1E
100
AcDbEntity
  8
0
100
AcDbLine
 10
55.12199999999999
 20
96.0
 30
0.0
 11
55.506
 21
96.0
 31
0.0
  0
LINE
  5
151
330
1E
100
AcDbEntity
  8
0
100
AcDbLine
 10
55.506
 20
96.0
 30
0.0
 11
55.65
 21
96.0
 31
0.0
  0
LINE
  5
153
330
1E
100
AcDbEntity
  8
0
100
AcDbLine
 10
51.65
 20
96.0
 30
0.0
 11
52.674
 21
96.0
 31
0.0
  0
LINE
  5
155
330
1E
100
AcDbEntity
  8
0
100
AcDbLine
 10
50.0
 20
96.0
 30
0.0
 11
50.0
 21
100.0
 31
0.0
  0
LINE
  5
156
330
1E
100
AcDbEntity
  8
0
100
AcDbLine
 10
50.0
 20
96.0
 30
0.0
 11
50.8
 21
96.0
 31
0.0
  0
LINE
  5
158
330
1E
100
AcDbEntity
  8
0
100
AcDbLine
 10
44.25199999999999
 20
96.0
 30
0.0
 11
51.56
 21
96.0
 31
0.0
  0
LINE
  5
159
330
1E
100
AcDbEntity
  8
0
100
AcDbLine
 10
50.0
 20
100.0
 30
0.0
 11
50.0
 21
96.0
 31
0.0
  0
LINE
  5
15B
330
1E
100
AcDbEntity
  8
0
100
AcDbLine
 10
51.56
 20
96.0
 30
0.0
 11
59.372
 21
96.0
 31
0.0
  0
LINE
  5
15C
330
1E
100
AcDbEntity
  8
0
100
AcDbLine
 10
59.372
 20
96.0
 30
0.0
 11
67.18399999999999
 21
96.0
 31
0.0
  0
LINE
  5
15D
330
1E
100
AcDbEntity
  8
0
100
AcDbLine
 10
16.3896
 20
132.84
 30
0.0
 11
17.2401
 21
137.08
 31
0.0
  0
LINE
  5
15E
330
1E
100
AcDbEntity
  8
0
100
AcDbLine
 10
15.5876
 20
129.64
 30
0.0
 11
16.3896
 21
132.84
 31
0.0
  0
LINE
  5
15F
330
1E
100
AcDbEntity
  8
0
100
AcDbLine
 10
14.9072
 20
127.72
 30
0.0
 11
15.5876
 21
129.64
 31
0.0
  0
LINE
  5
160
330
1E
100
AcDbEntity
  8
0
100
AcDbLine
 10
61.3207
 20
132.84
 30
0.0
 11
65.57129999999999
 21
129.64
 31
0.0
  0
LINE
  5
161
330
1E
100
AcDbEntity
  8
0
100
AcDbLine
 10
65.57999999999999
 20
129.64
 30
0.0
 11
70.38
 21
127.72
 31
0.0
  0
LINE
  5
162
330
1E
100
AcDbEntity
  8
0
100
AcDbLine
 10
65.57129999999999
 20
129.64
 30
0.0
 11
70.3561
 21
127.72
 31
0.0
  0
LINE
  5
163
330
1E
100
AcDbEntity
  8
0
100
AcDbLine
 10
16.1587
 20
162.0
 30
0.0
 11
16.8307
 21
162.0
 31
0.0
  0
LINE
  5
164
330
1E
100
AcDbEntity
  8
0
100
AcDbLine
 10
15.9067
 20
162.0
 30
0.0
 11
16.1587
 21
162.0
 31
0.0
  0
LINE
  5
165
330
1E
100
AcDbEntity
  8
0
100
AcDbLine
 10
15.9067
 20
162.0
 30
0.0
 11
15.9067
 21
169.0
 31
0.0
  0
LINE
  5
166
330
1E
100
AcDbEntity
  8
0
100
AcDbLine
 10
16.8307
 20
162.0
 30
0.0
 11
17.9507
 21
162.0
 31
0.0
  0
LINE
  5
167
330
1E
100
AcDbEntity
  8
0
100
AcDbLine
 10
17.2401
 20
156.9199999999999
 30
0.0
 11
17.8963
 21
152.12
 31
0.0
  0
LINE
  5
168
330
1E
100
AcDbEntity
  8
0
100
AcDbLine
 10
16.3896
 20
161.1599999999999
 30
0.0
 11
17.2401
 21
156.9199999999999
 31
0.0
  0
LINE
  5
169
330
1E
100
AcDbEntity
  8
0
100
AcDbLine
 10
16.179075
 20
162.0
 30
0.0
 11
16.3896
 21
161.1599999999999
 31
0.0
  0
LINE
  5
16A
330
1E
100
AcDbEntity
  8
0
100
AcDbLine
 10
15.5876
 20
164.36
 30
0.0
 11
15.9067
 21
163.086783042394
 31
0.0
  0
LINE
  5
16B
330
1E
100
AcDbEntity
  8
0
100
AcDbLine
 10
15.5876
 20
164.36
 30
0.0
 11
15.9067
 21
163.086783042394
 31
0.0
  0
LINE
  5
16C
330
1E
100
AcDbEntity
  8
0
100
AcDbLine
 10
16.8307
 20
169.0
 30
0.0
 11
17.9507
 21
169.0
 31
0.0
  0
LINE
  5
16D
330
1E
100
AcDbEntity
  8
0
100
AcDbLine
 10
16.1587
 20
169.0
 30
0.0
 11
16.8307
 21
169.0
 31
0.0
  0
LINE
  5
16E
330
1E
100
AcDbEntity
  8
0
100
AcDbLine
 10
15.9067
 20
169.0
 30
0.0
 11
15.9067
 21
162.0
 31
0.0
  0
LINE
  5
16F
330
1E
100
AcDbEntity
  8
0
100
AcDbLine
 10
15.9067
 20
169.0
 30
0.0
 11
16.1587
 21
169.0
 31
0.0
  0
LINE
  5
170
330
1E
100
AcDbEntity
  8
0
100
AcDbLine
 10
15.1421
 20
169.0
 30
0.0
 11
15.9067
 21
169.0
 31
0.0
  0
LINE
  5
171
330
1E
100
AcDbEntity
  8
0
100
AcDbLine
 10
14.9072
 20
166.28
 30
0.0
 11
15.5876
 21
164.36
 31
0.0
  0
LINE
  5
172
330
1E
100
AcDbEntity
  8
0
100
AcDbLine
 10
17.9507
 20
162.0
 30
0.0
 11
19.43469999999999
 21
162.0
 31
0.0
  0
LINE
  5
173
330
1E
100
AcDbEntity
  8
0
100
AcDbLine
 10
19.72269999999999
 20
162.0
 30
0.0
 11
24.2234
 21
162.0
 31
0.0
  0
LINE
  5
174
330
1E
100
AcDbEntity
  8
0
100
AcDbLine
 10
19.72269999999999
 20
162.0
 30
0.0
 11
22.6048
 21
162.0
 31
0.0
  0
LINE
  5
175
330
1E
100
AcDbEntity
  8
0
100
AcDbLine
 10
19.43469999999999
 20
162.0
 30
0.0
 11
21.1147
 21
162.0
 31
0.0
  0
LINE
  5
176
330
1E
100
AcDbEntity
  8
0
100
AcDbLine
 10
22.6048
 20
162.0
 30
0.0
 11
26.6624
 21
162.0
 31
0.0
  0
LINE
  5
177
330
1E
100
AcDbEntity
  8
0
100
AcDbLine
 10
22.90669999999999
 20
162.0
 30
0.0
 11
24.6987
 21
162.0
 31
0.0
  0
LINE
  5
178
330
1E
100
AcDbEntity
  8
0
100
AcDbLine
 10
22.90669999999999
 20
162.0
 30
0.0
 11
24.1014
 21
162.0
 31
0.0
  0
LINE
  5
179
330
1E
100
AcDbEntity
  8
0
100
AcDbLine
 10
24.1014
 20
162.0
 30
0.0
 11
25.2214
 21
162.0
 31
0.0
  0
LINE
  5
17A
330
1E
100
AcDbEntity
  8
0
100
AcDbLine
 10
24.6987
 20
162.0
 30
0.0
 11
26.37869999999999
 21
162.0
 31
0.0
  0
LINE
  5
17B
330
1E
100
AcDbEntity
  8
0
100
AcDbLine
 10
25.2214
 20
162.0
 30
0.0
 11
26.2107
 21
162.0
 31
0.0
  0
LINE
  5
17C
330
1E
100
AcDbEntity
  8
0
100
AcDbLine
 10
26.37869999999999
 20
162.0
 30
0.0
 11
27.8627
 21
162.0
 31
0.0
  0
LINE
  5
17D
330
1E
100
AcDbEntity
  8
0
100
AcDbLine
 10
26.2107
 20
162.0
 30
0.0
 11
26.9574
 21
162.0
 31
0.0
  0
LINE
  5
17E
330
1E
100
AcDbEntity
  8
0
100
AcDbLine
 10
27.8627
 20
162.0
 30
0.0
 11
28.9827
 21
162.0
 31
0.0
  0
LINE
  5
17F
330
1E
100
AcDbEntity
  8
0
100
AcDbLine
 10
26.9574
 20
162.0
 30
0.0
 11
27.4054
 21
162.0
 31
0.0
  0
LINE
  5
180
330
1E
100
AcDbEntity
  8
0
100
AcDbLine
 10
27.4054
 20
162.0
 30
0.0
 11
27.5734
 21
162.0
 31
0.0
  0
LINE
  5
181
330
1E
100
AcDbEntity
  8
0
100
AcDbLine
 10
21.1147
 20
162.0
 30
0.0
 11
22.90669999999999
 21
162.0
 31
0.0
  0
LINE
  5
182
330
1E
100
AcDbEntity
  8
0
100
AcDbLine
 10
21.712
 20
162.0
 30
0.0
 11
22.90669999999999
 21
162.0
 31
0.0
  0
LINE
  5
183
330
1E
100
AcDbEntity
  8
0
100
AcDbLine
 10
20.592
 20
162.0
 30
0.0
 11
21.712
 21
162.0
 31
0.0
  0
LINE
  5
184
330
1E
100
AcDbEntity
  8
0
100
AcDbLine
 10
19.60269999999999
 20
162.0
 30
0.0
 11
20.592
 21
162.0
 31
0.0
  0
LINE
  5
185
330
1E
100
AcDbEntity
  8
0
100
AcDbLine
 10
18.85599999999999
 20
162.0
 30
0.0
 11
19.60269999999999
 21
162.0
 31
0.0
  0
LINE
  5
186
330
1E
100
AcDbEntity
  8
0
100
AcDbLine
 10
18.408
 20
162.0
 30
0.0
 11
18.85599999999999
 21
162.0
 31
0.0
  0
LINE
  5
187
330
1E
100
AcDbEntity
  8
0
100
AcDbLine
 10
18.23999999999999
 20
162.0
 30
0.0
 11
18.408
 21
162.0
 31
0.0
  0
LINE
  5
188
330
1E
100
AcDbEntity
  8
0
100
AcDbLine
 10
25.7764
 20
162.0
 30
0.0
 11
27.8977
 21
162.0
 31
0.0
  0
LINE
  5
189
330
1E
100
AcDbEntity
  8
0
100
AcDbLine
 10
25.7764
 20
162.0
 30
0.0
 11
32.34709999999999
 21
162.0
 31
0.0
  0
LINE
  5
18A
330
1E
100
AcDbEntity
  8
0
100
AcDbLine
 10
27.8977
 20
162.0
 30
0.0
 11
32.8017481481482
 21
162.0
 31
0.0
  0
LINE
  5
18B
330
1E
100
AcDbEntity
  8
0
100
AcDbLine
 10
22.90669999999999
 20
169.0
 30
0.0
 11
24.6987
 21
169.0
 31
0.0
  0
LINE
  5
18C
330
1E
100
AcDbEntity
  8
0
100
AcDbLine
 10
24.6987
 20
169.0
 30
0.0
 11
26.37869999999999
 21
169.0
 31
0.0
  0
LINE
  5
18D
330
1E
100
AcDbEntity
  8
0
100
AcDbLine
 10
26.37869999999999
 20
169.0
 30
0.0
 11
27.8627
 21
169.0
 31
0.0
  0
LINE
  5
18E
330
1E
100
AcDbEntity
  8
0
100
AcDbLine
 10
27.8627
 20
169.0
 30
0.0
 11
28.9827
 21
169.0
 31
0.0
  0
LINE
  5
18F
330
1E
100
AcDbEntity
  8
0
100
AcDbLine
 10
21.1147
 20
169.0
 30
0.0
 11
22.90669999999999
 21
169.0
 31
0.0
  0
LINE
  5
190
330
1E
100
AcDbEntity
  8
0
100
AcDbLine
 10
19.43469999999999
 20
169.0
 30
0.0
 11
21.1147
 21
169.0
 31
0.0
  0
LINE
  5
191
330
1E
100
AcDbEntity
  8
0
100
AcDbLine
 10
17.9507
 20
169.0
 30
0.0
 11
19.43469999999999
 21
169.0
 31
0.0
  0
LINE
  5
192
330
1E
100
AcDbEntity
  8
0
100
AcDbLine
 10
27.7207
 20
162.0
 30
0.0
 11
28.55349999999999
 21
162.0
 31
0.0
  0
LINE
  5
193
330
1E
100
AcDbEntity
  8
0
100
AcDbLine
 10
27.7207
 20
162.0
 30
0.0
 11
38.823287962963
 21
162.0
 31
0.0
  0
LINE
  5
194
330
1E
100
AcDbEntity
  8
0
100
AcDbLine
 10
28.9827
 20
162.0
 30
0.0
 11
29.65469999999999
 21
162.0
 31
0.0
  0
LINE
  5
195
330
1E
100
AcDbEntity
  8
0
100
AcDbLine
 10
29.65469999999999
 20
162.0
 30
0.0
 11
29.9067
 21
162.0
 31
0.0
  0
LINE
  5
196
330
1E
100
AcDbEntity
  8
0
100
AcDbLine
 10
28.55349999999999
 20
162.0
 30
0.0
 11
44.0067
 21
162.0
 31
0.0
  0
LINE
  5
197
330
1E
100
AcDbEntity
  8
0
100
AcDbLine
 10
28.9827
 20
169.0
 30
0.0
 11
44.9105
 21
169.0
 31
0.0
  0
LINE
  5
198
330
1E
100
AcDbEntity
  8
0
100
AcDbLine
 10
17.8963
 20
152.12
 30
0.0
 11
18.14999999999999
 21
147.0
 31
0.0
  0
LINE
  5
199
330
1E
100
AcDbEntity
  8
0
100
AcDbLine
 10
17.8963
 20
141.88
 30
0.0
 11
18.14999999999999
 21
147.0
 31
0.0
  0
LINE
  5
19A
330
1E
100
AcDbEntity
  8
0
100
AcDbLine
 10
17.2401
 20
137.08
 30
0.0
 11
17.8963
 21
141.88
 31
0.0
  0
LINE
  5
19B
330
1E
100
AcDbEntity
  8
0
100
AcDbLine
 10
44.9105
 20
169.0
 30
0.0
 11
45.12839999999999
 21
169.0
 31
0.0
  0
LINE
  5
19C
330
1E
100
AcDbEntity
  8
0
100
AcDbLine
 10
58.14
 20
137.08
 30
0.0
 11
61.34
 21
132.84
 31
0.0
  0
LINE
  5
19D
330
1E
100
AcDbEntity
  8
0
100
AcDbLine
 10
63.464
 20
134.9639999999999
 30
0.0
 11
67.068
 21
132.244
 31
0.0
  0
LINE
  5
19E
330
1E
100
AcDbEntity
  8
0
100
AcDbLine
 10
65.18340000000001
 20
136.6829999999999
 30
0.0
 11
68.27259999999999
 21
134.352
 31
0.0
  0
LINE
  5
19F
330
1E
100
AcDbEntity
  8
0
100
AcDbLine
 10
52.1916
 20
169.0
 30
0.0
 11
59.7684
 21
169.0
 31
0.0
  0
LINE
  5
1A0
330
1E
100
AcDbEntity
  8
0
100
AcDbLine
 10
56.1958
 20
152.12
 30
0.0
 11
58.1389
 21
156.9199999999999
 31
0.0
  0
LINE
  5
1A1
330
1E
100
AcDbEntity
  8
0
100
AcDbLine
 10
55.5
 20
147.0
 30
0.0
 11
56.1958
 21
141.88
 31
0.0
  0
LINE
  5
1A2
330
1E
100
AcDbEntity
  8
0
100
AcDbLine
 10
55.5
 20
147.0
 30
0.0
 11
56.1958
 21
152.12
 31
0.0
  0
LINE
  5
1A3
330
1E
100
AcDbEntity
  8
0
100
AcDbLine
 10
55.5
 20
147.0
 30
0.0
 11
56.21999999999999
 21
152.12
 31
0.0
  0
LINE
  5
1A4
330
1E
100
AcDbEntity
  8
0
100
AcDbLine
 10
55.5
 20
147.0
 30
0.0
 11
56.21999999999999
 21
141.88
 31
0.0
  0
LINE
  5
1A5
330
1E
100
AcDbEntity
  8
0
100
AcDbLine
 10
56.21999999999999
 20
141.88
 30
0.0
 11
58.14
 21
137.08
 31
0.0
  0
LINE
  5
1A6
330
1E
100
AcDbEntity
  8
0
100
AcDbLine
 10
56.21999999999999
 20
152.12
 30
0.0
 11
58.14
 21
156.9199999999999
 31
0.0
  0
LINE
  5
1A7
330
1E
100
AcDbEntity
  8
0
100
AcDbLine
 10
59.112
 20
142.6479999999999
 30
0.0
 11
60.744
 21
138.5679999999999
 31
0.0
  0
LINE
  5
1A8
330
1E
100
AcDbEntity
  8
0
100
AcDbLine
 10
60.744
 20
138.5679999999999
 30
0.0
 11
63.464
 21
134.9639999999999
 31
0.0
  0
LINE
  5
1A9
330
1E
100
AcDbEntity
  8
0
100
AcDbLine
 10
58.5
 20
147.0
 30
0.0
 11
59.112
 21
151.3519999999999
 31
0.0
  0
LINE
  5
1AA
330
1E
100
AcDbEntity
  8
0
100
AcDbLine
 10
58.5
 20
147.0
 30
0.0
 11
59.112
 21
142.6479999999999
 31
0.0
  0
LINE
  5
1AB
330
1E
100
AcDbEntity
  8
0
100
AcDbLine
 10
59.112
 20
151.3519999999999
 30
0.0
 11
60.744
 21
155.432
 31
0.0
  0
LINE
  5
1AC
330
1E
100
AcDbEntity
  8
0
100
AcDbLine
 10
60.744
 20
155.432
 30
0.0
 11
63.464
 21
159.0359999999999
 31
0.0
  0
LINE
  5
1AD
330
1E
100
AcDbEntity
  8
0
100
AcDbLine
 10
60.9286
 20
147.0
 30
0.0
 11
61.4531
 21
150.7299999999999
 31
0.0
  0
LINE
  5
1AE
330
1E
100
AcDbEntity
  8
0
100
AcDbLine
 10
60.9286
 20
147.0
 30
0.0
 11
61.4531
 21
143.27
 31
0.0
  0
LINE
  5
1AF
330
1E
100
AcDbEntity
  8
0
100
AcDbLine
 10
58.1389
 20
156.9199999999999
 30
0.0
 11
61.3207
 21
161.1599999999999
 31
0.0
  0
LINE
  5
1B0
330
1E
100
AcDbEntity
  8
0
100
AcDbLine
 10
58.14
 20
156.9199999999999
 30
0.0
 11
61.34
 21
161.1599999999999
 31
0.0
  0
LINE
  5
1B1
330
1E
100
AcDbEntity
  8
0
100
AcDbLine
 10
61.4531
 20
143.27
 30
0.0
 11
62.85199999999999
 21
139.7729999999999
 31
0.0
  0
LINE
  5
1B2
330
1E
100
AcDbEntity
  8
0
100
AcDbLine
 10
61.4531
 20
150.7299999999999
 30
0.0
 11
62.85199999999999
 21
154.227
 31
0.0
  0
LINE
  5
1B3
330
1E
100
AcDbEntity
  8
0
100
AcDbLine
 10
63.464
 20
159.0359999999999
 30
0.0
 11
67.068
 21
161.756
 31
0.0
  0
LINE
  5
1B4
330
1E
100
AcDbEntity
  8
0
100
AcDbLine
 10
62.85199999999999
 20
154.227
 30
0.0
 11
65.18340000000001
 21
157.317
 31
0.0
  0
LINE
  5
1B5
330
1E
100
AcDbEntity
  8
0
100
AcDbLine
 10
65.18340000000001
 20
157.317
 30
0.0
 11
68.27259999999999
 21
159.6479999999999
 31
0.0
  0
LINE
  5
1B6
330
1E
100
AcDbEntity
  8
0
100
AcDbLine
 10
62.85199999999999
 20
139.7729999999999
 30
0.0
 11
65.18340000000001
 21
136.6829999999999
 31
0.0
  0
LINE
  5
1B7
330
1E
100
AcDbEntity
  8
0
100
AcDbLine
 10
61.3207
 20
161.1599999999999
 30
0.0
 11
65.57129999999999
 21
164.36
 31
0.0
  0
LINE
  5
1B8
330
1E
100
AcDbEntity
  8
0
100
AcDbLine
 10
61.34
 20
161.1599999999999
 30
0.0
 11
65.57999999999999
 21
164.36
 31
0.0
  0
LINE
  5
1B9
330
1E
100
AcDbEntity
  8
0
100
AcDbLine
 10
65.57129999999999
 20
164.36
 30
0.0
 11
70.3561
 21
166.28
 31
0.0
  0
LINE
  5
1BA
330
1E
100
AcDbEntity
  8
0
100
AcDbLine
 10
59.7684
 20
169.0
 30
0.0
 11
67.53789999999999
 21
169.0
 31
0.0
  0
LINE
  5
1BB
330
1E
100
AcDbEntity
  8
0
100
AcDbLine
 10
65.57999999999999
 20
164.36
 30
0.0
 11
70.38
 21
166.28
 31
0.0
  0
LINE
  5
1BC
330
1E
100
AcDbEntity
  8
0
100
AcDbLine
 10
56.1958
 20
141.88
 30
0.0
 11
58.1389
 21
137.08
 31
0.0
  0
LINE
  5
1BD
330
1E
100
AcDbEntity
  8
0
100
AcDbLine
 10
58.1389
 20
137.08
 30
0.0
 11
61.3207
 21
132.84
 31
0.0
  0
LINE
  5
1BE
330
1E
100
AcDbEntity
  8
0
100
AcDbLine
 10
45.12839999999999
 20
169.0
 30
0.0
 11
52.1916
 21
169.0
 31
0.0
  0
LINE
  5
1BF
330
1E
100
AcDbEntity
  8
0
100
AcDbLine
 10
61.34
 20
132.84
 30
0.0
 11
65.57999999999999
 21
129.64
 31
0.0
  0
LINE
  5
1C0
330
1E
100
AcDbEntity
  8
0
100
AcDbLine
 10
14.5
 20
100.0
 30
0.0
 11
14.5
 21
127.0
 31
0.0
  0
LINE
  5
1C1
330
1E
100
AcDbEntity
  8
0
100
AcDbLine
 10
56.1765
 20
61.0
 30
0.0
 11
65.7059
 21
61.0
 31
0.0
  0
LINE
  5
1C2
330
1E
100
AcDbEntity
  8
0
100
AcDbLine
 10
66.201
 20
0.3725999999999989
 30
0.0
 11
67.529
 21
0.264399999999997
 31
0.0
  0
LINE
  5
1C7
330
1E
100
AcDbEntity
  8
0
100
AcDbLine
 10
67.529
 20
0.264399999999997
 30
0.0
 11
68.956
 21
0.173299999999997
 31
0.0
  0
LINE
  5
1C9
330
1E
100
AcDbEntity
  8
0
100
AcDbLine
 10
70.461
 20
0.100099999999996
 30
0.0
 11
72.027
 21
0.047099999999996
 31
0.0
  0
LINE
  5
1CA
330
1E
100
AcDbEntity
  8
0
100
AcDbLine
 10
68.956
 20
0.173299999999997
 30
0.0
 11
70.461
 21
0.100099999999996
 31
0.0
  0
LINE
  5
1CF
330
1E
100
AcDbEntity
  8
0
100
AcDbLine
 10
73.63600000000001
 20
0.0129999999999968
 30
0.0
 11
75.5
 21
-0.0000000000000023
 31
0.0
  0
LINE
  5
1E0
330
1E
100
AcDbEntity
  8
0
100
AcDbLine
 10
72.027
 20
0.047099999999996
 30
0.0
 11
73.63600000000001
 21
0.0129999999999968
 31
0.0
  0
LINE
  5
2AE
330
1E
100
AcDbEntity
  8
0
100
AcDbLine
 10
67.068
 20
132.244
 30
0.0
 11
71.14799999999999
 21
130.6119999999999
 31
0.0
  0
LINE
  5
2AF
330
1E
100
AcDbEntity
  8
0
100
AcDbLine
 10
67.068
 20
161.756
 30
0.0
 11
71.14799999999999
 21
163.3879999999999
 31
0.0
  0
LINE
  5
2B0
330
1E
100
AcDbEntity
  8
0
100
AcDbLine
 10
68.27259999999999
 20
134.352
 30
0.0
 11
71.7697
 21
132.953
 31
0.0
  0
LINE
  5
2B1
330
1E
100
AcDbEntity
  8
0
100
AcDbLine
 10
68.27259999999999
 20
159.6479999999999
 30
0.0
 11
71.7697
 21
161.047
 31
0.0
  0
LINE
  5
2B2
330
1E
100
AcDbEntity
  8
0
100
AcDbLine
 10
67.18399999999999
 20
96.0
 30
0.0
 11
75.5
 21
96.0
 31
0.0
  0
LINE
  5
2B3
330
1E
100
AcDbEntity
  8
0
100
AcDbLine
 10
67.53789999999999
 20
169.0
 30
0.0
 11
75.5
 21
169.0
 31
0.0
  0
LINE
  5
2B4
330
1E
100
AcDbEntity
  8
0
100
AcDbLine
 10
70.3561
 20
166.28
 30
0.0
 11
75.5
 21
167.0
 31
0.0
  0
LINE
  5
2B5
330
1E
100
AcDbEntity
  8
0
100
AcDbLine
 10
73.6114
 20
96.0
 30
0.0
 11
74.57139999999999
 21
96.0
 31
0.0
  0
LINE
  5
2B6
330
1E
100
AcDbEntity
  8
0
100
AcDbLine
 10
72.76340000000001
 20
96.0
 30
0.0
 11
73.6114
 21
96.0
 31
0.0
  0
LINE
  5
2B7
330
1E
100
AcDbEntity
  8
0
100
AcDbLine
 10
72.12340000000001
 20
96.0
 30
0.0
 11
72.76340000000001
 21
96.0
 31
0.0
  0
LINE
  5
2B8
330
1E
100
AcDbEntity
  8
0
100
AcDbLine
 10
71.7394
 20
96.0
 30
0.0
 11
72.12340000000001
 21
96.0
 31
0.0
  0
LINE
  5
2B9
330
1E
100
AcDbEntity
  8
0
100
AcDbLine
 10
71.59539999999999
 20
96.0
 30
0.0
 11
71.7394
 21
96.0
 31
0.0
  0
LINE
  5
2BA
330
1E
100
AcDbEntity
  8
0
100
AcDbLine
 10
74.57139999999999
 20
96.0
 30
0.0
 11
75.5954
 21
96.0
 31
0.0
  0
LINE
  5
2BC
330
1E
100
AcDbEntity
  8
0
100
AcDbLine
 10
71.14799999999999
 20
130.6119999999999
 30
0.0
 11
75.5
 21
130.0
 31
0.0
  0
LINE
  5
2BD
330
1E
100
AcDbEntity
  8
0
100
AcDbLine
 10
70.38
 20
127.72
 30
0.0
 11
75.5
 21
127.0
 31
0.0
  0
LINE
  5
2C0
330
1E
100
AcDbEntity
  8
0
100
AcDbLine
 10
71.7697
 20
132.953
 30
0.0
 11
75.5
 21
132.4289999999999
 31
0.0
  0
LINE
  5
2C1
330
1E
100
AcDbEntity
  8
0
100
AcDbLine
 10
71.14799999999999
 20
163.3879999999999
 30
0.0
 11
75.5
 21
164.0
 31
0.0
  0
LINE
  5
2C3
330
1E
100
AcDbEntity
  8
0
100
AcDbLine
 10
71.7697
 20
161.047
 30
0.0
 11
75.5
 21
161.5709999999999
 31
0.0
  0
LINE
  5
3B6
330
1E
100
AcDbEntity
  8
0
100
AcDbLine
 10
70.38
 20
166.28
 30
0.0
 11
75.5
 21
167.0
 31
0.0
  0
LINE
  5
3B7
330
1E
100
AcDbEntity
  8
0
100
AcDbLine
 10
70.3561
 20
127.72
 30
0.0
 11
75.5
 21
127.0
 31
0.0
  0
LINE
  5
3B9
330
1E
100
AcDbEntity
  8
0
100
AcDbLine
 10
65.7059
 20
61.0
 30
0.0
 11
75.5
 21
61.0
 31
0.0
  0
LINE
  5
3BE
330
1E
100
AcDbEntity
  8
0
100
AcDbLine
 10
76.4286
 20
96.0
 30
0.0
 11
75.4046
 21
96.0
 31
0.0
  0
LINE
  5
3BF
330
1E
100
AcDbEntity
  8
0
100
AcDbLine
 10
136.4999999999999
 20
96.0
 30
0.0
 11
136.4999999999999
 21
61.0
 31
0.0
  0
LINE
  5
3C0
330
1E
100
AcDbEntity
  8
0
100
AcDbLine
 10
136.4999999999999
 20
61.0
 30
0.0
 11
136.4999999999999
 21
96.0
 31
0.0
  0
LINE
  5
3C1
330
1E
100
AcDbEntity
  8
0
100
AcDbLine
 10
128.4412
 20
61.0
 30
0.0
 11
121.1176
 21
61.0
 31
0.0
  0
LINE
  5
3C2
330
1E
100
AcDbEntity
  8
0
100
AcDbLine
 10
126.5881999999999
 20
48.0
 30
0.0
 11
119.4412
 21
48.0
 31
0.0
  0
LINE
  5
3C3
330
1E
100
AcDbEntity
  8
0
100
AcDbLine
 10
147.76471
 20
61.0
 30
0.0
 11
144.6764699999999
 21
61.0
 31
0.0
  0
LINE
  5
3C4
330
1E
100
AcDbEntity
  8
0
100
AcDbLine
 10
147.14706
 20
48.0
 30
0.0
 11
145.20588
 21
48.0
 31
0.0
  0
LINE
  5
3C5
330
1E
100
AcDbEntity
  8
0
100
AcDbLine
 10
150.5
 20
61.0
 30
0.0
 11
150.5
 21
51.0
 31
0.0
  0
LINE
  5
3C6
330
1E
100
AcDbEntity
  8
0
100
AcDbLine
 10
150.5
 20
51.0
 30
0.0
 11
150.5
 21
61.0
 31
0.0
  0
LINE
  5
3C7
330
1E
100
AcDbEntity
  8
0
100
AcDbLine
 10
150.0588239999999
 20
49.6
 30
0.0
 11
149.08824
 21
48.5
 31
0.0
  0
LINE
  5
3C8
330
1E
100
AcDbEntity
  8
0
100
AcDbLine
 10
150.5
 20
51.0
 30
0.0
 11
150.0588239999999
 21
49.6
 31
0.0
  0
LINE
  5
3C9
330
1E
100
AcDbEntity
  8
0
100
AcDbLine
 10
149.08824
 20
48.5
 30
0.0
 11
147.85294
 21
48.0
 31
0.0
  0
LINE
  5
3CA
330
1E
100
AcDbEntity
  8
0
100
AcDbLine
 10
147.85294
 20
48.0
 30
0.0
 11
147.14706
 21
48.0
 31
0.0
  0
LINE
  5
3CB
330
1E
100
AcDbEntity
  8
0
100
AcDbLine
 10
149.705882
 20
61.0
 30
0.0
 11
147.76471
 21
61.0
 31
0.0
  0
LINE
  5
3CC
330
1E
100
AcDbEntity
  8
0
100
AcDbLine
 10
150.5
 20
61.0
 30
0.0
 11
149.705882
 21
61.0
 31
0.0
  0
LINE
  5
3CD
330
1E
100
AcDbEntity
  8
0
100
AcDbLine
 10
138.1470999999999
 20
48.0
 30
0.0
 11
132.8529
 21
48.0
 31
0.0
  0
LINE
  5
3CE
330
1E
100
AcDbEntity
  8
0
100
AcDbLine
 10
142.20588
 20
48.0
 30
0.0
 11
138.1470999999999
 21
48.0
 31
0.0
  0
LINE
  5
3CF
330
1E
100
AcDbEntity
  8
0
100
AcDbLine
 10
145.20588
 20
48.0
 30
0.0
 11
142.20588
 21
48.0
 31
0.0
  0
LINE
  5
3D0
330
1E
100
AcDbEntity
  8
0
100
AcDbLine
 10
132.8529
 20
48.0
 30
0.0
 11
126.5881999999999
 21
48.0
 31
0.0
  0
LINE
  5
3D1
330
1E
100
AcDbEntity
  8
0
100
AcDbLine
 10
134.8824
 20
61.0
 30
0.0
 11
128.4412
 21
61.0
 31
0.0
  0
LINE
  5
3D2
330
1E
100
AcDbEntity
  8
0
100
AcDbLine
 10
140.4412
 20
61.0
 30
0.0
 11
134.8824
 21
61.0
 31
0.0
  0
LINE
  5
3D3
330
1E
100
AcDbEntity
  8
0
100
AcDbLine
 10
144.6764699999999
 20
61.0
 30
0.0
 11
140.4412
 21
61.0
 31
0.0
  0
LINE
  5
3D7
330
1E
100
AcDbEntity
  8
0
100
AcDbLine
 10
97.5
 20
41.4672
 30
0.0
 11
97.5
 21
9.119500000000009
 31
0.0
  0
LINE
  5
3D8
330
1E
100
AcDbEntity
  8
0
100
AcDbLine
 10
97.5
 20
9.119500000000009
 30
0.0
 11
97.5
 21
41.4672
 31
0.0
  0
LINE
  5
3D9
330
1E
100
AcDbEntity
  8
0
100
AcDbLine
 10
92.99899999999999
 20
6.684899999999999
 30
0.0
 11
91.96299999999999
 21
4.4145
 31
0.0
  0
LINE
  5
3DA
330
1E
100
AcDbEntity
  8
0
100
AcDbLine
 10
87.34999999999999
 20
0.672999999999996
 30
0.0
 11
86.12999999999999
 21
0.5107999999999981
 31
0.0
  0
LINE
  5
3DB
330
1E
100
AcDbEntity
  8
0
100
AcDbLine
 10
90.363
 20
1.4852
 30
0.0
 11
90.081
 21
1.333
 31
0.0
  0
LINE
  5
3DC
330
1E
100
AcDbEntity
  8
0
100
AcDbLine
 10
90.922
 20
2.134199999999999
 30
0.0
 11
90.73399999999999
 21
1.8367
 31
0.0
  0
LINE
  5
3DD
330
1E
100
AcDbEntity
  8
0
100
AcDbLine
 10
90.73399999999999
 20
1.8367
 30
0.0
 11
90.53399999999999
 21
1.627399999999999
 31
0.0
  0
LINE
  5
3DE
330
1E
100
AcDbEntity
  8
0
100
AcDbLine
 10
90.53399999999999
 20
1.627399999999999
 30
0.0
 11
90.363
 21
1.4852
 31
0.0
  0
LINE
  5
3DF
330
1E
100
AcDbEntity
  8
0
100
AcDbLine
 10
91.96299999999999
 20
4.4145
 30
0.0
 11
90.92699999999998
 21
2.145199999999999
 31
0.0
  0
LINE
  5
3E0
330
1E
100
AcDbEntity
  8
0
100
AcDbLine
 10
90.95499999999999
 20
2.2063
 30
0.0
 11
90.922
 21
2.134199999999999
 31
0.0
  0
LINE
  5
3E1
330
1E
100
AcDbEntity
  8
0
100
AcDbLine
 10
90.95499999999999
 20
2.2063
 30
0.0
 11
90.92699999999998
 21
2.145199999999999
 31
0.0
  0
LINE
  5
3E2
330
1E
100
AcDbEntity
  8
0
100
AcDbLine
 10
89.11699999999999
 20
1.0215
 30
0.0
 11
88.338
 21
0.843199999999997
 31
0.0
  0
LINE
  5
3E3
330
1E
100
AcDbEntity
  8
0
100
AcDbLine
 10
90.081
 20
1.333
 30
0.0
 11
89.68899999999999
 21
1.1847
 31
0.0
  0
LINE
  5
3E4
330
1E
100
AcDbEntity
  8
0
100
AcDbLine
 10
89.68899999999999
 20
1.1847
 30
0.0
 11
89.37699999999999
 21
1.093599999999999
 31
0.0
  0
LINE
  5
3E5
330
1E
100
AcDbEntity
  8
0
100
AcDbLine
 10
89.37699999999999
 20
1.093599999999999
 30
0.0
 11
89.11699999999999
 21
1.0215
 31
0.0
  0
LINE
  5
3E6
330
1E
100
AcDbEntity
  8
0
100
AcDbLine
 10
88.338
 20
0.843199999999997
 30
0.0
 11
87.34999999999999
 21
0.672999999999996
 31
0.0
  0
LINE
  5
3E7
330
1E
100
AcDbEntity
  8
0
100
AcDbLine
 10
82.04399999999999
 20
0.173299999999997
 30
0.0
 11
80.539
 21
0.100099999999996
 31
0.0
  0
LINE
  5
3E8
330
1E
100
AcDbEntity
  8
0
100
AcDbLine
 10
84.79899999999998
 20
0.3725999999999989
 30
0.0
 11
83.47100000000001
 21
0.264399999999997
 31
0.0
  0
LINE
  5
3E9
330
1E
100
AcDbEntity
  8
0
100
AcDbLine
 10
86.01499999999999
 20
0.4976999999999971
 30
0.0
 11
84.79899999999998
 21
0.3725999999999989
 31
0.0
  0
LINE
  5
3EA
330
1E
100
AcDbEntity
  8
0
100
AcDbLine
 10
86.12999999999999
 20
0.5107999999999981
 30
0.0
 11
86.01499999999999
 21
0.4976999999999971
 31
0.0
  0
LINE
  5
3EB
330
1E
100
AcDbEntity
  8
0
100
AcDbLine
 10
83.47100000000001
 20
0.264399999999997
 30
0.0
 11
82.04399999999999
 21
0.173299999999997
 31
0.0
  0
LINE
  5
3EC
330
1E
100
AcDbEntity
  8
0
100
AcDbLine
 10
78.973
 20
0.047099999999996
 30
0.0
 11
77.36399999999999
 21
0.0129999999999968
 31
0.0
  0
LINE
  5
3ED
330
1E
100
AcDbEntity
  8
0
100
AcDbLine
 10
80.539
 20
0.100099999999996
 30
0.0
 11
78.973
 21
0.047099999999996
 31
0.0
  0
LINE
  5
3EE
330
1E
100
AcDbEntity
  8
0
100
AcDbLine
 10
77.36399999999999
 20
0.0129999999999968
 30
0.0
 11
75.5
 21
-0.0000000000000023
 31
0.0
  0
LINE
  5
3F4
330
1E
100
AcDbEntity
  8
0
100
AcDbLine
 10
93.466
 20
7.1135
 30
0.0
 11
93.12066939198919
 21
6.91440490899289
 31
0.0
  0
LINE
  5
3F5
330
1E
100
AcDbEntity
  8
0
100
AcDbLine
 10
96.33
 20
7.924699999999999
 30
0.0
 11
95.563
 21
7.6753
 31
0.0
  0
LINE
  5
3F6
330
1E
100
AcDbEntity
  8
0
100
AcDbLine
 10
97.38100000000001
 20
8.676800000000008
 30
0.0
 11
97.25100000000001
 21
8.5226
 31
0.0
  0
LINE
  5
3F7
330
1E
100
AcDbEntity
  8
0
100
AcDbLine
 10
96.80100000000001
 20
8.142000000000001
 30
0.0
 11
96.33
 21
7.924699999999999
 31
0.0
  0
LINE
  5
3F8
330
1E
100
AcDbEntity
  8
0
100
AcDbLine
 10
97.25100000000001
 20
8.5226
 30
0.0
 11
97.05
 21
8.316300000000008
 31
0.0
  0
LINE
  5
3F9
330
1E
100
AcDbEntity
  8
0
100
AcDbLine
 10
97.05
 20
8.316300000000008
 30
0.0
 11
96.80100000000001
 21
8.142000000000001
 31
0.0
  0
LINE
  5
3FA
330
1E
100
AcDbEntity
  8
0
100
AcDbLine
 10
97.5
 20
9.119500000000009
 30
0.0
 11
97.481
 21
8.9672
 31
0.0
  0
LINE
  5
3FB
330
1E
100
AcDbEntity
  8
0
100
AcDbLine
 10
97.481
 20
8.9672
 30
0.0
 11
97.38100000000001
 21
8.676800000000008
 31
0.0
  0
LINE
  5
3FC
330
1E
100
AcDbEntity
  8
0
100
AcDbLine
 10
95.303
 20
7.604199999999999
 30
0.0
 11
94.542
 21
7.410899999999999
 31
0.0
  0
LINE
  5
3FD
330
1E
100
AcDbEntity
  8
0
100
AcDbLine
 10
95.563
 20
7.6753
 30
0.0
 11
95.303
 21
7.604199999999999
 31
0.0
  0
LINE
  5
3FE
330
1E
100
AcDbEntity
  8
0
100
AcDbLine
 10
93.98099999999999
 20
7.275699999999999
 30
0.0
 11
93.466
 21
7.1135
 31
0.0
  0
LINE
  5
3FF
330
1E
100
AcDbEntity
  8
0
100
AcDbLine
 10
94.542
 20
7.410899999999999
 30
0.0
 11
93.98099999999999
 21
7.275699999999999
 31
0.0
  0
LINE
  5
400
330
1E
100
AcDbEntity
  8
0
100
AcDbLine
 10
93.12066939198919
 20
6.91440490899289
 30
0.0
 11
93.002
 21
6.689899999999999
 31
0.0
  0
LINE
  5
40F
330
1E
100
AcDbEntity
  8
0
100
AcDbLine
 10
104.1765
 20
61.0
 30
0.0
 11
94.8235
 21
61.0
 31
0.0
  0
LINE
  5
410
330
1E
100
AcDbEntity
  8
0
100
AcDbLine
 10
103.1176
 20
48.0
 30
0.0
 11
97.0
 21
48.0
 31
0.0
  0
LINE
  5
411
330
1E
100
AcDbEntity
  8
0
100
AcDbLine
 10
111.4999999999999
 20
48.0
 30
0.0
 11
103.1176
 21
48.0
 31
0.0
  0
LINE
  5
412
330
1E
100
AcDbEntity
  8
0
100
AcDbLine
 10
119.4412
 20
48.0
 30
0.0
 11
111.4999999999999
 21
48.0
 31
0.0
  0
LINE
  5
413
330
1E
100
AcDbEntity
  8
0
100
AcDbLine
 10
112.8234999999999
 20
61.0
 30
0.0
 11
104.1765
 21
61.0
 31
0.0
  0
LINE
  5
414
330
1E
100
AcDbEntity
  8
0
100
AcDbLine
 10
121.1176
 20
61.0
 30
0.0
 11
112.8234999999999
 21
61.0
 31
0.0
  0
LINE
  5
419
330
1E
100
AcDbEntity
  8
0
100
AcDbLine
 10
97.0
 20
48.0
 30
0.0
 11
97.0
 21
42.8
 31
0.0
  0
LINE
  5
41A
330
1E
100
AcDbEntity
  8
0
100
AcDbLine
 10
97.0
 20
42.8
 30
0.0
 11
97.0
 21
48.0
 31
0.0
  0
LINE
  5
41B
330
1E
100
AcDbEntity
  8
0
100
AcDbLine
 10
94.12899999999998
 20
38.42069999999999
 30
0.0
 11
92.73900000000001
 21
37.6115
 31
0.0
  0
LINE
  5
41C
330
1E
100
AcDbEntity
  8
0
100
AcDbLine
 10
96.75499999999999
 20
41.0917
 30
0.0
 11
96.03999999999999
 21
40.1843
 31
0.0
  0
LINE
  5
41D
330
1E
100
AcDbEntity
  8
0
100
AcDbLine
 10
96.75499999999999
 20
41.0917
 30
0.0
 11
96.89613866452839
 21
41.9559382426512
 31
0.0
  0
LINE
  5
41E
330
1E
100
AcDbEntity
  8
0
100
AcDbLine
 10
97.5
 20
41.4993
 30
0.0
 11
97.43299999999999
 21
41.7496
 31
0.0
  0
LINE
  5
41F
330
1E
100
AcDbEntity
  8
0
100
AcDbLine
 10
96.958
 20
42.0
 30
0.0
 11
96.9015604395604
 21
42.0
 31
0.0
  0
LINE
  5
420
330
1E
100
AcDbEntity
  8
0
100
AcDbLine
 10
97.0
 20
42.8
 30
0.0
 11
96.89613866452839
 21
41.9559382426512
 31
0.0
  0
LINE
  5
421
330
1E
100
AcDbEntity
  8
0
100
AcDbLine
 10
97.25000000000001
 20
41.9329
 30
0.0
 11
97.0
 21
42.0
 31
0.0
  0
LINE
  5
422
330
1E
100
AcDbEntity
  8
0
100
AcDbLine
 10
97.43299999999999
 20
41.7496
 30
0.0
 11
97.25000000000001
 21
41.9329
 31
0.0
  0
LINE
  5
423
330
1E
100
AcDbEntity
  8
0
100
AcDbLine
 10
95.233
 20
39.283
 30
0.0
 11
94.12899999999998
 21
38.42069999999999
 31
0.0
  0
LINE
  5
424
330
1E
100
AcDbEntity
  8
0
100
AcDbLine
 10
96.03999999999999
 20
40.1843
 30
0.0
 11
95.5909461458158
 21
39.68277306223519
 31
0.0
  0
LINE
  5
425
330
1E
100
AcDbEntity
  8
0
100
AcDbLine
 10
95.5909461458158
 20
39.68277306223519
 30
0.0
 11
95.233
 21
39.283
 31
0.0
  0
LINE
  5
427
330
1E
100
AcDbEntity
  8
0
100
AcDbLine
 10
91.07899999999998
 20
36.8674
 30
0.0
 11
89.35599999999999
 21
36.2575
 31
0.0
  0
LINE
  5
428
330
1E
100
AcDbEntity
  8
0
100
AcDbLine
 10
92.73900000000001
 20
37.6115
 30
0.0
 11
91.07899999999998
 21
36.8674
 31
0.0
  0
LINE
  5
42A
330
1E
100
AcDbEntity
  8
0
100
AcDbLine
 10
89.35599999999999
 20
36.2575
 30
0.0
 11
89.1
 21
36.18558958660389
 31
0.0
  0
LINE
  5
42D
330
1E
100
AcDbEntity
  8
0
100
AcDbLine
 10
94.1333
 20
48.0
 30
0.0
 11
90.63959999999999
 21
48.0
 31
0.0
  0
LINE
  5
42E
330
1E
100
AcDbEntity
  8
0
100
AcDbLine
 10
96.19370000000001
 20
48.0
 30
0.0
 11
94.1333
 21
48.0
 31
0.0
  0
LINE
  5
42F
330
1E
100
AcDbEntity
  8
0
100
AcDbLine
 10
97.0
 20
48.0
 30
0.0
 11
96.19370000000001
 21
48.0
 31
0.0
  0
LINE
  5
430
330
1E
100
AcDbEntity
  8
0
100
AcDbLine
 10
90.63959999999999
 20
48.0
 30
0.0
 11
90.5
 21
48.0
 31
0.0
  0
LINE
  5
438
330
1E
100
AcDbEntity
  8
0
100
AcDbLine
 10
94.8235
 20
61.0
 30
0.0
 11
85.2941
 21
61.0
 31
0.0
  0
LINE
  5
439
330
1E
100
AcDbEntity
  8
0
100
AcDbLine
 10
85.2941
 20
61.0
 30
0.0
 11
75.5
 21
61.0
 31
0.0
  0
LINE
  5
43A
330
1E
100
AcDbEntity
  8
0
100
AcDbLine
 10
123.2793
 20
162.0
 30
0.0
 11
112.1767120370369
 21
162.0
 31
0.0
  0
LINE
  5
43B
330
1E
100
AcDbEntity
  8
0
100
AcDbLine
 10
123.2793
 20
162.0
 30
0.0
 11
122.4465
 21
162.0
 31
0.0
  0
LINE
  5
43C
330
1E
100
AcDbEntity
  8
0
100
AcDbLine
 10
123.1373
 20
169.0
 30
0.0
 11
122.0173
 21
169.0
 31
0.0
  0
LINE
  5
43D
330
1E
100
AcDbEntity
  8
0
100
AcDbLine
 10
123.1022999999999
 20
162.0
 30
0.0
 11
118.1982518518518
 21
162.0
 31
0.0
  0
LINE
  5
43E
330
1E
100
AcDbEntity
  8
0
100
AcDbLine
 10
125.2236
 20
162.0
 30
0.0
 11
118.6528999999999
 21
162.0
 31
0.0
  0
LINE
  5
43F
330
1E
100
AcDbEntity
  8
0
100
AcDbLine
 10
123.1373
 20
162.0
 30
0.0
 11
122.0173
 21
162.0
 31
0.0
  0
LINE
  5
440
330
1E
100
AcDbEntity
  8
0
100
AcDbLine
 10
125.3959999999999
 20
96.0
 30
0.0
 11
119.852
 21
96.0
 31
0.0
  0
LINE
  5
441
330
1E
100
AcDbEntity
  8
0
100
AcDbLine
 10
123.2733
 20
96.0
 30
0.0
 11
122.2493
 21
96.0
 31
0.0
  0
LINE
  5
442
330
1E
100
AcDbEntity
  8
0
100
AcDbLine
 10
151.0
 20
100.0
 30
0.0
 11
101.0
 21
100.0
 31
0.0
  0
LINE
  5
443
330
1E
100
AcDbEntity
  8
0
100
AcDbLine
 10
151.0
 20
96.0
 30
0.0
 11
101.0
 21
96.0
 31
0.0
  0
LINE
  5
444
330
1E
100
AcDbEntity
  8
0
100
AcDbLine
 10
151.0
 20
96.0
 30
0.0
 11
101.0
 21
96.0
 31
0.0
  0
LINE
  5
445
330
1E
100
AcDbEntity
  8
0
100
AcDbLine
 10
149.0
 20
96.0
 30
0.0
 11
100.2
 21
96.0
 31
0.0
  0
LINE
  5
446
330
1E
100
AcDbEntity
  8
0
100
AcDbLine
 10
133.7598999999999
 20
137.08
 30
0.0
 11
133.1037
 21
141.88
 31
0.0
  0
LINE
  5
447
330
1E
100
AcDbEntity
  8
0
100
AcDbLine
 10
138.5
 20
137.08
 30
0.0
 11
138.5
 21
141.88
 31
0.0
  0
LINE
  5
448
330
1E
100
AcDbEntity
  8
0
100
AcDbLine
 10
138.5
 20
134.9639999999999
 30
0.0
 11
138.5
 21
138.5679999999999
 31
0.0
  0
LINE
  5
449
330
1E
100
AcDbEntity
  8
0
100
AcDbLine
 10
138.5
 20
141.88
 30
0.0
 11
138.5
 21
137.08
 31
0.0
  0
LINE
  5
44A
330
1E
100
AcDbEntity
  8
0
100
AcDbLine
 10
138.5
 20
138.5679999999999
 30
0.0
 11
138.5
 21
134.9639999999999
 31
0.0
  0
LINE
  5
44B
330
1E
100
AcDbEntity
  8
0
100
AcDbLine
 10
151.0
 20
96.0
 30
0.0
 11
136.4999999999999
 21
96.0
 31
0.0
  0
LINE
  5
44C
330
1E
100
AcDbEntity
  8
0
100
AcDbLine
 10
151.0
 20
96.0
 30
0.0
 11
136.4999999999999
 21
96.0
 31
0.0
  0
LINE
  5
44D
330
1E
100
AcDbEntity
  8
0
100
AcDbLine
 10
149.0
 20
96.0
 30
0.0
 11
136.4999999999999
 21
96.0
 31
0.0
  0
LINE
  5
44E
330
1E
100
AcDbEntity
  8
0
100
AcDbLine
 10
148.0625999999999
 20
96.0
 30
0.0
 11
124.3381999999999
 21
96.0
 31
0.0
  0
LINE
  5
44F
330
1E
100
AcDbEntity
  8
0
100
AcDbLine
 10
148.0625999999999
 20
96.0
 30
0.0
 11
136.4999999999999
 21
96.0
 31
0.0
  0
LINE
  5
450
330
1E
100
AcDbEntity
  8
0
100
AcDbLine
 10
146.8044899999999
 20
96.0
 30
0.0
 11
125.6861999999999
 21
96.0
 31
0.0
  0
LINE
  5
451
330
1E
100
AcDbEntity
  8
0
100
AcDbLine
 10
146.8044899999999
 20
96.0
 30
0.0
 11
136.4999999999999
 21
96.0
 31
0.0
  0
LINE
  5
452
330
1E
100
AcDbEntity
  8
0
100
AcDbLine
 10
146.8044899999999
 20
96.0
 30
0.0
 11
125.6861999999999
 21
96.0
 31
0.0
  0
LINE
  5
453
330
1E
100
AcDbEntity
  8
0
100
AcDbLine
 10
146.8044899999999
 20
96.0
 30
0.0
 11
136.4999999999999
 21
96.0
 31
0.0
  0
LINE
  5
454
330
1E
100
AcDbEntity
  8
0
100
AcDbLine
 10
147.0
 20
96.0
 30
0.0
 11
145.9759999999999
 21
96.0
 31
0.0
  0
LINE
  5
455
330
1E
100
AcDbEntity
  8
0
100
AcDbLine
 10
148.0625999999999
 20
96.0
 30
0.0
 11
124.3381999999999
 21
96.0
 31
0.0
  0
LINE
  5
456
330
1E
100
AcDbEntity
  8
0
100
AcDbLine
 10
148.0625999999999
 20
96.0
 30
0.0
 11
136.4999999999999
 21
96.0
 31
0.0
  0
LINE
  5
457
330
1E
100
AcDbEntity
  8
0
100
AcDbLine
 10
150.0
 20
96.0
 30
0.0
 11
145.0
 21
96.0
 31
0.0
  0
LINE
  5
458
330
1E
100
AcDbEntity
  8
0
100
AcDbLine
 10
150.0
 20
96.0
 30
0.0
 11
145.0
 21
96.0
 31
0.0
  0
LINE
  5
459
330
1E
100
AcDbEntity
  8
0
100
AcDbLine
 10
151.0
 20
100.0
 30
0.0
 11
151.0
 21
96.0
 31
0.0
  0
LINE
  5
45A
330
1E
100
AcDbEntity
  8
0
100
AcDbLine
 10
151.0
 20
96.0
 30
0.0
 11
151.0
 21
100.0
 31
0.0
  0
LINE
  5
45B
330
1E
100
AcDbEntity
  8
0
100
AcDbLine
 10
151.0
 20
96.0
 30
0.0
 11
149.0
 21
96.0
 31
0.0
  0
LINE
  5
45C
330
1E
100
AcDbEntity
  8
0
100
AcDbLine
 10
151.0
 20
96.0
 30
0.0
 11
149.0
 21
96.0
 31
0.0
  0
LINE
  5
45D
330
1E
100
AcDbEntity
  8
0
100
AcDbLine
 10
149.8319999999999
 20
96.0
 30
0.0
 11
148.984
 21
96.0
 31
0.0
  0
LINE
  5
45E
330
1E
100
AcDbEntity
  8
0
100
AcDbLine
 10
150.8559999999999
 20
96.0
 30
0.0
 11
150.472
 21
96.0
 31
0.0
  0
LINE
  5
45F
330
1E
100
AcDbEntity
  8
0
100
AcDbLine
 10
151.0
 20
96.0
 30
0.0
 11
150.8559999999999
 21
96.0
 31
0.0
  0
LINE
  5
460
330
1E
100
AcDbEntity
  8
0
100
AcDbLine
 10
150.472
 20
96.0
 30
0.0
 11
149.8319999999999
 21
96.0
 31
0.0
  0
LINE
  5
461
330
1E
100
AcDbEntity
  8
0
100
AcDbLine
 10
150.472
 20
96.0
 30
0.0
 11
149.8319999999999
 21
96.0
 31
0.0
  0
LINE
  5
462
330
1E
100
AcDbEntity
  8
0
100
AcDbLine
 10
148.0625999999999
 20
96.0
 30
0.0
 11
146.8044899999999
 21
96.0
 31
0.0
  0
LINE
  5
463
330
1E
100
AcDbEntity
  8
0
100
AcDbLine
 10
148.024
 20
96.0
 30
0.0
 11
147.0
 21
96.0
 31
0.0
  0
LINE
  5
464
330
1E
100
AcDbEntity
  8
0
100
AcDbLine
 10
148.984
 20
96.0
 30
0.0
 11
148.024
 21
96.0
 31
0.0
  0
LINE
  5
465
330
1E
100
AcDbEntity
  8
0
100
AcDbLine
 10
136.4999999999999
 20
100.0
 30
0.0
 11
136.4999999999999
 21
127.0
 31
0.0
  0
LINE
  5
466
330
1E
100
AcDbEntity
  8
0
100
AcDbLine
 10
136.4999999999999
 20
127.0
 30
0.0
 11
136.4999999999999
 21
100.0
 31
0.0
  0
LINE
  5
467
330
1E
100
AcDbEntity
  8
0
100
AcDbLine
 10
136.2319999999999
 20
96.0
 30
0.0
 11
133.46
 21
96.0
 31
0.0
  0
LINE
  5
468
330
1E
100
AcDbEntity
  8
0
100
AcDbLine
 10
144.65759
 20
96.0
 30
0.0
 11
133.9538
 21
96.0
 31
0.0
  0
LINE
  5
469
330
1E
100
AcDbEntity
  8
0
100
AcDbLine
 10
144.3150799999999
 20
96.0
 30
0.0
 11
133.145
 21
96.0
 31
0.0
  0
LINE
  5
46A
330
1E
100
AcDbEntity
  8
0
100
AcDbLine
 10
144.65759
 20
96.0
 30
0.0
 11
133.9538
 21
96.0
 31
0.0
  0
LINE
  5
46B
330
1E
100
AcDbEntity
  8
0
100
AcDbLine
 10
144.65759
 20
96.0
 30
0.0
 11
136.4999999999999
 21
96.0
 31
0.0
  0
LINE
  5
46C
330
1E
100
AcDbEntity
  8
0
100
AcDbLine
 10
144.3150799999999
 20
96.0
 30
0.0
 11
136.4999999999999
 21
96.0
 31
0.0
  0
LINE
  5
46D
330
1E
100
AcDbEntity
  8
0
100
AcDbLine
 10
141.38968
 20
96.0
 30
0.0
 11
140.3657
 21
96.0
 31
0.0
  0
LINE
  5
46E
330
1E
100
AcDbEntity
  8
0
100
AcDbLine
 10
144.65759
 20
96.0
 30
0.0
 11
136.4999999999999
 21
96.0
 31
0.0
  0
LINE
  5
46F
330
1E
100
AcDbEntity
  8
0
100
AcDbLine
 10
143.37368
 20
96.0
 30
0.0
 11
142.41368
 21
96.0
 31
0.0
  0
LINE
  5
470
330
1E
100
AcDbEntity
  8
0
100
AcDbLine
 10
143.5279999999999
 20
96.0
 30
0.0
 11
143.144
 21
96.0
 31
0.0
  0
LINE
  5
471
330
1E
100
AcDbEntity
  8
0
100
AcDbLine
 10
144.86168
 20
96.0
 30
0.0
 11
144.2216799999999
 21
96.0
 31
0.0
  0
LINE
  5
472
330
1E
100
AcDbEntity
  8
0
100
AcDbLine
 10
145.0159999999999
 20
96.0
 30
0.0
 11
144.168
 21
96.0
 31
0.0
  0
LINE
  5
473
330
1E
100
AcDbEntity
  8
0
100
AcDbLine
 10
145.24568
 20
96.0
 30
0.0
 11
144.86168
 21
96.0
 31
0.0
  0
LINE
  5
474
330
1E
100
AcDbEntity
  8
0
100
AcDbLine
 10
145.38968
 20
96.0
 30
0.0
 11
145.24568
 21
96.0
 31
0.0
  0
LINE
  5
475
330
1E
100
AcDbEntity
  8
0
100
AcDbLine
 10
145.9759999999999
 20
96.0
 30
0.0
 11
145.0159999999999
 21
96.0
 31
0.0
  0
LINE
  5
476
330
1E
100
AcDbEntity
  8
0
100
AcDbLine
 10
144.65759
 20
96.0
 30
0.0
 11
144.3150799999999
 21
96.0
 31
0.0
  0
LINE
  5
477
330
1E
100
AcDbEntity
  8
0
100
AcDbLine
 10
144.2216799999999
 20
96.0
 30
0.0
 11
143.37368
 21
96.0
 31
0.0
  0
LINE
  5
478
330
1E
100
AcDbEntity
  8
0
100
AcDbLine
 10
144.168
 20
96.0
 30
0.0
 11
143.5279999999999
 21
96.0
 31
0.0
  0
LINE
  5
479
330
1E
100
AcDbEntity
  8
0
100
AcDbLine
 10
142.41368
 20
96.0
 30
0.0
 11
141.38968
 21
96.0
 31
0.0
  0
LINE
  5
47A
330
1E
100
AcDbEntity
  8
0
100
AcDbLine
 10
143.144
 20
96.0
 30
0.0
 11
143.0
 21
96.0
 31
0.0
  0
LINE
  5
47B
330
1E
100
AcDbEntity
  8
0
100
AcDbLine
 10
137.7439999999999
 20
96.0
 30
0.0
 11
136.2319999999999
 21
96.0
 31
0.0
  0
LINE
  5
47C
330
1E
100
AcDbEntity
  8
0
100
AcDbLine
 10
137.7439999999999
 20
96.0
 30
0.0
 11
136.4999999999999
 21
96.0
 31
0.0
  0
LINE
  5
47D
330
1E
100
AcDbEntity
  8
0
100
AcDbLine
 10
137.5337
 20
96.0
 30
0.0
 11
137.3897
 21
96.0
 31
0.0
  0
LINE
  5
47E
330
1E
100
AcDbEntity
  8
0
100
AcDbLine
 10
139.4056999999999
 20
96.0
 30
0.0
 11
138.5577
 21
96.0
 31
0.0
  0
LINE
  5
47F
330
1E
100
AcDbEntity
  8
0
100
AcDbLine
 10
140.3657
 20
96.0
 30
0.0
 11
139.4056999999999
 21
96.0
 31
0.0
  0
LINE
  5
480
330
1E
100
AcDbEntity
  8
0
100
AcDbLine
 10
138.5
 20
96.0
 30
0.0
 11
137.7439999999999
 21
96.0
 31
0.0
  0
LINE
  5
481
330
1E
100
AcDbEntity
  8
0
100
AcDbLine
 10
137.9177
 20
96.0
 30
0.0
 11
137.5337
 21
96.0
 31
0.0
  0
LINE
  5
482
330
1E
100
AcDbEntity
  8
0
100
AcDbLine
 10
138.5577
 20
96.0
 30
0.0
 11
137.9177
 21
96.0
 31
0.0
  0
LINE
  5
483
330
1E
100
AcDbEntity
  8
0
100
AcDbLine
 10
130.184
 20
96.0
 30
0.0
 11
125.3959999999999
 21
96.0
 31
0.0
  0
LINE
  5
484
330
1E
100
AcDbEntity
  8
0
100
AcDbLine
 10
133.46
 20
96.0
 30
0.0
 11
130.184
 21
96.0
 31
0.0
  0
LINE
  5
485
330
1E
100
AcDbEntity
  8
0
100
AcDbLine
 10
133.9538
 20
96.0
 30
0.0
 11
133.145
 21
96.0
 31
0.0
  0
LINE
  5
486
330
1E
100
AcDbEntity
  8
0
100
AcDbLine
 10
125.7212999999999
 20
96.0
 30
0.0
 11
125.0812999999999
 21
96.0
 31
0.0
  0
LINE
  5
487
330
1E
100
AcDbEntity
  8
0
100
AcDbLine
 10
125.6861999999999
 20
96.0
 30
0.0
 11
124.3381999999999
 21
96.0
 31
0.0
  0
LINE
  5
488
330
1E
100
AcDbEntity
  8
0
100
AcDbLine
 10
126.2493
 20
96.0
 30
0.0
 11
126.1052999999999
 21
96.0
 31
0.0
  0
LINE
  5
489
330
1E
100
AcDbEntity
  8
0
100
AcDbLine
 10
126.1052999999999
 20
96.0
 30
0.0
 11
125.7212999999999
 21
96.0
 31
0.0
  0
LINE
  5
48A
330
1E
100
AcDbEntity
  8
0
100
AcDbLine
 10
124.2333
 20
96.0
 30
0.0
 11
123.2733
 21
96.0
 31
0.0
  0
LINE
  5
48B
330
1E
100
AcDbEntity
  8
0
100
AcDbLine
 10
125.0812999999999
 20
96.0
 30
0.0
 11
124.2333
 21
96.0
 31
0.0
  0
LINE
  5
48C
330
1E
100
AcDbEntity
  8
0
100
AcDbLine
 10
134.6103999999999
 20
132.84
 30
0.0
 11
133.7598999999999
 21
137.08
 31
0.0
  0
LINE
  5
48D
330
1E
100
AcDbEntity
  8
0
100
AcDbLine
 10
135.4123999999999
 20
129.64
 30
0.0
 11
134.6103999999999
 21
132.84
 31
0.0
  0
LINE
  5
48E
330
1E
100
AcDbEntity
  8
0
100
AcDbLine
 10
138.5
 20
130.6119999999999
 30
0.0
 11
138.5
 21
132.244
 31
0.0
  0
LINE
  5
48F
330
1E
100
AcDbEntity
  8
0
100
AcDbLine
 10
138.5
 20
132.84
 30
0.0
 11
138.5
 21
129.64
 31
0.0
  0
LINE
  5
490
330
1E
100
AcDbEntity
  8
0
100
AcDbLine
 10
138.5
 20
132.244
 30
0.0
 11
138.5
 21
130.6119999999999
 31
0.0
  0
LINE
  5
491
330
1E
100
AcDbEntity
  8
0
100
AcDbLine
 10
138.5
 20
129.64
 30
0.0
 11
138.5
 21
132.84
 31
0.0
  0
LINE
  5
492
330
1E
100
AcDbEntity
  8
0
100
AcDbLine
 10
138.5
 20
127.0
 30
0.0
 11
136.4999999999999
 21
127.0
 31
0.0
  0
LINE
  5
493
330
1E
100
AcDbEntity
  8
0
100
AcDbLine
 10
138.5
 20
127.72
 30
0.0
 11
138.5
 21
127.0
 31
0.0
  0
LINE
  5
494
330
1E
100
AcDbEntity
  8
0
100
AcDbLine
 10
138.5
 20
127.0
 30
0.0
 11
138.5
 21
127.72
 31
0.0
  0
LINE
  5
495
330
1E
100
AcDbEntity
  8
0
100
AcDbLine
 10
138.5
 20
127.72
 30
0.0
 11
138.5
 21
129.64
 31
0.0
  0
LINE
  5
496
330
1E
100
AcDbEntity
  8
0
100
AcDbLine
 10
138.5
 20
130.0
 30
0.0
 11
138.5
 21
130.6119999999999
 31
0.0
  0
LINE
  5
497
330
1E
100
AcDbEntity
  8
0
100
AcDbLine
 10
138.5
 20
130.6119999999999
 30
0.0
 11
138.5
 21
130.0
 31
0.0
  0
LINE
  5
498
330
1E
100
AcDbEntity
  8
0
100
AcDbLine
 10
138.5
 20
129.64
 30
0.0
 11
138.5
 21
127.72
 31
0.0
  0
LINE
  5
499
330
1E
100
AcDbEntity
  8
0
100
AcDbLine
 10
136.4999999999999
 20
127.0
 30
0.0
 11
136.0928
 21
127.72
 31
0.0
  0
LINE
  5
49A
330
1E
100
AcDbEntity
  8
0
100
AcDbLine
 10
136.0928
 20
127.72
 30
0.0
 11
135.4123999999999
 21
129.64
 31
0.0
  0
LINE
  5
49B
330
1E
100
AcDbEntity
  8
0
100
AcDbLine
 10
138.5
 20
132.84
 30
0.0
 11
138.5
 21
137.08
 31
0.0
  0
LINE
  5
49C
330
1E
100
AcDbEntity
  8
0
100
AcDbLine
 10
138.5
 20
137.08
 30
0.0
 11
138.5
 21
132.84
 31
0.0
  0
LINE
  5
49D
330
1E
100
AcDbEntity
  8
0
100
AcDbLine
 10
138.5
 20
134.9639999999999
 30
0.0
 11
138.5
 21
132.244
 31
0.0
  0
LINE
  5
49E
330
1E
100
AcDbEntity
  8
0
100
AcDbLine
 10
138.5
 20
132.244
 30
0.0
 11
138.5
 21
134.9639999999999
 31
0.0
  0
LINE
  5
49F
330
1E
100
AcDbEntity
  8
0
100
AcDbLine
 10
135.0932999999999
 20
169.0
 30
0.0
 11
135.0932999999999
 21
162.0
 31
0.0
  0
LINE
  5
4A0
330
1E
100
AcDbEntity
  8
0
100
AcDbLine
 10
135.4123999999999
 20
164.36
 30
0.0
 11
135.0932999999999
 21
163.086783042394
 31
0.0
  0
LINE
  5
4A1
330
1E
100
AcDbEntity
  8
0
100
AcDbLine
 10
135.4123999999999
 20
164.36
 30
0.0
 11
135.0932999999999
 21
163.086783042394
 31
0.0
  0
LINE
  5
4A2
330
1E
100
AcDbEntity
  8
0
100
AcDbLine
 10
135.0932999999999
 20
162.0
 30
0.0
 11
135.0932999999999
 21
169.0
 31
0.0
  0
LINE
  5
4A3
330
1E
100
AcDbEntity
  8
0
100
AcDbLine
 10
138.5
 20
164.36
 30
0.0
 11
138.5
 21
161.1599999999999
 31
0.0
  0
LINE
  5
4A4
330
1E
100
AcDbEntity
  8
0
100
AcDbLine
 10
138.5
 20
161.1599999999999
 30
0.0
 11
138.5
 21
164.36
 31
0.0
  0
LINE
  5
4A5
330
1E
100
AcDbEntity
  8
0
100
AcDbLine
 10
138.5
 20
164.0
 30
0.0
 11
138.5
 21
163.3879999999999
 31
0.0
  0
LINE
  5
4A6
330
1E
100
AcDbEntity
  8
0
100
AcDbLine
 10
138.5
 20
163.3879999999999
 30
0.0
 11
138.5
 21
164.0
 31
0.0
  0
LINE
  5
4A7
330
1E
100
AcDbEntity
  8
0
100
AcDbLine
 10
134.6103999999999
 20
161.1599999999999
 30
0.0
 11
133.7598999999999
 21
156.9199999999999
 31
0.0
  0
LINE
  5
4A8
330
1E
100
AcDbEntity
  8
0
100
AcDbLine
 10
134.8412999999999
 20
162.0
 30
0.0
 11
134.1693
 21
162.0
 31
0.0
  0
LINE
  5
4A9
330
1E
100
AcDbEntity
  8
0
100
AcDbLine
 10
138.5
 20
152.12
 30
0.0
 11
138.5
 21
147.0
 31
0.0
  0
LINE
  5
4AA
330
1E
100
AcDbEntity
  8
0
100
AcDbLine
 10
138.5
 20
147.0
 30
0.0
 11
138.5
 21
151.3519999999999
 31
0.0
  0
LINE
  5
4AB
330
1E
100
AcDbEntity
  8
0
100
AcDbLine
 10
138.5
 20
147.0
 30
0.0
 11
138.5
 21
152.12
 31
0.0
  0
LINE
  5
4AC
330
1E
100
AcDbEntity
  8
0
100
AcDbLine
 10
138.5
 20
151.3519999999999
 30
0.0
 11
138.5
 21
147.0
 31
0.0
  0
LINE
  5
4AD
330
1E
100
AcDbEntity
  8
0
100
AcDbLine
 10
138.5
 20
147.0
 30
0.0
 11
138.5
 21
142.6479999999999
 31
0.0
  0
LINE
  5
4AE
330
1E
100
AcDbEntity
  8
0
100
AcDbLine
 10
138.5
 20
147.0
 30
0.0
 11
138.5
 21
141.88
 31
0.0
  0
LINE
  5
4AF
330
1E
100
AcDbEntity
  8
0
100
AcDbLine
 10
138.5
 20
141.88
 30
0.0
 11
138.5
 21
147.0
 31
0.0
  0
LINE
  5
4B0
330
1E
100
AcDbEntity
  8
0
100
AcDbLine
 10
138.5
 20
142.6479999999999
 30
0.0
 11
138.5
 21
147.0
 31
0.0
  0
LINE
  5
4B1
330
1E
100
AcDbEntity
  8
0
100
AcDbLine
 10
138.5
 20
138.5679999999999
 30
0.0
 11
138.5
 21
142.6479999999999
 31
0.0
  0
LINE
  5
4B2
330
1E
100
AcDbEntity
  8
0
100
AcDbLine
 10
138.5
 20
142.6479999999999
 30
0.0
 11
138.5
 21
138.5679999999999
 31
0.0
  0
LINE
  5
4B3
330
1E
100
AcDbEntity
  8
0
100
AcDbLine
 10
138.5
 20
161.1599999999999
 30
0.0
 11
138.5
 21
156.9199999999999
 31
0.0
  0
LINE
  5
4B4
330
1E
100
AcDbEntity
  8
0
100
AcDbLine
 10
138.5
 20
156.9199999999999
 30
0.0
 11
138.5
 21
161.1599999999999
 31
0.0
  0
LINE
  5
4B5
330
1E
100
AcDbEntity
  8
0
100
AcDbLine
 10
138.5
 20
159.0359999999999
 30
0.0
 11
138.5
 21
155.432
 31
0.0
  0
LINE
  5
4B6
330
1E
100
AcDbEntity
  8
0
100
AcDbLine
 10
138.5
 20
155.432
 30
0.0
 11
138.5
 21
159.0359999999999
 31
0.0
  0
LINE
  5
4B7
330
1E
100
AcDbEntity
  8
0
100
AcDbLine
 10
138.5
 20
156.9199999999999
 30
0.0
 11
138.5
 21
152.12
 31
0.0
  0
LINE
  5
4B8
330
1E
100
AcDbEntity
  8
0
100
AcDbLine
 10
138.5
 20
152.12
 30
0.0
 11
138.5
 21
156.9199999999999
 31
0.0
  0
LINE
  5
4B9
330
1E
100
AcDbEntity
  8
0
100
AcDbLine
 10
138.5
 20
155.432
 30
0.0
 11
138.5
 21
151.3519999999999
 31
0.0
  0
LINE
  5
4BA
330
1E
100
AcDbEntity
  8
0
100
AcDbLine
 10
138.5
 20
151.3519999999999
 30
0.0
 11
138.5
 21
155.432
 31
0.0
  0
LINE
  5
4BB
330
1E
100
AcDbEntity
  8
0
100
AcDbLine
 10
138.5
 20
161.756
 30
0.0
 11
138.5
 21
159.0359999999999
 31
0.0
  0
LINE
  5
4BC
330
1E
100
AcDbEntity
  8
0
100
AcDbLine
 10
138.5
 20
159.0359999999999
 30
0.0
 11
138.5
 21
161.756
 31
0.0
  0
LINE
  5
4BD
330
1E
100
AcDbEntity
  8
0
100
AcDbLine
 10
138.5
 20
163.3879999999999
 30
0.0
 11
138.5
 21
161.756
 31
0.0
  0
LINE
  5
4BE
330
1E
100
AcDbEntity
  8
0
100
AcDbLine
 10
138.5
 20
161.756
 30
0.0
 11
138.5
 21
163.3879999999999
 31
0.0
  0
LINE
  5
4BF
330
1E
100
AcDbEntity
  8
0
100
AcDbLine
 10
134.8209249999999
 20
162.0
 30
0.0
 11
134.6103999999999
 21
161.1599999999999
 31
0.0
  0
LINE
  5
4C0
330
1E
100
AcDbEntity
  8
0
100
AcDbLine
 10
135.0932999999999
 20
162.0
 30
0.0
 11
134.8412999999999
 21
162.0
 31
0.0
  0
LINE
  5
4C1
330
1E
100
AcDbEntity
  8
0
100
AcDbLine
 10
133.1037
 20
152.12
 30
0.0
 11
132.85
 21
147.0
 31
0.0
  0
LINE
  5
4C2
330
1E
100
AcDbEntity
  8
0
100
AcDbLine
 10
133.1037
 20
141.88
 30
0.0
 11
132.85
 21
147.0
 31
0.0
  0
LINE
  5
4C3
330
1E
100
AcDbEntity
  8
0
100
AcDbLine
 10
129.288
 20
162.0
 30
0.0
 11
128.0933
 21
162.0
 31
0.0
  0
LINE
  5
4C4
330
1E
100
AcDbEntity
  8
0
100
AcDbLine
 10
129.8853
 20
162.0
 30
0.0
 11
128.0933
 21
162.0
 31
0.0
  0
LINE
  5
4C5
330
1E
100
AcDbEntity
  8
0
100
AcDbLine
 10
131.2772999999999
 20
162.0
 30
0.0
 11
128.3951999999999
 21
162.0
 31
0.0
  0
LINE
  5
4C6
330
1E
100
AcDbEntity
  8
0
100
AcDbLine
 10
131.2772999999999
 20
162.0
 30
0.0
 11
126.7765999999999
 21
162.0
 31
0.0
  0
LINE
  5
4C7
330
1E
100
AcDbEntity
  8
0
100
AcDbLine
 10
133.7598999999999
 20
156.9199999999999
 30
0.0
 11
133.1037
 21
152.12
 31
0.0
  0
LINE
  5
4C8
330
1E
100
AcDbEntity
  8
0
100
AcDbLine
 10
132.144
 20
162.0
 30
0.0
 11
131.3973
 21
162.0
 31
0.0
  0
LINE
  5
4C9
330
1E
100
AcDbEntity
  8
0
100
AcDbLine
 10
131.5653
 20
162.0
 30
0.0
 11
129.8853
 21
162.0
 31
0.0
  0
LINE
  5
4CA
330
1E
100
AcDbEntity
  8
0
100
AcDbLine
 10
133.0492999999999
 20
162.0
 30
0.0
 11
131.5653
 21
162.0
 31
0.0
  0
LINE
  5
4CB
330
1E
100
AcDbEntity
  8
0
100
AcDbLine
 10
134.1693
 20
162.0
 30
0.0
 11
133.0492999999999
 21
162.0
 31
0.0
  0
LINE
  5
4CC
330
1E
100
AcDbEntity
  8
0
100
AcDbLine
 10
132.7599999999999
 20
162.0
 30
0.0
 11
132.5919999999999
 21
162.0
 31
0.0
  0
LINE
  5
4CD
330
1E
100
AcDbEntity
  8
0
100
AcDbLine
 10
132.5919999999999
 20
162.0
 30
0.0
 11
132.144
 21
162.0
 31
0.0
  0
LINE
  5
4CE
330
1E
100
AcDbEntity
  8
0
100
AcDbLine
 10
130.408
 20
162.0
 30
0.0
 11
129.288
 21
162.0
 31
0.0
  0
LINE
  5
4CF
330
1E
100
AcDbEntity
  8
0
100
AcDbLine
 10
131.3973
 20
162.0
 30
0.0
 11
130.408
 21
162.0
 31
0.0
  0
LINE
  5
4D0
330
1E
100
AcDbEntity
  8
0
100
AcDbLine
 10
125.7786
 20
162.0
 30
0.0
 11
124.7892999999999
 21
162.0
 31
0.0
  0
LINE
  5
4D1
330
1E
100
AcDbEntity
  8
0
100
AcDbLine
 10
126.3012999999999
 20
162.0
 30
0.0
 11
124.6213
 21
162.0
 31
0.0
  0
LINE
  5
4D2
330
1E
100
AcDbEntity
  8
0
100
AcDbLine
 10
128.3951999999999
 20
162.0
 30
0.0
 11
124.3376
 21
162.0
 31
0.0
  0
LINE
  5
4D3
330
1E
100
AcDbEntity
  8
0
100
AcDbLine
 10
128.0933
 20
162.0
 30
0.0
 11
126.8985999999999
 21
162.0
 31
0.0
  0
LINE
  5
4D4
330
1E
100
AcDbEntity
  8
0
100
AcDbLine
 10
128.0933
 20
162.0
 30
0.0
 11
126.3012999999999
 21
162.0
 31
0.0
  0
LINE
  5
4D5
330
1E
100
AcDbEntity
  8
0
100
AcDbLine
 10
126.8985999999999
 20
162.0
 30
0.0
 11
125.7786
 21
162.0
 31
0.0
  0
LINE
  5
4D6
330
1E
100
AcDbEntity
  8
0
100
AcDbLine
 10
125.2236
 20
162.0
 30
0.0
 11
123.1022999999999
 21
162.0
 31
0.0
  0
LINE
  5
4D7
330
1E
100
AcDbEntity
  8
0
100
AcDbLine
 10
124.7892999999999
 20
162.0
 30
0.0
 11
124.0426
 21
162.0
 31
0.0
  0
LINE
  5
4D8
330
1E
100
AcDbEntity
  8
0
100
AcDbLine
 10
124.6213
 20
162.0
 30
0.0
 11
123.1373
 21
162.0
 31
0.0
  0
LINE
  5
4D9
330
1E
100
AcDbEntity
  8
0
100
AcDbLine
 10
123.5945999999999
 20
162.0
 30
0.0
 11
123.4266
 21
162.0
 31
0.0
  0
LINE
  5
4DA
330
1E
100
AcDbEntity
  8
0
100
AcDbLine
 10
124.0426
 20
162.0
 30
0.0
 11
123.5945999999999
 21
162.0
 31
0.0
  0
LINE
  5
4DB
330
1E
100
AcDbEntity
  8
0
100
AcDbLine
 10
134.8412999999999
 20
169.0
 30
0.0
 11
134.1693
 21
169.0
 31
0.0
  0
LINE
  5
4DC
330
1E
100
AcDbEntity
  8
0
100
AcDbLine
 10
138.5
 20
167.0
 30
0.0
 11
136.4999999999999
 21
167.0
 31
0.0
  0
LINE
  5
4DD
330
1E
100
AcDbEntity
  8
0
100
AcDbLine
 10
138.5
 20
167.0
 30
0.0
 11
138.5
 21
166.28
 31
0.0
  0
LINE
  5
4DE
330
1E
100
AcDbEntity
  8
0
100
AcDbLine
 10
138.5
 20
166.28
 30
0.0
 11
138.5
 21
164.36
 31
0.0
  0
LINE
  5
4DF
330
1E
100
AcDbEntity
  8
0
100
AcDbLine
 10
138.5
 20
166.28
 30
0.0
 11
138.5
 21
167.0
 31
0.0
  0
LINE
  5
4E0
330
1E
100
AcDbEntity
  8
0
100
AcDbLine
 10
138.5
 20
164.36
 30
0.0
 11
138.5
 21
166.28
 31
0.0
  0
LINE
  5
4E1
330
1E
100
AcDbEntity
  8
0
100
AcDbLine
 10
136.4999999999999
 20
167.0
 30
0.0
 11
136.4999999999999
 21
169.0
 31
0.0
  0
LINE
  5
4E2
330
1E
100
AcDbEntity
  8
0
100
AcDbLine
 10
136.4999999999999
 20
169.0
 30
0.0
 11
136.4999999999999
 21
167.0
 31
0.0
  0
LINE
  5
4E3
330
1E
100
AcDbEntity
  8
0
100
AcDbLine
 10
136.0928
 20
166.28
 30
0.0
 11
135.4123999999999
 21
164.36
 31
0.0
  0
LINE
  5
4E4
330
1E
100
AcDbEntity
  8
0
100
AcDbLine
 10
136.4999999999999
 20
167.0
 30
0.0
 11
136.0928
 21
166.28
 31
0.0
  0
LINE
  5
4E5
330
1E
100
AcDbEntity
  8
0
100
AcDbLine
 10
136.4999999999999
 20
169.0
 30
0.0
 11
135.8578999999999
 21
169.0
 31
0.0
  0
LINE
  5
4E6
330
1E
100
AcDbEntity
  8
0
100
AcDbLine
 10
135.8578999999999
 20
169.0
 30
0.0
 11
135.0932999999999
 21
169.0
 31
0.0
  0
LINE
  5
4E7
330
1E
100
AcDbEntity
  8
0
100
AcDbLine
 10
135.0932999999999
 20
169.0
 30
0.0
 11
134.8412999999999
 21
169.0
 31
0.0
  0
LINE
  5
4E8
330
1E
100
AcDbEntity
  8
0
100
AcDbLine
 10
129.8853
 20
169.0
 30
0.0
 11
128.0933
 21
169.0
 31
0.0
  0
LINE
  5
4E9
330
1E
100
AcDbEntity
  8
0
100
AcDbLine
 10
131.5653
 20
169.0
 30
0.0
 11
129.8853
 21
169.0
 31
0.0
  0
LINE
  5
4EA
330
1E
100
AcDbEntity
  8
0
100
AcDbLine
 10
133.0492999999999
 20
169.0
 30
0.0
 11
131.5653
 21
169.0
 31
0.0
  0
LINE
  5
4EB
330
1E
100
AcDbEntity
  8
0
100
AcDbLine
 10
134.1693
 20
169.0
 30
0.0
 11
133.0492999999999
 21
169.0
 31
0.0
  0
LINE
  5
4EC
330
1E
100
AcDbEntity
  8
0
100
AcDbLine
 10
126.3012999999999
 20
169.0
 30
0.0
 11
124.6213
 21
169.0
 31
0.0
  0
LINE
  5
4ED
330
1E
100
AcDbEntity
  8
0
100
AcDbLine
 10
128.0933
 20
169.0
 30
0.0
 11
126.3012999999999
 21
169.0
 31
0.0
  0
LINE
  5
4EE
330
1E
100
AcDbEntity
  8
0
100
AcDbLine
 10
124.6213
 20
169.0
 30
0.0
 11
123.1373
 21
169.0
 31
0.0
  0
LINE
  5
4EF
330
1E
100
AcDbEntity
  8
0
100
AcDbLine
 10
94.8042
 20
141.88
 30
0.0
 11
92.86109999999998
 21
137.08
 31
0.0
  0
LINE
  5
4F0
330
1E
100
AcDbEntity
  8
0
100
AcDbLine
 10
88.14799999999999
 20
139.7729999999999
 30
0.0
 11
85.81659999999999
 21
136.6829999999999
 31
0.0
  0
LINE
  5
4F1
330
1E
100
AcDbEntity
  8
0
100
AcDbLine
 10
90.256
 20
138.5679999999999
 30
0.0
 11
87.536
 21
134.9639999999999
 31
0.0
  0
LINE
  5
4F2
330
1E
100
AcDbEntity
  8
0
100
AcDbLine
 10
94.77999999999999
 20
141.88
 30
0.0
 11
92.85999999999999
 21
137.08
 31
0.0
  0
LINE
  5
4F3
330
1E
100
AcDbEntity
  8
0
100
AcDbLine
 10
99.44
 20
96.0
 30
0.0
 11
91.628
 21
96.0
 31
0.0
  0
LINE
  5
4F4
330
1E
100
AcDbEntity
  8
0
100
AcDbLine
 10
99.35
 20
96.0
 30
0.0
 11
98.32599999999999
 21
96.0
 31
0.0
  0
LINE
  5
4F5
330
1E
100
AcDbEntity
  8
0
100
AcDbLine
 10
113.8039999999999
 20
96.0
 30
0.0
 11
106.7479999999999
 21
96.0
 31
0.0
  0
LINE
  5
4F6
330
1E
100
AcDbEntity
  8
0
100
AcDbLine
 10
113.3583
 20
96.0
 30
0.0
 11
110.6608999999999
 21
96.0
 31
0.0
  0
LINE
  5
4F7
330
1E
100
AcDbEntity
  8
0
100
AcDbLine
 10
113.3583
 20
96.0
 30
0.0
 11
102.9284
 21
96.0
 31
0.0
  0
LINE
  5
4F8
330
1E
100
AcDbEntity
  8
0
100
AcDbLine
 10
119.852
 20
96.0
 30
0.0
 11
113.8039999999999
 21
96.0
 31
0.0
  0
LINE
  5
4F9
330
1E
100
AcDbEntity
  8
0
100
AcDbLine
 10
120.2652999999999
 20
96.0
 30
0.0
 11
119.4172999999999
 21
96.0
 31
0.0
  0
LINE
  5
4FA
330
1E
100
AcDbEntity
  8
0
100
AcDbLine
 10
121.2253
 20
96.0
 30
0.0
 11
120.2652999999999
 21
96.0
 31
0.0
  0
LINE
  5
4FB
330
1E
100
AcDbEntity
  8
0
100
AcDbLine
 10
122.2493
 20
96.0
 30
0.0
 11
121.2253
 21
96.0
 31
0.0
  0
LINE
  5
4FC
330
1E
100
AcDbEntity
  8
0
100
AcDbLine
 10
118.3933
 20
96.0
 30
0.0
 11
118.2493
 21
96.0
 31
0.0
  0
LINE
  5
4FD
330
1E
100
AcDbEntity
  8
0
100
AcDbLine
 10
118.7772999999999
 20
96.0
 30
0.0
 11
118.3933
 21
96.0
 31
0.0
  0
LINE
  5
4FE
330
1E
100
AcDbEntity
  8
0
100
AcDbLine
 10
119.4172999999999
 20
96.0
 30
0.0
 11
118.7772999999999
 21
96.0
 31
0.0
  0
LINE
  5
4FF
330
1E
100
AcDbEntity
  8
0
100
AcDbLine
 10
101.0
 20
100.0
 30
0.0
 11
101.0
 21
96.0
 31
0.0
  0
LINE
  5
500
330
1E
100
AcDbEntity
  8
0
100
AcDbLine
 10
101.0
 20
96.0
 30
0.0
 11
101.0
 21
100.0
 31
0.0
  0
LINE
  5
501
330
1E
100
AcDbEntity
  8
0
100
AcDbLine
 10
106.7479999999999
 20
96.0
 30
0.0
 11
99.44
 21
96.0
 31
0.0
  0
LINE
  5
502
330
1E
100
AcDbEntity
  8
0
100
AcDbLine
 10
110.6608999999999
 20
96.0
 30
0.0
 11
101.6696
 21
96.0
 31
0.0
  0
LINE
  5
503
330
1E
100
AcDbEntity
  8
0
100
AcDbLine
 10
102.9284
 20
96.0
 30
0.0
 11
101.6696
 21
96.0
 31
0.0
  0
LINE
  5
504
330
1E
100
AcDbEntity
  8
0
100
AcDbLine
 10
102.1819999999999
 20
96.0
 30
0.0
 11
101.334
 21
96.0
 31
0.0
  0
LINE
  5
505
330
1E
100
AcDbEntity
  8
0
100
AcDbLine
 10
103.3499999999999
 20
96.0
 30
0.0
 11
103.2059999999999
 21
96.0
 31
0.0
  0
LINE
  5
506
330
1E
100
AcDbEntity
  8
0
100
AcDbLine
 10
103.2059999999999
 20
96.0
 30
0.0
 11
102.822
 21
96.0
 31
0.0
  0
LINE
  5
507
330
1E
100
AcDbEntity
  8
0
100
AcDbLine
 10
102.822
 20
96.0
 30
0.0
 11
102.1819999999999
 21
96.0
 31
0.0
  0
LINE
  5
508
330
1E
100
AcDbEntity
  8
0
100
AcDbLine
 10
101.0
 20
96.0
 30
0.0
 11
100.2
 21
96.0
 31
0.0
  0
LINE
  5
509
330
1E
100
AcDbEntity
  8
0
100
AcDbLine
 10
101.334
 20
96.0
 30
0.0
 11
100.374
 21
96.0
 31
0.0
  0
LINE
  5
50A
330
1E
100
AcDbEntity
  8
0
100
AcDbLine
 10
100.374
 20
96.0
 30
0.0
 11
99.35
 21
96.0
 31
0.0
  0
LINE
  5
50B
330
1E
100
AcDbEntity
  8
0
100
AcDbLine
 10
91.628
 20
96.0
 30
0.0
 11
83.816
 21
96.0
 31
0.0
  0
LINE
  5
50C
330
1E
100
AcDbEntity
  8
0
100
AcDbLine
 10
96.51800000000001
 20
96.0
 30
0.0
 11
95.87799999999999
 21
96.0
 31
0.0
  0
LINE
  5
50D
330
1E
100
AcDbEntity
  8
0
100
AcDbLine
 10
97.08400000000001
 20
96.0
 30
0.0
 11
95.01600000000001
 21
96.0
 31
0.0
  0
LINE
  5
50E
330
1E
100
AcDbEntity
  8
0
100
AcDbLine
 10
96.9757
 20
96.0
 30
0.0
 11
95.01600000000001
 21
96.0
 31
0.0
  0
LINE
  5
50F
330
1E
100
AcDbEntity
  8
0
100
AcDbLine
 10
98.32599999999999
 20
96.0
 30
0.0
 11
97.36600000000002
 21
96.0
 31
0.0
  0
LINE
  5
510
330
1E
100
AcDbEntity
  8
0
100
AcDbLine
 10
98.9461
 20
96.0
 30
0.0
 11
97.08400000000001
 21
96.0
 31
0.0
  0
LINE
  5
511
330
1E
100
AcDbEntity
  8
0
100
AcDbLine
 10
98.9461
 20
96.0
 30
0.0
 11
96.9757
 21
96.0
 31
0.0
  0
LINE
  5
512
330
1E
100
AcDbEntity
  8
0
100
AcDbLine
 10
97.36600000000002
 20
96.0
 30
0.0
 11
96.51800000000001
 21
96.0
 31
0.0
  0
LINE
  5
513
330
1E
100
AcDbEntity
  8
0
100
AcDbLine
 10
95.494
 20
96.0
 30
0.0
 11
95.35
 21
96.0
 31
0.0
  0
LINE
  5
514
330
1E
100
AcDbEntity
  8
0
100
AcDbLine
 10
95.87799999999999
 20
96.0
 30
0.0
 11
95.494
 21
96.0
 31
0.0
  0
LINE
  5
515
330
1E
100
AcDbEntity
  8
0
100
AcDbLine
 10
83.816
 20
96.0
 30
0.0
 11
75.5
 21
96.0
 31
0.0
  0
LINE
  5
516
330
1E
100
AcDbEntity
  8
0
100
AcDbLine
 10
78.8766
 20
96.0
 30
0.0
 11
78.2366
 21
96.0
 31
0.0
  0
LINE
  5
517
330
1E
100
AcDbEntity
  8
0
100
AcDbLine
 10
79.4046
 20
96.0
 30
0.0
 11
79.26059999999999
 21
96.0
 31
0.0
  0
LINE
  5
518
330
1E
100
AcDbEntity
  8
0
100
AcDbLine
 10
79.26059999999999
 20
96.0
 30
0.0
 11
78.8766
 21
96.0
 31
0.0
  0
LINE
  5
519
330
1E
100
AcDbEntity
  8
0
100
AcDbLine
 10
77.38859999999999
 20
96.0
 30
0.0
 11
76.4286
 21
96.0
 31
0.0
  0
LINE
  5
51A
330
1E
100
AcDbEntity
  8
0
100
AcDbLine
 10
78.2366
 20
96.0
 30
0.0
 11
77.38859999999999
 21
96.0
 31
0.0
  0
LINE
  5
51B
330
1E
100
AcDbEntity
  8
0
100
AcDbLine
 10
89.65999999999999
 20
132.84
 30
0.0
 11
85.41999999999999
 21
129.64
 31
0.0
  0
LINE
  5
51C
330
1E
100
AcDbEntity
  8
0
100
AcDbLine
 10
87.536
 20
134.9639999999999
 30
0.0
 11
83.932
 21
132.244
 31
0.0
  0
LINE
  5
51D
330
1E
100
AcDbEntity
  8
0
100
AcDbLine
 10
89.6793
 20
132.84
 30
0.0
 11
85.4287
 21
129.64
 31
0.0
  0
LINE
  5
51E
330
1E
100
AcDbEntity
  8
0
100
AcDbLine
 10
92.86109999999998
 20
137.08
 30
0.0
 11
89.6793
 21
132.84
 31
0.0
  0
LINE
  5
51F
330
1E
100
AcDbEntity
  8
0
100
AcDbLine
 10
92.85999999999999
 20
137.08
 30
0.0
 11
89.65999999999999
 21
132.84
 31
0.0
  0
LINE
  5
520
330
1E
100
AcDbEntity
  8
0
100
AcDbLine
 10
82.7274
 20
134.352
 30
0.0
 11
79.2303
 21
132.953
 31
0.0
  0
LINE
  5
521
330
1E
100
AcDbEntity
  8
0
100
AcDbLine
 10
83.932
 20
132.244
 30
0.0
 11
79.852
 21
130.6119999999999
 31
0.0
  0
LINE
  5
522
330
1E
100
AcDbEntity
  8
0
100
AcDbLine
 10
85.4287
 20
129.64
 30
0.0
 11
80.64390000000001
 21
127.72
 31
0.0
  0
LINE
  5
523
330
1E
100
AcDbEntity
  8
0
100
AcDbLine
 10
85.41999999999999
 20
129.64
 30
0.0
 11
80.62000000000001
 21
127.72
 31
0.0
  0
LINE
  5
524
330
1E
100
AcDbEntity
  8
0
100
AcDbLine
 10
85.81659999999999
 20
136.6829999999999
 30
0.0
 11
82.7274
 21
134.352
 31
0.0
  0
LINE
  5
525
330
1E
100
AcDbEntity
  8
0
100
AcDbLine
 10
80.64390000000001
 20
127.72
 30
0.0
 11
75.5
 21
127.0
 31
0.0
  0
LINE
  5
526
330
1E
100
AcDbEntity
  8
0
100
AcDbLine
 10
80.62000000000001
 20
127.72
 30
0.0
 11
75.5
 21
127.0
 31
0.0
  0
LINE
  5
527
330
1E
100
AcDbEntity
  8
0
100
AcDbLine
 10
79.852
 20
130.6119999999999
 30
0.0
 11
75.5
 21
130.0
 31
0.0
  0
LINE
  5
528
330
1E
100
AcDbEntity
  8
0
100
AcDbLine
 10
79.2303
 20
132.953
 30
0.0
 11
75.5
 21
132.4289999999999
 31
0.0
  0
LINE
  5
529
330
1E
100
AcDbEntity
  8
0
100
AcDbLine
 10
105.8715999999999
 20
169.0
 30
0.0
 11
98.8084
 21
169.0
 31
0.0
  0
LINE
  5
52A
330
1E
100
AcDbEntity
  8
0
100
AcDbLine
 10
122.4465
 20
162.0
 30
0.0
 11
106.9933
 21
162.0
 31
0.0
  0
LINE
  5
52B
330
1E
100
AcDbEntity
  8
0
100
AcDbLine
 10
121.3453
 20
162.0
 30
0.0
 11
121.0933
 21
162.0
 31
0.0
  0
LINE
  5
52C
330
1E
100
AcDbEntity
  8
0
100
AcDbLine
 10
122.0173
 20
162.0
 30
0.0
 11
121.3453
 21
162.0
 31
0.0
  0
LINE
  5
52D
330
1E
100
AcDbEntity
  8
0
100
AcDbLine
 10
122.0173
 20
169.0
 30
0.0
 11
106.0894999999999
 21
169.0
 31
0.0
  0
LINE
  5
52E
330
1E
100
AcDbEntity
  8
0
100
AcDbLine
 10
106.0894999999999
 20
169.0
 30
0.0
 11
105.8715999999999
 21
169.0
 31
0.0
  0
LINE
  5
52F
330
1E
100
AcDbEntity
  8
0
100
AcDbLine
 10
79.852
 20
163.3879999999999
 30
0.0
 11
75.5
 21
164.0
 31
0.0
  0
LINE
  5
530
330
1E
100
AcDbEntity
  8
0
100
AcDbLine
 10
89.65999999999999
 20
161.1599999999999
 30
0.0
 11
85.41999999999999
 21
164.36
 31
0.0
  0
LINE
  5
531
330
1E
100
AcDbEntity
  8
0
100
AcDbLine
 10
89.6793
 20
161.1599999999999
 30
0.0
 11
85.4287
 21
164.36
 31
0.0
  0
LINE
  5
532
330
1E
100
AcDbEntity
  8
0
100
AcDbLine
 10
88.14799999999999
 20
154.227
 30
0.0
 11
85.81659999999999
 21
157.317
 31
0.0
  0
LINE
  5
533
330
1E
100
AcDbEntity
  8
0
100
AcDbLine
 10
87.536
 20
159.0359999999999
 30
0.0
 11
83.932
 21
161.756
 31
0.0
  0
LINE
  5
534
330
1E
100
AcDbEntity
  8
0
100
AcDbLine
 10
90.07139999999999
 20
147.0
 30
0.0
 11
89.54689999999999
 21
150.7299999999999
 31
0.0
  0
LINE
  5
535
330
1E
100
AcDbEntity
  8
0
100
AcDbLine
 10
92.5
 20
147.0
 30
0.0
 11
91.888
 21
151.3519999999999
 31
0.0
  0
LINE
  5
536
330
1E
100
AcDbEntity
  8
0
100
AcDbLine
 10
95.5
 20
147.0
 30
0.0
 11
94.77999999999999
 21
152.12
 31
0.0
  0
LINE
  5
537
330
1E
100
AcDbEntity
  8
0
100
AcDbLine
 10
95.5
 20
147.0
 30
0.0
 11
94.8042
 21
152.12
 31
0.0
  0
LINE
  5
538
330
1E
100
AcDbEntity
  8
0
100
AcDbLine
 10
95.5
 20
147.0
 30
0.0
 11
94.77999999999999
 21
141.88
 31
0.0
  0
LINE
  5
539
330
1E
100
AcDbEntity
  8
0
100
AcDbLine
 10
95.5
 20
147.0
 30
0.0
 11
94.8042
 21
141.88
 31
0.0
  0
LINE
  5
53A
330
1E
100
AcDbEntity
  8
0
100
AcDbLine
 10
90.07139999999999
 20
147.0
 30
0.0
 11
89.54689999999999
 21
143.27
 31
0.0
  0
LINE
  5
53B
330
1E
100
AcDbEntity
  8
0
100
AcDbLine
 10
92.5
 20
147.0
 30
0.0
 11
91.888
 21
142.6479999999999
 31
0.0
  0
LINE
  5
53C
330
1E
100
AcDbEntity
  8
0
100
AcDbLine
 10
91.888
 20
142.6479999999999
 30
0.0
 11
90.256
 21
138.5679999999999
 31
0.0
  0
LINE
  5
53D
330
1E
100
AcDbEntity
  8
0
100
AcDbLine
 10
89.54689999999999
 20
143.27
 30
0.0
 11
88.14799999999999
 21
139.7729999999999
 31
0.0
  0
LINE
  5
53E
330
1E
100
AcDbEntity
  8
0
100
AcDbLine
 10
94.77999999999999
 20
152.12
 30
0.0
 11
92.85999999999999
 21
156.9199999999999
 31
0.0
  0
LINE
  5
53F
330
1E
100
AcDbEntity
  8
0
100
AcDbLine
 10
94.8042
 20
152.12
 30
0.0
 11
92.86109999999998
 21
156.9199999999999
 31
0.0
  0
LINE
  5
540
330
1E
100
AcDbEntity
  8
0
100
AcDbLine
 10
92.85999999999999
 20
156.9199999999999
 30
0.0
 11
89.65999999999999
 21
161.1599999999999
 31
0.0
  0
LINE
  5
541
330
1E
100
AcDbEntity
  8
0
100
AcDbLine
 10
92.86109999999998
 20
156.9199999999999
 30
0.0
 11
89.6793
 21
161.1599999999999
 31
0.0
  0
LINE
  5
542
330
1E
100
AcDbEntity
  8
0
100
AcDbLine
 10
90.256
 20
155.432
 30
0.0
 11
87.536
 21
159.0359999999999
 31
0.0
  0
LINE
  5
543
330
1E
100
AcDbEntity
  8
0
100
AcDbLine
 10
91.888
 20
151.3519999999999
 30
0.0
 11
90.256
 21
155.432
 31
0.0
  0
LINE
  5
544
330
1E
100
AcDbEntity
  8
0
100
AcDbLine
 10
89.54689999999999
 20
150.7299999999999
 30
0.0
 11
88.14799999999999
 21
154.227
 31
0.0
  0
LINE
  5
545
330
1E
100
AcDbEntity
  8
0
100
AcDbLine
 10
82.7274
 20
159.6479999999999
 30
0.0
 11
79.2303
 21
161.047
 31
0.0
  0
LINE
  5
546
330
1E
100
AcDbEntity
  8
0
100
AcDbLine
 10
83.932
 20
161.756
 30
0.0
 11
79.852
 21
163.3879999999999
 31
0.0
  0
LINE
  5
547
330
1E
100
AcDbEntity
  8
0
100
AcDbLine
 10
85.81659999999999
 20
157.317
 30
0.0
 11
82.7274
 21
159.6479999999999
 31
0.0
  0
LINE
  5
548
330
1E
100
AcDbEntity
  8
0
100
AcDbLine
 10
79.2303
 20
161.047
 30
0.0
 11
75.5
 21
161.5709999999999
 31
0.0
  0
LINE
  5
549
330
1E
100
AcDbEntity
  8
0
100
AcDbLine
 10
91.2316
 20
169.0
 30
0.0
 11
83.46210000000001
 21
169.0
 31
0.0
  0
LINE
  5
54A
330
1E
100
AcDbEntity
  8
0
100
AcDbLine
 10
98.8084
 20
169.0
 30
0.0
 11
91.2316
 21
169.0
 31
0.0
  0
LINE
  5
54B
330
1E
100
AcDbEntity
  8
0
100
AcDbLine
 10
83.46210000000001
 20
169.0
 30
0.0
 11
75.5
 21
169.0
 31
0.0
  0
LINE
  5
54C
330
1E
100
AcDbEntity
  8
0
100
AcDbLine
 10
85.41999999999999
 20
164.36
 30
0.0
 11
80.62000000000001
 21
166.28
 31
0.0
  0
LINE
  5
54D
330
1E
100
AcDbEntity
  8
0
100
AcDbLine
 10
85.4287
 20
164.36
 30
0.0
 11
80.64390000000001
 21
166.28
 31
0.0
  0
LINE
  5
54E
330
1E
100
AcDbEntity
  8
0
100
AcDbLine
 10
80.62000000000001
 20
166.28
 30
0.0
 11
75.5
 21
167.0
 31
0.0
  0
LINE
  5
54F
330
1E
100
AcDbEntity
  8
0
100
AcDbLine
 10
80.64390000000001
 20
166.28
 30
0.0
 11
75.5
 21
167.0
 31
0.0
  0
LINE
  5
55A
330
1E
100
AcDbEntity
  8
0
100
AcDbLine
 10
61.9
 20
36.18558958660389
 30
0.0
 11
67.65868629729277
 21
35.61089434084795
 31
0.0
  0
LINE
  5
55B
330
1E
100
AcDbEntity
  8
0
100
AcDbLine
 10
67.65868629729277
 20
35.61089434084795
 30
0.0
 11
72.65442199770735
 21
35.61089434084795
 31
0.0
  0
LINE
  5
55C
330
1E
100
AcDbEntity
  8
0
100
AcDbLine
 10
72.65442199770735
 20
35.61089434084795
 30
0.0
 11
79.45490051654122
 21
35.61089434084795
 31
0.0
  0
LINE
  5
55D
330
1E
100
AcDbEntity
  8
0
100
AcDbLine
 10
79.45490051654122
 20
35.61089434084795
 30
0.0
 11
85.81073274207609
 21
35.89843889969017
 31
0.0
  0
LINE
  5
55E
330
1E
100
AcDbEntity
  8
0
100
AcDbLine
 10
85.81073274207609
 20
35.89843889969017
 30
0.0
 11
89.1
 21
36.18558958660389
 31
0.0
  0
ENDSEC
  0
SECTION
  2
OBJECTS
  0
DICTIONARY
  5
C
330
0
100
AcDbDictionary
281
     1
  3
ACAD_GROUP
350
D
  3
ACAD_LAYOUT
350
19
  3
ACAD_MLINESTYLE
350
16
  3
ACAD_PLOTSETTINGS
350
18
  3
ACAD_PLOTSTYLENAME
350
E
  3
AcDbVariableDictionary
350
551
  0
DICTIONARY
  5
D
102
{ACAD_REACTORS
330
C
102
}
330
C
100
AcDbDictionary
281
     1
  0
DICTIONARY
  5
19
102
{ACAD_REACTORS
330
C
102
}
330
C
100
AcDbDictionary
281
     1
  3
Layout1
350
1D
  3
Model
350
21
  0
DICTIONARY
  5
16
102
{ACAD_REACTORS
330
C
102
}
330
C
100
AcDbDictionary
281
     1
  3
Standard
350
17
  0
DICTIONARY
  5
18
102
{ACAD_REACTORS
330
C
102
}
330
C
100
AcDbDictionary
281
     1
  0
ACDBDICTIONARYWDFLT
  5
E
102
{ACAD_REACTORS
330
C
102
}
330
C
100
AcDbDictionary
281
     1
  3
Normal
350
F
100
AcDbDictionaryWithDefault
340
F
  0
DICTIONARY
  5
551
102
{ACAD_REACTORS
330
C
102
}
330
C
100
AcDbDictionary
281
     1
  3
DIMASSOC
350
552
  0
LAYOUT
  5
1D
102
{ACAD_REACTORS
330
19
102
}
330
19
100
AcDbPlotSettings
  1

  2
C:\Programme\AutoCAD LT 2002 Deu\plotters\DWF ePlot (optimized for plotting).pc3
  4

  6

 40
0.0
 41
0.0
 42
0.0
 43
0.0
 44
0.0
 45
0.0
 46
0.0
 47
0.0
 48
0.0
 49
0.0
140
0.0
141
0.0
142
1.0
143
1.0
 70
   688
 72
     0
 73
     0
 74
     5
  7

 75
    16
147
1.0
148
0.0
149
0.0
100
AcDbLayout
  1
Layout1
 70
     1
 71
     1
 10
0.0
 20
0.0
 11
12.0
 21
9.0
 12
0.0
 22
0.0
 32
0.0
 14
1.000000000000000E+20
 24
1.000000000000000E+20
 34
1.000000000000000E+20
 15
-1.000000000000000E+20
 25
-1.000000000000000E+20
 35
-1.000000000000000E+20
146
0.0
 13
0.0
 23
0.0
 33
0.0
 16
1.0
 26
0.0
 36
0.0
 17
0.0
 27
1.0
 37
0.0
 76
     0
330
1A
  0
LAYOUT
  5
21
102
{ACAD_REACTORS
330
19
102
}
330
19
100
AcDbPlotSettings
  1

  2
C:\Programme\AutoCAD LT 2002 Deu\plotters\DWF ePlot (optimized for plotting).pc3
  4

  6

 40
0.0
 41
0.0
 42
0.0
 43
0.0
 44
0.0
 45
0.0
 46
0.0
 47
0.0
 48
0.0
 49
0.0
140
0.0
141
0.0
142
1.0
143
1.0
 70
  1712
 72
     0
 73
     0
 74
     0
  7

 75
     0
147
1.0
148
0.0
149
0.0
100
AcDbLayout
  1
Model
 70
     1
 71
     0
 10
0.0
 20
0.0
 11
12.0
 21
9.0
 12
0.0
 22
0.0
 32
0.0
 14
0.0
 24
0.0
 34
0.0
 15
0.0
 25
0.0
 35
0.0
146
0.0
 13
0.0
 23
0.0
 33
0.0
 16
1.0
 26
0.0
 36
0.0
 17
0.0
 27
1.0
 37
0.0
 76
     0
330
1E
  0
MLINESTYLE
  5
17
102
{ACAD_REACTORS
330
16
102
}
330
16
100
AcDbMlineStyle
  2
STANDARD
 70
     0
  3

 62
   256
 51
90.0
 52
90.0
 71
     2
 49
0.5
 62
   256
  6
BYLAYER
 49
-0.5
 62
   256
  6
BYLAYER
  0
ACDBPLACEHOLDER
  5
F
102
{ACAD_REACTORS
330
E
102
}
330
E
  0
DICTIONARYVAR
  5
552
102
{ACAD_REACTORS
330
551
102
}
330
551
100
DictionaryVariables
280
     0
  1
1
  0
ENDSEC
  0
EOF
