  0
SECTION
  2
HEADER
  9
$ACADVER
  1
AC1014
  9
$ACADMAINTVER
 70
     9
  9
$DWGCODEPAGE
  3
ANSI_1252
  9
$INSBASE
 10
0.0
 20
0.0
 30
0.0
  9
$EXTMIN
 10
0.0695999999999906
 20
0.0874999999998896
 30
0.0
  9
$EXTMAX
 10
84.9304
 20
917.9125
 30
0.0
  9
$LIMMIN
 10
0.0
 20
0.0
  9
$LIMMAX
 10
12.0
 20
9.0
  9
$ORTHOMODE
 70
     0
  9
$REGENMODE
 70
     1
  9
$FILLMODE
 70
     1
  9
$QTEXTMODE
 70
     0
  9
$MIRRTEXT
 70
     1
  9
$DRAGMODE
 70
     2
  9
$LTSCALE
 40
1.0
  9
$OSMODE
 70
    37
  9
$ATTMODE
 70
     1
  9
$TEXTSIZE
 40
0.2
  9
$TRACEWID
 40
0.05
  9
$TEXTSTYLE
  7
STANDARD
  9
$CLAYER
  8
0
  9
$CELTYPE
  6
CONTINUOUS
  9
$CECOLOR
 62
   256
  9
$CELTSCALE
 40
1.0
  9
$DELOBJ
 70
     1
  9
$DISPSILH
 70
     0
  9
$DIMSCALE
 40
1.0
  9
$DIMASZ
 40
0.18
  9
$DIMEXO
 40
0.0625
  9
$DIMDLI
 40
0.38
  9
$DIMRND
 40
0.0
  9
$DIMDLE
 40
0.0
  9
$DIMEXE
 40
0.18
  9
$DIMTP
 40
0.0
  9
$DIMTM
 40
0.0
  9
$DIMTXT
 40
0.18
  9
$DIMCEN
 40
0.09
  9
$DIMTSZ
 40
0.0
  9
$DIMTOL
 70
     0
  9
$DIMLIM
 70
     0
  9
$DIMTIH
 70
     1
  9
$DIMTOH
 70
     1
  9
$DIMSE1
 70
     0
  9
$DIMSE2
 70
     0
  9
$DIMTAD
 70
     0
  9
$DIMZIN
 70
     0
  9
$DIMBLK
  1

  9
$DIMASO
 70
     1
  9
$DIMSHO
 70
     1
  9
$DIMPOST
  1

  9
$DIMAPOST
  1

  9
$DIMALT
 70
     0
  9
$DIMALTD
 70
     2
  9
$DIMALTF
 40
25.4
  9
$DIMLFAC
 40
1.0
  9
$DIMTOFL
 70
     0
  9
$DIMTVP
 40
0.0
  9
$DIMTIX
 70
     0
  9
$DIMSOXD
 70
     0
  9
$DIMSAH
 70
     0
  9
$DIMBLK1
  1

  9
$DIMBLK2
  1

  9
$DIMSTYLE
  2
STANDARD
  9
$DIMCLRD
 70
     0
  9
$DIMCLRE
 70
     0
  9
$DIMCLRT
 70
     0
  9
$DIMTFAC
 40
1.0
  9
$DIMGAP
 40
0.09
  9
$DIMJUST
 70
     0
  9
$DIMSD1
 70
     0
  9
$DIMSD2
 70
     0
  9
$DIMTOLJ
 70
     1
  9
$DIMTZIN
 70
     0
  9
$DIMALTZ
 70
     0
  9
$DIMALTTZ
 70
     0
  9
$DIMFIT
 70
     3
  9
$DIMUPT
 70
     0
  9
$DIMUNIT
 70
     2
  9
$DIMDEC
 70
     4
  9
$DIMTDEC
 70
     4
  9
$DIMALTU
 70
     2
  9
$DIMALTTD
 70
     2
  9
$DIMTXSTY
  7
STANDARD
  9
$DIMAUNIT
 70
     0
  9
$LUNITS
 70
     2
  9
$LUPREC
 70
     4
  9
$SKETCHINC
 40
0.1
  9
$FILLETRAD
 40
0.0
  9
$AUNITS
 70
     0
  9
$AUPREC
 70
     0
  9
$MENU
  1
.
  9
$ELEVATION
 40
0.0
  9
$PELEVATION
 40
0.0
  9
$THICKNESS
 40
0.0
  9
$LIMCHECK
 70
     0
  9
$BLIPMODE
 70
     0
  9
$CHAMFERA
 40
0.0
  9
$CHAMFERB
 40
0.0
  9
$CHAMFERC
 40
0.0
  9
$CHAMFERD
 40
0.0
  9
$SKPOLY
 70
     0
  9
$TDCREATE
 40
2454697.476531574
  9
$TDUPDATE
 40
2454697.478994132
  9
$TDINDWG
 40
0.0024625579
  9
$TDUSRTIMER
 40
0.0024625579
  9
$USRTIMER
 70
     1
  9
$ANGBASE
 50
0.0
  9
$ANGDIR
 70
     0
  9
$PDMODE
 70
     0
  9
$PDSIZE
 40
0.0
  9
$PLINEWID
 40
0.0
  9
$COORDS
 70
     1
  9
$SPLFRAME
 70
     0
  9
$SPLINETYPE
 70
     6
  9
$SPLINESEGS
 70
     8
  9
$ATTDIA
 70
     0
  9
$ATTREQ
 70
     1
  9
$HANDLING
 70
 22529
  9
$HANDSEED
  5
27D
  9
$SURFTAB1
 70
     6
  9
$SURFTAB2
 70
     6
  9
$SURFTYPE
 70
     6
  9
$SURFU
 70
     6
  9
$SURFV
 70
     6
  9
$UCSNAME
  2

  9
$UCSORG
 10
0.0
 20
0.0
 30
0.0
  9
$UCSXDIR
 10
1.0
 20
0.0
 30
0.0
  9
$UCSYDIR
 10
0.0
 20
1.0
 30
0.0
  9
$PUCSNAME
  2

  9
$PUCSORG
 10
0.0
 20
0.0
 30
0.0
  9
$PUCSXDIR
 10
1.0
 20
0.0
 30
0.0
  9
$PUCSYDIR
 10
0.0
 20
1.0
 30
0.0
  9
$USERI1
 70
     0
  9
$USERI2
 70
     0
  9
$USERI3
 70
     0
  9
$USERI4
 70
     0
  9
$USERI5
 70
     0
  9
$USERR1
 40
0.0
  9
$USERR2
 40
0.0
  9
$USERR3
 40
0.0
  9
$USERR4
 40
0.0
  9
$USERR5
 40
0.0
  9
$WORLDVIEW
 70
     1
  9
$SHADEDGE
 70
     3
  9
$SHADEDIF
 70
    70
  9
$TILEMODE
 70
     1
  9
$MAXACTVP
 70
    64
  9
$PINSBASE
 10
0.0
 20
0.0
 30
0.0
  9
$PLIMCHECK
 70
     0
  9
$PEXTMIN
 10
1.000000000000000E+20
 20
1.000000000000000E+20
 30
1.000000000000000E+20
  9
$PEXTMAX
 10
-1.000000000000000E+20
 20
-1.000000000000000E+20
 30
-1.000000000000000E+20
  9
$PLIMMIN
 10
0.0
 20
0.0
  9
$PLIMMAX
 10
12.0
 20
9.0
  9
$UNITMODE
 70
     0
  9
$VISRETAIN
 70
     1
  9
$PLINEGEN
 70
     0
  9
$PSLTSCALE
 70
     1
  9
$TREEDEPTH
 70
  3020
  9
$PICKSTYLE
 70
     1
  9
$CMLSTYLE
  2
STANDARD
  9
$CMLJUST
 70
     0
  9
$CMLSCALE
 40
1.0
  9
$PROXYGRAPHICS
 70
     1
  9
$MEASUREMENT
 70
     0
  0
ENDSEC
  0
SECTION
  2
CLASSES
  0
CLASS
  1
ACDBDICTIONARYWDFLT
  2
AcDbDictionaryWithDefault
  3
AutoCAD 2000
 90
        0
280
     0
281
     0
  0
CLASS
  1
ACDBPLACEHOLDER
  2
AcDbPlaceHolder
  3
AutoCAD 2000
 90
        0
280
     0
281
     0
  0
CLASS
  1
LAYOUT
  2
AcDbLayout
  3
AutoCAD 2000
 90
        0
280
     0
281
     0
  0
CLASS
  1
DICTIONARYVAR
  2
AcDbDictionaryVar
  3
AutoCAD 2000
 90
        0
280
     0
281
     0
  0
CLASS
  1
LONG_TRANSACTION
  2
AcDbLongTransaction
  3
AutoCAD 2000
 90
        0
280
     0
281
     0
  0
CLASS
  1
LWPOLYLINE
  2
AcDbPolyline
  3
AutoCAD 2000
 90
        0
280
     0
281
     1
  0
CLASS
  1
HATCH
  2
AcDbHatch
  3
AutoCAD 2000
 90
        0
280
     0
281
     1
  0
CLASS
  1
XRECORD
  2
AcDbXrecord
  3
AutoCAD 2000
 90
        0
280
     0
281
     0
  0
ENDSEC
  0
SECTION
  2
TABLES
  0
TABLE
  2
VPORT
  5
8
330
0
100
AcDbSymbolTable
 70
     2
  0
VPORT
  5
258
330
8
100
AcDbSymbolTableRecord
100
AcDbViewportTableRecord
  2
*ACTIVE
 70
     0
 10
0.0
 20
0.0
 11
1.0
 21
1.0
 12
42.5
 22
458.9999999999999
 13
0.0
 23
0.0
 14
1.0
 24
1.0
 15
0.0
 25
0.0
 16
0.0
 26
0.0
 36
1.0
 17
0.0
 27
0.0
 37
0.0
 40
924.8671355498723
 41
2.078104993597951
 42
50.0
 43
0.0
 44
0.0
 50
0.0
 51
0.0
 71
     0
 72
   100
 73
     1
 74
     3
 75
     0
 76
     0
 77
     0
 78
     0
  0
ENDTAB
  0
TABLE
  2
LTYPE
  5
5
330
0
100
AcDbSymbolTable
 70
     1
  0
LTYPE
  5
13
330
5
100
AcDbSymbolTableRecord
100
AcDbLinetypeTableRecord
  2
BYBLOCK
 70
     0
  3

 72
    65
 73
     0
 40
0.0
  0
LTYPE
  5
14
330
5
100
AcDbSymbolTableRecord
100
AcDbLinetypeTableRecord
  2
BYLAYER
 70
     0
  3

 72
    65
 73
     0
 40
0.0
  0
LTYPE
  5
15
330
5
100
AcDbSymbolTableRecord
100
AcDbLinetypeTableRecord
  2
CONTINUOUS
 70
     0
  3
Solid line
 72
    65
 73
     0
 40
0.0
  0
ENDTAB
  0
TABLE
  2
LAYER
  5
2
330
0
100
AcDbSymbolTable
 70
     1
  0
LAYER
  5
10
330
2
100
AcDbSymbolTableRecord
100
AcDbLayerTableRecord
  2
0
 70
     0
 62
     7
  6
CONTINUOUS
  0
ENDTAB
  0
TABLE
  2
STYLE
  5
3
330
0
100
AcDbSymbolTable
 70
     1
  0
STYLE
  5
11
330
3
100
AcDbSymbolTableRecord
100
AcDbTextStyleTableRecord
  2
STANDARD
 70
     0
 40
0.0
 41
1.0
 50
0.0
 71
     0
 42
0.2
  3
txt
  4

  0
ENDTAB
  0
TABLE
  2
VIEW
  5
6
330
0
100
AcDbSymbolTable
 70
     0
  0
ENDTAB
  0
TABLE
  2
UCS
  5
7
330
0
100
AcDbSymbolTable
 70
     0
  0
ENDTAB
  0
TABLE
  2
APPID
  5
9
330
0
100
AcDbSymbolTable
 70
     1
  0
APPID
  5
12
330
9
100
AcDbSymbolTableRecord
100
AcDbRegAppTableRecord
  2
ACAD
 70
     0
  0
ENDTAB
  0
TABLE
  2
DIMSTYLE
  5
A
330
0
100
AcDbSymbolTable
 70
     1
  0
DIMSTYLE
105
251
330
A
100
AcDbSymbolTableRecord
100
AcDbDimStyleTableRecord
  2
STANDARD
 70
     0
  3

  4

  5

  6

  7

 40
1.0
 41
0.18
 42
0.0625
 43
0.38
 44
0.18
 45
0.0
 46
0.0
 47
0.0
 48
0.0
140
0.18
141
0.09
142
0.0
143
25.4
144
1.0
145
0.0
146
1.0
147
0.09
 71
     0
 72
     0
 73
     1
 74
     1
 75
     0
 76
     0
 77
     0
 78
     0
170
     0
171
     2
172
     0
173
     0
174
     0
175
     0
176
     0
177
     0
178
     0
270
     2
271
     4
272
     4
273
     2
274
     2
340
11
275
     0
280
     0
281
     0
282
     0
283
     1
284
     0
285
     0
286
     0
287
     3
288
     0
  0
ENDTAB
  0
TABLE
  2
BLOCK_RECORD
  5
1
330
0
100
AcDbSymbolTable
 70
     0
  0
BLOCK_RECORD
  5
1E
102
{ACAD_XDICTIONARY
360
27B
102
}
330
1
100
AcDbSymbolTableRecord
100
AcDbBlockTableRecord
  2
*MODEL_SPACE
  0
BLOCK_RECORD
  5
1A
102
{ACAD_XDICTIONARY
360
279
102
}
330
1
100
AcDbSymbolTableRecord
100
AcDbBlockTableRecord
  2
*PAPER_SPACE
  0
ENDTAB
  0
ENDSEC
  0
SECTION
  2
BLOCKS
  0
BLOCK
  5
1F
330
1E
100
AcDbEntity
  8
0
100
AcDbBlockBegin
  2
*MODEL_SPACE
 70
     0
 10
0.0
 20
0.0
 30
0.0
  3
*MODEL_SPACE
  1

  0
ENDBLK
  5
20
330
1E
100
AcDbEntity
  8
0
100
AcDbBlockEnd
  0
BLOCK
  5
1B
330
1A
100
AcDbEntity
 67
     1
  8
0
100
AcDbBlockBegin
  2
*PAPER_SPACE
 70
     0
 10
0.0
 20
0.0
 30
0.0
  3
*PAPER_SPACE
  1

  0
ENDBLK
  5
1C
330
1A
100
AcDbEntity
 67
     1
  8
0
100
AcDbBlockEnd
  0
ENDSEC
  0
SECTION
  2
ENTITIES
  0
LINE
  5
22
330
1E
100
AcDbEntity
  8
0
100
AcDbLine
 10
21.93039999999999
 20
254.6124999999999
 30
0.0
 11
21.93039999999999
 21
253.4124999999999
 31
0.0
  0
LINE
  5
23
330
1E
100
AcDbEntity
  8
0
100
AcDbLine
 10
21.93039999999999
 20
254.6124999999999
 30
0.0
 11
21.93039999999999
 21
256.7124999999999
 31
0.0
  0
LINE
  5
24
330
1E
100
AcDbEntity
  8
0
100
AcDbLine
 10
21.93039999999999
 20
253.4124999999999
 30
0.0
 11
21.93039999999999
 21
252.9125
 31
0.0
  0
LINE
  5
25
330
1E
100
AcDbEntity
  8
0
100
AcDbLine
 10
21.93039999999999
 20
253.4124999999999
 30
0.0
 11
21.93039999999999
 21
254.6124999999999
 31
0.0
  0
LINE
  5
26
330
1E
100
AcDbEntity
  8
0
100
AcDbLine
 10
20.93039999999999
 20
262.9125
 30
0.0
 11
20.93039999999999
 21
261.7124999999999
 31
0.0
  0
LINE
  5
27
330
1E
100
AcDbEntity
  8
0
100
AcDbLine
 10
20.93039999999999
 20
262.9125
 30
0.0
 11
20.93039999999999
 21
264.4125
 31
0.0
  0
LINE
  5
28
330
1E
100
AcDbEntity
  8
0
100
AcDbLine
 10
20.93039999999999
 20
264.4125
 30
0.0
 11
20.93039999999999
 21
262.9125
 31
0.0
  0
LINE
  5
29
330
1E
100
AcDbEntity
  8
0
100
AcDbLine
 10
20.93039999999999
 20
264.4125
 30
0.0
 11
20.93039999999999
 21
265.9125
 31
0.0
  0
LINE
  5
2A
330
1E
100
AcDbEntity
  8
0
100
AcDbLine
 10
20.93039999999999
 20
261.7124999999999
 30
0.0
 11
20.93039999999999
 21
260.7124999999999
 31
0.0
  0
LINE
  5
2B
330
1E
100
AcDbEntity
  8
0
100
AcDbLine
 10
20.93039999999999
 20
261.7124999999999
 30
0.0
 11
20.93039999999999
 21
262.9125
 31
0.0
  0
LINE
  5
2C
330
1E
100
AcDbEntity
  8
0
100
AcDbLine
 10
20.93039999999999
 20
260.7124999999999
 30
0.0
 11
20.93039999999999
 21
260.1125
 31
0.0
  0
LINE
  5
2D
330
1E
100
AcDbEntity
  8
0
100
AcDbLine
 10
20.93039999999999
 20
260.7124999999999
 30
0.0
 11
20.93039999999999
 21
261.7124999999999
 31
0.0
  0
LINE
  5
2E
330
1E
100
AcDbEntity
  8
0
100
AcDbLine
 10
20.93039999999999
 20
260.1125
 30
0.0
 11
20.93039999999999
 21
259.9125
 31
0.0
  0
LINE
  5
2F
330
1E
100
AcDbEntity
  8
0
100
AcDbLine
 10
20.93039999999999
 20
260.1125
 30
0.0
 11
20.93039999999999
 21
260.7124999999999
 31
0.0
  0
LINE
  5
30
330
1E
100
AcDbEntity
  8
0
100
AcDbLine
 10
20.93039999999999
 20
265.9125
 30
0.0
 11
20.93039999999999
 21
267.4125
 31
0.0
  0
LINE
  5
31
330
1E
100
AcDbEntity
  8
0
100
AcDbLine
 10
20.93039999999999
 20
265.9125
 30
0.0
 11
20.93039999999999
 21
264.4125
 31
0.0
  0
LINE
  5
32
330
1E
100
AcDbEntity
  8
0
100
AcDbLine
 10
20.93039999999999
 20
271.1125
 30
0.0
 11
20.93039999999999
 21
270.1125
 31
0.0
  0
LINE
  5
33
330
1E
100
AcDbEntity
  8
0
100
AcDbLine
 10
20.93039999999999
 20
271.1125
 30
0.0
 11
20.93039999999999
 21
271.7124999999999
 31
0.0
  0
LINE
  5
34
330
1E
100
AcDbEntity
  8
0
100
AcDbLine
 10
20.93039999999999
 20
271.7124999999999
 30
0.0
 11
20.93039999999999
 21
271.1125
 31
0.0
  0
LINE
  5
35
330
1E
100
AcDbEntity
  8
0
100
AcDbLine
 10
20.93039999999999
 20
271.7124999999999
 30
0.0
 11
20.93039999999999
 21
271.9125
 31
0.0
  0
LINE
  5
36
330
1E
100
AcDbEntity
  8
0
100
AcDbLine
 10
20.93039999999999
 20
270.1125
 30
0.0
 11
20.93039999999999
 21
268.9125
 31
0.0
  0
LINE
  5
37
330
1E
100
AcDbEntity
  8
0
100
AcDbLine
 10
20.93039999999999
 20
270.1125
 30
0.0
 11
20.93039999999999
 21
271.1125
 31
0.0
  0
LINE
  5
38
330
1E
100
AcDbEntity
  8
0
100
AcDbLine
 10
20.93039999999999
 20
268.9125
 30
0.0
 11
20.93039999999999
 21
267.4125
 31
0.0
  0
LINE
  5
39
330
1E
100
AcDbEntity
  8
0
100
AcDbLine
 10
20.93039999999999
 20
268.9125
 30
0.0
 11
20.93039999999999
 21
270.1125
 31
0.0
  0
LINE
  5
3A
330
1E
100
AcDbEntity
  8
0
100
AcDbLine
 10
20.93039999999999
 20
267.4125
 30
0.0
 11
20.93039999999999
 21
265.9125
 31
0.0
  0
LINE
  5
3B
330
1E
100
AcDbEntity
  8
0
100
AcDbLine
 10
20.93039999999999
 20
267.4125
 30
0.0
 11
20.93039999999999
 21
268.9125
 31
0.0
  0
LINE
  5
3C
330
1E
100
AcDbEntity
  8
0
100
AcDbLine
 10
20.93039999999999
 20
271.9125
 30
0.0
 11
21.4304
 21
276.9125
 31
0.0
  0
LINE
  5
3D
330
1E
100
AcDbEntity
  8
0
100
AcDbLine
 10
20.93039999999999
 20
271.9125
 30
0.0
 11
20.93039999999999
 21
271.7124999999999
 31
0.0
  0
LINE
  5
3E
330
1E
100
AcDbEntity
  8
0
100
AcDbLine
 10
21.93039999999999
 20
259.4125
 30
0.0
 11
21.93039999999999
 21
256.7124999999999
 31
0.0
  0
LINE
  5
3F
330
1E
100
AcDbEntity
  8
0
100
AcDbLine
 10
21.93039999999999
 20
259.4125
 30
0.0
 11
21.93039999999999
 21
262.6125
 31
0.0
  0
LINE
  5
40
330
1E
100
AcDbEntity
  8
0
100
AcDbLine
 10
21.93039999999999
 20
262.6125
 30
0.0
 11
21.93039999999999
 21
259.4125
 31
0.0
  0
LINE
  5
41
330
1E
100
AcDbEntity
  8
0
100
AcDbLine
 10
21.93039999999999
 20
262.6125
 30
0.0
 11
21.93039999999999
 21
265.9125
 31
0.0
  0
LINE
  5
42
330
1E
100
AcDbEntity
  8
0
100
AcDbLine
 10
21.93039999999999
 20
256.7124999999999
 30
0.0
 11
21.93039999999999
 21
254.6124999999999
 31
0.0
  0
LINE
  5
43
330
1E
100
AcDbEntity
  8
0
100
AcDbLine
 10
21.93039999999999
 20
256.7124999999999
 30
0.0
 11
21.93039999999999
 21
259.4125
 31
0.0
  0
LINE
  5
44
330
1E
100
AcDbEntity
  8
0
100
AcDbLine
 10
21.93039999999999
 20
265.9125
 30
0.0
 11
21.93039999999999
 21
269.2124999999999
 31
0.0
  0
LINE
  5
45
330
1E
100
AcDbEntity
  8
0
100
AcDbLine
 10
21.93039999999999
 20
265.9125
 30
0.0
 11
21.93039999999999
 21
262.6125
 31
0.0
  0
LINE
  5
46
330
1E
100
AcDbEntity
  8
0
100
AcDbLine
 10
21.93039999999999
 20
277.2124999999999
 30
0.0
 11
21.93039999999999
 21
275.1125
 31
0.0
  0
LINE
  5
47
330
1E
100
AcDbEntity
  8
0
100
AcDbLine
 10
21.93039999999999
 20
277.2124999999999
 30
0.0
 11
21.93039999999999
 21
278.4125
 31
0.0
  0
LINE
  5
48
330
1E
100
AcDbEntity
  8
0
100
AcDbLine
 10
21.93039999999999
 20
278.4125
 30
0.0
 11
21.93039999999999
 21
277.2124999999999
 31
0.0
  0
LINE
  5
49
330
1E
100
AcDbEntity
  8
0
100
AcDbLine
 10
21.93039999999999
 20
278.4125
 30
0.0
 11
21.93039999999999
 21
278.9125
 31
0.0
  0
LINE
  5
4A
330
1E
100
AcDbEntity
  8
0
100
AcDbLine
 10
21.93039999999999
 20
275.1125
 30
0.0
 11
21.93039999999999
 21
272.4125
 31
0.0
  0
LINE
  5
4B
330
1E
100
AcDbEntity
  8
0
100
AcDbLine
 10
21.93039999999999
 20
275.1125
 30
0.0
 11
21.93039999999999
 21
277.2124999999999
 31
0.0
  0
LINE
  5
4C
330
1E
100
AcDbEntity
  8
0
100
AcDbLine
 10
21.93039999999999
 20
272.4125
 30
0.0
 11
21.93039999999999
 21
269.2124999999999
 31
0.0
  0
LINE
  5
4D
330
1E
100
AcDbEntity
  8
0
100
AcDbLine
 10
21.93039999999999
 20
272.4125
 30
0.0
 11
21.93039999999999
 21
275.1125
 31
0.0
  0
LINE
  5
4E
330
1E
100
AcDbEntity
  8
0
100
AcDbLine
 10
21.93039999999999
 20
269.2124999999999
 30
0.0
 11
21.93039999999999
 21
265.9125
 31
0.0
  0
LINE
  5
4F
330
1E
100
AcDbEntity
  8
0
100
AcDbLine
 10
21.93039999999999
 20
269.2124999999999
 30
0.0
 11
21.93039999999999
 21
272.4125
 31
0.0
  0
LINE
  5
50
330
1E
100
AcDbEntity
  8
0
100
AcDbLine
 10
21.4304
 20
276.9125
 30
0.0
 11
21.93039999999999
 21
278.9125
 31
0.0
  0
LINE
  5
51
330
1E
100
AcDbEntity
  8
0
100
AcDbLine
 10
21.93039999999999
 20
278.9125
 30
0.0
 11
50.64208175242621
 21
278.9125
 31
0.0
  0
LINE
  5
52
330
1E
100
AcDbEntity
  8
0
100
AcDbLine
 10
21.93039999999999
 20
278.9125
 30
0.0
 11
21.93039999999999
 21
278.4125
 31
0.0
  0
LINE
  5
53
330
1E
100
AcDbEntity
  8
0
100
AcDbLine
 10
20.93039999999999
 20
259.9125
 30
0.0
 11
21.4304
 21
254.9125
 31
0.0
  0
LINE
  5
54
330
1E
100
AcDbEntity
  8
0
100
AcDbLine
 10
20.93039999999999
 20
259.9125
 30
0.0
 11
20.93039999999999
 21
260.1125
 31
0.0
  0
LINE
  5
55
330
1E
100
AcDbEntity
  8
0
100
AcDbLine
 10
21.4304
 20
254.9125
 30
0.0
 11
21.93039999999999
 21
252.9125
 31
0.0
  0
LINE
  5
56
330
1E
100
AcDbEntity
  8
0
100
AcDbLine
 10
30.1656
 20
635.2215
 30
0.0
 11
32.9680162439602
 21
633.0594411725209
 31
0.0
  0
LINE
  5
57
330
1E
100
AcDbEntity
  8
0
100
AcDbLine
 10
30.2071
 20
635.2454999999999
 30
0.0
 11
32.96147821072819
 21
633.0783056577971
 31
0.0
  0
LINE
  5
58
330
1E
100
AcDbEntity
  8
0
100
AcDbLine
 10
27.34189999999999
 20
638.9124999999999
 30
0.0
 11
30.2071
 21
635.2454999999999
 31
0.0
  0
LINE
  5
59
330
1E
100
AcDbEntity
  8
0
100
AcDbLine
 10
27.34189999999999
 20
638.9124999999999
 30
0.0
 11
30.1656
 21
635.2215
 31
0.0
  0
LINE
  5
5A
330
1E
100
AcDbEntity
  8
0
100
AcDbLine
 10
21.93039999999999
 20
252.9125
 30
0.0
 11
42.43039999999999
 21
252.9125
 31
0.0
  0
LINE
  5
5B
330
1E
100
AcDbEntity
  8
0
100
AcDbLine
 10
21.93039999999999
 20
252.9125
 30
0.0
 11
21.93039999999999
 21
253.4124999999999
 31
0.0
  0
LINE
  5
5C
330
1E
100
AcDbEntity
  8
0
100
AcDbLine
 10
27.34194
 20
638.9124999999999
 30
0.0
 11
30.20713
 21
635.2454999999999
 31
0.0
  0
LINE
  5
5D
330
1E
100
AcDbEntity
  8
0
100
AcDbLine
 10
30.20713
 20
635.2454999999999
 30
0.0
 11
31.93039999999999
 21
633.889589028489
 31
0.0
  0
LINE
  5
5E
330
1E
100
AcDbEntity
  8
0
100
AcDbLine
 10
30.20713
 20
635.2454999999999
 30
0.0
 11
32.9614754355853
 21
633.078313665043
 31
0.0
  0
LINE
  5
5F
330
1E
100
AcDbEntity
  8
0
100
AcDbLine
 10
24.9356
 20
647.8324999999999
 30
0.0
 11
25.5991
 21
643.2274999999999
 31
0.0
  0
LINE
  5
60
330
1E
100
AcDbEntity
  8
0
100
AcDbLine
 10
24.9356
 20
647.8324999999999
 30
0.0
 11
25.52179999999999
 21
652.5775
 31
0.0
  0
LINE
  5
61
330
1E
100
AcDbEntity
  8
0
100
AcDbLine
 10
24.9356
 20
647.8324999999999
 30
0.0
 11
25.5576
 21
643.2034999999999
 31
0.0
  0
LINE
  5
62
330
1E
100
AcDbEntity
  8
0
100
AcDbLine
 10
24.9356
 20
647.8324999999999
 30
0.0
 11
25.5166
 21
652.5744999999999
 31
0.0
  0
LINE
  5
64
330
1E
100
AcDbEntity
  8
0
100
AcDbLine
 10
0.0695999999999906
 20
696.8524999999999
 30
0.0
 11
0.41599999999999
 21
697.0515
 31
0.0
  0
LINE
  5
65
330
1E
100
AcDbEntity
  8
0
100
AcDbLine
 10
0.0695999999999907
 20
696.8524999999999
 30
0.0
 11
0.41599999999999
 21
697.0515
 31
0.0
  0
LINE
  5
6D
330
1E
100
AcDbEntity
  8
0
100
AcDbLine
 10
0.41599999999999
 20
697.0515
 30
0.0
 11
1.368699999999989
 21
697.6024999999999
 31
0.0
  0
LINE
  5
6F
330
1E
100
AcDbEntity
  8
0
100
AcDbLine
 10
1.368699999999989
 20
697.6024999999999
 30
0.0
 11
3.01409999999999
 21
698.5515
 31
0.0
  0
LINE
  5
73
330
1E
100
AcDbEntity
  8
0
100
AcDbLine
 10
3.01409999999999
 20
698.5515
 30
0.0
 11
5.09259999999999
 21
699.7525
 31
0.0
  0
LINE
  5
75
330
1E
100
AcDbEntity
  8
0
100
AcDbLine
 10
5.09259999999999
 20
699.7525
 30
0.0
 11
7.43089999999999
 21
701.1025
 31
0.0
  0
LINE
  5
79
330
1E
100
AcDbEntity
  8
0
100
AcDbLine
 10
15.59186056594239
 20
672.823006324308
 30
0.0
 11
22.30975145004419
 21
661.187313954367
 31
0.0
  0
LINE
  5
7A
330
1E
100
AcDbEntity
  8
0
100
AcDbLine
 10
15.59186056594239
 20
672.823006324308
 30
0.0
 11
23.2132
 21
659.6224999999999
 31
0.0
  0
LINE
  5
88
330
1E
100
AcDbEntity
  8
0
100
AcDbLine
 10
12.62704
 20
704.1024999999999
 30
0.0
 11
14.96523999999999
 21
705.4524999999999
 31
0.0
  0
LINE
  5
8F
330
1E
100
AcDbEntity
  8
0
100
AcDbLine
 10
19.64183999999999
 20
708.1525
 30
0.0
 11
21.28859999999999
 21
709.3185
 31
0.0
  0
LINE
  5
90
330
1E
100
AcDbEntity
  8
0
100
AcDbLine
 10
18.68914
 20
707.6024999999999
 30
0.0
 11
19.64183999999999
 21
708.1525
 31
0.0
  0
LINE
  5
91
330
1E
100
AcDbEntity
  8
0
100
AcDbLine
 10
17.04374
 20
706.6525
 30
0.0
 11
18.68914
 21
707.6024999999999
 31
0.0
  0
LINE
  5
94
330
1E
100
AcDbEntity
  8
0
100
AcDbLine
 10
21.28859999999999
 20
709.3185
 30
0.0
 11
22.43419999999999
 21
709.9795
 31
0.0
  0
LINE
  5
96
330
1E
100
AcDbEntity
  8
0
100
AcDbLine
 10
14.96523999999999
 20
705.4524999999999
 30
0.0
 11
17.04374
 21
706.6525
 31
0.0
  0
LINE
  5
97
330
1E
100
AcDbEntity
  8
0
100
AcDbLine
 10
10.0289
 20
702.6024999999999
 30
0.0
 11
12.62704
 21
704.1024999999999
 31
0.0
  0
LINE
  5
99
330
1E
100
AcDbEntity
  8
0
100
AcDbLine
 10
7.43089999999999
 20
701.1025
 30
0.0
 11
10.0289
 21
702.6024999999999
 31
0.0
  0
LINE
  5
9A
330
1E
100
AcDbEntity
  8
0
100
AcDbLine
 10
21.4304
 20
880.9124999999999
 30
0.0
 11
21.93039999999999
 21
878.9125
 31
0.0
  0
LINE
  5
9B
330
1E
100
AcDbEntity
  8
0
100
AcDbLine
 10
21.93039999999999
 20
880.6124999999999
 30
0.0
 11
21.93039999999999
 21
882.7125
 31
0.0
  0
LINE
  5
9C
330
1E
100
AcDbEntity
  8
0
100
AcDbLine
 10
21.93039999999999
 20
880.6124999999999
 30
0.0
 11
21.93039999999999
 21
879.4125000000001
 31
0.0
  0
LINE
  5
9D
330
1E
100
AcDbEntity
  8
0
100
AcDbLine
 10
21.93039999999999
 20
879.4125000000001
 30
0.0
 11
21.93039999999999
 21
880.6124999999999
 31
0.0
  0
LINE
  5
9E
330
1E
100
AcDbEntity
  8
0
100
AcDbLine
 10
21.93039999999999
 20
879.4125000000001
 30
0.0
 11
21.93039999999999
 21
878.9125
 31
0.0
  0
LINE
  5
9F
330
1E
100
AcDbEntity
  8
0
100
AcDbLine
 10
21.93039999999999
 20
878.9125
 30
0.0
 11
21.93039999999999
 21
879.4125000000001
 31
0.0
  0
LINE
  5
A0
330
1E
100
AcDbEntity
  8
0
100
AcDbLine
 10
21.93039999999999
 20
878.9125
 30
0.0
 11
53.9304
 21
878.9125
 31
0.0
  0
LINE
  5
A1
330
1E
100
AcDbEntity
  8
0
100
AcDbLine
 10
20.93039999999999
 20
887.7124999999999
 30
0.0
 11
20.93039999999999
 21
886.7124999999999
 31
0.0
  0
LINE
  5
A2
330
1E
100
AcDbEntity
  8
0
100
AcDbLine
 10
20.93039999999999
 20
887.7124999999999
 30
0.0
 11
20.93039999999999
 21
888.9124999999999
 31
0.0
  0
LINE
  5
A3
330
1E
100
AcDbEntity
  8
0
100
AcDbLine
 10
20.93039999999999
 20
886.7124999999999
 30
0.0
 11
20.93039999999999
 21
886.1124999999999
 31
0.0
  0
LINE
  5
A4
330
1E
100
AcDbEntity
  8
0
100
AcDbLine
 10
20.93039999999999
 20
886.7124999999999
 30
0.0
 11
20.93039999999999
 21
887.7124999999999
 31
0.0
  0
LINE
  5
A5
330
1E
100
AcDbEntity
  8
0
100
AcDbLine
 10
20.93039999999999
 20
886.1124999999999
 30
0.0
 11
20.93039999999999
 21
885.9125
 31
0.0
  0
LINE
  5
A6
330
1E
100
AcDbEntity
  8
0
100
AcDbLine
 10
20.93039999999999
 20
886.1124999999999
 30
0.0
 11
20.93039999999999
 21
886.7124999999999
 31
0.0
  0
LINE
  5
A7
330
1E
100
AcDbEntity
  8
0
100
AcDbLine
 10
20.93039999999999
 20
885.9125
 30
0.0
 11
21.4304
 21
880.9124999999999
 31
0.0
  0
LINE
  5
A8
330
1E
100
AcDbEntity
  8
0
100
AcDbLine
 10
20.93039999999999
 20
885.9125
 30
0.0
 11
20.93039999999999
 21
886.1124999999999
 31
0.0
  0
LINE
  5
A9
330
1E
100
AcDbEntity
  8
0
100
AcDbLine
 10
21.93039999999999
 20
882.7125
 30
0.0
 11
21.93039999999999
 21
885.4124999999999
 31
0.0
  0
LINE
  5
AA
330
1E
100
AcDbEntity
  8
0
100
AcDbLine
 10
21.93039999999999
 20
882.7125
 30
0.0
 11
21.93039999999999
 21
880.6124999999999
 31
0.0
  0
LINE
  5
AF
330
1E
100
AcDbEntity
  8
0
100
AcDbLine
 10
23.2132
 20
659.6224999999999
 30
0.0
 11
34.2946
 21
640.4294999999999
 31
0.0
  0
LINE
  5
B0
330
1E
100
AcDbEntity
  8
0
100
AcDbLine
 10
22.43419999999999
 20
709.9795
 30
0.0
 11
22.8638
 21
710.2274999999999
 31
0.0
  0
LINE
  5
B1
330
1E
100
AcDbEntity
  8
0
100
AcDbLine
 10
22.8638
 20
710.2274999999999
 30
0.0
 11
44.86379999999999
 21
672.1224999999999
 31
0.0
  0
LINE
  5
B4
330
1E
100
AcDbEntity
  8
0
100
AcDbLine
 10
21.93039999999999
 20
885.4124999999999
 30
0.0
 11
21.93039999999999
 21
888.6124999999999
 31
0.0
  0
LINE
  5
B5
330
1E
100
AcDbEntity
  8
0
100
AcDbLine
 10
21.93039999999999
 20
885.4124999999999
 30
0.0
 11
21.93039999999999
 21
882.7125
 31
0.0
  0
LINE
  5
B6
330
1E
100
AcDbEntity
  8
0
100
AcDbLine
 10
20.93039999999999
 20
888.9124999999999
 30
0.0
 11
20.93039999999999
 21
887.7124999999999
 31
0.0
  0
LINE
  5
B7
330
1E
100
AcDbEntity
  8
0
100
AcDbLine
 10
20.93039999999999
 20
888.9124999999999
 30
0.0
 11
20.93039999999999
 21
890.4125
 31
0.0
  0
LINE
  5
B8
330
1E
100
AcDbEntity
  8
0
100
AcDbLine
 10
20.93039999999999
 20
890.4125
 30
0.0
 11
20.93039999999999
 21
888.9124999999999
 31
0.0
  0
LINE
  5
B9
330
1E
100
AcDbEntity
  8
0
100
AcDbLine
 10
20.93039999999999
 20
890.4125
 30
0.0
 11
20.93039999999999
 21
891.9125000000001
 31
0.0
  0
LINE
  5
BA
330
1E
100
AcDbEntity
  8
0
100
AcDbLine
 10
20.93039999999999
 20
891.9125000000001
 30
0.0
 11
20.93039999999999
 21
893.4124999999999
 31
0.0
  0
LINE
  5
BB
330
1E
100
AcDbEntity
  8
0
100
AcDbLine
 10
20.93039999999999
 20
891.9125000000001
 30
0.0
 11
20.93039999999999
 21
890.4125
 31
0.0
  0
LINE
  5
BC
330
1E
100
AcDbEntity
  8
0
100
AcDbLine
 10
20.93039999999999
 20
897.1124999999998
 30
0.0
 11
20.93039999999999
 21
896.1124999999999
 31
0.0
  0
LINE
  5
BD
330
1E
100
AcDbEntity
  8
0
100
AcDbLine
 10
20.93039999999999
 20
897.1124999999998
 30
0.0
 11
20.93039999999999
 21
897.7124999999999
 31
0.0
  0
LINE
  5
BE
330
1E
100
AcDbEntity
  8
0
100
AcDbLine
 10
20.93039999999999
 20
897.7124999999999
 30
0.0
 11
20.93039999999999
 21
897.1124999999998
 31
0.0
  0
LINE
  5
BF
330
1E
100
AcDbEntity
  8
0
100
AcDbLine
 10
20.93039999999999
 20
897.7124999999999
 30
0.0
 11
20.93039999999999
 21
897.9124999999999
 31
0.0
  0
LINE
  5
C0
330
1E
100
AcDbEntity
  8
0
100
AcDbLine
 10
20.93039999999999
 20
896.1124999999999
 30
0.0
 11
20.93039999999999
 21
894.9125
 31
0.0
  0
LINE
  5
C1
330
1E
100
AcDbEntity
  8
0
100
AcDbLine
 10
20.93039999999999
 20
896.1124999999999
 30
0.0
 11
20.93039999999999
 21
897.1124999999998
 31
0.0
  0
LINE
  5
C2
330
1E
100
AcDbEntity
  8
0
100
AcDbLine
 10
20.93039999999999
 20
894.9125
 30
0.0
 11
20.93039999999999
 21
893.4124999999999
 31
0.0
  0
LINE
  5
C3
330
1E
100
AcDbEntity
  8
0
100
AcDbLine
 10
20.93039999999999
 20
894.9125
 30
0.0
 11
20.93039999999999
 21
896.1124999999999
 31
0.0
  0
LINE
  5
C4
330
1E
100
AcDbEntity
  8
0
100
AcDbLine
 10
20.93039999999999
 20
893.4124999999999
 30
0.0
 11
20.93039999999999
 21
891.9125000000001
 31
0.0
  0
LINE
  5
C5
330
1E
100
AcDbEntity
  8
0
100
AcDbLine
 10
20.93039999999999
 20
893.4124999999999
 30
0.0
 11
20.93039999999999
 21
894.9125
 31
0.0
  0
LINE
  5
C6
330
1E
100
AcDbEntity
  8
0
100
AcDbLine
 10
21.93039999999999
 20
898.4125
 30
0.0
 11
21.93039999999999
 21
901.1124999999999
 31
0.0
  0
LINE
  5
C7
330
1E
100
AcDbEntity
  8
0
100
AcDbLine
 10
21.93039999999999
 20
898.4125
 30
0.0
 11
21.93039999999999
 21
895.2125
 31
0.0
  0
LINE
  5
C8
330
1E
100
AcDbEntity
  8
0
100
AcDbLine
 10
21.93039999999999
 20
895.2125
 30
0.0
 11
21.93039999999999
 21
898.4125
 31
0.0
  0
LINE
  5
C9
330
1E
100
AcDbEntity
  8
0
100
AcDbLine
 10
21.93039999999999
 20
895.2125
 30
0.0
 11
21.93039999999999
 21
891.9125000000001
 31
0.0
  0
LINE
  5
CA
330
1E
100
AcDbEntity
  8
0
100
AcDbLine
 10
20.93039999999999
 20
897.9124999999999
 30
0.0
 11
21.4304
 21
902.9125
 31
0.0
  0
LINE
  5
CB
330
1E
100
AcDbEntity
  8
0
100
AcDbLine
 10
20.93039999999999
 20
897.9124999999999
 30
0.0
 11
20.93039999999999
 21
897.7124999999999
 31
0.0
  0
LINE
  5
CC
330
1E
100
AcDbEntity
  8
0
100
AcDbLine
 10
21.4304
 20
902.9125
 30
0.0
 11
21.93039999999999
 21
904.9125
 31
0.0
  0
LINE
  5
CD
330
1E
100
AcDbEntity
  8
0
100
AcDbLine
 10
21.93039999999999
 20
901.1124999999999
 30
0.0
 11
21.93039999999999
 21
903.2125
 31
0.0
  0
LINE
  5
CE
330
1E
100
AcDbEntity
  8
0
100
AcDbLine
 10
21.93039999999999
 20
901.1124999999999
 30
0.0
 11
21.93039999999999
 21
898.4125
 31
0.0
  0
LINE
  5
CF
330
1E
100
AcDbEntity
  8
0
100
AcDbLine
 10
21.93039999999999
 20
903.2125
 30
0.0
 11
21.93039999999999
 21
904.4125000000001
 31
0.0
  0
LINE
  5
D0
330
1E
100
AcDbEntity
  8
0
100
AcDbLine
 10
21.93039999999999
 20
903.2125
 30
0.0
 11
21.93039999999999
 21
901.1124999999999
 31
0.0
  0
LINE
  5
D1
330
1E
100
AcDbEntity
  8
0
100
AcDbLine
 10
21.93039999999999
 20
904.9125
 30
0.0
 11
42.43039999999999
 21
904.9125
 31
0.0
  0
LINE
  5
D2
330
1E
100
AcDbEntity
  8
0
100
AcDbLine
 10
21.93039999999999
 20
904.9125
 30
0.0
 11
21.93039999999999
 21
904.4125000000001
 31
0.0
  0
LINE
  5
D3
330
1E
100
AcDbEntity
  8
0
100
AcDbLine
 10
21.93039999999999
 20
904.4125000000001
 30
0.0
 11
21.93039999999999
 21
904.9125
 31
0.0
  0
LINE
  5
D4
330
1E
100
AcDbEntity
  8
0
100
AcDbLine
 10
21.93039999999999
 20
904.4125000000001
 30
0.0
 11
21.93039999999999
 21
903.2125
 31
0.0
  0
LINE
  5
D5
330
1E
100
AcDbEntity
  8
0
100
AcDbLine
 10
21.93039999999999
 20
891.9125000000001
 30
0.0
 11
21.93039999999999
 21
888.6124999999999
 31
0.0
  0
LINE
  5
D6
330
1E
100
AcDbEntity
  8
0
100
AcDbLine
 10
21.93039999999999
 20
891.9125000000001
 30
0.0
 11
21.93039999999999
 21
895.2125
 31
0.0
  0
LINE
  5
D7
330
1E
100
AcDbEntity
  8
0
100
AcDbLine
 10
21.93039999999999
 20
888.6124999999999
 30
0.0
 11
21.93039999999999
 21
891.9125000000001
 31
0.0
  0
LINE
  5
D8
330
1E
100
AcDbEntity
  8
0
100
AcDbLine
 10
21.93039999999999
 20
888.6124999999999
 30
0.0
 11
21.93039999999999
 21
885.4124999999999
 31
0.0
  0
LINE
  5
D9
330
1E
100
AcDbEntity
  8
0
100
AcDbLine
 10
25.5166
 20
652.5744999999999
 30
0.0
 11
25.7586228957805
 21
653.145032508842
 31
0.0
  0
LINE
  5
DA
330
1E
100
AcDbEntity
  8
0
100
AcDbLine
 10
25.41774
 20
647.8614999999999
 30
0.0
 11
26.01354
 21
652.4455
 31
0.0
  0
LINE
  5
DB
330
1E
100
AcDbEntity
  8
0
100
AcDbLine
 10
25.41774
 20
647.8614999999999
 30
0.0
 11
26.00925
 21
643.3804999999999
 31
0.0
  0
LINE
  5
DD
330
1E
100
AcDbEntity
  8
0
100
AcDbLine
 10
24.93562
 20
647.8324999999999
 30
0.0
 11
25.52177
 21
652.5775
 31
0.0
  0
LINE
  5
DE
330
1E
100
AcDbEntity
  8
0
100
AcDbLine
 10
24.93562
 20
647.8324999999999
 30
0.0
 11
25.59912999999999
 21
643.2274999999999
 31
0.0
  0
LINE
  5
DF
330
1E
100
AcDbEntity
  8
0
100
AcDbLine
 10
25.5576
 20
643.2034999999999
 30
0.0
 11
27.34189999999999
 21
638.9124999999999
 31
0.0
  0
LINE
  5
E0
330
1E
100
AcDbEntity
  8
0
100
AcDbLine
 10
25.5991
 20
643.2274999999999
 30
0.0
 11
27.34189999999999
 21
638.9124999999999
 31
0.0
  0
LINE
  5
E1
330
1E
100
AcDbEntity
  8
0
100
AcDbLine
 10
25.52179999999999
 20
652.5775
 30
0.0
 11
25.7604266775168
 21
653.140826344414
 31
0.0
  0
LINE
  5
E2
330
1E
100
AcDbEntity
  8
0
100
AcDbLine
 10
26.00925
 20
643.3804999999999
 30
0.0
 11
27.71607
 21
639.1285
 31
0.0
  0
LINE
  5
EB
330
1E
100
AcDbEntity
  8
0
100
AcDbLine
 10
28.69471990829985
 20
650.1285
 30
0.0
 11
34.9532
 21
627.3315
 31
0.0
  0
LINE
  5
EE
330
1E
100
AcDbEntity
  8
0
100
AcDbLine
 10
26.01354
 20
652.4455
 30
0.0
 11
26.03573705073889
 21
652.4988414107451
 31
0.0
  0
LINE
  5
EF
330
1E
100
AcDbEntity
  8
0
100
AcDbLine
 10
26.01354
 20
652.4455
 30
0.0
 11
26.0644638491786
 21
652.431854571219
 31
0.0
  0
LINE
  5
F0
330
1E
100
AcDbEntity
  8
0
100
AcDbLine
 10
25.59912999999999
 20
643.2274999999999
 30
0.0
 11
27.34194
 21
638.9124999999999
 31
0.0
  0
LINE
  5
F1
330
1E
100
AcDbEntity
  8
0
100
AcDbLine
 10
25.52177
 20
652.5775
 30
0.0
 11
25.760414804406
 21
653.140854030833
 31
0.0
  0
LINE
  5
F2
330
1E
100
AcDbEntity
  8
0
100
AcDbLine
 10
27.71607
 20
639.1285
 30
0.0
 11
30.54524999999999
 21
635.5245
 31
0.0
  0
LINE
  5
F4
330
1E
100
AcDbEntity
  8
0
100
AcDbLine
 10
42.43039999999999
 20
252.9125
 30
0.0
 11
42.9304
 21
253.4124999999999
 31
0.0
  0
LINE
  5
F5
330
1E
100
AcDbEntity
  8
0
100
AcDbLine
 10
42.43039999999999
 20
252.9125
 30
0.0
 11
42.43039999999999
 21
253.4124999999999
 31
0.0
  0
LINE
  5
F6
330
1E
100
AcDbEntity
  8
0
100
AcDbLine
 10
42.43039999999999
 20
259.4125
 30
0.0
 11
42.43039999999999
 21
256.7124999999999
 31
0.0
  0
LINE
  5
F7
330
1E
100
AcDbEntity
  8
0
100
AcDbLine
 10
42.43039999999999
 20
259.4125
 30
0.0
 11
42.43039999999999
 21
262.6125
 31
0.0
  0
LINE
  5
F8
330
1E
100
AcDbEntity
  8
0
100
AcDbLine
 10
42.43039999999999
 20
262.6125
 30
0.0
 11
42.43039999999999
 21
259.4125
 31
0.0
  0
LINE
  5
F9
330
1E
100
AcDbEntity
  8
0
100
AcDbLine
 10
42.43039999999999
 20
262.6125
 30
0.0
 11
42.43039999999999
 21
265.9125
 31
0.0
  0
LINE
  5
FA
330
1E
100
AcDbEntity
  8
0
100
AcDbLine
 10
42.43039999999999
 20
256.7124999999999
 30
0.0
 11
42.43039999999999
 21
254.6124999999999
 31
0.0
  0
LINE
  5
FB
330
1E
100
AcDbEntity
  8
0
100
AcDbLine
 10
42.43039999999999
 20
256.7124999999999
 30
0.0
 11
42.43039999999999
 21
259.4125
 31
0.0
  0
LINE
  5
FC
330
1E
100
AcDbEntity
  8
0
100
AcDbLine
 10
42.43039999999999
 20
254.6124999999999
 30
0.0
 11
42.43039999999999
 21
253.4124999999999
 31
0.0
  0
LINE
  5
FD
330
1E
100
AcDbEntity
  8
0
100
AcDbLine
 10
42.43039999999999
 20
254.6124999999999
 30
0.0
 11
42.43039999999999
 21
256.7124999999999
 31
0.0
  0
LINE
  5
FE
330
1E
100
AcDbEntity
  8
0
100
AcDbLine
 10
42.43039999999999
 20
253.4124999999999
 30
0.0
 11
42.43039999999999
 21
252.9125
 31
0.0
  0
LINE
  5
FF
330
1E
100
AcDbEntity
  8
0
100
AcDbLine
 10
42.43039999999999
 20
253.4124999999999
 30
0.0
 11
42.43039999999999
 21
254.6124999999999
 31
0.0
  0
LINE
  5
100
330
1E
100
AcDbEntity
  8
0
100
AcDbLine
 10
42.9304
 20
259.7124999999999
 30
0.0
 11
42.9304
 21
257.1125
 31
0.0
  0
LINE
  5
101
330
1E
100
AcDbEntity
  8
0
100
AcDbLine
 10
42.9304
 20
259.7124999999999
 30
0.0
 11
42.9304
 21
262.7124999999999
 31
0.0
  0
LINE
  5
102
330
1E
100
AcDbEntity
  8
0
100
AcDbLine
 10
42.9304
 20
262.7124999999999
 30
0.0
 11
42.9304
 21
259.7124999999999
 31
0.0
  0
LINE
  5
103
330
1E
100
AcDbEntity
  8
0
100
AcDbLine
 10
42.9304
 20
262.7124999999999
 30
0.0
 11
42.9304
 21
265.9125
 31
0.0
  0
LINE
  5
104
330
1E
100
AcDbEntity
  8
0
100
AcDbLine
 10
42.9304
 20
257.1125
 30
0.0
 11
42.9304
 21
255.1125
 31
0.0
  0
LINE
  5
105
330
1E
100
AcDbEntity
  8
0
100
AcDbLine
 10
42.9304
 20
257.1125
 30
0.0
 11
42.9304
 21
259.7124999999999
 31
0.0
  0
LINE
  5
106
330
1E
100
AcDbEntity
  8
0
100
AcDbLine
 10
42.9304
 20
255.1125
 30
0.0
 11
42.9304
 21
253.9124999999999
 31
0.0
  0
LINE
  5
107
330
1E
100
AcDbEntity
  8
0
100
AcDbLine
 10
42.9304
 20
255.1125
 30
0.0
 11
42.9304
 21
257.1125
 31
0.0
  0
LINE
  5
108
330
1E
100
AcDbEntity
  8
0
100
AcDbLine
 10
42.9304
 20
253.9124999999999
 30
0.0
 11
42.9304
 21
253.4124999999999
 31
0.0
  0
LINE
  5
109
330
1E
100
AcDbEntity
  8
0
100
AcDbLine
 10
42.9304
 20
253.9124999999999
 30
0.0
 11
42.9304
 21
255.1125
 31
0.0
  0
LINE
  5
10A
330
1E
100
AcDbEntity
  8
0
100
AcDbLine
 10
42.9304
 20
265.9125
 30
0.0
 11
42.9304
 21
269.1124999999999
 31
0.0
  0
LINE
  5
10B
330
1E
100
AcDbEntity
  8
0
100
AcDbLine
 10
42.9304
 20
265.9125
 30
0.0
 11
42.9304
 21
262.7124999999999
 31
0.0
  0
LINE
  5
10C
330
1E
100
AcDbEntity
  8
0
100
AcDbLine
 10
42.43039999999999
 20
265.9125
 30
0.0
 11
42.43039999999999
 21
269.2124999999999
 31
0.0
  0
LINE
  5
10D
330
1E
100
AcDbEntity
  8
0
100
AcDbLine
 10
42.43039999999999
 20
265.9125
 30
0.0
 11
42.43039999999999
 21
262.6125
 31
0.0
  0
LINE
  5
10E
330
1E
100
AcDbEntity
  8
0
100
AcDbLine
 10
42.43039999999999
 20
269.2124999999999
 30
0.0
 11
42.43039999999999
 21
278.9125
 31
0.0
  0
LINE
  5
10F
330
1E
100
AcDbEntity
  8
0
100
AcDbLine
 10
41.15319999999999
 20
602.9355
 30
0.0
 11
45.7522
 21
578.7285
 31
0.0
  0
LINE
  5
110
330
1E
100
AcDbEntity
  8
0
100
AcDbLine
 10
34.9532
 20
627.3315
 30
0.0
 11
41.15319999999999
 21
602.9355
 31
0.0
  0
LINE
  5
111
330
1E
100
AcDbEntity
  8
0
100
AcDbLine
 10
31.93039999999999
 20
278.9125
 30
0.0
 11
31.93039999999999
 21
636.0533226139609
 31
0.0
  0
LINE
  5
112
330
1E
100
AcDbEntity
  8
0
100
AcDbLine
 10
42.43039999999999
 20
278.9125
 30
0.0
 11
42.43039999999999
 21
269.2124999999999
 31
0.0
  0
LINE
  5
113
330
1E
100
AcDbEntity
  8
0
100
AcDbLine
 10
42.9304
 20
278.9125
 30
0.0
 11
42.9304
 21
269.1124999999999
 31
0.0
  0
LINE
  5
114
330
1E
100
AcDbEntity
  8
0
100
AcDbLine
 10
42.9304
 20
269.1124999999999
 30
0.0
 11
42.9304
 21
265.9125
 31
0.0
  0
LINE
  5
115
330
1E
100
AcDbEntity
  8
0
100
AcDbLine
 10
42.9304
 20
269.1124999999999
 30
0.0
 11
42.9304
 21
278.9125
 31
0.0
  0
LINE
  5
116
330
1E
100
AcDbEntity
  8
0
100
AcDbLine
 10
43.4304
 20
259.4125
 30
0.0
 11
43.4304
 21
256.7124999999999
 31
0.0
  0
LINE
  5
117
330
1E
100
AcDbEntity
  8
0
100
AcDbLine
 10
43.4304
 20
259.4125
 30
0.0
 11
43.4304
 21
262.6125
 31
0.0
  0
LINE
  5
118
330
1E
100
AcDbEntity
  8
0
100
AcDbLine
 10
43.4304
 20
262.6125
 30
0.0
 11
43.4304
 21
259.4125
 31
0.0
  0
LINE
  5
119
330
1E
100
AcDbEntity
  8
0
100
AcDbLine
 10
43.4304
 20
262.6125
 30
0.0
 11
43.4304
 21
265.9125
 31
0.0
  0
LINE
  5
11A
330
1E
100
AcDbEntity
  8
0
100
AcDbLine
 10
43.4304
 20
256.7124999999999
 30
0.0
 11
43.4304
 21
254.6124999999999
 31
0.0
  0
LINE
  5
11B
330
1E
100
AcDbEntity
  8
0
100
AcDbLine
 10
43.4304
 20
256.7124999999999
 30
0.0
 11
43.4304
 21
259.4125
 31
0.0
  0
LINE
  5
11C
330
1E
100
AcDbEntity
  8
0
100
AcDbLine
 10
43.4304
 20
254.6124999999999
 30
0.0
 11
43.4304
 21
253.4124999999999
 31
0.0
  0
LINE
  5
11D
330
1E
100
AcDbEntity
  8
0
100
AcDbLine
 10
43.4304
 20
254.6124999999999
 30
0.0
 11
43.4304
 21
256.7124999999999
 31
0.0
  0
LINE
  5
11E
330
1E
100
AcDbEntity
  8
0
100
AcDbLine
 10
43.4304
 20
253.4124999999999
 30
0.0
 11
43.4304
 21
252.9125
 31
0.0
  0
LINE
  5
11F
330
1E
100
AcDbEntity
  8
0
100
AcDbLine
 10
43.4304
 20
253.4124999999999
 30
0.0
 11
43.4304
 21
254.6124999999999
 31
0.0
  0
LINE
  5
120
330
1E
100
AcDbEntity
  8
0
100
AcDbLine
 10
43.4304
 20
265.9125
 30
0.0
 11
43.4304
 21
269.2124999999999
 31
0.0
  0
LINE
  5
121
330
1E
100
AcDbEntity
  8
0
100
AcDbLine
 10
43.4304
 20
265.9125
 30
0.0
 11
43.4304
 21
262.6125
 31
0.0
  0
LINE
  5
122
330
1E
100
AcDbEntity
  8
0
100
AcDbLine
 10
48.6512
 20
557.0304999999999
 30
0.0
 11
50.4522
 21
525.4305
 31
0.0
  0
LINE
  5
123
330
1E
100
AcDbEntity
  8
0
100
AcDbLine
 10
45.7522
 20
578.7285
 30
0.0
 11
48.6512
 21
557.0304999999999
 31
0.0
  0
LINE
  5
124
330
1E
100
AcDbEntity
  8
0
100
AcDbLine
 10
43.4304
 20
278.9125
 30
0.0
 11
43.4304
 21
269.2124999999999
 31
0.0
  0
LINE
  5
125
330
1E
100
AcDbEntity
  8
0
100
AcDbLine
 10
43.4304
 20
269.2124999999999
 30
0.0
 11
43.4304
 21
265.9125
 31
0.0
  0
LINE
  5
126
330
1E
100
AcDbEntity
  8
0
100
AcDbLine
 10
43.4304
 20
269.2124999999999
 30
0.0
 11
43.4304
 21
278.9125
 31
0.0
  0
LINE
  5
127
330
1E
100
AcDbEntity
  8
0
100
AcDbLine
 10
42.9304
 20
253.4124999999999
 30
0.0
 11
43.4304
 21
252.9125
 31
0.0
  0
LINE
  5
128
330
1E
100
AcDbEntity
  8
0
100
AcDbLine
 10
42.9304
 20
253.4124999999999
 30
0.0
 11
42.9304
 21
253.9124999999999
 31
0.0
  0
LINE
  5
129
330
1E
100
AcDbEntity
  8
0
100
AcDbLine
 10
43.4304
 20
252.9125
 30
0.0
 11
50.66210838562571
 21
252.9125
 31
0.0
  0
LINE
  5
12A
330
1E
100
AcDbEntity
  8
0
100
AcDbLine
 10
43.4304
 20
252.9125
 30
0.0
 11
43.4304
 21
253.4124999999999
 31
0.0
  0
LINE
  5
12B
330
1E
100
AcDbEntity
  8
0
100
AcDbLine
 10
59.77019999999989
 20
0.0874999999998896
 30
0.0
 11
62.6762
 21
0.595499999999899
 31
0.0
  0
LINE
  5
12C
330
1E
100
AcDbEntity
  8
0
100
AcDbLine
 10
65.06819999999989
 20
1.54649999999989
 30
0.0
 11
66.49720000000001
 21
2.92049999999989
 31
0.0
  0
LINE
  5
12D
330
1E
100
AcDbEntity
  8
0
100
AcDbLine
 10
62.6762
 20
0.595499999999899
 30
0.0
 11
65.06819999999989
 21
1.54649999999989
 31
0.0
  0
LINE
  5
12E
330
1E
100
AcDbEntity
  8
0
100
AcDbLine
 10
56.6272
 20
0.216499999999909
 30
0.0
 11
59.77019999999989
 21
0.0874999999998896
 31
0.0
  0
LINE
  5
12F
330
1E
100
AcDbEntity
  8
0
100
AcDbLine
 10
53.82819999999989
 20
0.9194999999999119
 30
0.0
 11
56.6272
 21
0.216499999999909
 31
0.0
  0
LINE
  5
130
330
1E
100
AcDbEntity
  8
0
100
AcDbLine
 10
65.73019999999999
 20
5.890499999999889
 30
0.0
 11
66.7601999999999
 21
4.462499999999889
 31
0.0
  0
LINE
  5
131
330
1E
100
AcDbEntity
  8
0
100
AcDbLine
 10
63.79419999999989
 20
7.06649999999991
 30
0.0
 11
65.73019999999999
 21
5.890499999999889
 31
0.0
  0
LINE
  5
132
330
1E
100
AcDbEntity
  8
0
100
AcDbLine
 10
61.0002
 20
7.77049999999991
 30
0.0
 11
63.79419999999989
 21
7.06649999999991
 31
0.0
  0
LINE
  5
133
330
1E
100
AcDbEntity
  8
0
100
AcDbLine
 10
57.8572
 20
7.90149999999991
 30
0.0
 11
61.0002
 21
7.77049999999991
 31
0.0
  0
LINE
  5
134
330
1E
100
AcDbEntity
  8
0
100
AcDbLine
 10
54.9471999999999
 20
7.39549999999991
 30
0.0
 11
57.8572
 21
7.90149999999991
 31
0.0
  0
LINE
  5
135
330
1E
100
AcDbEntity
  8
0
100
AcDbLine
 10
52.55219999999989
 20
6.44349999999992
 30
0.0
 11
54.9471999999999
 21
7.39549999999991
 31
0.0
  0
LINE
  5
136
330
1E
100
AcDbEntity
  8
0
100
AcDbLine
 10
51.11919999999989
 20
5.0704999999999
 30
0.0
 11
52.55219999999989
 21
6.44349999999992
 31
0.0
  0
LINE
  5
137
330
1E
100
AcDbEntity
  8
0
100
AcDbLine
 10
66.49720000000001
 20
2.92049999999989
 30
0.0
 11
66.7601999999999
 21
4.462499999999889
 31
0.0
  0
LINE
  5
138
330
1E
100
AcDbEntity
  8
0
100
AcDbLine
 10
51.88819999999999
 20
2.095499999999899
 30
0.0
 11
53.82819999999989
 21
0.9194999999999119
 31
0.0
  0
LINE
  5
139
330
1E
100
AcDbEntity
  8
0
100
AcDbLine
 10
50.8542
 20
3.525499999999879
 30
0.0
 11
51.88819999999999
 21
2.095499999999899
 31
0.0
  0
LINE
  5
13A
330
1E
100
AcDbEntity
  8
0
100
AcDbLine
 10
50.8542
 20
3.525499999999879
 30
0.0
 11
51.11919999999989
 21
5.0704999999999
 31
0.0
  0
LINE
  5
13B
330
1E
100
AcDbEntity
  8
0
100
AcDbLine
 10
82.93040000000001
 20
243.4124999999999
 30
0.0
 11
82.93040000000001
 21
240.8125
 31
0.0
  0
LINE
  5
13C
330
1E
100
AcDbEntity
  8
0
100
AcDbLine
 10
82.93040000000001
 20
243.4124999999999
 30
0.0
 11
82.93040000000001
 21
247.6125
 31
0.0
  0
LINE
  5
13D
330
1E
100
AcDbEntity
  8
0
100
AcDbLine
 10
82.93040000000001
 20
240.8125
 30
0.0
 11
82.93040000000001
 21
239.9125
 31
0.0
  0
LINE
  5
13E
330
1E
100
AcDbEntity
  8
0
100
AcDbLine
 10
82.93040000000001
 20
240.8125
 30
0.0
 11
82.93040000000001
 21
243.4124999999999
 31
0.0
  0
LINE
  5
13F
330
1E
100
AcDbEntity
  8
0
100
AcDbLine
 10
66.5972546946735
 20
280.07919352781
 30
0.0
 11
68.9304
 21
280.4125
 31
0.0
  0
LINE
  5
140
330
1E
100
AcDbEntity
  8
0
100
AcDbLine
 10
50.4522
 20
525.4305
 30
0.0
 11
50.8542
 21
3.525499999999879
 31
0.0
  0
LINE
  5
141
330
1E
100
AcDbEntity
  8
0
100
AcDbLine
 10
50.4522
 20
525.4305
 30
0.0
 11
50.8542
 21
3.525499999999879
 31
0.0
  0
LINE
  5
142
330
1E
100
AcDbEntity
  8
0
100
AcDbLine
 10
66.45220000000001
 20
525.4344999999999
 30
0.0
 11
66.7601999999999
 21
4.462499999999879
 31
0.0
  0
LINE
  5
143
330
1E
100
AcDbEntity
  8
0
100
AcDbLine
 10
66.45220000000001
 20
525.4344999999999
 30
0.0
 11
66.7601999999999
 21
4.462499999999889
 31
0.0
  0
LINE
  5
144
330
1E
100
AcDbEntity
  8
0
100
AcDbLine
 10
64.4522
 20
559.8355
 30
0.0
 11
66.45220000000001
 21
525.4344999999999
 31
0.0
  0
LINE
  5
145
330
1E
100
AcDbEntity
  8
0
100
AcDbLine
 10
60.7522
 20
584.2324999999999
 30
0.0
 11
64.4522
 21
559.8355
 31
0.0
  0
LINE
  5
146
330
1E
100
AcDbEntity
  8
0
100
AcDbLine
 10
55.6522
 20
609.6295
 30
0.0
 11
60.7522
 21
584.2324999999999
 31
0.0
  0
LINE
  5
147
330
1E
100
AcDbEntity
  8
0
100
AcDbLine
 10
53.9304
 20
656.4187696182578
 30
0.0
 11
53.9304
 21
878.9125
 31
0.0
  0
LINE
  5
148
330
1E
100
AcDbEntity
  8
0
100
AcDbLine
 10
66.59725469467339
 20
280.07919352781
 30
0.0
 11
68.9304
 21
280.4125
 31
0.0
  0
LINE
  5
149
330
1E
100
AcDbEntity
  8
0
100
AcDbLine
 10
68.9304
 20
280.4125
 30
0.0
 11
75.43040000000001
 21
282.4125
 31
0.0
  0
LINE
  5
14A
330
1E
100
AcDbEntity
  8
0
100
AcDbLine
 10
66.6140068815652
 20
251.7434133026339
 30
0.0
 11
68.9304
 21
251.4124999999999
 31
0.0
  0
LINE
  5
14B
330
1E
100
AcDbEntity
  8
0
100
AcDbLine
 10
75.43040000000001
 20
282.4125
 30
0.0
 11
79.4304
 21
284.9125
 31
0.0
  0
LINE
  5
14C
330
1E
100
AcDbEntity
  8
0
100
AcDbLine
 10
79.4304
 20
284.9125
 30
0.0
 11
81.93040000000001
 21
288.4125
 31
0.0
  0
LINE
  5
14D
330
1E
100
AcDbEntity
  8
0
100
AcDbLine
 10
68.9304
 20
251.4124999999999
 30
0.0
 11
75.43040000000001
 21
249.4124999999999
 31
0.0
  0
LINE
  5
14E
330
1E
100
AcDbEntity
  8
0
100
AcDbLine
 10
75.43040000000001
 20
249.4124999999999
 30
0.0
 11
79.4304
 21
246.9125
 31
0.0
  0
LINE
  5
14F
330
1E
100
AcDbEntity
  8
0
100
AcDbLine
 10
82.93040000000001
 20
253.0124999999999
 30
0.0
 11
82.93040000000001
 21
247.6125
 31
0.0
  0
LINE
  5
150
330
1E
100
AcDbEntity
  8
0
100
AcDbLine
 10
82.93040000000001
 20
253.0124999999999
 30
0.0
 11
82.93040000000001
 21
259.2124999999999
 31
0.0
  0
LINE
  5
151
330
1E
100
AcDbEntity
  8
0
100
AcDbLine
 10
82.93040000000001
 20
259.2124999999999
 30
0.0
 11
82.93040000000001
 21
253.0124999999999
 31
0.0
  0
LINE
  5
152
330
1E
100
AcDbEntity
  8
0
100
AcDbLine
 10
82.93040000000001
 20
259.2124999999999
 30
0.0
 11
82.93040000000001
 21
265.9125
 31
0.0
  0
LINE
  5
153
330
1E
100
AcDbEntity
  8
0
100
AcDbLine
 10
82.93040000000001
 20
247.6125
 30
0.0
 11
82.93040000000001
 21
243.4124999999999
 31
0.0
  0
LINE
  5
154
330
1E
100
AcDbEntity
  8
0
100
AcDbLine
 10
82.93040000000001
 20
247.6125
 30
0.0
 11
82.93040000000001
 21
253.0124999999999
 31
0.0
  0
LINE
  5
155
330
1E
100
AcDbEntity
  8
0
100
AcDbLine
 10
82.93040000000001
 20
265.9125
 30
0.0
 11
82.93040000000001
 21
272.6125
 31
0.0
  0
LINE
  5
156
330
1E
100
AcDbEntity
  8
0
100
AcDbLine
 10
82.93040000000001
 20
265.9125
 30
0.0
 11
82.93040000000001
 21
259.2124999999999
 31
0.0
  0
LINE
  5
157
330
1E
100
AcDbEntity
  8
0
100
AcDbLine
 10
82.93040000000001
 20
272.6125
 30
0.0
 11
82.93040000000001
 21
265.9125
 31
0.0
  0
LINE
  5
158
330
1E
100
AcDbEntity
  8
0
100
AcDbLine
 10
82.93040000000001
 20
272.6125
 30
0.0
 11
82.93040000000001
 21
278.8124999999999
 31
0.0
  0
LINE
  5
159
330
1E
100
AcDbEntity
  8
0
100
AcDbLine
 10
81.93040000000001
 20
288.4125
 30
0.0
 11
82.93040000000001
 21
291.9125
 31
0.0
  0
LINE
  5
15A
330
1E
100
AcDbEntity
  8
0
100
AcDbLine
 10
79.4304
 20
246.9125
 30
0.0
 11
81.93040000000001
 21
243.4124999999999
 31
0.0
  0
LINE
  5
15B
330
1E
100
AcDbEntity
  8
0
100
AcDbLine
 10
81.93040000000001
 20
243.4124999999999
 30
0.0
 11
82.93040000000001
 21
239.9125
 31
0.0
  0
LINE
  5
15C
330
1E
100
AcDbEntity
  8
0
100
AcDbLine
 10
84.9304
 20
239.9125
 30
0.0
 11
84.9304
 21
240.8125
 31
0.0
  0
LINE
  5
15D
330
1E
100
AcDbEntity
  8
0
100
AcDbLine
 10
84.9304
 20
253.0124999999999
 30
0.0
 11
84.9304
 21
247.6125
 31
0.0
  0
LINE
  5
15E
330
1E
100
AcDbEntity
  8
0
100
AcDbLine
 10
84.9304
 20
253.0124999999999
 30
0.0
 11
84.9304
 21
259.2124999999999
 31
0.0
  0
LINE
  5
15F
330
1E
100
AcDbEntity
  8
0
100
AcDbLine
 10
84.9304
 20
259.2124999999999
 30
0.0
 11
84.9304
 21
253.0124999999999
 31
0.0
  0
LINE
  5
160
330
1E
100
AcDbEntity
  8
0
100
AcDbLine
 10
84.9304
 20
259.2124999999999
 30
0.0
 11
84.9304
 21
265.9125
 31
0.0
  0
LINE
  5
161
330
1E
100
AcDbEntity
  8
0
100
AcDbLine
 10
84.9304
 20
247.6125
 30
0.0
 11
84.9304
 21
243.4124999999999
 31
0.0
  0
LINE
  5
162
330
1E
100
AcDbEntity
  8
0
100
AcDbLine
 10
84.9304
 20
247.6125
 30
0.0
 11
84.9304
 21
253.0124999999999
 31
0.0
  0
LINE
  5
163
330
1E
100
AcDbEntity
  8
0
100
AcDbLine
 10
84.9304
 20
243.4124999999999
 30
0.0
 11
84.9304
 21
240.8125
 31
0.0
  0
LINE
  5
164
330
1E
100
AcDbEntity
  8
0
100
AcDbLine
 10
84.9304
 20
243.4124999999999
 30
0.0
 11
84.9304
 21
247.6125
 31
0.0
  0
LINE
  5
165
330
1E
100
AcDbEntity
  8
0
100
AcDbLine
 10
84.9304
 20
240.8125
 30
0.0
 11
84.9304
 21
239.9125
 31
0.0
  0
LINE
  5
166
330
1E
100
AcDbEntity
  8
0
100
AcDbLine
 10
84.9304
 20
240.8125
 30
0.0
 11
84.9304
 21
243.4124999999999
 31
0.0
  0
LINE
  5
167
330
1E
100
AcDbEntity
  8
0
100
AcDbLine
 10
82.93040000000001
 20
278.8124999999999
 30
0.0
 11
82.93040000000001
 21
284.2124999999999
 31
0.0
  0
LINE
  5
168
330
1E
100
AcDbEntity
  8
0
100
AcDbLine
 10
84.9304
 20
265.9125
 30
0.0
 11
84.9304
 21
272.6125
 31
0.0
  0
LINE
  5
169
330
1E
100
AcDbEntity
  8
0
100
AcDbLine
 10
84.9304
 20
265.9125
 30
0.0
 11
84.9304
 21
259.2124999999999
 31
0.0
  0
LINE
  5
16A
330
1E
100
AcDbEntity
  8
0
100
AcDbLine
 10
82.93040000000001
 20
288.4125
 30
0.0
 11
82.93040000000001
 21
284.2124999999999
 31
0.0
  0
LINE
  5
16B
330
1E
100
AcDbEntity
  8
0
100
AcDbLine
 10
82.93040000000001
 20
288.4125
 30
0.0
 11
82.93040000000001
 21
291.0124999999999
 31
0.0
  0
LINE
  5
16C
330
1E
100
AcDbEntity
  8
0
100
AcDbLine
 10
82.93040000000001
 20
291.0124999999999
 30
0.0
 11
82.93040000000001
 21
288.4125
 31
0.0
  0
LINE
  5
16D
330
1E
100
AcDbEntity
  8
0
100
AcDbLine
 10
82.93040000000001
 20
291.0124999999999
 30
0.0
 11
82.93040000000001
 21
291.9125
 31
0.0
  0
LINE
  5
16E
330
1E
100
AcDbEntity
  8
0
100
AcDbLine
 10
84.9304
 20
288.4125
 30
0.0
 11
84.9304
 21
284.2124999999999
 31
0.0
  0
LINE
  5
16F
330
1E
100
AcDbEntity
  8
0
100
AcDbLine
 10
84.9304
 20
288.4125
 30
0.0
 11
84.9304
 21
291.0124999999999
 31
0.0
  0
LINE
  5
170
330
1E
100
AcDbEntity
  8
0
100
AcDbLine
 10
84.9304
 20
291.0124999999999
 30
0.0
 11
84.9304
 21
288.4125
 31
0.0
  0
LINE
  5
171
330
1E
100
AcDbEntity
  8
0
100
AcDbLine
 10
84.9304
 20
291.0124999999999
 30
0.0
 11
84.9304
 21
291.9125
 31
0.0
  0
LINE
  5
172
330
1E
100
AcDbEntity
  8
0
100
AcDbLine
 10
84.9304
 20
291.9125
 30
0.0
 11
84.9304
 21
291.0124999999999
 31
0.0
  0
LINE
  5
173
330
1E
100
AcDbEntity
  8
0
100
AcDbLine
 10
82.93040000000001
 20
284.2124999999999
 30
0.0
 11
82.93040000000001
 21
278.8124999999999
 31
0.0
  0
LINE
  5
174
330
1E
100
AcDbEntity
  8
0
100
AcDbLine
 10
82.93040000000001
 20
284.2124999999999
 30
0.0
 11
82.93040000000001
 21
288.4125
 31
0.0
  0
LINE
  5
175
330
1E
100
AcDbEntity
  8
0
100
AcDbLine
 10
84.9304
 20
284.2124999999999
 30
0.0
 11
84.9304
 21
278.8124999999999
 31
0.0
  0
LINE
  5
176
330
1E
100
AcDbEntity
  8
0
100
AcDbLine
 10
84.9304
 20
284.2124999999999
 30
0.0
 11
84.9304
 21
288.4125
 31
0.0
  0
LINE
  5
177
330
1E
100
AcDbEntity
  8
0
100
AcDbLine
 10
84.9304
 20
278.8124999999999
 30
0.0
 11
84.9304
 21
272.6125
 31
0.0
  0
LINE
  5
178
330
1E
100
AcDbEntity
  8
0
100
AcDbLine
 10
84.9304
 20
278.8124999999999
 30
0.0
 11
84.9304
 21
284.2124999999999
 31
0.0
  0
LINE
  5
179
330
1E
100
AcDbEntity
  8
0
100
AcDbLine
 10
84.9304
 20
272.6125
 30
0.0
 11
84.9304
 21
265.9125
 31
0.0
  0
LINE
  5
17A
330
1E
100
AcDbEntity
  8
0
100
AcDbLine
 10
84.9304
 20
272.6125
 30
0.0
 11
84.9304
 21
278.8124999999999
 31
0.0
  0
LINE
  5
17B
330
1E
100
AcDbEntity
  8
0
100
AcDbLine
 10
82.93040000000001
 20
291.9125
 30
0.0
 11
84.9304
 21
291.9125
 31
0.0
  0
LINE
  5
17C
330
1E
100
AcDbEntity
  8
0
100
AcDbLine
 10
82.93040000000001
 20
291.9125
 30
0.0
 11
82.93040000000001
 21
291.0124999999999
 31
0.0
  0
LINE
  5
17D
330
1E
100
AcDbEntity
  8
0
100
AcDbLine
 10
82.93040000000001
 20
239.9125
 30
0.0
 11
84.9304
 21
239.9125
 31
0.0
  0
LINE
  5
17E
330
1E
100
AcDbEntity
  8
0
100
AcDbLine
 10
82.93040000000001
 20
239.9125
 30
0.0
 11
82.93040000000001
 21
240.8125
 31
0.0
  0
LINE
  5
17F
330
1E
100
AcDbEntity
  8
0
100
AcDbLine
 10
51.93039999999999
 20
632.3245
 30
0.0
 11
55.597
 21
635.1894999999999
 31
0.0
  0
LINE
  5
180
330
1E
100
AcDbEntity
  8
0
100
AcDbLine
 10
49.8695990710404
 20
631.491983423915
 30
0.0
 11
51.93039999999999
 21
632.3245
 31
0.0
  0
LINE
  5
181
330
1E
100
AcDbEntity
  8
0
100
AcDbLine
 10
48.8522
 20
635.3384999999999
 30
0.0
 11
55.6522
 21
609.6295
 31
0.0
  0
LINE
  5
183
330
1E
100
AcDbEntity
  8
0
100
AcDbLine
 10
37.5109
 20
642.3384999999999
 30
0.0
 11
38.8921
 21
644.1665
 31
0.0
  0
LINE
  5
184
330
1E
100
AcDbEntity
  8
0
100
AcDbLine
 10
38.8921
 20
644.1665
 30
0.0
 11
40.82469999999999
 21
646.0164999999999
 31
0.0
  0
LINE
  5
185
330
1E
100
AcDbEntity
  8
0
100
AcDbLine
 10
35.0107
 20
642.1174999999999
 30
0.0
 11
36.7463
 21
644.9545
 31
0.0
  0
LINE
  5
186
330
1E
100
AcDbEntity
  8
0
100
AcDbLine
 10
36.7463
 20
644.9545
 30
0.0
 11
39.1186
 21
647.4595
 31
0.0
  0
LINE
  5
187
330
1E
100
AcDbEntity
  8
0
100
AcDbLine
 10
34.2946
 20
640.4294999999999
 30
0.0
 11
37.5109
 21
642.3384999999999
 31
0.0
  0
LINE
  5
188
330
1E
100
AcDbEntity
  8
0
100
AcDbLine
 10
34.2946
 20
640.4294999999999
 30
0.0
 11
35.0107
 21
642.1174999999999
 31
0.0
  0
LINE
  5
189
330
1E
100
AcDbEntity
  8
0
100
AcDbLine
 10
47.5271232529885
 20
639.0436348259989
 30
0.0
 11
47.9304
 21
639.2525
 31
0.0
  0
LINE
  5
18A
330
1E
100
AcDbEntity
  8
0
100
AcDbLine
 10
50.2674
 20
640.7474999999999
 30
0.0
 11
52.35739999999999
 21
642.3244999999999
 31
0.0
  0
LINE
  5
18B
330
1E
100
AcDbEntity
  8
0
100
AcDbLine
 10
52.35739999999999
 20
642.3244999999999
 30
0.0
 11
54.0754
 21
643.9394999999999
 31
0.0
  0
LINE
  5
18C
330
1E
100
AcDbEntity
  8
0
100
AcDbLine
 10
53.8493
 20
642.6694999999999
 30
0.0
 11
56.2263
 21
644.3954999999999
 31
0.0
  0
LINE
  5
18D
330
1E
100
AcDbEntity
  8
0
100
AcDbLine
 10
50.9853
 20
641.0164999999999
 30
0.0
 11
53.8493
 21
642.6694999999999
 31
0.0
  0
LINE
  5
18E
330
1E
100
AcDbEntity
  8
0
100
AcDbLine
 10
47.9304
 20
639.2525
 30
0.0
 11
50.9853
 21
641.0164999999999
 31
0.0
  0
LINE
  5
18F
330
1E
100
AcDbEntity
  8
0
100
AcDbLine
 10
47.9304
 20
639.2525
 30
0.0
 11
50.2674
 21
640.7474999999999
 31
0.0
  0
LINE
  5
190
330
1E
100
AcDbEntity
  8
0
100
AcDbLine
 10
47.5342351323357
 20
639.0237488292769
 30
0.0
 11
47.9304
 21
639.2525
 31
0.0
  0
LINE
  5
191
330
1E
100
AcDbEntity
  8
0
100
AcDbLine
 10
52.8987
 20
649.4424999999999
 30
0.0
 11
54.4499
 21
648.8345
 31
0.0
  0
LINE
  5
192
330
1E
100
AcDbEntity
  8
0
100
AcDbLine
 10
48.2209
 20
649.4895
 30
0.0
 11
50.7474
 21
649.7034999999999
 31
0.0
  0
LINE
  5
193
330
1E
100
AcDbEntity
  8
0
100
AcDbLine
 10
45.6113
 20
648.8125
 30
0.0
 11
48.2209
 21
649.4895
 31
0.0
  0
LINE
  5
194
330
1E
100
AcDbEntity
  8
0
100
AcDbLine
 10
43.0662
 20
647.6774999999999
 30
0.0
 11
45.6113
 21
648.8125
 31
0.0
  0
LINE
  5
195
330
1E
100
AcDbEntity
  8
0
100
AcDbLine
 10
40.82469999999999
 20
646.0164999999999
 30
0.0
 11
43.0662
 21
647.6774999999999
 31
0.0
  0
LINE
  5
196
330
1E
100
AcDbEntity
  8
0
100
AcDbLine
 10
50.7474
 20
649.7034999999999
 30
0.0
 11
52.8987
 21
649.4424999999999
 31
0.0
  0
LINE
  5
197
330
1E
100
AcDbEntity
  8
0
100
AcDbLine
 10
41.93039999999999
 20
649.6445
 30
0.0
 11
45.19029999999999
 21
651.0534999999999
 31
0.0
  0
LINE
  5
198
330
1E
100
AcDbEntity
  8
0
100
AcDbLine
 10
39.1186
 20
647.4595
 30
0.0
 11
41.93039999999999
 21
649.6445
 31
0.0
  0
LINE
  5
1AA
330
1E
100
AcDbEntity
  8
0
100
AcDbLine
 10
31.93039999999999
 20
694.5237366818181
 30
0.0
 11
31.93039999999999
 21
878.9125
 31
0.0
  0
LINE
  5
1AB
330
1E
100
AcDbEntity
  8
0
100
AcDbLine
 10
51.88439999999999
 20
651.9154999999999
 30
0.0
 11
54.6917
 21
651.4624999999999
 31
0.0
  0
LINE
  5
1AC
330
1E
100
AcDbEntity
  8
0
100
AcDbLine
 10
48.4789
 20
651.9714999999999
 30
0.0
 11
51.88439999999999
 21
651.9154999999999
 31
0.0
  0
LINE
  5
1AD
330
1E
100
AcDbEntity
  8
0
100
AcDbLine
 10
45.19029999999999
 20
651.0534999999999
 30
0.0
 11
48.4789
 21
651.9714999999999
 31
0.0
  0
LINE
  5
1AE
330
1E
100
AcDbEntity
  8
0
100
AcDbLine
 10
44.25049184980287
 20
648.2056408390735
 30
0.0
 11
48.8522
 21
635.3384999999999
 31
0.0
  0
LINE
  5
1BA
330
1E
100
AcDbEntity
  8
0
100
AcDbLine
 10
42.43039999999999
 20
878.9125
 30
0.0
 11
42.43039999999999
 21
888.6124999999999
 31
0.0
  0
LINE
  5
1BB
330
1E
100
AcDbEntity
  8
0
100
AcDbLine
 10
42.43039999999999
 20
898.4125
 30
0.0
 11
42.43039999999999
 21
901.1124999999999
 31
0.0
  0
LINE
  5
1BC
330
1E
100
AcDbEntity
  8
0
100
AcDbLine
 10
42.43039999999999
 20
898.4125
 30
0.0
 11
42.43039999999999
 21
895.2125
 31
0.0
  0
LINE
  5
1BD
330
1E
100
AcDbEntity
  8
0
100
AcDbLine
 10
42.43039999999999
 20
895.2125
 30
0.0
 11
42.43039999999999
 21
898.4125
 31
0.0
  0
LINE
  5
1BE
330
1E
100
AcDbEntity
  8
0
100
AcDbLine
 10
42.43039999999999
 20
895.2125
 30
0.0
 11
42.43039999999999
 21
891.9125000000001
 31
0.0
  0
LINE
  5
1BF
330
1E
100
AcDbEntity
  8
0
100
AcDbLine
 10
42.43039999999999
 20
901.1124999999999
 30
0.0
 11
42.43039999999999
 21
903.2125
 31
0.0
  0
LINE
  5
1C0
330
1E
100
AcDbEntity
  8
0
100
AcDbLine
 10
42.43039999999999
 20
901.1124999999999
 30
0.0
 11
42.43039999999999
 21
898.4125
 31
0.0
  0
LINE
  5
1C1
330
1E
100
AcDbEntity
  8
0
100
AcDbLine
 10
42.43039999999999
 20
903.2125
 30
0.0
 11
42.43039999999999
 21
904.4125000000001
 31
0.0
  0
LINE
  5
1C2
330
1E
100
AcDbEntity
  8
0
100
AcDbLine
 10
42.43039999999999
 20
903.2125
 30
0.0
 11
42.43039999999999
 21
901.1124999999999
 31
0.0
  0
LINE
  5
1C3
330
1E
100
AcDbEntity
  8
0
100
AcDbLine
 10
42.43039999999999
 20
904.9125
 30
0.0
 11
42.9304
 21
904.4125000000001
 31
0.0
  0
LINE
  5
1C4
330
1E
100
AcDbEntity
  8
0
100
AcDbLine
 10
42.43039999999999
 20
904.9125
 30
0.0
 11
42.43039999999999
 21
904.4125000000001
 31
0.0
  0
LINE
  5
1C5
330
1E
100
AcDbEntity
  8
0
100
AcDbLine
 10
42.43039999999999
 20
904.4125000000001
 30
0.0
 11
42.43039999999999
 21
904.9125
 31
0.0
  0
LINE
  5
1C6
330
1E
100
AcDbEntity
  8
0
100
AcDbLine
 10
42.43039999999999
 20
904.4125000000001
 30
0.0
 11
42.43039999999999
 21
903.2125
 31
0.0
  0
LINE
  5
1C7
330
1E
100
AcDbEntity
  8
0
100
AcDbLine
 10
42.43039999999999
 20
891.9125000000001
 30
0.0
 11
42.43039999999999
 21
888.6124999999999
 31
0.0
  0
LINE
  5
1C8
330
1E
100
AcDbEntity
  8
0
100
AcDbLine
 10
42.43039999999999
 20
891.9125000000001
 30
0.0
 11
42.43039999999999
 21
895.2125
 31
0.0
  0
LINE
  5
1C9
330
1E
100
AcDbEntity
  8
0
100
AcDbLine
 10
42.43039999999999
 20
888.6124999999999
 30
0.0
 11
42.43039999999999
 21
891.9125000000001
 31
0.0
  0
LINE
  5
1CA
330
1E
100
AcDbEntity
  8
0
100
AcDbLine
 10
42.43039999999999
 20
888.6124999999999
 30
0.0
 11
42.43039999999999
 21
878.9125
 31
0.0
  0
LINE
  5
1CC
330
1E
100
AcDbEntity
  8
0
100
AcDbLine
 10
42.9304
 20
878.9125
 30
0.0
 11
42.9304
 21
888.7124999999999
 31
0.0
  0
LINE
  5
1CD
330
1E
100
AcDbEntity
  8
0
100
AcDbLine
 10
42.9304
 20
898.1125
 30
0.0
 11
42.9304
 21
900.7125
 31
0.0
  0
LINE
  5
1CE
330
1E
100
AcDbEntity
  8
0
100
AcDbLine
 10
42.9304
 20
898.1125
 30
0.0
 11
42.9304
 21
895.1124999999999
 31
0.0
  0
LINE
  5
1CF
330
1E
100
AcDbEntity
  8
0
100
AcDbLine
 10
42.9304
 20
895.1124999999999
 30
0.0
 11
42.9304
 21
898.1125
 31
0.0
  0
LINE
  5
1D0
330
1E
100
AcDbEntity
  8
0
100
AcDbLine
 10
43.4304
 20
898.4125
 30
0.0
 11
43.4304
 21
901.1124999999999
 31
0.0
  0
LINE
  5
1D1
330
1E
100
AcDbEntity
  8
0
100
AcDbLine
 10
43.4304
 20
898.4125
 30
0.0
 11
43.4304
 21
895.2125
 31
0.0
  0
LINE
  5
1D2
330
1E
100
AcDbEntity
  8
0
100
AcDbLine
 10
43.4304
 20
895.2125
 30
0.0
 11
43.4304
 21
898.4125
 31
0.0
  0
LINE
  5
1D3
330
1E
100
AcDbEntity
  8
0
100
AcDbLine
 10
43.4304
 20
895.2125
 30
0.0
 11
43.4304
 21
891.9125000000001
 31
0.0
  0
LINE
  5
1D4
330
1E
100
AcDbEntity
  8
0
100
AcDbLine
 10
42.9304
 20
900.7125
 30
0.0
 11
42.9304
 21
902.7124999999999
 31
0.0
  0
LINE
  5
1D5
330
1E
100
AcDbEntity
  8
0
100
AcDbLine
 10
42.9304
 20
900.7125
 30
0.0
 11
42.9304
 21
898.1125
 31
0.0
  0
LINE
  5
1D6
330
1E
100
AcDbEntity
  8
0
100
AcDbLine
 10
42.9304
 20
902.7124999999999
 30
0.0
 11
42.9304
 21
903.9125
 31
0.0
  0
LINE
  5
1D7
330
1E
100
AcDbEntity
  8
0
100
AcDbLine
 10
42.9304
 20
902.7124999999999
 30
0.0
 11
42.9304
 21
900.7125
 31
0.0
  0
LINE
  5
1D8
330
1E
100
AcDbEntity
  8
0
100
AcDbLine
 10
42.9304
 20
903.9125
 30
0.0
 11
42.9304
 21
904.4125000000001
 31
0.0
  0
LINE
  5
1D9
330
1E
100
AcDbEntity
  8
0
100
AcDbLine
 10
42.9304
 20
903.9125
 30
0.0
 11
42.9304
 21
902.7124999999999
 31
0.0
  0
LINE
  5
1DA
330
1E
100
AcDbEntity
  8
0
100
AcDbLine
 10
42.9304
 20
904.4125000000001
 30
0.0
 11
43.4304
 21
904.9125
 31
0.0
  0
LINE
  5
1DB
330
1E
100
AcDbEntity
  8
0
100
AcDbLine
 10
42.9304
 20
904.4125000000001
 30
0.0
 11
42.9304
 21
903.9125
 31
0.0
  0
LINE
  5
1DC
330
1E
100
AcDbEntity
  8
0
100
AcDbLine
 10
43.4304
 20
901.1124999999999
 30
0.0
 11
43.4304
 21
903.2125
 31
0.0
  0
LINE
  5
1DD
330
1E
100
AcDbEntity
  8
0
100
AcDbLine
 10
43.4304
 20
901.1124999999999
 30
0.0
 11
43.4304
 21
898.4125
 31
0.0
  0
LINE
  5
1DE
330
1E
100
AcDbEntity
  8
0
100
AcDbLine
 10
43.4304
 20
903.2125
 30
0.0
 11
43.4304
 21
904.4125000000001
 31
0.0
  0
LINE
  5
1DF
330
1E
100
AcDbEntity
  8
0
100
AcDbLine
 10
43.4304
 20
903.2125
 30
0.0
 11
43.4304
 21
901.1124999999999
 31
0.0
  0
LINE
  5
1E0
330
1E
100
AcDbEntity
  8
0
100
AcDbLine
 10
43.4304
 20
904.9125
 30
0.0
 11
53.9304
 21
904.9125
 31
0.0
  0
LINE
  5
1E1
330
1E
100
AcDbEntity
  8
0
100
AcDbLine
 10
43.4304
 20
904.9125
 30
0.0
 11
43.4304
 21
904.4125000000001
 31
0.0
  0
LINE
  5
1E2
330
1E
100
AcDbEntity
  8
0
100
AcDbLine
 10
43.4304
 20
904.4125000000001
 30
0.0
 11
43.4304
 21
904.9125
 31
0.0
  0
LINE
  5
1E3
330
1E
100
AcDbEntity
  8
0
100
AcDbLine
 10
43.4304
 20
904.4125000000001
 30
0.0
 11
43.4304
 21
903.2125
 31
0.0
  0
LINE
  5
1E4
330
1E
100
AcDbEntity
  8
0
100
AcDbLine
 10
42.9304
 20
891.9125000000001
 30
0.0
 11
42.9304
 21
888.7124999999999
 31
0.0
  0
LINE
  5
1E5
330
1E
100
AcDbEntity
  8
0
100
AcDbLine
 10
42.9304
 20
891.9125000000001
 30
0.0
 11
42.9304
 21
895.1124999999999
 31
0.0
  0
LINE
  5
1E6
330
1E
100
AcDbEntity
  8
0
100
AcDbLine
 10
42.9304
 20
888.7124999999999
 30
0.0
 11
42.9304
 21
891.9125000000001
 31
0.0
  0
LINE
  5
1E7
330
1E
100
AcDbEntity
  8
0
100
AcDbLine
 10
42.9304
 20
888.7124999999999
 30
0.0
 11
42.9304
 21
878.9125
 31
0.0
  0
LINE
  5
1E8
330
1E
100
AcDbEntity
  8
0
100
AcDbLine
 10
43.4304
 20
891.9125000000001
 30
0.0
 11
43.4304
 21
888.6124999999999
 31
0.0
  0
LINE
  5
1E9
330
1E
100
AcDbEntity
  8
0
100
AcDbLine
 10
43.4304
 20
891.9125000000001
 30
0.0
 11
43.4304
 21
895.2125
 31
0.0
  0
LINE
  5
1EA
330
1E
100
AcDbEntity
  8
0
100
AcDbLine
 10
43.4304
 20
878.9125
 30
0.0
 11
43.4304
 21
888.6124999999999
 31
0.0
  0
LINE
  5
1EB
330
1E
100
AcDbEntity
  8
0
100
AcDbLine
 10
44.86379999999999
 20
672.1224999999999
 30
0.0
 11
57.9957
 21
649.3775
 31
0.0
  0
LINE
  5
1ED
330
1E
100
AcDbEntity
  8
0
100
AcDbLine
 10
43.4304
 20
888.6124999999999
 30
0.0
 11
43.4304
 21
891.9125000000001
 31
0.0
  0
LINE
  5
1EE
330
1E
100
AcDbEntity
  8
0
100
AcDbLine
 10
43.4304
 20
888.6124999999999
 30
0.0
 11
43.4304
 21
878.9125
 31
0.0
  0
LINE
  5
1F6
330
1E
100
AcDbEntity
  8
0
100
AcDbLine
 10
54.4499
 20
648.8345
 30
0.0
 11
55.4834
 21
647.8234999999999
 31
0.0
  0
LINE
  5
1F7
330
1E
100
AcDbEntity
  8
0
100
AcDbLine
 10
54.6917
 20
651.4624999999999
 30
0.0
 11
56.69039999999999
 21
650.6464999999999
 31
0.0
  0
LINE
  5
1F8
330
1E
100
AcDbEntity
  8
0
100
AcDbLine
 10
55.2784
 20
645.3205
 30
0.0
 11
55.7071
 21
646.6565000000001
 31
0.0
  0
LINE
  5
1F9
330
1E
100
AcDbEntity
  8
0
100
AcDbLine
 10
54.0754
 20
643.9394999999999
 30
0.0
 11
55.2784
 21
645.3205
 31
0.0
  0
LINE
  5
1FB
330
1E
100
AcDbEntity
  8
0
100
AcDbLine
 10
53.9304
 20
661.3643737899289
 30
0.0
 11
55.3156
 21
660.3005
 31
0.0
  0
LINE
  5
1FC
330
1E
100
AcDbEntity
  8
0
100
AcDbLine
 10
53.9304
 20
904.9125
 30
0.0
 11
61.93039999999999
 21
905.4125
 31
0.0
  0
LINE
  5
1FD
330
1E
100
AcDbEntity
  8
0
100
AcDbLine
 10
53.9304
 20
878.9125
 30
0.0
 11
61.93039999999999
 21
878.4125000000001
 31
0.0
  0
LINE
  5
1FE
330
1E
100
AcDbEntity
  8
0
100
AcDbLine
 10
55.3156
 20
660.3005
 30
0.0
 11
58.1447
 21
656.6965
 31
0.0
  0
LINE
  5
1FF
330
1E
100
AcDbEntity
  8
0
100
AcDbLine
 10
53.9304
 20
661.935423451388
 30
0.0
 11
55.6537
 21
660.5795
 31
0.0
  0
LINE
  5
203
330
1E
100
AcDbEntity
  8
0
100
AcDbLine
 10
58.4743
 20
638.8455
 30
0.0
 11
60.339
 21
643.2474999999999
 31
0.0
  0
LINE
  5
204
330
1E
100
AcDbEntity
  8
0
100
AcDbLine
 10
55.597
 20
635.1894999999999
 30
0.0
 11
58.4743
 21
638.8455
 31
0.0
  0
LINE
  5
205
330
1E
100
AcDbEntity
  8
0
100
AcDbLine
 10
55.4834
 20
647.8234999999999
 30
0.0
 11
55.7071
 21
646.6565000000001
 31
0.0
  0
LINE
  5
206
330
1E
100
AcDbEntity
  8
0
100
AcDbLine
 10
56.69039999999999
 20
650.6464999999999
 30
0.0
 11
57.9957
 21
649.3775
 31
0.0
  0
LINE
  5
207
330
1E
100
AcDbEntity
  8
0
100
AcDbLine
 10
57.9957
 20
649.3775
 30
0.0
 11
58.3518
 21
647.7685
 31
0.0
  0
LINE
  5
208
330
1E
100
AcDbEntity
  8
0
100
AcDbLine
 10
57.76749999999999
 20
646.1355
 30
0.0
 11
58.3518
 21
647.7685
 31
0.0
  0
LINE
  5
209
330
1E
100
AcDbEntity
  8
0
100
AcDbLine
 10
56.2263
 20
644.3954999999999
 30
0.0
 11
57.76749999999999
 21
646.1355
 31
0.0
  0
LINE
  5
20A
330
1E
100
AcDbEntity
  8
0
100
AcDbLine
 10
55.6537
 20
660.5795
 30
0.0
 11
58.5189
 21
656.9125
 31
0.0
  0
LINE
  5
20B
330
1E
100
AcDbEntity
  8
0
100
AcDbLine
 10
58.5189
 20
656.9125
 30
0.0
 11
60.2617
 21
652.5974999999999
 31
0.0
  0
LINE
  5
20C
330
1E
100
AcDbEntity
  8
0
100
AcDbLine
 10
58.1447
 20
656.6965
 30
0.0
 11
59.8516
 21
652.4445
 31
0.0
  0
LINE
  5
20D
330
1E
100
AcDbEntity
  8
0
100
AcDbLine
 10
60.339
 20
643.2474999999999
 30
0.0
 11
60.9252
 21
647.9924999999999
 31
0.0
  0
LINE
  5
20E
330
1E
100
AcDbEntity
  8
0
100
AcDbLine
 10
81.93040000000001
 20
869.4124999999999
 30
0.0
 11
82.93040000000001
 21
865.9125000000001
 31
0.0
  0
LINE
  5
20F
330
1E
100
AcDbEntity
  8
0
100
AcDbLine
 10
79.4304
 20
872.9124999999999
 30
0.0
 11
81.93040000000001
 21
869.4124999999999
 31
0.0
  0
LINE
  5
210
330
1E
100
AcDbEntity
  8
0
100
AcDbLine
 10
82.93040000000001
 20
869.4124999999999
 30
0.0
 11
82.93040000000001
 21
873.6124999999999
 31
0.0
  0
LINE
  5
211
330
1E
100
AcDbEntity
  8
0
100
AcDbLine
 10
82.93040000000001
 20
869.4124999999999
 30
0.0
 11
82.93040000000001
 21
866.8124999999999
 31
0.0
  0
LINE
  5
212
330
1E
100
AcDbEntity
  8
0
100
AcDbLine
 10
82.93040000000001
 20
866.8124999999999
 30
0.0
 11
82.93040000000001
 21
869.4124999999999
 31
0.0
  0
LINE
  5
213
330
1E
100
AcDbEntity
  8
0
100
AcDbLine
 10
82.93040000000001
 20
866.8124999999999
 30
0.0
 11
82.93040000000001
 21
865.9125000000001
 31
0.0
  0
LINE
  5
214
330
1E
100
AcDbEntity
  8
0
100
AcDbLine
 10
82.93040000000001
 20
865.9125000000001
 30
0.0
 11
82.93040000000001
 21
866.8124999999999
 31
0.0
  0
LINE
  5
215
330
1E
100
AcDbEntity
  8
0
100
AcDbLine
 10
82.93040000000001
 20
865.9125000000001
 30
0.0
 11
84.9304
 21
865.9125000000001
 31
0.0
  0
LINE
  5
216
330
1E
100
AcDbEntity
  8
0
100
AcDbLine
 10
84.9304
 20
869.4124999999999
 30
0.0
 11
84.9304
 21
873.6124999999999
 31
0.0
  0
LINE
  5
217
330
1E
100
AcDbEntity
  8
0
100
AcDbLine
 10
84.9304
 20
869.4124999999999
 30
0.0
 11
84.9304
 21
866.8124999999999
 31
0.0
  0
LINE
  5
218
330
1E
100
AcDbEntity
  8
0
100
AcDbLine
 10
84.9304
 20
866.8124999999999
 30
0.0
 11
84.9304
 21
869.4124999999999
 31
0.0
  0
LINE
  5
219
330
1E
100
AcDbEntity
  8
0
100
AcDbLine
 10
84.9304
 20
866.8124999999999
 30
0.0
 11
84.9304
 21
865.9125000000001
 31
0.0
  0
LINE
  5
21A
330
1E
100
AcDbEntity
  8
0
100
AcDbLine
 10
84.9304
 20
865.9125000000001
 30
0.0
 11
84.9304
 21
866.8124999999999
 31
0.0
  0
LINE
  5
21B
330
1E
100
AcDbEntity
  8
0
100
AcDbLine
 10
82.93040000000001
 20
873.6124999999999
 30
0.0
 11
82.93040000000001
 21
879.0125000000001
 31
0.0
  0
LINE
  5
21C
330
1E
100
AcDbEntity
  8
0
100
AcDbLine
 10
82.93040000000001
 20
873.6124999999999
 30
0.0
 11
82.93040000000001
 21
869.4124999999999
 31
0.0
  0
LINE
  5
21D
330
1E
100
AcDbEntity
  8
0
100
AcDbLine
 10
61.93039999999999
 20
878.4125000000001
 30
0.0
 11
68.9304
 21
877.4124999999999
 31
0.0
  0
LINE
  5
21E
330
1E
100
AcDbEntity
  8
0
100
AcDbLine
 10
68.9304
 20
877.4124999999999
 30
0.0
 11
75.43040000000001
 21
875.4125
 31
0.0
  0
LINE
  5
21F
330
1E
100
AcDbEntity
  8
0
100
AcDbLine
 10
75.43040000000001
 20
875.4125
 30
0.0
 11
79.4304
 21
872.9124999999999
 31
0.0
  0
LINE
  5
220
330
1E
100
AcDbEntity
  8
0
100
AcDbLine
 10
82.93040000000001
 20
879.0125000000001
 30
0.0
 11
82.93040000000001
 21
885.2124999999999
 31
0.0
  0
LINE
  5
221
330
1E
100
AcDbEntity
  8
0
100
AcDbLine
 10
82.93040000000001
 20
879.0125000000001
 30
0.0
 11
82.93040000000001
 21
873.6124999999999
 31
0.0
  0
LINE
  5
222
330
1E
100
AcDbEntity
  8
0
100
AcDbLine
 10
82.93040000000001
 20
885.2124999999999
 30
0.0
 11
82.93040000000001
 21
891.9125000000001
 31
0.0
  0
LINE
  5
223
330
1E
100
AcDbEntity
  8
0
100
AcDbLine
 10
82.93040000000001
 20
885.2124999999999
 30
0.0
 11
82.93040000000001
 21
879.0125000000001
 31
0.0
  0
LINE
  5
224
330
1E
100
AcDbEntity
  8
0
100
AcDbLine
 10
84.9304
 20
873.6124999999999
 30
0.0
 11
84.9304
 21
879.0125000000001
 31
0.0
  0
LINE
  5
225
330
1E
100
AcDbEntity
  8
0
100
AcDbLine
 10
84.9304
 20
873.6124999999999
 30
0.0
 11
84.9304
 21
869.4124999999999
 31
0.0
  0
LINE
  5
226
330
1E
100
AcDbEntity
  8
0
100
AcDbLine
 10
84.9304
 20
879.0125000000001
 30
0.0
 11
84.9304
 21
885.2124999999999
 31
0.0
  0
LINE
  5
227
330
1E
100
AcDbEntity
  8
0
100
AcDbLine
 10
84.9304
 20
879.0125000000001
 30
0.0
 11
84.9304
 21
873.6124999999999
 31
0.0
  0
LINE
  5
228
330
1E
100
AcDbEntity
  8
0
100
AcDbLine
 10
61.93039999999999
 20
905.4125
 30
0.0
 11
68.9304
 21
906.4125
 31
0.0
  0
LINE
  5
229
330
1E
100
AcDbEntity
  8
0
100
AcDbLine
 10
68.9304
 20
906.4125
 30
0.0
 11
75.43040000000001
 21
908.4125
 31
0.0
  0
LINE
  5
22A
330
1E
100
AcDbEntity
  8
0
100
AcDbLine
 10
75.43040000000001
 20
908.4125
 30
0.0
 11
79.4304
 21
910.9125
 31
0.0
  0
LINE
  5
22B
330
1E
100
AcDbEntity
  8
0
100
AcDbLine
 10
82.93040000000001
 20
904.8125
 30
0.0
 11
82.93040000000001
 21
910.2124999999999
 31
0.0
  0
LINE
  5
22C
330
1E
100
AcDbEntity
  8
0
100
AcDbLine
 10
82.93040000000001
 20
904.8125
 30
0.0
 11
82.93040000000001
 21
898.6124999999999
 31
0.0
  0
LINE
  5
22D
330
1E
100
AcDbEntity
  8
0
100
AcDbLine
 10
82.93040000000001
 20
898.6124999999999
 30
0.0
 11
82.93040000000001
 21
904.8125
 31
0.0
  0
LINE
  5
22E
330
1E
100
AcDbEntity
  8
0
100
AcDbLine
 10
79.4304
 20
910.9125
 30
0.0
 11
81.93040000000001
 21
914.4125
 31
0.0
  0
LINE
  5
22F
330
1E
100
AcDbEntity
  8
0
100
AcDbLine
 10
81.93040000000001
 20
914.4125
 30
0.0
 11
82.93040000000001
 21
917.9125
 31
0.0
  0
LINE
  5
230
330
1E
100
AcDbEntity
  8
0
100
AcDbLine
 10
84.9304
 20
904.8125
 30
0.0
 11
84.9304
 21
910.2124999999999
 31
0.0
  0
LINE
  5
231
330
1E
100
AcDbEntity
  8
0
100
AcDbLine
 10
84.9304
 20
904.8125
 30
0.0
 11
84.9304
 21
898.6124999999999
 31
0.0
  0
LINE
  5
232
330
1E
100
AcDbEntity
  8
0
100
AcDbLine
 10
84.9304
 20
898.6124999999999
 30
0.0
 11
84.9304
 21
904.8125
 31
0.0
  0
LINE
  5
233
330
1E
100
AcDbEntity
  8
0
100
AcDbLine
 10
84.9304
 20
898.6124999999999
 30
0.0
 11
84.9304
 21
891.9125000000001
 31
0.0
  0
LINE
  5
234
330
1E
100
AcDbEntity
  8
0
100
AcDbLine
 10
82.93040000000001
 20
910.2124999999999
 30
0.0
 11
82.93040000000001
 21
914.4125
 31
0.0
  0
LINE
  5
235
330
1E
100
AcDbEntity
  8
0
100
AcDbLine
 10
82.93040000000001
 20
910.2124999999999
 30
0.0
 11
82.93040000000001
 21
904.8125
 31
0.0
  0
LINE
  5
236
330
1E
100
AcDbEntity
  8
0
100
AcDbLine
 10
82.93040000000001
 20
914.4125
 30
0.0
 11
82.93040000000001
 21
917.0125
 31
0.0
  0
LINE
  5
237
330
1E
100
AcDbEntity
  8
0
100
AcDbLine
 10
82.93040000000001
 20
914.4125
 30
0.0
 11
82.93040000000001
 21
910.2124999999999
 31
0.0
  0
LINE
  5
238
330
1E
100
AcDbEntity
  8
0
100
AcDbLine
 10
84.9304
 20
910.2124999999999
 30
0.0
 11
84.9304
 21
914.4125
 31
0.0
  0
LINE
  5
239
330
1E
100
AcDbEntity
  8
0
100
AcDbLine
 10
84.9304
 20
910.2124999999999
 30
0.0
 11
84.9304
 21
904.8125
 31
0.0
  0
LINE
  5
23A
330
1E
100
AcDbEntity
  8
0
100
AcDbLine
 10
82.93040000000001
 20
917.9125
 30
0.0
 11
84.9304
 21
917.9125
 31
0.0
  0
LINE
  5
23B
330
1E
100
AcDbEntity
  8
0
100
AcDbLine
 10
82.93040000000001
 20
917.9125
 30
0.0
 11
82.93040000000001
 21
917.0125
 31
0.0
  0
LINE
  5
23C
330
1E
100
AcDbEntity
  8
0
100
AcDbLine
 10
84.9304
 20
917.9125
 30
0.0
 11
84.9304
 21
917.0125
 31
0.0
  0
LINE
  5
23D
330
1E
100
AcDbEntity
  8
0
100
AcDbLine
 10
82.93040000000001
 20
917.0125
 30
0.0
 11
82.93040000000001
 21
917.9125
 31
0.0
  0
LINE
  5
23E
330
1E
100
AcDbEntity
  8
0
100
AcDbLine
 10
82.93040000000001
 20
917.0125
 30
0.0
 11
82.93040000000001
 21
914.4125
 31
0.0
  0
LINE
  5
23F
330
1E
100
AcDbEntity
  8
0
100
AcDbLine
 10
84.9304
 20
914.4125
 30
0.0
 11
84.9304
 21
917.0125
 31
0.0
  0
LINE
  5
240
330
1E
100
AcDbEntity
  8
0
100
AcDbLine
 10
84.9304
 20
914.4125
 30
0.0
 11
84.9304
 21
910.2124999999999
 31
0.0
  0
LINE
  5
241
330
1E
100
AcDbEntity
  8
0
100
AcDbLine
 10
84.9304
 20
917.0125
 30
0.0
 11
84.9304
 21
917.9125
 31
0.0
  0
LINE
  5
242
330
1E
100
AcDbEntity
  8
0
100
AcDbLine
 10
84.9304
 20
917.0125
 30
0.0
 11
84.9304
 21
914.4125
 31
0.0
  0
LINE
  5
243
330
1E
100
AcDbEntity
  8
0
100
AcDbLine
 10
82.93040000000001
 20
891.9125000000001
 30
0.0
 11
82.93040000000001
 21
885.2124999999999
 31
0.0
  0
LINE
  5
244
330
1E
100
AcDbEntity
  8
0
100
AcDbLine
 10
82.93040000000001
 20
891.9125000000001
 30
0.0
 11
82.93040000000001
 21
898.6124999999999
 31
0.0
  0
LINE
  5
245
330
1E
100
AcDbEntity
  8
0
100
AcDbLine
 10
84.9304
 20
891.9125000000001
 30
0.0
 11
84.9304
 21
885.2124999999999
 31
0.0
  0
LINE
  5
246
330
1E
100
AcDbEntity
  8
0
100
AcDbLine
 10
84.9304
 20
891.9125000000001
 30
0.0
 11
84.9304
 21
898.6124999999999
 31
0.0
  0
LINE
  5
247
330
1E
100
AcDbEntity
  8
0
100
AcDbLine
 10
84.9304
 20
885.2124999999999
 30
0.0
 11
84.9304
 21
891.9125000000001
 31
0.0
  0
LINE
  5
248
330
1E
100
AcDbEntity
  8
0
100
AcDbLine
 10
84.9304
 20
885.2124999999999
 30
0.0
 11
84.9304
 21
879.0125000000001
 31
0.0
  0
LINE
  5
249
330
1E
100
AcDbEntity
  8
0
100
AcDbLine
 10
60.2617
 20
652.5974999999999
 30
0.0
 11
60.9252
 21
647.9924999999999
 31
0.0
  0
LINE
  5
24A
330
1E
100
AcDbEntity
  8
0
100
AcDbLine
 10
59.8516
 20
652.4445
 30
0.0
 11
60.4431
 21
647.9635
 31
0.0
  0
LINE
  5
24B
330
1E
100
AcDbEntity
  8
0
100
AcDbLine
 10
59.84729999999999
 20
643.3794999999999
 30
0.0
 11
60.4431
 21
647.9635
 31
0.0
  0
LINE
  5
24C
330
1E
100
AcDbEntity
  8
0
100
AcDbLine
 10
58.0712
 20
639.1115
 30
0.0
 11
59.84729999999999
 21
643.3794999999999
 31
0.0
  0
LINE
  5
24D
330
1E
100
AcDbEntity
  8
0
100
AcDbLine
 10
55.3187
 20
635.5275
 30
0.0
 11
58.0712
 21
639.1115
 31
0.0
  0
LINE
  5
24E
330
1E
100
AcDbEntity
  8
0
100
AcDbLine
 10
53.9304
 20
634.4378291346449
 30
0.0
 11
55.3187
 21
635.5275
 31
0.0
  0
LINE
  5
24F
330
1E
100
AcDbEntity
  8
0
100
AcDbLine
 10
30.54524999999999
 20
635.5245
 30
0.0
 11
31.93039999999999
 21
634.460649771932
 31
0.0
  0
LINE
  5
255
330
1E
100
AcDbEntity
  8
0
100
AcDbLine
 10
15.59186056594239
 20
672.823006324308
 30
0.0
 11
0.0695999999999907
 21
696.8524999999999
 31
0.0
  0
ENDSEC
  0
SECTION
  2
OBJECTS
  0
DICTIONARY
  5
C
330
0
100
AcDbDictionary
  3
ACAD_GROUP
350
D
  3
ACAD_LAYOUT
350
19
  3
ACAD_MLINESTYLE
350
16
  3
ACAD_PLOTSETTINGS
350
18
  3
ACAD_PLOTSTYLENAME
350
E
  3
ACDBHEADERROUNDTRIPXREC
350
259
  3
ACDBVARIABLEDICTIONARY
350
256
  0
DICTIONARY
  5
27B
330
1E
100
AcDbDictionary
280
     1
  3
ACAD_LAYOUTSELFREF
360
27C
  0
DICTIONARY
  5
279
330
1A
100
AcDbDictionary
280
     1
  3
ACAD_LAYOUTSELFREF
360
27A
  0
DICTIONARY
  5
D
102
{ACAD_REACTORS
330
C
102
}
330
C
100
AcDbDictionary
  0
DICTIONARY
  5
19
102
{ACAD_REACTORS
330
C
102
}
330
C
100
AcDbDictionary
  0
DICTIONARY
  5
16
102
{ACAD_REACTORS
330
C
102
}
330
C
100
AcDbDictionary
  3
STANDARD
350
17
  0
DICTIONARY
  5
18
102
{ACAD_REACTORS
330
C
102
}
330
C
100
AcDbDictionary
  0
ACDBDICTIONARYWDFLT
  5
E
102
{ACAD_REACTORS
330
C
102
}
330
C
100
AcDbDictionary
281
     1
  3
Normal
350
F
100
AcDbDictionaryWithDefault
340
F
  0
DICTIONARY
  5
259
102
{ACAD_REACTORS
330
C
102
}
330
C
100
AcDbDictionary
  3
CEPSNTYPE
350
263
  3
FINGERPRINTGUID
350
264
  3
HYPERLINKBASE
350
25C
  3
INSUNITS
350
262
  3
LAYOUTDICT
350
25E
  3
LWETCUNION
350
261
  3
PLOTSETDICT
350
25F
  3
PLOTSTYLNAMDICT
350
260
  3
PSVPSCALE
350
266
  3
PUCSBASE
350
269
  3
PUCSORGBACK
350
26F
  3
PUCSORGBOTTOM
350
26B
  3
PUCSORGFRONT
350
26E
  3
PUCSORGLEFT
350
26C
  3
PUCSORGRIGHT
350
26D
  3
PUCSORGTOP
350
26A
  3
PUCSORTHOREF
350
267
  3
PUCSORTHOVIEW
350
268
  3
STYLESHEET
350
25D
  3
TSTACKALIGN
350
25A
  3
TSTACKSIZE
350
25B
  3
UCSBASE
350
272
  3
UCSORGBACK
350
278
  3
UCSORGBOTTOM
350
274
  3
UCSORGFRONT
350
277
  3
UCSORGLEFT
350
275
  3
UCSORGRIGHT
350
276
  3
UCSORGTOP
350
273
  3
UCSORTHOREF
350
270
  3
UCSORTHOVIEW
350
271
  3
VERSIONGUID
350
265
  0
DICTIONARY
  5
256
102
{ACAD_REACTORS
330
C
102
}
330
C
100
AcDbDictionary
  3
DIMASSOC
350
257
  0
XRECORD
  5
27C
102
{ACAD_REACTORS
330
27B
102
}
330
27B
100
AcDbXrecord
340
1E
  0
XRECORD
  5
27A
102
{ACAD_REACTORS
330
279
102
}
330
279
100
AcDbXrecord
340
1A
  0
MLINESTYLE
  5
17
102
{ACAD_REACTORS
330
16
102
}
330
16
100
AcDbMlineStyle
  2
STANDARD
 70
     0
  3

 62
   256
 51
90.0
 52
90.0
 71
     2
 49
0.5
 62
   256
  6
BYLAYER
 49
-0.5
 62
   256
  6
BYLAYER
  0
ACDBPLACEHOLDER
  5
F
102
{ACAD_REACTORS
330
E
102
}
330
E
100
AcDbPlaceHolder
280
     0
  0
XRECORD
  5
263
102
{ACAD_REACTORS
330
259
102
}
330
259
100
AcDbXrecord
 90
        0
  0
XRECORD
  5
264
102
{ACAD_REACTORS
330
259
102
}
330
259
100
AcDbXrecord
  1
{7C2B47ED-0658-4405-BD6D-27666431B971}
  0
XRECORD
  5
25C
102
{ACAD_REACTORS
330
259
102
}
330
259
100
AcDbXrecord
  1

  0
XRECORD
  5
262
102
{ACAD_REACTORS
330
259
102
}
330
259
100
AcDbXrecord
 90
        0
  0
XRECORD
  5
25E
102
{ACAD_REACTORS
330
259
102
}
330
259
100
AcDbXrecord
340
19
  0
XRECORD
  5
261
102
{ACAD_REACTORS
330
259
102
}
330
259
100
AcDbXrecord
 90
    10781
  0
XRECORD
  5
25F
102
{ACAD_REACTORS
330
259
102
}
330
259
100
AcDbXrecord
340
18
  0
XRECORD
  5
260
102
{ACAD_REACTORS
330
259
102
}
330
259
100
AcDbXrecord
340
E
  0
XRECORD
  5
266
102
{ACAD_REACTORS
330
259
102
}
330
259
100
AcDbXrecord
 40
0.0
  0
XRECORD
  5
269
102
{ACAD_REACTORS
330
259
102
}
330
259
100
AcDbXrecord
340
0
  0
XRECORD
  5
26F
102
{ACAD_REACTORS
330
259
102
}
330
259
100
AcDbXrecord
 10
0.0
 20
0.0
 30
0.0
  0
XRECORD
  5
26B
102
{ACAD_REACTORS
330
259
102
}
330
259
100
AcDbXrecord
 10
0.0
 20
0.0
 30
0.0
  0
XRECORD
  5
26E
102
{ACAD_REACTORS
330
259
102
}
330
259
100
AcDbXrecord
 10
0.0
 20
0.0
 30
0.0
  0
XRECORD
  5
26C
102
{ACAD_REACTORS
330
259
102
}
330
259
100
AcDbXrecord
 10
0.0
 20
0.0
 30
0.0
  0
XRECORD
  5
26D
102
{ACAD_REACTORS
330
259
102
}
330
259
100
AcDbXrecord
 10
0.0
 20
0.0
 30
0.0
  0
XRECORD
  5
26A
102
{ACAD_REACTORS
330
259
102
}
330
259
100
AcDbXrecord
 10
0.0
 20
0.0
 30
0.0
  0
XRECORD
  5
267
102
{ACAD_REACTORS
330
259
102
}
330
259
100
AcDbXrecord
340
0
  0
XRECORD
  5
268
102
{ACAD_REACTORS
330
259
102
}
330
259
100
AcDbXrecord
 70
     0
  0
XRECORD
  5
25D
102
{ACAD_REACTORS
330
259
102
}
330
259
100
AcDbXrecord
  1

  0
XRECORD
  5
25A
102
{ACAD_REACTORS
330
259
102
}
330
259
100
AcDbXrecord
 90
        1
  0
XRECORD
  5
25B
102
{ACAD_REACTORS
330
259
102
}
330
259
100
AcDbXrecord
 90
       70
  0
XRECORD
  5
272
102
{ACAD_REACTORS
330
259
102
}
330
259
100
AcDbXrecord
340
0
  0
XRECORD
  5
278
102
{ACAD_REACTORS
330
259
102
}
330
259
100
AcDbXrecord
 10
0.0
 20
0.0
 30
0.0
  0
XRECORD
  5
274
102
{ACAD_REACTORS
330
259
102
}
330
259
100
AcDbXrecord
 10
0.0
 20
0.0
 30
0.0
  0
XRECORD
  5
277
102
{ACAD_REACTORS
330
259
102
}
330
259
100
AcDbXrecord
 10
0.0
 20
0.0
 30
0.0
  0
XRECORD
  5
275
102
{ACAD_REACTORS
330
259
102
}
330
259
100
AcDbXrecord
 10
0.0
 20
0.0
 30
0.0
  0
XRECORD
  5
276
102
{ACAD_REACTORS
330
259
102
}
330
259
100
AcDbXrecord
 10
0.0
 20
0.0
 30
0.0
  0
XRECORD
  5
273
102
{ACAD_REACTORS
330
259
102
}
330
259
100
AcDbXrecord
 10
0.0
 20
0.0
 30
0.0
  0
XRECORD
  5
270
102
{ACAD_REACTORS
330
259
102
}
330
259
100
AcDbXrecord
340
0
  0
XRECORD
  5
271
102
{ACAD_REACTORS
330
259
102
}
330
259
100
AcDbXrecord
 70
     1
  0
XRECORD
  5
265
102
{ACAD_REACTORS
330
259
102
}
330
259
100
AcDbXrecord
  1
{9C2A4ABE-0C5E-4589-B84D-DD022199180A}
  0
DICTIONARYVAR
  5
257
102
{ACAD_REACTORS
330
256
102
}
330
256
100
DictionaryVariables
280
     0
  1
1
  0
ENDSEC
  0
EOF
