  0
SECTION
  2
HEADER
  9
$ACADVER
  1
AC1014
  9
$ACADMAINTVER
 70
     9
  9
$DWGCODEPAGE
  3
ANSI_1252
  9
$INSBASE
 10
0.0
 20
0.0
 30
0.0
  9
$EXTMIN
 10
-0.231766
 20
-0.162200000000005
 30
0.0
  9
$EXTMAX
 10
134.2317659999999
 20
156.1622
 30
0.0
  9
$LIMMIN
 10
0.0
 20
0.0
  9
$LIMMAX
 10
12.0
 20
9.0
  9
$ORTHOMODE
 70
     0
  9
$REGENMODE
 70
     1
  9
$FILLMODE
 70
     1
  9
$QTEXTMODE
 70
     0
  9
$MIRRTEXT
 70
     1
  9
$DRAGMODE
 70
     2
  9
$LTSCALE
 40
1.0
  9
$OSMODE
 70
    37
  9
$ATTMODE
 70
     1
  9
$TEXTSIZE
 40
0.2
  9
$TRACEWID
 40
0.05
  9
$TEXTSTYLE
  7
STANDARD
  9
$CLAYER
  8
0
  9
$CELTYPE
  6
CONTINUOUS
  9
$CECOLOR
 62
   256
  9
$CELTSCALE
 40
1.0
  9
$DELOBJ
 70
     1
  9
$DISPSILH
 70
     0
  9
$DIMSCALE
 40
1.0
  9
$DIMASZ
 40
0.18
  9
$DIMEXO
 40
0.0625
  9
$DIMDLI
 40
0.38
  9
$DIMRND
 40
0.0
  9
$DIMDLE
 40
0.0
  9
$DIMEXE
 40
0.18
  9
$DIMTP
 40
0.0
  9
$DIMTM
 40
0.0
  9
$DIMTXT
 40
0.18
  9
$DIMCEN
 40
0.09
  9
$DIMTSZ
 40
0.0
  9
$DIMTOL
 70
     0
  9
$DIMLIM
 70
     0
  9
$DIMTIH
 70
     1
  9
$DIMTOH
 70
     1
  9
$DIMSE1
 70
     0
  9
$DIMSE2
 70
     0
  9
$DIMTAD
 70
     0
  9
$DIMZIN
 70
     0
  9
$DIMBLK
  1

  9
$DIMASO
 70
     1
  9
$DIMSHO
 70
     1
  9
$DIMPOST
  1

  9
$DIMAPOST
  1

  9
$DIMALT
 70
     0
  9
$DIMALTD
 70
     2
  9
$DIMALTF
 40
25.4
  9
$DIMLFAC
 40
1.0
  9
$DIMTOFL
 70
     0
  9
$DIMTVP
 40
0.0
  9
$DIMTIX
 70
     0
  9
$DIMSOXD
 70
     0
  9
$DIMSAH
 70
     0
  9
$DIMBLK1
  1

  9
$DIMBLK2
  1

  9
$DIMSTYLE
  2
STANDARD
  9
$DIMCLRD
 70
     0
  9
$DIMCLRE
 70
     0
  9
$DIMCLRT
 70
     0
  9
$DIMTFAC
 40
1.0
  9
$DIMGAP
 40
0.09
  9
$DIMJUST
 70
     0
  9
$DIMSD1
 70
     0
  9
$DIMSD2
 70
     0
  9
$DIMTOLJ
 70
     1
  9
$DIMTZIN
 70
     0
  9
$DIMALTZ
 70
     0
  9
$DIMALTTZ
 70
     0
  9
$DIMFIT
 70
     3
  9
$DIMUPT
 70
     0
  9
$DIMUNIT
 70
     2
  9
$DIMDEC
 70
     4
  9
$DIMTDEC
 70
     4
  9
$DIMALTU
 70
     2
  9
$DIMALTTD
 70
     2
  9
$DIMTXSTY
  7
STANDARD
  9
$DIMAUNIT
 70
     0
  9
$LUNITS
 70
     2
  9
$LUPREC
 70
     4
  9
$SKETCHINC
 40
0.1
  9
$FILLETRAD
 40
0.0
  9
$AUNITS
 70
     0
  9
$AUPREC
 70
     0
  9
$MENU
  1
.
  9
$ELEVATION
 40
0.0
  9
$PELEVATION
 40
0.0
  9
$THICKNESS
 40
0.0
  9
$LIMCHECK
 70
     0
  9
$BLIPMODE
 70
     0
  9
$CHAMFERA
 40
0.0
  9
$CHAMFERB
 40
0.0
  9
$CHAMFERC
 40
0.0
  9
$CHAMFERD
 40
0.0
  9
$SKPOLY
 70
     0
  9
$TDCREATE
 40
2454700.556200624
  9
$TDUPDATE
 40
2454700.557301065
  9
$TDINDWG
 40
0.0011006250
  9
$TDUSRTIMER
 40
0.0011006250
  9
$USRTIMER
 70
     1
  9
$ANGBASE
 50
0.0
  9
$ANGDIR
 70
     0
  9
$PDMODE
 70
     0
  9
$PDSIZE
 40
0.0
  9
$PLINEWID
 40
0.0
  9
$COORDS
 70
     1
  9
$SPLFRAME
 70
     0
  9
$SPLINETYPE
 70
     6
  9
$SPLINESEGS
 70
     8
  9
$ATTDIA
 70
     0
  9
$ATTREQ
 70
     1
  9
$HANDLING
 70
 22529
  9
$HANDSEED
  5
1EE
  9
$SURFTAB1
 70
     6
  9
$SURFTAB2
 70
     6
  9
$SURFTYPE
 70
     6
  9
$SURFU
 70
     6
  9
$SURFV
 70
     6
  9
$UCSNAME
  2

  9
$UCSORG
 10
0.0
 20
0.0
 30
0.0
  9
$UCSXDIR
 10
1.0
 20
0.0
 30
0.0
  9
$UCSYDIR
 10
0.0
 20
1.0
 30
0.0
  9
$PUCSNAME
  2

  9
$PUCSORG
 10
0.0
 20
0.0
 30
0.0
  9
$PUCSXDIR
 10
1.0
 20
0.0
 30
0.0
  9
$PUCSYDIR
 10
0.0
 20
1.0
 30
0.0
  9
$USERI1
 70
     0
  9
$USERI2
 70
     0
  9
$USERI3
 70
     0
  9
$USERI4
 70
     0
  9
$USERI5
 70
     0
  9
$USERR1
 40
0.0
  9
$USERR2
 40
0.0
  9
$USERR3
 40
0.0
  9
$USERR4
 40
0.0
  9
$USERR5
 40
0.0
  9
$WORLDVIEW
 70
     1
  9
$SHADEDGE
 70
     3
  9
$SHADEDIF
 70
    70
  9
$TILEMODE
 70
     1
  9
$MAXACTVP
 70
    64
  9
$PINSBASE
 10
0.0
 20
0.0
 30
0.0
  9
$PLIMCHECK
 70
     0
  9
$PEXTMIN
 10
1.000000000000000E+20
 20
1.000000000000000E+20
 30
1.000000000000000E+20
  9
$PEXTMAX
 10
-1.000000000000000E+20
 20
-1.000000000000000E+20
 30
-1.000000000000000E+20
  9
$PLIMMIN
 10
0.0
 20
0.0
  9
$PLIMMAX
 10
12.0
 20
9.0
  9
$UNITMODE
 70
     0
  9
$VISRETAIN
 70
     1
  9
$PLINEGEN
 70
     0
  9
$PSLTSCALE
 70
     1
  9
$TREEDEPTH
 70
  3020
  9
$PICKSTYLE
 70
     1
  9
$CMLSTYLE
  2
STANDARD
  9
$CMLJUST
 70
     0
  9
$CMLSCALE
 40
1.0
  9
$PROXYGRAPHICS
 70
     1
  9
$MEASUREMENT
 70
     0
  0
ENDSEC
  0
SECTION
  2
CLASSES
  0
CLASS
  1
ACDBDICTIONARYWDFLT
  2
AcDbDictionaryWithDefault
  3
AutoCAD 2000
 90
        0
280
     0
281
     0
  0
CLASS
  1
ACDBPLACEHOLDER
  2
AcDbPlaceHolder
  3
AutoCAD 2000
 90
        0
280
     0
281
     0
  0
CLASS
  1
LAYOUT
  2
AcDbLayout
  3
AutoCAD 2000
 90
        0
280
     0
281
     0
  0
CLASS
  1
DICTIONARYVAR
  2
AcDbDictionaryVar
  3
AutoCAD 2000
 90
        0
280
     0
281
     0
  0
CLASS
  1
LONG_TRANSACTION
  2
AcDbLongTransaction
  3
AutoCAD 2000
 90
        0
280
     0
281
     0
  0
CLASS
  1
LWPOLYLINE
  2
AcDbPolyline
  3
AutoCAD 2000
 90
        0
280
     0
281
     1
  0
CLASS
  1
HATCH
  2
AcDbHatch
  3
AutoCAD 2000
 90
        0
280
     0
281
     1
  0
CLASS
  1
XRECORD
  2
AcDbXrecord
  3
AutoCAD 2000
 90
        0
280
     0
281
     0
  0
ENDSEC
  0
SECTION
  2
TABLES
  0
TABLE
  2
VPORT
  5
8
330
0
100
AcDbSymbolTable
 70
     2
  0
VPORT
  5
1C9
330
8
100
AcDbSymbolTableRecord
100
AcDbViewportTableRecord
  2
*ACTIVE
 70
     0
 10
0.0
 20
0.0
 11
1.0
 21
1.0
 12
67.0
 22
78.00000000000001
 13
0.0
 23
0.0
 14
1.0
 24
1.0
 15
0.0
 25
0.0
 16
0.0
 26
0.0
 36
1.0
 17
0.0
 27
0.0
 37
0.0
 40
157.5238199488491
 41
2.078104993597951
 42
50.0
 43
0.0
 44
0.0
 50
0.0
 51
0.0
 71
     0
 72
   100
 73
     1
 74
     3
 75
     0
 76
     0
 77
     0
 78
     0
  0
ENDTAB
  0
TABLE
  2
LTYPE
  5
5
330
0
100
AcDbSymbolTable
 70
     1
  0
LTYPE
  5
13
330
5
100
AcDbSymbolTableRecord
100
AcDbLinetypeTableRecord
  2
BYBLOCK
 70
     0
  3

 72
    65
 73
     0
 40
0.0
  0
LTYPE
  5
14
330
5
100
AcDbSymbolTableRecord
100
AcDbLinetypeTableRecord
  2
BYLAYER
 70
     0
  3

 72
    65
 73
     0
 40
0.0
  0
LTYPE
  5
15
330
5
100
AcDbSymbolTableRecord
100
AcDbLinetypeTableRecord
  2
CONTINUOUS
 70
     0
  3
Solid line
 72
    65
 73
     0
 40
0.0
  0
ENDTAB
  0
TABLE
  2
LAYER
  5
2
330
0
100
AcDbSymbolTable
 70
     1
  0
LAYER
  5
10
330
2
100
AcDbSymbolTableRecord
100
AcDbLayerTableRecord
  2
0
 70
     0
 62
     7
  6
CONTINUOUS
  0
ENDTAB
  0
TABLE
  2
STYLE
  5
3
330
0
100
AcDbSymbolTable
 70
     1
  0
STYLE
  5
11
330
3
100
AcDbSymbolTableRecord
100
AcDbTextStyleTableRecord
  2
STANDARD
 70
     0
 40
0.0
 41
1.0
 50
0.0
 71
     0
 42
0.2
  3
txt
  4

  0
ENDTAB
  0
TABLE
  2
VIEW
  5
6
330
0
100
AcDbSymbolTable
 70
     0
  0
ENDTAB
  0
TABLE
  2
UCS
  5
7
330
0
100
AcDbSymbolTable
 70
     0
  0
ENDTAB
  0
TABLE
  2
APPID
  5
9
330
0
100
AcDbSymbolTable
 70
     1
  0
APPID
  5
12
330
9
100
AcDbSymbolTableRecord
100
AcDbRegAppTableRecord
  2
ACAD
 70
     0
  0
ENDTAB
  0
TABLE
  2
DIMSTYLE
  5
A
330
0
100
AcDbSymbolTable
 70
     1
  0
DIMSTYLE
105
1BF
330
A
100
AcDbSymbolTableRecord
100
AcDbDimStyleTableRecord
  2
STANDARD
 70
     0
  3

  4

  5

  6

  7

 40
1.0
 41
0.18
 42
0.0625
 43
0.38
 44
0.18
 45
0.0
 46
0.0
 47
0.0
 48
0.0
140
0.18
141
0.09
142
0.0
143
25.4
144
1.0
145
0.0
146
1.0
147
0.09
 71
     0
 72
     0
 73
     1
 74
     1
 75
     0
 76
     0
 77
     0
 78
     0
170
     0
171
     2
172
     0
173
     0
174
     0
175
     0
176
     0
177
     0
178
     0
270
     2
271
     4
272
     4
273
     2
274
     2
340
11
275
     0
280
     0
281
     0
282
     0
283
     1
284
     0
285
     0
286
     0
287
     3
288
     0
  0
ENDTAB
  0
TABLE
  2
BLOCK_RECORD
  5
1
330
0
100
AcDbSymbolTable
 70
     0
  0
BLOCK_RECORD
  5
1E
102
{ACAD_XDICTIONARY
360
1EC
102
}
330
1
100
AcDbSymbolTableRecord
100
AcDbBlockTableRecord
  2
*MODEL_SPACE
  0
BLOCK_RECORD
  5
1A
102
{ACAD_XDICTIONARY
360
1EA
102
}
330
1
100
AcDbSymbolTableRecord
100
AcDbBlockTableRecord
  2
*PAPER_SPACE
  0
ENDTAB
  0
ENDSEC
  0
SECTION
  2
BLOCKS
  0
BLOCK
  5
1F
330
1E
100
AcDbEntity
  8
0
100
AcDbBlockBegin
  2
*MODEL_SPACE
 70
     0
 10
0.0
 20
0.0
 30
0.0
  3
*MODEL_SPACE
  1

  0
ENDBLK
  5
20
330
1E
100
AcDbEntity
  8
0
100
AcDbBlockEnd
  0
BLOCK
  5
1B
330
1A
100
AcDbEntity
 67
     1
  8
0
100
AcDbBlockBegin
  2
*PAPER_SPACE
 70
     0
 10
0.0
 20
0.0
 30
0.0
  3
*PAPER_SPACE
  1

  0
ENDBLK
  5
1C
330
1A
100
AcDbEntity
 67
     1
  8
0
100
AcDbBlockEnd
  0
ENDSEC
  0
SECTION
  2
ENTITIES
  0
LINE
  5
22
330
1E
100
AcDbEntity
  8
0
100
AcDbLine
 10
19.033666
 20
35.49995999999999
 30
0.0
 11
20.032466
 21
35.54954
 31
0.0
  0
LINE
  5
23
330
1E
100
AcDbEntity
  8
0
100
AcDbLine
 10
18.034766
 20
35.45046
 30
0.0
 11
19.033666
 21
35.49995999999999
 31
0.0
  0
LINE
  5
24
330
1E
100
AcDbEntity
  8
0
100
AcDbLine
 10
17.135266
 20
35.40563
 30
0.0
 11
18.034766
 21
35.45046
 31
0.0
  0
LINE
  5
25
330
1E
100
AcDbEntity
  8
0
100
AcDbLine
 10
16.536466
 20
35.37608
 30
0.0
 11
17.135266
 21
35.40563
 31
0.0
  0
LINE
  5
26
330
1E
100
AcDbEntity
  8
0
100
AcDbLine
 10
16.13636599999999
 20
35.35604
 30
0.0
 11
16.536466
 21
35.37608
 31
0.0
  0
LINE
  5
27
330
1E
100
AcDbEntity
  8
0
100
AcDbLine
 10
20.032466
 20
35.54954
 30
0.0
 11
21.030366
 21
35.59883
 31
0.0
  0
LINE
  5
28
330
1E
100
AcDbEntity
  8
0
100
AcDbLine
 10
16.03706599999999
 20
35.35127999999999
 30
0.0
 11
16.13636599999999
 21
35.35604
 31
0.0
  0
LINE
  5
29
330
1E
100
AcDbEntity
  8
0
100
AcDbLine
 10
21.030366
 20
35.59883
 30
0.0
 11
22.029166
 21
35.64842
 31
0.0
  0
LINE
  5
2A
330
1E
100
AcDbEntity
  8
0
100
AcDbLine
 10
13.938266
 20
79.69280000000001
 30
0.0
 11
14.647066
 21
77.74720000000001
 31
0.0
  0
LINE
  5
2B
330
1E
100
AcDbEntity
  8
0
100
AcDbLine
 10
14.768766
 20
78.7931
 30
0.0
 11
15.57346599999999
 21
76.5821
 31
0.0
  0
LINE
  5
2C
330
1E
100
AcDbEntity
  8
0
100
AcDbLine
 10
14.647066
 20
77.74720000000001
 30
0.0
 11
14.7481915355228
 21
77.4694711741801
 31
0.0
  0
LINE
  5
2D
330
1E
100
AcDbEntity
  8
0
100
AcDbLine
 10
13.512766
 20
82.2422
 30
0.0
 11
14.768766
 21
78.7931
 31
0.0
  0
LINE
  5
2E
330
1E
100
AcDbEntity
  8
0
100
AcDbLine
 10
13.2419380189942
 20
81.60677650982609
 30
0.0
 11
15.51246599999999
 21
35.82578
 31
0.0
  0
LINE
  5
2F
330
1E
100
AcDbEntity
  8
0
100
AcDbLine
 10
13.2419380189942
 20
81.60677650982609
 30
0.0
 11
15.51246599999999
 21
35.82578
 31
0.0
  0
LINE
  5
30
330
1E
100
AcDbEntity
  8
0
100
AcDbLine
 10
18.808866
 20
35.98943
 30
0.0
 11
20.007266
 21
36.04884
 31
0.0
  0
LINE
  5
31
330
1E
100
AcDbEntity
  8
0
100
AcDbLine
 10
17.81006599999999
 20
35.93984
 30
0.0
 11
18.808866
 21
35.98943
 31
0.0
  0
LINE
  5
32
330
1E
100
AcDbEntity
  8
0
100
AcDbLine
 10
16.811166
 20
35.89026
 30
0.0
 11
17.81006599999999
 21
35.93984
 31
0.0
  0
LINE
  5
33
330
1E
100
AcDbEntity
  8
0
100
AcDbLine
 10
16.112166
 20
35.85564
 30
0.0
 11
16.811166
 21
35.89026
 31
0.0
  0
LINE
  5
34
330
1E
100
AcDbEntity
  8
0
100
AcDbLine
 10
15.712066
 20
35.8356
 30
0.0
 11
16.112166
 21
35.85564
 31
0.0
  0
LINE
  5
35
330
1E
100
AcDbEntity
  8
0
100
AcDbLine
 10
20.007266
 20
36.04884
 30
0.0
 11
21.205666
 21
36.10825
 31
0.0
  0
LINE
  5
36
330
1E
100
AcDbEntity
  8
0
100
AcDbLine
 10
21.205666
 20
36.10825
 30
0.0
 11
22.20456599999999
 21
36.15784
 31
0.0
  0
LINE
  5
37
330
1E
100
AcDbEntity
  8
0
100
AcDbLine
 10
15.57346599999999
 20
76.5821
 30
0.0
 11
15.6015087816924
 21
76.5050742780292
 31
0.0
  0
LINE
  5
38
330
1E
100
AcDbEntity
  8
0
100
AcDbLine
 10
22.20456599999999
 20
36.15784
 30
0.0
 11
23.203366
 21
36.20743
 31
0.0
  0
LINE
  5
39
330
1E
100
AcDbEntity
  8
0
100
AcDbLine
 10
15.51246599999999
 20
35.82578
 30
0.0
 11
16.03706599999999
 21
35.35127999999999
 31
0.0
  0
LINE
  5
3A
330
1E
100
AcDbEntity
  8
0
100
AcDbLine
 10
15.51246599999999
 20
35.82578
 30
0.0
 11
15.712066
 21
35.8356
 31
0.0
  0
LINE
  5
3B
330
1E
100
AcDbEntity
  8
0
100
AcDbLine
 10
22.029166
 20
35.64842
 30
0.0
 11
22.92866599999999
 21
35.69325
 31
0.0
  0
LINE
  5
3C
330
1E
100
AcDbEntity
  8
0
100
AcDbLine
 10
72.971666
 20
5.44889999999999
 30
0.0
 11
73.671666
 21
6.64839999999999
 31
0.0
  0
LINE
  5
3D
330
1E
100
AcDbEntity
  8
0
100
AcDbLine
 10
72.671666
 20
4.099599999999999
 30
0.0
 11
72.971666
 21
2.112999999999999
 31
0.0
  0
LINE
  5
3E
330
1E
100
AcDbEntity
  8
0
100
AcDbLine
 10
72.671666
 20
4.099599999999999
 30
0.0
 11
72.671666
 21
59.8378
 31
0.0
  0
LINE
  5
3F
330
1E
100
AcDbEntity
  8
0
100
AcDbLine
 10
72.671666
 20
4.099599999999999
 30
0.0
 11
72.971666
 21
5.44889999999999
 31
0.0
  0
LINE
  5
40
330
1E
100
AcDbEntity
  8
0
100
AcDbLine
 10
73.671666
 20
6.64839999999999
 30
0.0
 11
74.87166600000001
 21
7.84779999999999
 31
0.0
  0
LINE
  5
41
330
1E
100
AcDbEntity
  8
0
100
AcDbLine
 10
74.87166600000001
 20
7.84779999999999
 30
0.0
 11
76.471666
 21
8.89729999999999
 31
0.0
  0
LINE
  5
42
330
1E
100
AcDbEntity
  8
0
100
AcDbLine
 10
72.971666
 20
2.112999999999999
 30
0.0
 11
73.671666
 21
0.988499999999995
 31
0.0
  0
LINE
  5
43
330
1E
100
AcDbEntity
  8
0
100
AcDbLine
 10
73.671666
 20
0.9884999999999958
 30
0.0
 11
74.87166600000001
 21
0.3137999999999979
 31
0.0
  0
LINE
  5
44
330
1E
100
AcDbEntity
  8
0
100
AcDbLine
 10
76.471666
 20
8.89729999999999
 30
0.0
 11
78.27166599999999
 21
9.6095
 31
0.0
  0
LINE
  5
45
330
1E
100
AcDbEntity
  8
0
100
AcDbLine
 10
78.27166599999999
 20
9.6095
 30
0.0
 11
80.17166600000001
 21
9.83779999999999
 31
0.0
  0
LINE
  5
46
330
1E
100
AcDbEntity
  8
0
100
AcDbLine
 10
74.87166600000001
 20
0.3137999999999979
 30
0.0
 11
76.471666
 21
-0.0610000000000029
 31
0.0
  0
LINE
  5
47
330
1E
100
AcDbEntity
  8
0
100
AcDbLine
 10
76.471666
 20
-0.0610000000000029
 30
0.0
 11
78.27166599999999
 21
-0.136000000000002
 31
0.0
  0
LINE
  5
48
330
1E
100
AcDbEntity
  8
0
100
AcDbLine
 10
82.071666
 20
-0.136000000000003
 30
0.0
 11
83.871666
 21
-0.0610000000000034
 31
0.0
  0
LINE
  5
49
330
1E
100
AcDbEntity
  8
0
100
AcDbLine
 10
80.17166600000001
 20
-0.162200000000005
 30
0.0
 11
82.071666
 21
-0.136000000000003
 31
0.0
  0
LINE
  5
4A
330
1E
100
AcDbEntity
  8
0
100
AcDbLine
 10
85.471666
 20
0.313799999999997
 30
0.0
 11
86.67166599999999
 21
0.988499999999995
 31
0.0
  0
LINE
  5
4B
330
1E
100
AcDbEntity
  8
0
100
AcDbLine
 10
83.871666
 20
-0.0610000000000034
 30
0.0
 11
85.471666
 21
0.313799999999997
 31
0.0
  0
LINE
  5
4C
330
1E
100
AcDbEntity
  8
0
100
AcDbLine
 10
87.371666
 20
2.112999999999999
 30
0.0
 11
87.67166600000001
 21
4.099599999999999
 31
0.0
  0
LINE
  5
4D
330
1E
100
AcDbEntity
  8
0
100
AcDbLine
 10
86.67166599999999
 20
0.988499999999995
 30
0.0
 11
87.371666
 21
2.112999999999999
 31
0.0
  0
LINE
  5
4E
330
1E
100
AcDbEntity
  8
0
100
AcDbLine
 10
87.371666
 20
5.44889999999999
 30
0.0
 11
87.67166600000001
 21
4.099599999999999
 31
0.0
  0
LINE
  5
4F
330
1E
100
AcDbEntity
  8
0
100
AcDbLine
 10
87.67166600000001
 20
4.099599999999999
 30
0.0
 11
87.67166600000001
 21
59.8378
 31
0.0
  0
LINE
  5
50
330
1E
100
AcDbEntity
  8
0
100
AcDbLine
 10
86.67166599999999
 20
6.64839999999999
 30
0.0
 11
87.371666
 21
5.44889999999999
 31
0.0
  0
LINE
  5
51
330
1E
100
AcDbEntity
  8
0
100
AcDbLine
 10
85.471666
 20
7.84779999999999
 30
0.0
 11
86.67166599999999
 21
6.64839999999999
 31
0.0
  0
LINE
  5
52
330
1E
100
AcDbEntity
  8
0
100
AcDbLine
 10
83.871666
 20
8.89729999999999
 30
0.0
 11
85.471666
 21
7.84779999999999
 31
0.0
  0
LINE
  5
53
330
1E
100
AcDbEntity
  8
0
100
AcDbLine
 10
82.071666
 20
9.6095
 30
0.0
 11
83.871666
 21
8.89729999999999
 31
0.0
  0
LINE
  5
54
330
1E
100
AcDbEntity
  8
0
100
AcDbLine
 10
80.17166600000001
 20
9.83779999999999
 30
0.0
 11
82.071666
 21
9.6095
 31
0.0
  0
LINE
  5
55
330
1E
100
AcDbEntity
  8
0
100
AcDbLine
 10
78.27166599999999
 20
-0.136000000000002
 30
0.0
 11
80.17166600000001
 21
-0.162200000000005
 31
0.0
  0
LINE
  5
56
330
1E
100
AcDbEntity
  8
0
100
AcDbLine
 10
23.203366
 20
36.20743
 30
0.0
 11
23.902366
 21
36.24204
 31
0.0
  0
LINE
  5
57
330
1E
100
AcDbEntity
  8
0
100
AcDbLine
 10
23.902366
 20
36.24204
 30
0.0
 11
24.301566
 21
36.26177
 31
0.0
  0
LINE
  5
58
330
1E
100
AcDbEntity
  8
0
100
AcDbLine
 10
23.527466
 20
35.7228
 30
0.0
 11
23.92756599999999
 21
35.74274
 31
0.0
  0
LINE
  5
59
330
1E
100
AcDbEntity
  8
0
100
AcDbLine
 10
23.92756599999999
 20
35.74274
 30
0.0
 11
24.026866
 21
35.74759999999999
 31
0.0
  0
LINE
  5
5A
330
1E
100
AcDbEntity
  8
0
100
AcDbLine
 10
22.4474904729676
 20
77.6817979090326
 30
0.0
 11
24.502066
 21
36.2719
 31
0.0
  0
LINE
  5
5B
330
1E
100
AcDbEntity
  8
0
100
AcDbLine
 10
22.4474904729676
 20
77.6817979090326
 30
0.0
 11
46.64196599999999
 21
86.48789999999999
 31
0.0
  0
LINE
  5
69
330
1E
100
AcDbEntity
  8
0
100
AcDbLine
 10
72.671666
 20
59.8378
 30
0.0
 11
72.671666
 21
4.099599999999999
 31
0.0
  0
LINE
  5
6A
330
1E
100
AcDbEntity
  8
0
100
AcDbLine
 10
72.671666
 20
59.8378
 30
0.0
 11
72.971666
 21
59.8378
 31
0.0
  0
LINE
  5
6B
330
1E
100
AcDbEntity
  8
0
100
AcDbLine
 10
72.971666
 20
59.8378
 30
0.0
 11
73.671666
 21
59.8378
 31
0.0
  0
LINE
  5
6C
330
1E
100
AcDbEntity
  8
0
100
AcDbLine
 10
73.671666
 20
59.8378
 30
0.0
 11
74.87166600000001
 21
59.8378
 31
0.0
  0
LINE
  5
6D
330
1E
100
AcDbEntity
  8
0
100
AcDbLine
 10
74.87166600000001
 20
59.8378
 30
0.0
 11
76.471666
 21
59.8378
 31
0.0
  0
LINE
  5
6E
330
1E
100
AcDbEntity
  8
0
100
AcDbLine
 10
73.77166599999999
 20
59.8378
 30
0.0
 11
75.671666
 21
59.8378
 31
0.0
  0
LINE
  5
6F
330
1E
100
AcDbEntity
  8
0
100
AcDbLine
 10
76.471666
 20
59.8378
 30
0.0
 11
78.27166599999999
 21
59.8378
 31
0.0
  0
LINE
  5
70
330
1E
100
AcDbEntity
  8
0
100
AcDbLine
 10
78.27166599999999
 20
59.8378
 30
0.0
 11
80.17166600000001
 21
59.8378
 31
0.0
  0
LINE
  5
71
330
1E
100
AcDbEntity
  8
0
100
AcDbLine
 10
75.671666
 20
59.8378
 30
0.0
 11
77.871666
 21
59.8378
 31
0.0
  0
LINE
  5
72
330
1E
100
AcDbEntity
  8
0
100
AcDbLine
 10
77.871666
 20
59.8378
 30
0.0
 11
80.17166600000001
 21
59.8378
 31
0.0
  0
LINE
  5
73
330
1E
100
AcDbEntity
  8
0
100
AcDbLine
 10
83.871666
 20
59.8378
 30
0.0
 11
85.471666
 21
59.8378
 31
0.0
  0
LINE
  5
74
330
1E
100
AcDbEntity
  8
0
100
AcDbLine
 10
82.071666
 20
59.8378
 30
0.0
 11
83.871666
 21
59.8378
 31
0.0
  0
LINE
  5
75
330
1E
100
AcDbEntity
  8
0
100
AcDbLine
 10
87.371666
 20
59.8378
 30
0.0
 11
87.67166600000001
 21
59.8378
 31
0.0
  0
LINE
  5
76
330
1E
100
AcDbEntity
  8
0
100
AcDbLine
 10
86.67166599999999
 20
59.8378
 30
0.0
 11
87.371666
 21
59.8378
 31
0.0
  0
LINE
  5
77
330
1E
100
AcDbEntity
  8
0
100
AcDbLine
 10
85.471666
 20
59.8378
 30
0.0
 11
86.67166599999999
 21
59.8378
 31
0.0
  0
LINE
  5
78
330
1E
100
AcDbEntity
  8
0
100
AcDbLine
 10
86.57166600000001
 20
59.8378
 30
0.0
 11
87.971666
 21
59.8378
 31
0.0
  0
LINE
  5
79
330
1E
100
AcDbEntity
  8
0
100
AcDbLine
 10
84.671666
 20
59.8378
 30
0.0
 11
86.57166600000001
 21
59.8378
 31
0.0
  0
LINE
  5
7A
330
1E
100
AcDbEntity
  8
0
100
AcDbLine
 10
82.47166599999999
 20
59.8378
 30
0.0
 11
84.671666
 21
59.8378
 31
0.0
  0
LINE
  5
7B
330
1E
100
AcDbEntity
  8
0
100
AcDbLine
 10
80.17166600000001
 20
59.8378
 30
0.0
 11
82.47166599999999
 21
59.8378
 31
0.0
  0
LINE
  5
7C
330
1E
100
AcDbEntity
  8
0
100
AcDbLine
 10
80.17166600000001
 20
59.8378
 30
0.0
 11
82.071666
 21
59.8378
 31
0.0
  0
LINE
  5
7D
330
1E
100
AcDbEntity
  8
0
100
AcDbLine
 10
87.67166600000001
 20
59.8378
 30
0.0
 11
87.971666
 21
59.8378
 31
0.0
  0
LINE
  5
7E
330
1E
100
AcDbEntity
  8
0
100
AcDbLine
 10
87.67166600000001
 20
59.8378
 30
0.0
 11
87.67166600000001
 21
4.099599999999999
 31
0.0
  0
LINE
  5
7F
330
1E
100
AcDbEntity
  8
0
100
AcDbLine
 10
89.17166599999999
 20
59.8378
 30
0.0
 11
91.171666
 21
87.8378
 31
0.0
  0
LINE
  5
80
330
1E
100
AcDbEntity
  8
0
100
AcDbLine
 10
87.971666
 20
59.8378
 30
0.0
 11
88.871666
 21
59.8378
 31
0.0
  0
LINE
  5
81
330
1E
100
AcDbEntity
  8
0
100
AcDbLine
 10
88.871666
 20
59.8378
 30
0.0
 11
89.17166599999999
 21
59.8378
 31
0.0
  0
LINE
  5
82
330
1E
100
AcDbEntity
  8
0
100
AcDbLine
 10
72.37166600000001
 20
59.8378
 30
0.0
 11
72.671666
 21
59.8378
 31
0.0
  0
LINE
  5
83
330
1E
100
AcDbEntity
  8
0
100
AcDbLine
 10
72.37166600000001
 20
59.8378
 30
0.0
 11
73.77166599999999
 21
59.8378
 31
0.0
  0
LINE
  5
84
330
1E
100
AcDbEntity
  8
0
100
AcDbLine
 10
71.471666
 20
59.8378
 30
0.0
 11
72.37166600000001
 21
59.8378
 31
0.0
  0
LINE
  5
85
330
1E
100
AcDbEntity
  8
0
100
AcDbLine
 10
71.171666
 20
59.8378
 30
0.0
 11
71.471666
 21
59.8378
 31
0.0
  0
LINE
  5
86
330
1E
100
AcDbEntity
  8
0
100
AcDbLine
 10
24.301566
 20
36.26177
 30
0.0
 11
24.502066
 21
36.2719
 31
0.0
  0
LINE
  5
87
330
1E
100
AcDbEntity
  8
0
100
AcDbLine
 10
24.026866
 20
35.74759999999999
 30
0.0
 11
24.502066
 21
36.2719
 31
0.0
  0
LINE
  5
88
330
1E
100
AcDbEntity
  8
0
100
AcDbLine
 10
22.92866599999999
 20
35.69325
 30
0.0
 11
23.527466
 21
35.7228
 31
0.0
  0
LINE
  5
89
330
1E
100
AcDbEntity
  8
0
100
AcDbLine
 10
22.4474904729676
 20
77.6817979090326
 30
0.0
 11
46.64196599999999
 21
86.48789999999999
 31
0.0
  0
LINE
  5
8A
330
1E
100
AcDbEntity
  8
0
100
AcDbLine
 10
22.4474904729676
 20
77.6817979090326
 30
0.0
 11
24.502066
 21
36.2719
 31
0.0
  0
LINE
  5
8B
330
1E
100
AcDbEntity
  8
0
100
AcDbLine
 10
9.875966
 20
92.2362
 30
0.0
 11
11.80746599999999
 21
86.9297
 31
0.0
  0
LINE
  5
8D
330
1E
100
AcDbEntity
  8
0
100
AcDbLine
 10
44.88936599999999
 20
94.06299999999999
 30
0.0
 11
46.145266
 21
90.61390000000001
 31
0.0
  0
LINE
  5
8E
330
1E
100
AcDbEntity
  8
0
100
AcDbLine
 10
44.227866
 20
93.12090000000001
 30
0.0
 11
45.547566
 21
89.49479999999999
 31
0.0
  0
LINE
  5
8F
330
1E
100
AcDbEntity
  8
0
100
AcDbLine
 10
46.274866
 20
93.9588
 30
0.0
 11
47.55436599999999
 21
90.4433
 31
0.0
  0
LINE
  5
90
330
1E
100
AcDbEntity
  8
0
100
AcDbLine
 10
46.145266
 20
90.61390000000001
 30
0.0
 11
46.917666
 21
88.4913
 31
0.0
  0
LINE
  5
91
330
1E
100
AcDbEntity
  8
0
100
AcDbLine
 10
45.547566
 20
89.49479999999999
 30
0.0
 11
46.352266
 21
87.28379999999999
 31
0.0
  0
LINE
  5
92
330
1E
100
AcDbEntity
  8
0
100
AcDbLine
 10
46.352266
 20
87.28379999999999
 30
0.0
 11
46.64196599999999
 21
86.48789999999999
 31
0.0
  0
LINE
  5
93
330
1E
100
AcDbEntity
  8
0
100
AcDbLine
 10
11.80746599999999
 20
86.9297
 30
0.0
 11
13.512766
 21
82.2422
 31
0.0
  0
LINE
  5
94
330
1E
100
AcDbEntity
  8
0
100
AcDbLine
 10
45.816666
 20
94.31789999999999
 30
0.0
 11
47.04796599999999
 21
90.935
 31
0.0
  0
LINE
  5
95
330
1E
100
AcDbEntity
  8
0
100
AcDbLine
 10
69.171666
 20
87.8378
 30
0.0
 11
71.171666
 21
59.8378
 31
0.0
  0
LINE
  5
96
330
1E
100
AcDbEntity
  8
0
100
AcDbLine
 10
69.171666
 20
87.8378
 30
0.0
 11
70.10986599999999
 21
89.7142
 31
0.0
  0
LINE
  5
97
330
1E
100
AcDbEntity
  8
0
100
AcDbLine
 10
49.339766
 20
87.33719999999999
 30
0.0
 11
67.23176600000001
 21
93.91034544791759
 31
0.0
  0
LINE
  5
98
330
1E
100
AcDbEntity
  8
0
100
AcDbLine
 10
48.640766
 20
87.45839999999999
 30
0.0
 11
49.339766
 21
87.33719999999999
 31
0.0
  0
LINE
  5
99
330
1E
100
AcDbEntity
  8
0
100
AcDbLine
 10
46.917666
 20
88.4913
 30
0.0
 11
47.207466
 21
87.69519999999999
 31
0.0
  0
LINE
  5
9A
330
1E
100
AcDbEntity
  8
0
100
AcDbLine
 10
47.04796599999999
 20
90.935
 30
0.0
 11
48.11026599999999
 21
88.0164
 31
0.0
  0
LINE
  5
9B
330
1E
100
AcDbEntity
  8
0
100
AcDbLine
 10
47.55436599999999
 20
90.4433
 30
0.0
 11
48.35106599999999
 21
88.2543
 31
0.0
  0
LINE
  5
9C
330
1E
100
AcDbEntity
  8
0
100
AcDbLine
 10
48.35106599999999
 20
88.2543
 30
0.0
 11
48.640766
 21
87.45839999999999
 31
0.0
  0
LINE
  5
9D
330
1E
100
AcDbEntity
  8
0
100
AcDbLine
 10
71.43766600000001
 20
89.7142
 30
0.0
 11
74.037666
 21
89.7142
 31
0.0
  0
LINE
  5
9E
330
1E
100
AcDbEntity
  8
0
100
AcDbLine
 10
74.037666
 20
89.7142
 30
0.0
 11
77.019966
 21
89.7142
 31
0.0
  0
LINE
  5
9F
330
1E
100
AcDbEntity
  8
0
100
AcDbLine
 10
77.019966
 20
89.7142
 30
0.0
 11
80.23176600000001
 21
89.7142
 31
0.0
  0
LINE
  5
A0
330
1E
100
AcDbEntity
  8
0
100
AcDbLine
 10
89.02586600000001
 20
89.7142
 30
0.0
 11
90.97586599999999
 21
89.7142
 31
0.0
  0
LINE
  5
A1
330
1E
100
AcDbEntity
  8
0
100
AcDbLine
 10
86.42586599999999
 20
89.7142
 30
0.0
 11
89.02586600000001
 21
89.7142
 31
0.0
  0
LINE
  5
A2
330
1E
100
AcDbEntity
  8
0
100
AcDbLine
 10
83.44346599999999
 20
89.7142
 30
0.0
 11
86.42586599999999
 21
89.7142
 31
0.0
  0
LINE
  5
A3
330
1E
100
AcDbEntity
  8
0
100
AcDbLine
 10
80.23176600000001
 20
89.7142
 30
0.0
 11
83.44346599999999
 21
89.7142
 31
0.0
  0
LINE
  5
A4
330
1E
100
AcDbEntity
  8
0
100
AcDbLine
 10
69.487666
 20
89.7142
 30
0.0
 11
70.10986599999999
 21
89.7142
 31
0.0
  0
LINE
  5
A5
330
1E
100
AcDbEntity
  8
0
100
AcDbLine
 10
69.487666
 20
89.7142
 30
0.0
 11
71.43766600000001
 21
89.7142
 31
0.0
  0
LINE
  5
A6
330
1E
100
AcDbEntity
  8
0
100
AcDbLine
 10
68.264166
 20
89.7142
 30
0.0
 11
69.487666
 21
89.7142
 31
0.0
  0
LINE
  5
A7
330
1E
100
AcDbEntity
  8
0
100
AcDbLine
 10
67.805266
 20
89.7142
 30
0.0
 11
68.264166
 21
89.7142
 31
0.0
  0
LINE
  5
A8
330
1E
100
AcDbEntity
  8
0
100
AcDbLine
 10
90.23346600000001
 20
89.7142
 30
0.0
 11
90.97586599999999
 21
89.7142
 31
0.0
  0
LINE
  5
A9
330
1E
100
AcDbEntity
  8
0
100
AcDbLine
 10
90.23346600000001
 20
89.7142
 30
0.0
 11
91.171666
 21
87.8378
 31
0.0
  0
LINE
  5
AA
330
1E
100
AcDbEntity
  8
0
100
AcDbLine
 10
71.169966
 20
89.9939
 30
0.0
 11
73.846466
 21
89.9939
 31
0.0
  0
LINE
  5
AB
330
1E
100
AcDbEntity
  8
0
100
AcDbLine
 10
73.846466
 20
89.9939
 30
0.0
 11
76.943566
 21
89.9939
 31
0.0
  0
LINE
  5
AC
330
1E
100
AcDbEntity
  8
0
100
AcDbLine
 10
76.943566
 20
89.9939
 30
0.0
 11
80.23176600000001
 21
89.9939
 31
0.0
  0
LINE
  5
AD
330
1E
100
AcDbEntity
  8
0
100
AcDbLine
 10
69.14356600000001
 20
89.9939
 30
0.0
 11
71.169966
 21
89.9939
 31
0.0
  0
LINE
  5
AE
330
1E
100
AcDbEntity
  8
0
100
AcDbLine
 10
67.88176599999999
 20
89.9939
 30
0.0
 11
69.14356600000001
 21
89.9939
 31
0.0
  0
LINE
  5
AF
330
1E
100
AcDbEntity
  8
0
100
AcDbLine
 10
89.293466
 20
89.9939
 30
0.0
 11
91.319966
 21
89.9939
 31
0.0
  0
LINE
  5
B0
330
1E
100
AcDbEntity
  8
0
100
AcDbLine
 10
91.319966
 20
89.9939
 30
0.0
 11
92.581766
 21
89.9939
 31
0.0
  0
LINE
  5
B1
330
1E
100
AcDbEntity
  8
0
100
AcDbLine
 10
86.617066
 20
89.9939
 30
0.0
 11
89.293466
 21
89.9939
 31
0.0
  0
LINE
  5
B2
330
1E
100
AcDbEntity
  8
0
100
AcDbLine
 10
83.51996599999999
 20
89.9939
 30
0.0
 11
86.617066
 21
89.9939
 31
0.0
  0
LINE
  5
B3
330
1E
100
AcDbEntity
  8
0
100
AcDbLine
 10
80.23176600000001
 20
89.9939
 30
0.0
 11
83.51996599999999
 21
89.9939
 31
0.0
  0
LINE
  5
B4
330
1E
100
AcDbEntity
  8
0
100
AcDbLine
 10
67.422966
 20
89.9939
 30
0.0
 11
67.805266
 21
89.7142
 31
0.0
  0
LINE
  5
B5
330
1E
100
AcDbEntity
  8
0
100
AcDbLine
 10
67.422966
 20
89.9939
 30
0.0
 11
67.88176599999999
 21
89.9939
 31
0.0
  0
LINE
  5
B6
330
1E
100
AcDbEntity
  8
0
100
AcDbLine
 10
90.97586599999999
 20
89.7142
 30
0.0
 11
92.199366
 21
89.7142
 31
0.0
  0
LINE
  5
B7
330
1E
100
AcDbEntity
  8
0
100
AcDbLine
 10
92.581766
 20
89.9939
 30
0.0
 11
93.040566
 21
89.9939
 31
0.0
  0
LINE
  5
B8
330
1E
100
AcDbEntity
  8
0
100
AcDbLine
 10
92.658166
 20
89.7142
 30
0.0
 11
93.040566
 21
89.9939
 31
0.0
  0
LINE
  5
B9
330
1E
100
AcDbEntity
  8
0
100
AcDbLine
 10
92.199366
 20
89.7142
 30
0.0
 11
92.658166
 21
89.7142
 31
0.0
  0
LINE
  5
BA
330
1E
100
AcDbEntity
  8
0
100
AcDbLine
 10
67.23176600000001
 20
93.91034544791759
 30
0.0
 11
67.23176600000001
 21
90.55329999999999
 31
0.0
  0
LINE
  5
BB
330
1E
100
AcDbEntity
  8
0
100
AcDbLine
 10
93.23176600000001
 20
90.55329999999999
 30
0.0
 11
93.23176600000001
 21
103.4621999999999
 31
0.0
  0
LINE
  5
BC
330
1E
100
AcDbEntity
  8
0
100
AcDbLine
 10
67.23176600000001
 20
90.55329999999999
 30
0.0
 11
67.23176600000001
 21
93.91034544791759
 31
0.0
  0
LINE
  5
BD
330
1E
100
AcDbEntity
  8
0
100
AcDbLine
 10
67.23176600000001
 20
90.55329999999999
 30
0.0
 11
67.422966
 21
89.9939
 31
0.0
  0
LINE
  5
BE
330
1E
100
AcDbEntity
  8
0
100
AcDbLine
 10
93.040566
 20
89.9939
 30
0.0
 11
93.23176600000001
 21
90.55329999999999
 31
0.0
  0
LINE
  5
BF
330
1E
100
AcDbEntity
  8
0
100
AcDbLine
 10
48.11026599999999
 20
88.0164
 30
0.0
 11
48.640766
 21
87.45839999999999
 31
0.0
  0
LINE
  5
C0
330
1E
100
AcDbEntity
  8
0
100
AcDbLine
 10
47.0922308186111
 20
88.01175875743179
 30
0.0
 11
47.207466
 21
87.69519999999999
 31
0.0
  0
LINE
  5
C1
330
1E
100
AcDbEntity
  8
0
100
AcDbLine
 10
47.0922308186111
 20
88.01175875743179
 30
0.0
 11
48.04613511760529
 21
88.1926105018508
 31
0.0
  0
LINE
  5
C2
330
1E
100
AcDbEntity
  8
0
100
AcDbLine
 10
46.64196599999999
 20
86.48789999999999
 30
0.0
 11
47.207466
 21
87.69519999999999
 31
0.0
  0
LINE
  5
C4
330
1E
100
AcDbEntity
  8
0
100
AcDbLine
 10
9.303066000000001
 20
92.42839999999999
 30
0.0
 11
13.938266
 21
79.69280000000001
 31
0.0
  0
LINE
  5
C5
330
1E
100
AcDbEntity
  8
0
100
AcDbLine
 10
44.58486599999999
 20
98.6021
 30
0.0
 11
46.274866
 21
93.9588
 31
0.0
  0
LINE
  5
C6
330
1E
100
AcDbEntity
  8
0
100
AcDbLine
 10
43.24766599999999
 20
98.5735
 30
0.0
 11
44.88936599999999
 21
94.06299999999999
 31
0.0
  0
LINE
  5
C7
330
1E
100
AcDbEntity
  8
0
100
AcDbLine
 10
42.521566
 20
97.80830000000001
 30
0.0
 11
44.227866
 21
93.12090000000001
 31
0.0
  0
LINE
  5
C8
330
1E
100
AcDbEntity
  8
0
100
AcDbLine
 10
7.815255999999999
 20
97.8964
 30
0.0
 11
9.875966
 21
92.2362
 31
0.0
  0
LINE
  5
C9
330
1E
100
AcDbEntity
  8
0
100
AcDbLine
 10
44.17496599999999
 20
98.82840000000001
 30
0.0
 11
45.816666
 21
94.31789999999999
 31
0.0
  0
LINE
  5
CA
330
1E
100
AcDbEntity
  8
0
100
AcDbLine
 10
111.2317659999999
 20
94.96219999999999
 30
0.0
 11
111.2317659999999
 21
100.0288999999999
 31
0.0
  0
LINE
  5
CB
330
1E
100
AcDbEntity
  8
0
100
AcDbLine
 10
111.2317659999999
 20
94.96219999999999
 30
0.0
 11
111.2317659999999
 21
92.0289
 31
0.0
  0
LINE
  5
CC
330
1E
100
AcDbEntity
  8
0
100
AcDbLine
 10
111.2317659999999
 20
90.8289
 30
0.0
 11
111.7317659999999
 21
88.82890000000001
 31
0.0
  0
LINE
  5
CD
330
1E
100
AcDbEntity
  8
0
100
AcDbLine
 10
111.2317659999999
 20
90.8289
 30
0.0
 11
111.2317659999999
 21
92.0289
 31
0.0
  0
LINE
  5
CE
330
1E
100
AcDbEntity
  8
0
100
AcDbLine
 10
42.62926599999999
 20
103.9748
 30
0.0
 11
44.58486599999999
 21
98.6021
 31
0.0
  0
LINE
  5
CF
330
1E
100
AcDbEntity
  8
0
100
AcDbLine
 10
41.34846599999999
 20
103.7916
 30
0.0
 11
43.24766599999999
 21
98.5735
 31
0.0
  0
LINE
  5
D0
330
1E
100
AcDbEntity
  8
0
100
AcDbLine
 10
40.557766
 20
103.2032
 30
0.0
 11
42.521566
 21
97.80830000000001
 31
0.0
  0
LINE
  5
D1
330
1E
100
AcDbEntity
  8
0
100
AcDbLine
 10
5.755475999999999
 20
103.5567
 30
0.0
 11
7.815255999999999
 21
97.8964
 31
0.0
  0
LINE
  5
D2
330
1E
100
AcDbEntity
  8
0
100
AcDbLine
 10
5.440015999999999
 20
103.0413999999999
 30
0.0
 11
9.303066000000001
 21
92.42839999999999
 31
0.0
  0
LINE
  5
D3
330
1E
100
AcDbEntity
  8
0
100
AcDbLine
 10
70.731766
 20
100.1622
 30
0.0
 11
77.73176600000001
 21
100.9622
 31
0.0
  0
LINE
  5
D4
330
1E
100
AcDbEntity
  8
0
100
AcDbLine
 10
59.831766
 20
103.0622
 30
0.0
 11
65.031766
 21
100.9622
 31
0.0
  0
LINE
  5
D5
330
1E
100
AcDbEntity
  8
0
100
AcDbLine
 10
77.73176600000001
 20
100.9622
 30
0.0
 11
84.33176600000001
 21
103.0622
 31
0.0
  0
LINE
  5
D6
330
1E
100
AcDbEntity
  8
0
100
AcDbLine
 10
65.031766
 20
100.9622
 30
0.0
 11
70.731766
 21
100.1622
 31
0.0
  0
LINE
  5
D8
330
1E
100
AcDbEntity
  8
0
100
AcDbLine
 10
35.69576599999999
 20
114.3539
 30
0.0
 11
39.32096599999999
 21
109.3633999999999
 31
0.0
  0
LINE
  5
D9
330
1E
100
AcDbEntity
  8
0
100
AcDbLine
 10
34.71136599999999
 20
114.2960999999999
 30
0.0
 11
38.43346599999999
 21
109.0404
 31
0.0
  0
LINE
  5
DA
330
1E
100
AcDbEntity
  8
0
100
AcDbLine
 10
3.823995999999999
 20
108.8631
 30
0.0
 11
5.755475999999999
 21
103.5567
 31
0.0
  0
LINE
  5
DB
330
1E
100
AcDbEntity
  8
0
100
AcDbLine
 10
2.117706
 20
113.5504999999999
 30
0.0
 11
3.823995999999999
 21
108.8631
 31
0.0
  0
LINE
  5
DC
330
1E
100
AcDbEntity
  8
0
100
AcDbLine
 10
3.605405999999999
 20
108.0824999999999
 30
0.0
 11
5.440015999999999
 21
103.0413999999999
 31
0.0
  0
LINE
  5
DD
330
1E
100
AcDbEntity
  8
0
100
AcDbLine
 10
2.028265999999999
 20
112.4162
 30
0.0
 11
3.605405999999999
 21
108.0824999999999
 31
0.0
  0
LINE
  5
DE
330
1E
100
AcDbEntity
  8
0
100
AcDbLine
 10
-0.192941
 20
118.5186999999999
 30
0.0
 11
2.028265999999999
 21
112.4162
 31
0.0
  0
LINE
  5
DF
330
1E
100
AcDbEntity
  8
0
100
AcDbLine
 10
39.32096599999999
 20
109.3633999999999
 30
0.0
 11
41.34846599999999
 21
103.7916
 31
0.0
  0
LINE
  5
E0
330
1E
100
AcDbEntity
  8
0
100
AcDbLine
 10
38.43346599999999
 20
109.0404
 30
0.0
 11
40.557766
 21
103.2032
 31
0.0
  0
LINE
  5
E1
330
1E
100
AcDbEntity
  8
0
100
AcDbLine
 10
40.55306599999999
 20
109.6792999999999
 30
0.0
 11
42.62926599999999
 21
103.9748
 31
0.0
  0
LINE
  5
E2
330
1E
100
AcDbEntity
  8
0
100
AcDbLine
 10
38.47676599999999
 20
115.3837999999999
 30
0.0
 11
40.55306599999999
 21
109.6792999999999
 31
0.0
  0
LINE
  5
E3
330
1E
100
AcDbEntity
  8
0
100
AcDbLine
 10
40.263866
 20
109.5741
 30
0.0
 11
44.17496599999999
 21
98.82840000000001
 31
0.0
  0
LINE
  5
E4
330
1E
100
AcDbEntity
  8
0
100
AcDbLine
 10
32.42468298493919
 20
131.2464476148279
 30
0.0
 11
40.263866
 21
109.5741
 31
0.0
  0
LINE
  5
E5
330
1E
100
AcDbEntity
  8
0
100
AcDbLine
 10
0.0579600000000001
 20
119.2108
 30
0.0
 11
0.8626959999999998
 21
116.9997999999999
 31
0.0
  0
LINE
  5
E6
330
1E
100
AcDbEntity
  8
0
100
AcDbLine
 10
32.37616599999999
 20
119.0549999999999
 30
0.0
 11
35.69576599999999
 21
114.3539
 31
0.0
  0
LINE
  5
E7
330
1E
100
AcDbEntity
  8
0
100
AcDbLine
 10
31.238966
 20
119.1418999999999
 30
0.0
 11
34.71136599999999
 21
114.2960999999999
 31
0.0
  0
LINE
  5
E8
330
1E
100
AcDbEntity
  8
0
100
AcDbLine
 10
0.8626959999999998
 20
116.9997999999999
 30
0.0
 11
2.117706
 21
113.5504999999999
 31
0.0
  0
LINE
  5
E9
330
1E
100
AcDbEntity
  8
0
100
AcDbLine
 10
0.0579600000000001
 20
119.2108
 30
0.0
 11
0.8626959999999998
 21
116.9997999999999
 31
0.0
  0
LINE
  5
EA
330
1E
100
AcDbEntity
  8
0
100
AcDbLine
 10
-0.231766
 20
120.0067999999999
 30
0.0
 11
0.0579600000000001
 21
119.2108
 31
0.0
  0
LINE
  5
EB
330
1E
100
AcDbEntity
  8
0
100
AcDbLine
 10
-0.231766
 20
120.0067999999999
 30
0.0
 11
0.9380360000000001
 21
120.9335
 31
0.0
  0
LINE
  5
EC
330
1E
100
AcDbEntity
  8
0
100
AcDbLine
 10
49.53176599999999
 20
116.4622
 30
0.0
 11
51.731766
 21
111.1622
 31
0.0
  0
LINE
  5
ED
330
1E
100
AcDbEntity
  8
0
100
AcDbLine
 10
55.231766
 20
106.6621999999999
 30
0.0
 11
59.831766
 21
103.0622
 31
0.0
  0
LINE
  5
EE
330
1E
100
AcDbEntity
  8
0
100
AcDbLine
 10
51.731766
 20
111.1622
 30
0.0
 11
55.231766
 21
106.6621999999999
 31
0.0
  0
LINE
  5
F1
330
1E
100
AcDbEntity
  8
0
100
AcDbLine
 10
90.03176600000001
 20
106.6621999999999
 30
0.0
 11
92.73176600000001
 21
109.4621999999999
 31
0.0
  0
LINE
  5
F2
330
1E
100
AcDbEntity
  8
0
100
AcDbLine
 10
84.33176600000001
 20
103.0622
 30
0.0
 11
90.03176600000001
 21
106.6621999999999
 31
0.0
  0
LINE
  5
F6
330
1E
100
AcDbEntity
  8
0
100
AcDbLine
 10
0.9380359999999988
 20
120.9335
 30
0.0
 11
24.012166
 21
129.3316
 31
0.0
  0
LINE
  5
F7
330
1E
100
AcDbEntity
  8
0
100
AcDbLine
 10
25.905966
 20
126.6154999999999
 30
0.0
 11
28.20136599999999
 21
123.3446
 31
0.0
  0
LINE
  5
F8
330
1E
100
AcDbEntity
  8
0
100
AcDbLine
 10
24.568366
 20
128.6322999999999
 30
0.0
 11
25.905966
 21
126.6154999999999
 31
0.0
  0
LINE
  5
F9
330
1E
100
AcDbEntity
  8
0
100
AcDbLine
 10
36.52126599999999
 20
120.7566
 30
0.0
 11
38.47676599999999
 21
115.3837999999999
 31
0.0
  0
LINE
  5
FA
330
1E
100
AcDbEntity
  8
0
100
AcDbLine
 10
29.49226599999999
 20
123.1133
 30
0.0
 11
32.37616599999999
 21
119.0549999999999
 31
0.0
  0
LINE
  5
FB
330
1E
100
AcDbEntity
  8
0
100
AcDbLine
 10
28.20136599999999
 20
123.3446
 30
0.0
 11
31.238966
 21
119.1418999999999
 31
0.0
  0
LINE
  5
FC
330
1E
100
AcDbEntity
  8
0
100
AcDbLine
 10
34.831266
 20
125.3997999999999
 30
0.0
 11
36.52126599999999
 21
120.7566
 31
0.0
  0
LINE
  5
FD
330
1E
100
AcDbEntity
  8
0
100
AcDbLine
 10
27.34876599999999
 20
126.2394
 30
0.0
 11
29.49226599999999
 21
123.1133
 31
0.0
  0
LINE
  5
FF
330
1E
100
AcDbEntity
  8
0
100
AcDbLine
 10
48.731766
 20
122.1621999999999
 30
0.0
 11
49.53176599999999
 21
116.4622
 31
0.0
  0
LINE
  5
100
330
1E
100
AcDbEntity
  8
0
100
AcDbLine
 10
48.731766
 20
122.1621999999999
 30
0.0
 11
49.53176599999999
 21
127.8622
 31
0.0
  0
LINE
  5
101
330
1E
100
AcDbEntity
  8
0
100
AcDbLine
 10
49.53176599999999
 20
127.8622
 30
0.0
 11
51.731766
 21
133.1622
 31
0.0
  0
LINE
  5
102
330
1E
100
AcDbEntity
  8
0
100
AcDbLine
 10
26.45770208629369
 20
127.45210377635
 30
0.0
 11
30.293466
 21
130.0525
 31
0.0
  0
LINE
  5
103
330
1E
100
AcDbEntity
  8
0
100
AcDbLine
 10
25.955266
 20
128.1358999999999
 30
0.0
 11
26.45770208629369
 21
127.45210377635
 31
0.0
  0
LINE
  5
104
330
1E
100
AcDbEntity
  8
0
100
AcDbLine
 10
25.955266
 20
128.1358999999999
 30
0.0
 11
27.34876599999999
 21
126.2394
 31
0.0
  0
LINE
  5
105
330
1E
100
AcDbEntity
  8
0
100
AcDbLine
 10
33.55166599999999
 20
128.9154
 30
0.0
 11
34.831266
 21
125.3997999999999
 31
0.0
  0
LINE
  5
106
330
1E
100
AcDbEntity
  8
0
100
AcDbLine
 10
32.42468298493919
 20
131.2464476148279
 30
0.0
 11
32.465266
 21
131.9002
 31
0.0
  0
LINE
  5
107
330
1E
100
AcDbEntity
  8
0
100
AcDbLine
 10
32.75496599999999
 20
131.1042999999999
 30
0.0
 11
33.55166599999999
 21
128.9154
 31
0.0
  0
LINE
  5
108
330
1E
100
AcDbEntity
  8
0
100
AcDbLine
 10
51.731766
 20
133.1622
 30
0.0
 11
55.231766
 21
137.6622
 31
0.0
  0
LINE
  5
10A
330
1E
100
AcDbEntity
  8
0
100
AcDbLine
 10
59.831766
 20
141.2621999999999
 30
0.0
 11
65.031766
 21
143.3621999999999
 31
0.0
  0
LINE
  5
10B
330
1E
100
AcDbEntity
  8
0
100
AcDbLine
 10
55.231766
 20
137.6622
 30
0.0
 11
59.831766
 21
141.2621999999999
 31
0.0
  0
LINE
  5
10D
330
1E
100
AcDbEntity
  8
0
100
AcDbLine
 10
77.73176600000001
 20
143.3621999999999
 30
0.0
 11
84.33176600000001
 21
141.2621999999999
 31
0.0
  0
LINE
  5
10E
330
1E
100
AcDbEntity
  8
0
100
AcDbLine
 10
65.031766
 20
143.3621999999999
 30
0.0
 11
70.731766
 21
144.1622
 31
0.0
  0
LINE
  5
10F
330
1E
100
AcDbEntity
  8
0
100
AcDbLine
 10
90.03176600000001
 20
137.6622
 30
0.0
 11
92.73176600000001
 21
134.8621999999999
 31
0.0
  0
LINE
  5
110
330
1E
100
AcDbEntity
  8
0
100
AcDbLine
 10
84.33176600000001
 20
141.2621999999999
 30
0.0
 11
90.03176600000001
 21
137.6622
 31
0.0
  0
LINE
  5
111
330
1E
100
AcDbEntity
  8
0
100
AcDbLine
 10
84.631766
 20
141.6622
 30
0.0
 11
90.431766
 21
138.0622
 31
0.0
  0
LINE
  5
112
330
1E
100
AcDbEntity
  8
0
100
AcDbLine
 10
77.93176600000001
 20
143.8622
 30
0.0
 11
84.631766
 21
141.6622
 31
0.0
  0
LINE
  5
113
330
1E
100
AcDbEntity
  8
0
100
AcDbLine
 10
32.922866
 20
132.4422
 30
0.0
 11
64.93176600000001
 21
143.8622
 31
0.0
  0
LINE
  5
114
330
1E
100
AcDbEntity
  8
0
100
AcDbLine
 10
32.465266
 20
131.9002
 30
0.0
 11
32.922866
 21
132.4422
 31
0.0
  0
LINE
  5
115
330
1E
100
AcDbEntity
  8
0
100
AcDbLine
 10
32.465266
 20
131.9002
 30
0.0
 11
32.75496599999999
 21
131.1042999999999
 31
0.0
  0
LINE
  5
116
330
1E
100
AcDbEntity
  8
0
100
AcDbLine
 10
30.293466
 20
130.0525
 30
0.0
 11
32.42468298493919
 21
131.2464476148279
 31
0.0
  0
LINE
  5
117
330
1E
100
AcDbEntity
  8
0
100
AcDbLine
 10
24.012166
 20
129.3316
 30
0.0
 11
25.488166
 21
128.8676
 31
0.0
  0
LINE
  5
118
330
1E
100
AcDbEntity
  8
0
100
AcDbLine
 10
24.012166
 20
129.3316
 30
0.0
 11
24.568366
 21
128.6322999999999
 31
0.0
  0
LINE
  5
119
330
1E
100
AcDbEntity
  8
0
100
AcDbLine
 10
25.488166
 20
128.8676
 30
0.0
 11
25.955266
 21
128.1358999999999
 31
0.0
  0
LINE
  5
11A
330
1E
100
AcDbEntity
  8
0
100
AcDbLine
 10
0.9380360000000001
 20
120.9335
 30
0.0
 11
24.012166
 21
129.3316
 31
0.0
  0
LINE
  5
11B
330
1E
100
AcDbEntity
  8
0
100
AcDbLine
 10
-0.231766
 20
120.0067999999999
 30
0.0
 11
-0.192941
 21
118.5186999999999
 31
0.0
  0
LINE
  5
11C
330
1E
100
AcDbEntity
  8
0
100
AcDbLine
 10
-0.231766
 20
120.0067999999999
 30
0.0
 11
0.9380360000000001
 21
120.9335
 31
0.0
  0
LINE
  5
11D
330
1E
100
AcDbEntity
  8
0
100
AcDbLine
 10
-0.231766
 20
120.0067999999999
 30
0.0
 11
0.0579600000000001
 21
119.2108
 31
0.0
  0
LINE
  5
11E
330
1E
100
AcDbEntity
  8
0
100
AcDbLine
 10
93.23176600000001
 20
104.3622
 30
0.0
 11
93.23176600000001
 21
106.9622
 31
0.0
  0
LINE
  5
11F
330
1E
100
AcDbEntity
  8
0
100
AcDbLine
 10
93.23176600000001
 20
104.3622
 30
0.0
 11
93.23176600000001
 21
103.4621999999999
 31
0.0
  0
LINE
  5
120
330
1E
100
AcDbEntity
  8
0
100
AcDbLine
 10
93.23176600000001
 20
106.9622
 30
0.0
 11
93.23176600000001
 21
109.1622
 31
0.0
  0
LINE
  5
121
330
1E
100
AcDbEntity
  8
0
100
AcDbLine
 10
93.23176600000001
 20
106.9622
 30
0.0
 11
93.23176600000001
 21
104.3622
 31
0.0
  0
LINE
  5
122
330
1E
100
AcDbEntity
  8
0
100
AcDbLine
 10
92.73176600000001
 20
134.8621999999999
 30
0.0
 11
92.73176600000001
 21
122.1621999999999
 31
0.0
  0
LINE
  5
123
330
1E
100
AcDbEntity
  8
0
100
AcDbLine
 10
92.73176600000001
 20
134.8621999999999
 30
0.0
 11
93.23176600000001
 21
135.1622
 31
0.0
  0
LINE
  5
124
330
1E
100
AcDbEntity
  8
0
100
AcDbLine
 10
92.73176600000001
 20
122.1621999999999
 30
0.0
 11
92.73176600000001
 21
109.4621999999999
 31
0.0
  0
LINE
  5
125
330
1E
100
AcDbEntity
  8
0
100
AcDbLine
 10
92.73176600000001
 20
122.1621999999999
 30
0.0
 11
92.73176600000001
 21
134.8621999999999
 31
0.0
  0
LINE
  5
126
330
1E
100
AcDbEntity
  8
0
100
AcDbLine
 10
92.73176600000001
 20
109.4621999999999
 30
0.0
 11
93.23176600000001
 21
109.1622
 31
0.0
  0
LINE
  5
127
330
1E
100
AcDbEntity
  8
0
100
AcDbLine
 10
92.73176600000001
 20
109.4621999999999
 30
0.0
 11
92.73176600000001
 21
122.1621999999999
 31
0.0
  0
LINE
  5
128
330
1E
100
AcDbEntity
  8
0
100
AcDbLine
 10
93.23176600000001
 20
109.1622
 30
0.0
 11
93.23176600000001
 21
122.1621999999999
 31
0.0
  0
LINE
  5
129
330
1E
100
AcDbEntity
  8
0
100
AcDbLine
 10
93.23176600000001
 20
109.1622
 30
0.0
 11
93.23176600000001
 21
106.9622
 31
0.0
  0
LINE
  5
12A
330
1E
100
AcDbEntity
  8
0
100
AcDbLine
 10
93.23176600000001
 20
122.1621999999999
 30
0.0
 11
93.23176600000001
 21
109.1622
 31
0.0
  0
LINE
  5
12B
330
1E
100
AcDbEntity
  8
0
100
AcDbLine
 10
93.23176600000001
 20
122.1621999999999
 30
0.0
 11
93.23176600000001
 21
135.1622
 31
0.0
  0
LINE
  5
12C
330
1E
100
AcDbEntity
  8
0
100
AcDbLine
 10
93.23176600000001
 20
135.1622
 30
0.0
 11
93.23176600000001
 21
122.1621999999999
 31
0.0
  0
LINE
  5
12D
330
1E
100
AcDbEntity
  8
0
100
AcDbLine
 10
93.23176600000001
 20
133.1622
 30
0.0
 11
95.23176600000001
 21
135.1622
 31
0.0
  0
LINE
  5
12E
330
1E
100
AcDbEntity
  8
0
100
AcDbLine
 10
93.23176600000001
 20
103.4621999999999
 30
0.0
 11
93.23176600000001
 21
90.55329999999999
 31
0.0
  0
LINE
  5
12F
330
1E
100
AcDbEntity
  8
0
100
AcDbLine
 10
93.23176600000001
 20
103.4621999999999
 30
0.0
 11
93.23176600000001
 21
104.3622
 31
0.0
  0
LINE
  5
130
330
1E
100
AcDbEntity
  8
0
100
AcDbLine
 10
90.431766
 20
138.0622
 30
0.0
 11
93.23176600000001
 21
135.1622
 31
0.0
  0
LINE
  5
131
330
1E
100
AcDbEntity
  8
0
100
AcDbLine
 10
70.731766
 20
144.1622
 30
0.0
 11
77.73176600000001
 21
143.3621999999999
 31
0.0
  0
LINE
  5
132
330
1E
100
AcDbEntity
  8
0
100
AcDbLine
 10
64.93176600000001
 20
143.8622
 30
0.0
 11
70.731766
 21
144.6622
 31
0.0
  0
LINE
  5
133
330
1E
100
AcDbEntity
  8
0
100
AcDbLine
 10
103.231766
 20
108.1622
 30
0.0
 11
105.2317659999999
 21
109.1622
 31
0.0
  0
LINE
  5
134
330
1E
100
AcDbEntity
  8
0
100
AcDbLine
 10
111.2317659999999
 20
106.5622
 30
0.0
 11
111.2317659999999
 21
100.0288999999999
 31
0.0
  0
LINE
  5
135
330
1E
100
AcDbEntity
  8
0
100
AcDbLine
 10
111.2317659999999
 20
106.5622
 30
0.0
 11
111.2317659999999
 21
111.1622
 31
0.0
  0
LINE
  5
136
330
1E
100
AcDbEntity
  8
0
100
AcDbLine
 10
111.2317659999999
 20
106.5622
 30
0.0
 11
111.2317659999999
 21
114.1621999999999
 31
0.0
  0
LINE
  5
137
330
1E
100
AcDbEntity
  8
0
100
AcDbLine
 10
105.2317659999999
 20
109.1622
 30
0.0
 11
107.2317659999999
 21
111.1622
 31
0.0
  0
LINE
  5
138
330
1E
100
AcDbEntity
  8
0
100
AcDbLine
 10
100.231766
 20
108.1622
 30
0.0
 11
103.231766
 21
108.1622
 31
0.0
  0
LINE
  5
139
330
1E
100
AcDbEntity
  8
0
100
AcDbLine
 10
97.23176600000002
 20
108.1622
 30
0.0
 11
100.231766
 21
108.1622
 31
0.0
  0
LINE
  5
142
330
1E
100
AcDbEntity
  8
0
100
AcDbLine
 10
107.2317659999999
 20
111.5622
 30
0.0
 11
107.2317659999999
 21
111.1622
 31
0.0
  0
LINE
  5
143
330
1E
100
AcDbEntity
  8
0
100
AcDbLine
 10
107.2317659999999
 20
111.5622
 30
0.0
 11
107.2317659999999
 21
112.6622
 31
0.0
  0
LINE
  5
144
330
1E
100
AcDbEntity
  8
0
100
AcDbLine
 10
107.2317659999999
 20
112.6622
 30
0.0
 11
107.2317659999999
 21
111.5622
 31
0.0
  0
LINE
  5
145
330
1E
100
AcDbEntity
  8
0
100
AcDbLine
 10
107.2317659999999
 20
112.6622
 30
0.0
 11
107.2317659999999
 21
114.3622
 31
0.0
  0
LINE
  5
148
330
1E
100
AcDbEntity
  8
0
100
AcDbLine
 10
107.2317659999999
 20
114.3622
 30
0.0
 11
107.2317659999999
 21
116.6622
 31
0.0
  0
LINE
  5
149
330
1E
100
AcDbEntity
  8
0
100
AcDbLine
 10
107.2317659999999
 20
114.3622
 30
0.0
 11
107.2317659999999
 21
112.6622
 31
0.0
  0
LINE
  5
14E
330
1E
100
AcDbEntity
  8
0
100
AcDbLine
 10
107.2317659999999
 20
122.1621999999999
 30
0.0
 11
107.2317659999999
 21
119.3621999999999
 31
0.0
  0
LINE
  5
14F
330
1E
100
AcDbEntity
  8
0
100
AcDbLine
 10
107.2317659999999
 20
122.1621999999999
 30
0.0
 11
107.2317659999999
 21
124.9622
 31
0.0
  0
LINE
  5
150
330
1E
100
AcDbEntity
  8
0
100
AcDbLine
 10
107.2317659999999
 20
119.3621999999999
 30
0.0
 11
107.2317659999999
 21
116.6622
 31
0.0
  0
LINE
  5
151
330
1E
100
AcDbEntity
  8
0
100
AcDbLine
 10
107.2317659999999
 20
119.3621999999999
 30
0.0
 11
107.2317659999999
 21
122.1621999999999
 31
0.0
  0
LINE
  5
152
330
1E
100
AcDbEntity
  8
0
100
AcDbLine
 10
107.2317659999999
 20
116.6622
 30
0.0
 11
107.2317659999999
 21
119.3621999999999
 31
0.0
  0
LINE
  5
153
330
1E
100
AcDbEntity
  8
0
100
AcDbLine
 10
107.2317659999999
 20
116.6622
 30
0.0
 11
107.2317659999999
 21
114.3622
 31
0.0
  0
LINE
  5
15C
330
1E
100
AcDbEntity
  8
0
100
AcDbLine
 10
105.2317659999999
 20
135.1622
 30
0.0
 11
107.2317659999999
 21
133.1622
 31
0.0
  0
LINE
  5
15D
330
1E
100
AcDbEntity
  8
0
100
AcDbLine
 10
107.2317659999999
 20
132.7622
 30
0.0
 11
107.2317659999999
 21
131.6622
 31
0.0
  0
LINE
  5
15E
330
1E
100
AcDbEntity
  8
0
100
AcDbLine
 10
107.2317659999999
 20
132.7622
 30
0.0
 11
107.2317659999999
 21
133.1622
 31
0.0
  0
LINE
  5
15F
330
1E
100
AcDbEntity
  8
0
100
AcDbLine
 10
107.2317659999999
 20
131.6622
 30
0.0
 11
107.2317659999999
 21
129.9622
 31
0.0
  0
LINE
  5
160
330
1E
100
AcDbEntity
  8
0
100
AcDbLine
 10
107.2317659999999
 20
131.6622
 30
0.0
 11
107.2317659999999
 21
132.7622
 31
0.0
  0
LINE
  5
161
330
1E
100
AcDbEntity
  8
0
100
AcDbLine
 10
107.2317659999999
 20
129.9622
 30
0.0
 11
107.2317659999999
 21
127.6621999999999
 31
0.0
  0
LINE
  5
162
330
1E
100
AcDbEntity
  8
0
100
AcDbLine
 10
107.2317659999999
 20
129.9622
 30
0.0
 11
107.2317659999999
 21
131.6622
 31
0.0
  0
LINE
  5
163
330
1E
100
AcDbEntity
  8
0
100
AcDbLine
 10
107.2317659999999
 20
133.1622
 30
0.0
 11
111.2317659999999
 21
133.1622
 31
0.0
  0
LINE
  5
164
330
1E
100
AcDbEntity
  8
0
100
AcDbLine
 10
107.2317659999999
 20
133.1622
 30
0.0
 11
107.2317659999999
 21
132.7622
 31
0.0
  0
LINE
  5
167
330
1E
100
AcDbEntity
  8
0
100
AcDbLine
 10
107.2317659999999
 20
124.9622
 30
0.0
 11
107.2317659999999
 21
127.6621999999999
 31
0.0
  0
LINE
  5
168
330
1E
100
AcDbEntity
  8
0
100
AcDbLine
 10
107.2317659999999
 20
124.9622
 30
0.0
 11
107.2317659999999
 21
122.1621999999999
 31
0.0
  0
LINE
  5
169
330
1E
100
AcDbEntity
  8
0
100
AcDbLine
 10
107.2317659999999
 20
127.6621999999999
 30
0.0
 11
107.2317659999999
 21
129.9622
 31
0.0
  0
LINE
  5
16A
330
1E
100
AcDbEntity
  8
0
100
AcDbLine
 10
107.2317659999999
 20
127.6621999999999
 30
0.0
 11
107.2317659999999
 21
124.9622
 31
0.0
  0
LINE
  5
16B
330
1E
100
AcDbEntity
  8
0
100
AcDbLine
 10
97.23176600000002
 20
136.1622
 30
0.0
 11
100.231766
 21
136.1622
 31
0.0
  0
LINE
  5
16C
330
1E
100
AcDbEntity
  8
0
100
AcDbLine
 10
103.231766
 20
136.1622
 30
0.0
 11
105.2317659999999
 21
135.1622
 31
0.0
  0
LINE
  5
16D
330
1E
100
AcDbEntity
  8
0
100
AcDbLine
 10
100.231766
 20
136.1622
 30
0.0
 11
103.231766
 21
136.1622
 31
0.0
  0
LINE
  5
16E
330
1E
100
AcDbEntity
  8
0
100
AcDbLine
 10
95.23176600000001
 20
135.1622
 30
0.0
 11
97.23176600000002
 21
136.1622
 31
0.0
  0
LINE
  5
16F
330
1E
100
AcDbEntity
  8
0
100
AcDbLine
 10
111.2317659999999
 20
114.1621999999999
 30
0.0
 11
111.2317659999999
 21
122.1621
 31
0.0
  0
LINE
  5
170
330
1E
100
AcDbEntity
  8
0
100
AcDbLine
 10
111.2317659999999
 20
114.1621999999999
 30
0.0
 11
111.2317659999999
 21
106.5622
 31
0.0
  0
LINE
  5
171
330
1E
100
AcDbEntity
  8
0
100
AcDbLine
 10
111.2317659999999
 20
133.1622
 30
0.0
 11
111.2317659999999
 21
114.1621999999999
 31
0.0
  0
LINE
  5
174
330
1E
100
AcDbEntity
  8
0
100
AcDbLine
 10
111.2317659999999
 20
137.7622
 30
0.0
 11
111.2317659999999
 21
144.2952
 31
0.0
  0
LINE
  5
175
330
1E
100
AcDbEntity
  8
0
100
AcDbLine
 10
111.2317659999999
 20
137.7622
 30
0.0
 11
111.2317659999999
 21
133.1622
 31
0.0
  0
LINE
  5
176
330
1E
100
AcDbEntity
  8
0
100
AcDbLine
 10
111.2317659999999
 20
144.2952
 30
0.0
 11
111.2317659999999
 21
149.3622
 31
0.0
  0
LINE
  5
177
330
1E
100
AcDbEntity
  8
0
100
AcDbLine
 10
111.2317659999999
 20
144.2952
 30
0.0
 11
111.2317659999999
 21
137.7622
 31
0.0
  0
LINE
  5
178
330
1E
100
AcDbEntity
  8
0
100
AcDbLine
 10
111.2317659999999
 20
153.4952
 30
0.0
 11
111.2317659999999
 21
152.2952
 31
0.0
  0
LINE
  5
179
330
1E
100
AcDbEntity
  8
0
100
AcDbLine
 10
111.2317659999999
 20
153.4952
 30
0.0
 11
111.7317659999999
 21
155.4952
 31
0.0
  0
LINE
  5
17A
330
1E
100
AcDbEntity
  8
0
100
AcDbLine
 10
111.2317659999999
 20
152.2952
 30
0.0
 11
111.2317659999999
 21
153.4952
 31
0.0
  0
LINE
  5
17B
330
1E
100
AcDbEntity
  8
0
100
AcDbLine
 10
111.2317659999999
 20
152.2952
 30
0.0
 11
111.2317659999999
 21
149.3622
 31
0.0
  0
LINE
  5
17C
330
1E
100
AcDbEntity
  8
0
100
AcDbLine
 10
111.2317659999999
 20
149.3622
 30
0.0
 11
111.2317659999999
 21
144.2952
 31
0.0
  0
LINE
  5
17D
330
1E
100
AcDbEntity
  8
0
100
AcDbLine
 10
111.2317659999999
 20
149.3622
 30
0.0
 11
111.2317659999999
 21
152.2952
 31
0.0
  0
LINE
  5
17E
330
1E
100
AcDbEntity
  8
0
100
AcDbLine
 10
111.2317659999999
 20
133.1622
 30
0.0
 11
111.2317659999999
 21
137.7622
 31
0.0
  0
LINE
  5
17F
330
1E
100
AcDbEntity
  8
0
100
AcDbLine
 10
111.2317659999999
 20
111.1622
 30
0.0
 11
111.2317659999999
 21
106.5622
 31
0.0
  0
LINE
  5
180
330
1E
100
AcDbEntity
  8
0
100
AcDbLine
 10
107.2317659999999
 20
111.1622
 30
0.0
 11
111.2317659999999
 21
111.1622
 31
0.0
  0
LINE
  5
181
330
1E
100
AcDbEntity
  8
0
100
AcDbLine
 10
107.2317659999999
 20
111.1622
 30
0.0
 11
107.2317659999999
 21
111.5622
 31
0.0
  0
LINE
  5
182
330
1E
100
AcDbEntity
  8
0
100
AcDbLine
 10
95.23176600000001
 20
109.1622
 30
0.0
 11
97.23176600000002
 21
108.1622
 31
0.0
  0
LINE
  5
183
330
1E
100
AcDbEntity
  8
0
100
AcDbLine
 10
93.23176600000001
 20
111.1622
 30
0.0
 11
95.23176600000001
 21
109.1622
 31
0.0
  0
LINE
  5
184
330
1E
100
AcDbEntity
  8
0
100
AcDbLine
 10
111.2317659999999
 20
100.0288999999999
 30
0.0
 11
111.2317659999999
 21
94.96219999999999
 31
0.0
  0
LINE
  5
185
330
1E
100
AcDbEntity
  8
0
100
AcDbLine
 10
111.2317659999999
 20
100.0288999999999
 30
0.0
 11
111.2317659999999
 21
106.5622
 31
0.0
  0
LINE
  5
186
330
1E
100
AcDbEntity
  8
0
100
AcDbLine
 10
134.2317659999999
 20
88.16219999999999
 30
0.0
 11
134.2317659999999
 21
89.3622
 31
0.0
  0
LINE
  5
187
330
1E
100
AcDbEntity
  8
0
100
AcDbLine
 10
113.231766
 20
88.16219999999999
 30
0.0
 11
134.2317659999999
 21
88.16219999999999
 31
0.0
  0
LINE
  5
188
330
1E
100
AcDbEntity
  8
0
100
AcDbLine
 10
111.7317659999999
 20
98.5622
 30
0.0
 11
111.7317659999999
 21
93.3622
 31
0.0
  0
LINE
  5
189
330
1E
100
AcDbEntity
  8
0
100
AcDbLine
 10
111.7317659999999
 20
98.5622
 30
0.0
 11
111.7317659999999
 21
105.6289
 31
0.0
  0
LINE
  5
18A
330
1E
100
AcDbEntity
  8
0
100
AcDbLine
 10
111.7317659999999
 20
122.1623
 30
0.0
 11
111.7317659999999
 21
113.6289
 31
0.0
  0
LINE
  5
18C
330
1E
100
AcDbEntity
  8
0
100
AcDbLine
 10
111.7317659999999
 20
122.1621
 30
0.0
 11
111.7317659999999
 21
130.6955
 31
0.0
  0
LINE
  5
18E
330
1E
100
AcDbEntity
  8
0
100
AcDbLine
 10
111.7317659999999
 20
145.7622
 30
0.0
 11
111.7317659999999
 21
150.9622
 31
0.0
  0
LINE
  5
18F
330
1E
100
AcDbEntity
  8
0
100
AcDbLine
 10
111.7317659999999
 20
145.7622
 30
0.0
 11
111.7317659999999
 21
138.6951999999999
 31
0.0
  0
LINE
  5
190
330
1E
100
AcDbEntity
  8
0
100
AcDbLine
 10
111.7317659999999
 20
130.6955
 30
0.0
 11
111.7317659999999
 21
138.6951999999999
 31
0.0
  0
LINE
  5
191
330
1E
100
AcDbEntity
  8
0
100
AcDbLine
 10
111.7317659999999
 20
130.6955
 30
0.0
 11
111.7317659999999
 21
122.1621
 31
0.0
  0
LINE
  5
192
330
1E
100
AcDbEntity
  8
0
100
AcDbLine
 10
111.7317659999999
 20
138.6951999999999
 30
0.0
 11
111.7317659999999
 21
130.6955
 31
0.0
  0
LINE
  5
193
330
1E
100
AcDbEntity
  8
0
100
AcDbLine
 10
111.7317659999999
 20
138.6951999999999
 30
0.0
 11
111.7317659999999
 21
145.7622
 31
0.0
  0
LINE
  5
194
330
1E
100
AcDbEntity
  8
0
100
AcDbLine
 10
111.7317659999999
 20
105.6289
 30
0.0
 11
111.7317659999999
 21
113.6289
 31
0.0
  0
LINE
  5
195
330
1E
100
AcDbEntity
  8
0
100
AcDbLine
 10
111.7317659999999
 20
105.6289
 30
0.0
 11
111.7317659999999
 21
98.5622
 31
0.0
  0
LINE
  5
196
330
1E
100
AcDbEntity
  8
0
100
AcDbLine
 10
111.7317659999999
 20
113.6289
 30
0.0
 11
111.7317659999999
 21
105.6289
 31
0.0
  0
LINE
  5
197
330
1E
100
AcDbEntity
  8
0
100
AcDbLine
 10
111.7317659999999
 20
113.6289
 30
0.0
 11
111.7317659999999
 21
122.1623
 31
0.0
  0
LINE
  5
198
330
1E
100
AcDbEntity
  8
0
100
AcDbLine
 10
111.7317659999999
 20
90.02889999999998
 30
0.0
 11
111.7317659999999
 21
93.3622
 31
0.0
  0
LINE
  5
199
330
1E
100
AcDbEntity
  8
0
100
AcDbLine
 10
111.7317659999999
 20
90.02889999999998
 30
0.0
 11
111.7317659999999
 21
88.82890000000001
 31
0.0
  0
LINE
  5
19A
330
1E
100
AcDbEntity
  8
0
100
AcDbLine
 10
111.7317659999999
 20
93.3622
 30
0.0
 11
111.7317659999999
 21
90.02889999999998
 31
0.0
  0
LINE
  5
19B
330
1E
100
AcDbEntity
  8
0
100
AcDbLine
 10
111.7317659999999
 20
93.3622
 30
0.0
 11
111.7317659999999
 21
98.5622
 31
0.0
  0
LINE
  5
19C
330
1E
100
AcDbEntity
  8
0
100
AcDbLine
 10
111.7317659999999
 20
150.9622
 30
0.0
 11
111.7317659999999
 21
154.2951999999999
 31
0.0
  0
LINE
  5
19D
330
1E
100
AcDbEntity
  8
0
100
AcDbLine
 10
111.7317659999999
 20
150.9622
 30
0.0
 11
111.7317659999999
 21
145.7622
 31
0.0
  0
LINE
  5
19E
330
1E
100
AcDbEntity
  8
0
100
AcDbLine
 10
134.2317659999999
 20
92.6955
 30
0.0
 11
134.2317659999999
 21
89.3622
 31
0.0
  0
LINE
  5
19F
330
1E
100
AcDbEntity
  8
0
100
AcDbLine
 10
134.2317659999999
 20
92.6955
 30
0.0
 11
134.2317659999999
 21
98.16220000000001
 31
0.0
  0
LINE
  5
1A0
330
1E
100
AcDbEntity
  8
0
100
AcDbLine
 10
134.2317659999999
 20
98.16220000000001
 30
0.0
 11
134.2317659999999
 21
92.6955
 31
0.0
  0
LINE
  5
1A1
330
1E
100
AcDbEntity
  8
0
100
AcDbLine
 10
134.2317659999999
 20
98.16220000000001
 30
0.0
 11
134.2317659999999
 21
105.2289
 31
0.0
  0
LINE
  5
1A3
330
1E
100
AcDbEntity
  8
0
100
AcDbLine
 10
134.2317659999999
 20
113.3622
 30
0.0
 11
134.2317659999999
 21
105.2289
 31
0.0
  0
LINE
  5
1A4
330
1E
100
AcDbEntity
  8
0
100
AcDbLine
 10
134.2317659999999
 20
113.3622
 30
0.0
 11
134.2317659999999
 21
122.1623
 31
0.0
  0
LINE
  5
1A5
330
1E
100
AcDbEntity
  8
0
100
AcDbLine
 10
134.2317659999999
 20
105.2289
 30
0.0
 11
134.2317659999999
 21
98.16220000000001
 31
0.0
  0
LINE
  5
1A6
330
1E
100
AcDbEntity
  8
0
100
AcDbLine
 10
134.2317659999999
 20
105.2289
 30
0.0
 11
134.2317659999999
 21
113.3622
 31
0.0
  0
LINE
  5
1A7
330
1E
100
AcDbEntity
  8
0
100
AcDbLine
 10
134.2317659999999
 20
89.3622
 30
0.0
 11
134.2317659999999
 21
92.6955
 31
0.0
  0
LINE
  5
1A8
330
1E
100
AcDbEntity
  8
0
100
AcDbLine
 10
134.2317659999999
 20
89.3622
 30
0.0
 11
134.2317659999999
 21
88.16219999999999
 31
0.0
  0
LINE
  5
1AA
330
1E
100
AcDbEntity
  8
0
100
AcDbLine
 10
134.2317659999999
 20
122.1623
 30
0.0
 11
134.2317659999999
 21
113.3622
 31
0.0
  0
LINE
  5
1AB
330
1E
100
AcDbEntity
  8
0
100
AcDbLine
 10
134.2317659999999
 20
122.1621
 30
0.0
 11
134.2317659999999
 21
130.9622
 31
0.0
  0
LINE
  5
1AC
330
1E
100
AcDbEntity
  8
0
100
AcDbLine
 10
111.7317659999999
 20
154.2951999999999
 30
0.0
 11
111.7317659999999
 21
150.9622
 31
0.0
  0
LINE
  5
1AD
330
1E
100
AcDbEntity
  8
0
100
AcDbLine
 10
111.7317659999999
 20
154.2951999999999
 30
0.0
 11
111.7317659999999
 21
155.4952
 31
0.0
  0
LINE
  5
1AE
330
1E
100
AcDbEntity
  8
0
100
AcDbLine
 10
113.231766
 20
156.1622
 30
0.0
 11
134.2317659999999
 21
156.1622
 31
0.0
  0
LINE
  5
1AF
330
1E
100
AcDbEntity
  8
0
100
AcDbLine
 10
111.7317659999999
 20
155.4952
 30
0.0
 11
113.231766
 21
156.1622
 31
0.0
  0
LINE
  5
1B0
330
1E
100
AcDbEntity
  8
0
100
AcDbLine
 10
111.7317659999999
 20
155.4952
 30
0.0
 11
111.7317659999999
 21
154.2951999999999
 31
0.0
  0
LINE
  5
1B1
330
1E
100
AcDbEntity
  8
0
100
AcDbLine
 10
134.2317659999999
 20
139.0952
 30
0.0
 11
134.2317659999999
 21
146.1622
 31
0.0
  0
LINE
  5
1B2
330
1E
100
AcDbEntity
  8
0
100
AcDbLine
 10
134.2317659999999
 20
146.1622
 30
0.0
 11
134.2317659999999
 21
151.6291999999999
 31
0.0
  0
LINE
  5
1B3
330
1E
100
AcDbEntity
  8
0
100
AcDbLine
 10
134.2317659999999
 20
146.1622
 30
0.0
 11
134.2317659999999
 21
139.0952
 31
0.0
  0
LINE
  5
1B4
330
1E
100
AcDbEntity
  8
0
100
AcDbLine
 10
134.2317659999999
 20
151.6291999999999
 30
0.0
 11
134.2317659999999
 21
154.9622
 31
0.0
  0
LINE
  5
1B5
330
1E
100
AcDbEntity
  8
0
100
AcDbLine
 10
134.2317659999999
 20
151.6291999999999
 30
0.0
 11
134.2317659999999
 21
146.1622
 31
0.0
  0
LINE
  5
1B6
330
1E
100
AcDbEntity
  8
0
100
AcDbLine
 10
134.2317659999999
 20
156.1622
 30
0.0
 11
134.2317659999999
 21
154.9622
 31
0.0
  0
LINE
  5
1B7
330
1E
100
AcDbEntity
  8
0
100
AcDbLine
 10
134.2317659999999
 20
154.9622
 30
0.0
 11
134.2317659999999
 21
151.6291999999999
 31
0.0
  0
LINE
  5
1B8
330
1E
100
AcDbEntity
  8
0
100
AcDbLine
 10
134.2317659999999
 20
154.9622
 30
0.0
 11
134.2317659999999
 21
156.1622
 31
0.0
  0
LINE
  5
1B9
330
1E
100
AcDbEntity
  8
0
100
AcDbLine
 10
134.2317659999999
 20
130.9622
 30
0.0
 11
134.2317659999999
 21
139.0952
 31
0.0
  0
LINE
  5
1BA
330
1E
100
AcDbEntity
  8
0
100
AcDbLine
 10
134.2317659999999
 20
130.9622
 30
0.0
 11
134.2317659999999
 21
122.1621
 31
0.0
  0
LINE
  5
1BB
330
1E
100
AcDbEntity
  8
0
100
AcDbLine
 10
111.7317659999999
 20
88.82890000000001
 30
0.0
 11
113.231766
 21
88.16219999999999
 31
0.0
  0
LINE
  5
1BC
330
1E
100
AcDbEntity
  8
0
100
AcDbLine
 10
111.7317659999999
 20
88.82890000000001
 30
0.0
 11
111.7317659999999
 21
90.02889999999998
 31
0.0
  0
LINE
  5
1BD
330
1E
100
AcDbEntity
  8
0
100
AcDbLine
 10
111.2317659999999
 20
92.0289
 30
0.0
 11
111.2317659999999
 21
90.8289
 31
0.0
  0
LINE
  5
1BE
330
1E
100
AcDbEntity
  8
0
100
AcDbLine
 10
111.2317659999999
 20
92.0289
 30
0.0
 11
111.2317659999999
 21
94.96219999999999
 31
0.0
  0
LINE
  5
1C3
330
1E
100
AcDbEntity
  8
0
100
AcDbLine
 10
70.731766
 20
144.6622
 30
0.0
 11
77.93176600000001
 21
143.8622
 31
0.0
  0
LINE
  5
1C4
330
1E
100
AcDbEntity
  8
0
100
AcDbLine
 10
15.6015087816924
 20
76.5050742780292
 30
0.0
 11
22.4474904729676
 21
77.6817979090326
 31
0.0
  0
LINE
  5
1C5
330
1E
100
AcDbEntity
  8
0
100
AcDbLine
 10
95.23176600000001
 20
135.1622
 30
0.0
 11
95.23176600000001
 21
109.1622
 31
0.0
  0
LINE
  5
1C6
330
1E
100
AcDbEntity
  8
0
100
AcDbLine
 10
105.2317659999999
 20
135.1622
 30
0.0
 11
105.2317659999999
 21
109.1622
 31
0.0
  0
ENDSEC
  0
SECTION
  2
OBJECTS
  0
DICTIONARY
  5
C
330
0
100
AcDbDictionary
  3
ACAD_GROUP
350
D
  3
ACAD_LAYOUT
350
19
  3
ACAD_MLINESTYLE
350
16
  3
ACAD_PLOTSETTINGS
350
18
  3
ACAD_PLOTSTYLENAME
350
E
  3
ACDBHEADERROUNDTRIPXREC
350
1CA
  3
ACDBVARIABLEDICTIONARY
350
1C7
  0
DICTIONARY
  5
1EC
330
1E
100
AcDbDictionary
280
     1
  3
ACAD_LAYOUTSELFREF
360
1ED
  0
DICTIONARY
  5
1EA
330
1A
100
AcDbDictionary
280
     1
  3
ACAD_LAYOUTSELFREF
360
1EB
  0
DICTIONARY
  5
D
102
{ACAD_REACTORS
330
C
102
}
330
C
100
AcDbDictionary
  0
DICTIONARY
  5
19
102
{ACAD_REACTORS
330
C
102
}
330
C
100
AcDbDictionary
  0
DICTIONARY
  5
16
102
{ACAD_REACTORS
330
C
102
}
330
C
100
AcDbDictionary
  3
STANDARD
350
17
  0
DICTIONARY
  5
18
102
{ACAD_REACTORS
330
C
102
}
330
C
100
AcDbDictionary
  0
ACDBDICTIONARYWDFLT
  5
E
102
{ACAD_REACTORS
330
C
102
}
330
C
100
AcDbDictionary
281
     1
  3
Normal
350
F
100
AcDbDictionaryWithDefault
340
F
  0
DICTIONARY
  5
1CA
102
{ACAD_REACTORS
330
C
102
}
330
C
100
AcDbDictionary
  3
CEPSNTYPE
350
1D4
  3
FINGERPRINTGUID
350
1D5
  3
HYPERLINKBASE
350
1CD
  3
INSUNITS
350
1D3
  3
LAYOUTDICT
350
1CF
  3
LWETCUNION
350
1D2
  3
PLOTSETDICT
350
1D0
  3
PLOTSTYLNAMDICT
350
1D1
  3
PSVPSCALE
350
1D7
  3
PUCSBASE
350
1DA
  3
PUCSORGBACK
350
1E0
  3
PUCSORGBOTTOM
350
1DC
  3
PUCSORGFRONT
350
1DF
  3
PUCSORGLEFT
350
1DD
  3
PUCSORGRIGHT
350
1DE
  3
PUCSORGTOP
350
1DB
  3
PUCSORTHOREF
350
1D8
  3
PUCSORTHOVIEW
350
1D9
  3
STYLESHEET
350
1CE
  3
TSTACKALIGN
350
1CB
  3
TSTACKSIZE
350
1CC
  3
UCSBASE
350
1E3
  3
UCSORGBACK
350
1E9
  3
UCSORGBOTTOM
350
1E5
  3
UCSORGFRONT
350
1E8
  3
UCSORGLEFT
350
1E6
  3
UCSORGRIGHT
350
1E7
  3
UCSORGTOP
350
1E4
  3
UCSORTHOREF
350
1E1
  3
UCSORTHOVIEW
350
1E2
  3
VERSIONGUID
350
1D6
  0
DICTIONARY
  5
1C7
102
{ACAD_REACTORS
330
C
102
}
330
C
100
AcDbDictionary
  3
DIMASSOC
350
1C8
  0
XRECORD
  5
1ED
102
{ACAD_REACTORS
330
1EC
102
}
330
1EC
100
AcDbXrecord
340
1E
  0
XRECORD
  5
1EB
102
{ACAD_REACTORS
330
1EA
102
}
330
1EA
100
AcDbXrecord
340
1A
  0
MLINESTYLE
  5
17
102
{ACAD_REACTORS
330
16
102
}
330
16
100
AcDbMlineStyle
  2
STANDARD
 70
     0
  3

 62
   256
 51
90.0
 52
90.0
 71
     2
 49
0.5
 62
   256
  6
BYLAYER
 49
-0.5
 62
   256
  6
BYLAYER
  0
ACDBPLACEHOLDER
  5
F
102
{ACAD_REACTORS
330
E
102
}
330
E
100
AcDbPlaceHolder
280
     0
  0
XRECORD
  5
1D4
102
{ACAD_REACTORS
330
1CA
102
}
330
1CA
100
AcDbXrecord
 90
        0
  0
XRECORD
  5
1D5
102
{ACAD_REACTORS
330
1CA
102
}
330
1CA
100
AcDbXrecord
  1
{8879CCCD-1FFB-48E8-AC7A-274E547C18AF}
  0
XRECORD
  5
1CD
102
{ACAD_REACTORS
330
1CA
102
}
330
1CA
100
AcDbXrecord
  1

  0
XRECORD
  5
1D3
102
{ACAD_REACTORS
330
1CA
102
}
330
1CA
100
AcDbXrecord
 90
        0
  0
XRECORD
  5
1CF
102
{ACAD_REACTORS
330
1CA
102
}
330
1CA
100
AcDbXrecord
340
19
  0
XRECORD
  5
1D2
102
{ACAD_REACTORS
330
1CA
102
}
330
1CA
100
AcDbXrecord
 90
    10781
  0
XRECORD
  5
1D0
102
{ACAD_REACTORS
330
1CA
102
}
330
1CA
100
AcDbXrecord
340
18
  0
XRECORD
  5
1D1
102
{ACAD_REACTORS
330
1CA
102
}
330
1CA
100
AcDbXrecord
340
E
  0
XRECORD
  5
1D7
102
{ACAD_REACTORS
330
1CA
102
}
330
1CA
100
AcDbXrecord
 40
0.0
  0
XRECORD
  5
1DA
102
{ACAD_REACTORS
330
1CA
102
}
330
1CA
100
AcDbXrecord
340
0
  0
XRECORD
  5
1E0
102
{ACAD_REACTORS
330
1CA
102
}
330
1CA
100
AcDbXrecord
 10
0.0
 20
0.0
 30
0.0
  0
XRECORD
  5
1DC
102
{ACAD_REACTORS
330
1CA
102
}
330
1CA
100
AcDbXrecord
 10
0.0
 20
0.0
 30
0.0
  0
XRECORD
  5
1DF
102
{ACAD_REACTORS
330
1CA
102
}
330
1CA
100
AcDbXrecord
 10
0.0
 20
0.0
 30
0.0
  0
XRECORD
  5
1DD
102
{ACAD_REACTORS
330
1CA
102
}
330
1CA
100
AcDbXrecord
 10
0.0
 20
0.0
 30
0.0
  0
XRECORD
  5
1DE
102
{ACAD_REACTORS
330
1CA
102
}
330
1CA
100
AcDbXrecord
 10
0.0
 20
0.0
 30
0.0
  0
XRECORD
  5
1DB
102
{ACAD_REACTORS
330
1CA
102
}
330
1CA
100
AcDbXrecord
 10
0.0
 20
0.0
 30
0.0
  0
XRECORD
  5
1D8
102
{ACAD_REACTORS
330
1CA
102
}
330
1CA
100
AcDbXrecord
340
0
  0
XRECORD
  5
1D9
102
{ACAD_REACTORS
330
1CA
102
}
330
1CA
100
AcDbXrecord
 70
     0
  0
XRECORD
  5
1CE
102
{ACAD_REACTORS
330
1CA
102
}
330
1CA
100
AcDbXrecord
  1

  0
XRECORD
  5
1CB
102
{ACAD_REACTORS
330
1CA
102
}
330
1CA
100
AcDbXrecord
 90
        1
  0
XRECORD
  5
1CC
102
{ACAD_REACTORS
330
1CA
102
}
330
1CA
100
AcDbXrecord
 90
       70
  0
XRECORD
  5
1E3
102
{ACAD_REACTORS
330
1CA
102
}
330
1CA
100
AcDbXrecord
340
0
  0
XRECORD
  5
1E9
102
{ACAD_REACTORS
330
1CA
102
}
330
1CA
100
AcDbXrecord
 10
0.0
 20
0.0
 30
0.0
  0
XRECORD
  5
1E5
102
{ACAD_REACTORS
330
1CA
102
}
330
1CA
100
AcDbXrecord
 10
0.0
 20
0.0
 30
0.0
  0
XRECORD
  5
1E8
102
{ACAD_REACTORS
330
1CA
102
}
330
1CA
100
AcDbXrecord
 10
0.0
 20
0.0
 30
0.0
  0
XRECORD
  5
1E6
102
{ACAD_REACTORS
330
1CA
102
}
330
1CA
100
AcDbXrecord
 10
0.0
 20
0.0
 30
0.0
  0
XRECORD
  5
1E7
102
{ACAD_REACTORS
330
1CA
102
}
330
1CA
100
AcDbXrecord
 10
0.0
 20
0.0
 30
0.0
  0
XRECORD
  5
1E4
102
{ACAD_REACTORS
330
1CA
102
}
330
1CA
100
AcDbXrecord
 10
0.0
 20
0.0
 30
0.0
  0
XRECORD
  5
1E1
102
{ACAD_REACTORS
330
1CA
102
}
330
1CA
100
AcDbXrecord
340
0
  0
XRECORD
  5
1E2
102
{ACAD_REACTORS
330
1CA
102
}
330
1CA
100
AcDbXrecord
 70
     1
  0
XRECORD
  5
1D6
102
{ACAD_REACTORS
330
1CA
102
}
330
1CA
100
AcDbXrecord
  1
{98D9A435-FEBC-4C63-9B39-60953B85987E}
  0
DICTIONARYVAR
  5
1C8
102
{ACAD_REACTORS
330
1C7
102
}
330
1C7
100
DictionaryVariables
280
     0
  1
1
  0
ENDSEC
  0
EOF
