  0
SECTION
  2
HEADER
  9
$ACADVER
  1
AC1015
  9
$ACADMAINTVER
 70
    13
  9
$DWGCODEPAGE
  3
ANSI_1252
  9
$INSBASE
 10
0.0
 20
0.0
 30
0.0
  9
$EXTMIN
 10
0.0
 20
-0.207985000000002
 30
0.0
  9
$EXTMAX
 10
150.0
 20
80.20798499999999
 30
0.0
  9
$LIMMIN
 10
0.0
 20
0.0
  9
$LIMMAX
 10
12.0
 20
9.0
  9
$ORTHOMODE
 70
     0
  9
$REGENMODE
 70
     1
  9
$FILLMODE
 70
     1
  9
$QTEXTMODE
 70
     0
  9
$MIRRTEXT
 70
     1
  9
$LTSCALE
 40
1.0
  9
$ATTMODE
 70
     1
  9
$TEXTSIZE
 40
0.2
  9
$TRACEWID
 40
0.05
  9
$TEXTSTYLE
  7
Standard
  9
$CLAYER
  8
0
  9
$CELTYPE
  6
Continuous
  9
$CECOLOR
 62
   256
  9
$CELTSCALE
 40
1.0
  9
$DISPSILH
 70
     0
  9
$DIMSCALE
 40
1.0
  9
$DIMASZ
 40
0.18
  9
$DIMEXO
 40
0.0625
  9
$DIMDLI
 40
0.38
  9
$DIMRND
 40
0.0
  9
$DIMDLE
 40
0.0
  9
$DIMEXE
 40
0.18
  9
$DIMTP
 40
0.0
  9
$DIMTM
 40
0.0
  9
$DIMTXT
 40
0.18
  9
$DIMCEN
 40
0.09
  9
$DIMTSZ
 40
0.0
  9
$DIMTOL
 70
     0
  9
$DIMLIM
 70
     0
  9
$DIMTIH
 70
     1
  9
$DIMTOH
 70
     1
  9
$DIMSE1
 70
     0
  9
$DIMSE2
 70
     0
  9
$DIMTAD
 70
     0
  9
$DIMZIN
 70
     0
  9
$DIMBLK
  1

  9
$DIMASO
 70
     1
  9
$DIMSHO
 70
     1
  9
$DIMPOST
  1

  9
$DIMAPOST
  1

  9
$DIMALT
 70
     0
  9
$DIMALTD
 70
     2
  9
$DIMALTF
 40
25.4
  9
$DIMLFAC
 40
1.0
  9
$DIMTOFL
 70
     0
  9
$DIMTVP
 40
0.0
  9
$DIMTIX
 70
     0
  9
$DIMSOXD
 70
     0
  9
$DIMSAH
 70
     0
  9
$DIMBLK1
  1

  9
$DIMBLK2
  1

  9
$DIMSTYLE
  2
Standard
  9
$DIMCLRD
 70
     0
  9
$DIMCLRE
 70
     0
  9
$DIMCLRT
 70
     0
  9
$DIMTFAC
 40
1.0
  9
$DIMGAP
 40
0.09
  9
$DIMJUST
 70
     0
  9
$DIMSD1
 70
     0
  9
$DIMSD2
 70
     0
  9
$DIMTOLJ
 70
     1
  9
$DIMTZIN
 70
     0
  9
$DIMALTZ
 70
     0
  9
$DIMALTTZ
 70
     0
  9
$DIMUPT
 70
     0
  9
$DIMDEC
 70
     4
  9
$DIMTDEC
 70
     4
  9
$DIMALTU
 70
     2
  9
$DIMALTTD
 70
     2
  9
$DIMTXSTY
  7
Standard
  9
$DIMAUNIT
 70
     0
  9
$DIMADEC
 70
     0
  9
$DIMALTRND
 40
0.0
  9
$DIMAZIN
 70
     0
  9
$DIMDSEP
 70
    46
  9
$DIMATFIT
 70
     3
  9
$DIMFRAC
 70
     0
  9
$DIMLDRBLK
  1

  9
$DIMLUNIT
 70
     2
  9
$DIMLWD
 70
    -2
  9
$DIMLWE
 70
    -2
  9
$DIMTMOVE
 70
     0
  9
$LUNITS
 70
     2
  9
$LUPREC
 70
     4
  9
$SKETCHINC
 40
0.1
  9
$FILLETRAD
 40
0.0
  9
$AUNITS
 70
     0
  9
$AUPREC
 70
     0
  9
$MENU
  1
.
  9
$ELEVATION
 40
0.0
  9
$PELEVATION
 40
0.0
  9
$THICKNESS
 40
0.0
  9
$LIMCHECK
 70
     0
  9
$CHAMFERA
 40
0.0
  9
$CHAMFERB
 40
0.0
  9
$CHAMFERC
 40
0.0
  9
$CHAMFERD
 40
0.0
  9
$SKPOLY
 70
     0
  9
$TDCREATE
 40
2454834.886409317
  9
$TDUCREATE
 40
2454834.844742650
  9
$TDUPDATE
 40
2454834.888805879
  9
$TDUUPDATE
 40
2454834.847139212
  9
$TDINDWG
 40
0.0023967361
  9
$TDUSRTIMER
 40
0.0023967361
  9
$USRTIMER
 70
     1
  9
$ANGBASE
 50
0.0
  9
$ANGDIR
 70
     0
  9
$PDMODE
 70
     0
  9
$PDSIZE
 40
0.0
  9
$PLINEWID
 40
0.0
  9
$SPLFRAME
 70
     0
  9
$SPLINETYPE
 70
     6
  9
$SPLINESEGS
 70
     8
  9
$HANDSEED
  5
38A
  9
$SURFTAB1
 70
     6
  9
$SURFTAB2
 70
     6
  9
$SURFTYPE
 70
     6
  9
$SURFU
 70
     6
  9
$SURFV
 70
     6
  9
$UCSBASE
  2

  9
$UCSNAME
  2

  9
$UCSORG
 10
0.0
 20
0.0
 30
0.0
  9
$UCSXDIR
 10
1.0
 20
0.0
 30
0.0
  9
$UCSYDIR
 10
0.0
 20
1.0
 30
0.0
  9
$UCSORTHOREF
  2

  9
$UCSORTHOVIEW
 70
     1
  9
$UCSORGTOP
 10
0.0
 20
0.0
 30
0.0
  9
$UCSORGBOTTOM
 10
0.0
 20
0.0
 30
0.0
  9
$UCSORGLEFT
 10
0.0
 20
0.0
 30
0.0
  9
$UCSORGRIGHT
 10
0.0
 20
0.0
 30
0.0
  9
$UCSORGFRONT
 10
0.0
 20
0.0
 30
0.0
  9
$UCSORGBACK
 10
0.0
 20
0.0
 30
0.0
  9
$PUCSBASE
  2

  9
$PUCSNAME
  2

  9
$PUCSORG
 10
0.0
 20
0.0
 30
0.0
  9
$PUCSXDIR
 10
1.0
 20
0.0
 30
0.0
  9
$PUCSYDIR
 10
0.0
 20
1.0
 30
0.0
  9
$PUCSORTHOREF
  2

  9
$PUCSORTHOVIEW
 70
     0
  9
$PUCSORGTOP
 10
0.0
 20
0.0
 30
0.0
  9
$PUCSORGBOTTOM
 10
0.0
 20
0.0
 30
0.0
  9
$PUCSORGLEFT
 10
0.0
 20
0.0
 30
0.0
  9
$PUCSORGRIGHT
 10
0.0
 20
0.0
 30
0.0
  9
$PUCSORGFRONT
 10
0.0
 20
0.0
 30
0.0
  9
$PUCSORGBACK
 10
0.0
 20
0.0
 30
0.0
  9
$USERI1
 70
     0
  9
$USERI2
 70
     0
  9
$USERI3
 70
     0
  9
$USERI4
 70
     0
  9
$USERI5
 70
     0
  9
$USERR1
 40
0.0
  9
$USERR2
 40
0.0
  9
$USERR3
 40
0.0
  9
$USERR4
 40
0.0
  9
$USERR5
 40
0.0
  9
$WORLDVIEW
 70
     1
  9
$SHADEDGE
 70
     3
  9
$SHADEDIF
 70
    70
  9
$TILEMODE
 70
     1
  9
$MAXACTVP
 70
    64
  9
$PINSBASE
 10
0.0
 20
0.0
 30
0.0
  9
$PLIMCHECK
 70
     0
  9
$PEXTMIN
 10
1.000000000000000E+20
 20
1.000000000000000E+20
 30
1.000000000000000E+20
  9
$PEXTMAX
 10
-1.000000000000000E+20
 20
-1.000000000000000E+20
 30
-1.000000000000000E+20
  9
$PLIMMIN
 10
0.0
 20
0.0
  9
$PLIMMAX
 10
12.0
 20
9.0
  9
$UNITMODE
 70
     0
  9
$VISRETAIN
 70
     1
  9
$PLINEGEN
 70
     0
  9
$PSLTSCALE
 70
     1
  9
$TREEDEPTH
 70
  3020
  9
$CMLSTYLE
  2
Standard
  9
$CMLJUST
 70
     0
  9
$CMLSCALE
 40
1.0
  9
$PROXYGRAPHICS
 70
     1
  9
$MEASUREMENT
 70
     0
  9
$CELWEIGHT
370
    -1
  9
$ENDCAPS
280
     0
  9
$JOINSTYLE
280
     0
  9
$LWDISPLAY
290
     0
  9
$INSUNITS
 70
     0
  9
$HYPERLINKBASE
  1

  9
$STYLESHEET
  1

  9
$XEDIT
290
     1
  9
$CEPSNTYPE
380
     0
  9
$PSTYLEMODE
290
     1
  9
$FINGERPRINTGUID
  2
{C666249A-6631-41B4-B7E5-4C4948320F0E}
  9
$VERSIONGUID
  2
{A171037B-C4B8-49D6-BA0C-140068D9540A}
  9
$EXTNAMES
290
     1
  9
$PSVPSCALE
 40
0.0
  9
$OLESTARTUP
290
     0
  0
ENDSEC
  0
SECTION
  2
CLASSES
  0
CLASS
  1
ACDBDICTIONARYWDFLT
  2
AcDbDictionaryWithDefault
  3
AutoCAD 2000
 90
        0
280
     0
281
     0
  0
CLASS
  1
ACDBPLACEHOLDER
  2
AcDbPlaceHolder
  3
AutoCAD 2000
 90
        0
280
     0
281
     0
  0
CLASS
  1
LAYOUT
  2
AcDbLayout
  3
AutoCAD 2000
 90
        0
280
     0
281
     0
  0
CLASS
  1
DICTIONARYVAR
  2
AcDbDictionaryVar
  3
AutoCAD 2000
 90
        0
280
     0
281
     0
  0
ENDSEC
  0
SECTION
  2
TABLES
  0
TABLE
  2
VPORT
  5
8
330
0
100
AcDbSymbolTable
 70
     3
  0
VPORT
  5
389
330
8
100
AcDbSymbolTableRecord
100
AcDbViewportTableRecord
  2
*Active
 70
     0
 10
0.0
 20
0.0
 11
1.0
 21
1.0
 12
75.0
 22
40.0
 13
0.0
 23
0.0
 14
1.0
 24
1.0
 15
0.0
 25
0.0
 16
0.0
 26
0.0
 36
1.0
 17
0.0
 27
0.0
 37
0.0
 40
81.03297232736572
 41
2.078104993597951
 42
50.0
 43
0.0
 44
0.0
 50
0.0
 51
0.0
 71
     0
 72
   100
 73
     1
 74
     3
 75
     0
 76
     0
 77
     0
 78
     0
281
     0
 65
     1
110
0.0
120
0.0
130
0.0
111
1.0
121
0.0
131
0.0
112
0.0
122
1.0
132
0.0
 79
     1
146
0.0
  0
ENDTAB
  0
TABLE
  2
LTYPE
  5
5
330
0
100
AcDbSymbolTable
 70
     1
  0
LTYPE
  5
13
330
5
100
AcDbSymbolTableRecord
100
AcDbLinetypeTableRecord
  2
ByBlock
 70
     0
  3

 72
    65
 73
     0
 40
0.0
  0
LTYPE
  5
14
330
5
100
AcDbSymbolTableRecord
100
AcDbLinetypeTableRecord
  2
ByLayer
 70
     0
  3

 72
    65
 73
     0
 40
0.0
  0
LTYPE
  5
15
330
5
100
AcDbSymbolTableRecord
100
AcDbLinetypeTableRecord
  2
Continuous
 70
     0
  3
Solid line
 72
    65
 73
     0
 40
0.0
  0
ENDTAB
  0
TABLE
  2
LAYER
  5
2
330
0
100
AcDbSymbolTable
 70
     1
  0
LAYER
  5
10
330
2
100
AcDbSymbolTableRecord
100
AcDbLayerTableRecord
  2
0
 70
     0
 62
     7
  6
Continuous
370
    -3
390
F
  0
ENDTAB
  0
TABLE
  2
STYLE
  5
3
330
0
100
AcDbSymbolTable
 70
     1
  0
STYLE
  5
11
330
3
100
AcDbSymbolTableRecord
100
AcDbTextStyleTableRecord
  2
Standard
 70
     0
 40
0.0
 41
1.0
 50
0.0
 71
     0
 42
0.2
  3
txt
  4

  0
ENDTAB
  0
TABLE
  2
VIEW
  5
6
330
0
100
AcDbSymbolTable
 70
     0
  0
ENDTAB
  0
TABLE
  2
UCS
  5
7
330
0
100
AcDbSymbolTable
 70
     0
  0
ENDTAB
  0
TABLE
  2
APPID
  5
9
330
0
100
AcDbSymbolTable
 70
     1
  0
APPID
  5
12
330
9
100
AcDbSymbolTableRecord
100
AcDbRegAppTableRecord
  2
ACAD
 70
     0
  0
ENDTAB
  0
TABLE
  2
DIMSTYLE
  5
A
330
0
100
AcDbSymbolTable
 70
     1
100
AcDbDimStyleTable
 71
     0
  0
DIMSTYLE
105
382
330
A
100
AcDbSymbolTableRecord
100
AcDbDimStyleTableRecord
  2
Standard
 70
     0
340
11
  0
ENDTAB
  0
TABLE
  2
BLOCK_RECORD
  5
1
330
0
100
AcDbSymbolTable
 70
     0
  0
BLOCK_RECORD
  5
1E
330
1
100
AcDbSymbolTableRecord
100
AcDbBlockTableRecord
  2
*Model_Space
340
21
  0
BLOCK_RECORD
  5
1A
330
1
100
AcDbSymbolTableRecord
100
AcDbBlockTableRecord
  2
*Paper_Space
340
1D
  0
ENDTAB
  0
ENDSEC
  0
SECTION
  2
BLOCKS
  0
BLOCK
  5
1F
330
1E
100
AcDbEntity
  8
0
100
AcDbBlockBegin
  2
*Model_Space
 70
     0
 10
0.0
 20
0.0
 30
0.0
  3
*Model_Space
  1

  0
ENDBLK
  5
20
330
1E
100
AcDbEntity
  8
0
100
AcDbBlockEnd
  0
BLOCK
  5
1B
330
1A
100
AcDbEntity
 67
     1
  8
0
100
AcDbBlockBegin
  2
*Paper_Space
 70
     0
 10
0.0
 20
0.0
 30
0.0
  3
*Paper_Space
  1

  0
ENDBLK
  5
1C
330
1A
100
AcDbEntity
 67
     1
  8
0
100
AcDbBlockEnd
  0
ENDSEC
  0
SECTION
  2
ENTITIES
  0
LINE
  5
22
330
1E
100
AcDbEntity
  8
0
100
AcDbLine
 10
0.0
 20
70.20798499999999
 30
0.0
 11
0.4411760000000005
 21
68.807985
 31
0.0
  0
LINE
  5
23
330
1E
100
AcDbEntity
  8
0
100
AcDbLine
 10
0.0
 20
70.20798499999999
 30
0.0
 11
0.0
 21
80.20798499999999
 31
0.0
  0
LINE
  5
24
330
1E
100
AcDbEntity
  8
0
100
AcDbLine
 10
2.64706
 20
67.20798499999999
 30
0.0
 11
3.35294
 21
67.20798499999999
 31
0.0
  0
LINE
  5
25
330
1E
100
AcDbEntity
  8
0
100
AcDbLine
 10
1.41176
 20
67.70798499999999
 30
0.0
 11
2.64706
 21
67.20798499999999
 31
0.0
  0
LINE
  5
26
330
1E
100
AcDbEntity
  8
0
100
AcDbLine
 10
0.4411760000000005
 20
68.807985
 30
0.0
 11
1.41176
 21
67.70798499999999
 31
0.0
  0
LINE
  5
27
330
1E
100
AcDbEntity
  8
0
100
AcDbLine
 10
3.35294
 20
67.20798499999999
 30
0.0
 11
5.294119999999999
 21
67.20798499999999
 31
0.0
  0
LINE
  5
29
330
1E
100
AcDbEntity
  8
0
100
AcDbLine
 10
5.294119999999999
 20
67.20798499999999
 30
0.0
 11
8.294120000000001
 21
67.20798499999999
 31
0.0
  0
LINE
  5
2A
330
1E
100
AcDbEntity
  8
0
100
AcDbLine
 10
8.294120000000001
 20
67.20798499999999
 30
0.0
 11
12.3529
 21
67.20798499999999
 31
0.0
  0
LINE
  5
2B
330
1E
100
AcDbEntity
  8
0
100
AcDbLine
 10
12.3529
 20
67.20798499999999
 30
0.0
 11
17.6471
 21
67.20798499999999
 31
0.0
  0
LINE
  5
2C
330
1E
100
AcDbEntity
  8
0
100
AcDbLine
 10
23.91179999999999
 20
67.20798499999999
 30
0.0
 11
31.05879999999999
 21
67.20798499999999
 31
0.0
  0
LINE
  5
2D
330
1E
100
AcDbEntity
  8
0
100
AcDbLine
 10
17.6471
 20
67.20798499999999
 30
0.0
 11
23.91179999999999
 21
67.20798499999999
 31
0.0
  0
LINE
  5
2E
330
1E
100
AcDbEntity
  8
0
100
AcDbLine
 10
15.6176
 20
80.20798499999999
 30
0.0
 11
22.0588
 21
80.20798499999999
 31
0.0
  0
LINE
  5
2F
330
1E
100
AcDbEntity
  8
0
100
AcDbLine
 10
10.0588
 20
80.20798499999999
 30
0.0
 11
15.6176
 21
80.20798499999999
 31
0.0
  0
LINE
  5
30
330
1E
100
AcDbEntity
  8
0
100
AcDbLine
 10
5.823529999999999
 20
80.20798499999999
 30
0.0
 11
10.0588
 21
80.20798499999999
 31
0.0
  0
LINE
  5
31
330
1E
100
AcDbEntity
  8
0
100
AcDbLine
 10
2.735289999999999
 20
80.20798499999999
 30
0.0
 11
5.823529999999999
 21
80.20798499999999
 31
0.0
  0
LINE
  5
32
330
1E
100
AcDbEntity
  8
0
100
AcDbLine
 10
0.7941180000000001
 20
80.20798499999999
 30
0.0
 11
2.735289999999999
 21
80.20798499999999
 31
0.0
  0
LINE
  5
33
330
1E
100
AcDbEntity
  8
0
100
AcDbLine
 10
0.0
 20
80.20798499999999
 30
0.0
 11
0.7941180000000001
 21
80.20798499999999
 31
0.0
  0
LINE
  5
34
330
1E
100
AcDbEntity
  8
0
100
AcDbLine
 10
0.0
 20
80.20798499999999
 30
0.0
 11
0.0
 21
70.20798499999999
 31
0.0
  0
LINE
  5
35
330
1E
100
AcDbEntity
  8
0
100
AcDbLine
 10
22.0588
 20
80.20798499999999
 30
0.0
 11
29.3824
 21
80.20798499999999
 31
0.0
  0
LINE
  5
36
330
1E
100
AcDbEntity
  8
0
100
AcDbLine
 10
39.0
 20
67.20798499999999
 30
0.0
 11
47.3824
 21
67.20798499999999
 31
0.0
  0
LINE
  5
37
330
1E
100
AcDbEntity
  8
0
100
AcDbLine
 10
31.05879999999999
 20
67.20798499999999
 30
0.0
 11
39.0
 21
67.20798499999999
 31
0.0
  0
LINE
  5
38
330
1E
100
AcDbEntity
  8
0
100
AcDbLine
 10
29.3824
 20
80.20798499999999
 30
0.0
 11
37.67649999999999
 21
80.20798499999999
 31
0.0
  0
LINE
  5
39
330
1E
100
AcDbEntity
  8
0
100
AcDbLine
 10
37.67649999999999
 20
80.20798499999999
 30
0.0
 11
46.3235
 21
80.20798499999999
 31
0.0
  0
LINE
  5
3B
330
1E
100
AcDbEntity
  8
0
100
AcDbLine
 10
58.39030000000001
 20
1.379064999999999
 30
0.0
 11
59.82569999999999
 21
1.041395
 31
0.0
  0
LINE
  5
3C
330
1E
100
AcDbEntity
  8
0
100
AcDbLine
 10
57.0574
 20
1.848895
 30
0.0
 11
58.0827
 21
1.477454999999999
 31
0.0
  0
LINE
  5
3E
330
1E
100
AcDbEntity
  8
0
100
AcDbLine
 10
58.0827
 20
1.477454999999999
 30
0.0
 11
58.39030000000001
 21
1.379064999999999
 31
0.0
  0
LINE
  5
3F
330
1E
100
AcDbEntity
  8
0
100
AcDbLine
 10
56.2372
 20
2.254094999999999
 30
0.0
 11
57.0574
 21
1.848895
 31
0.0
  0
LINE
  5
40
330
1E
100
AcDbEntity
  8
0
100
AcDbLine
 10
55.7246
 20
2.659304999999999
 30
0.0
 11
56.2372
 21
2.254094999999999
 31
0.0
  0
LINE
  5
41
330
1E
100
AcDbEntity
  8
0
100
AcDbLine
 10
55.5195
 20
3.081395
 30
0.0
 11
55.7246
 21
2.659304999999999
 31
0.0
  0
LINE
  5
42
330
1E
100
AcDbEntity
  8
0
100
AcDbLine
 10
57.16
 20
15.131585
 30
0.0
 11
59.108
 21
15.486085
 31
0.0
  0
LINE
  5
43
330
1E
100
AcDbEntity
  8
0
100
AcDbLine
 10
55.417
 20
14.726385
 30
0.0
 11
57.16
 21
15.131585
 31
0.0
  0
LINE
  5
44
330
1E
100
AcDbEntity
  8
0
100
AcDbLine
 10
54.1866
 20
14.287385
 30
0.0
 11
55.417
 21
14.726385
 31
0.0
  0
LINE
  5
45
330
1E
100
AcDbEntity
  8
0
100
AcDbLine
 10
53.26389999999999
 20
13.831485
 30
0.0
 11
54.1866
 21
14.287385
 31
0.0
  0
LINE
  5
46
330
1E
100
AcDbEntity
  8
0
100
AcDbLine
 10
52.6487
 20
13.358785
 30
0.0
 11
53.26389999999999
 21
13.831485
 31
0.0
  0
LINE
  5
47
330
1E
100
AcDbEntity
  8
0
100
AcDbLine
 10
52.4436
 20
12.869185
 30
0.0
 11
52.6487
 21
13.358785
 31
0.0
  0
LINE
  5
48
330
1E
100
AcDbEntity
  8
0
100
AcDbLine
 10
52.4436
 20
12.869185
 30
0.0
 11
55.5195
 21
3.081395
 31
0.0
  0
LINE
  5
49
330
1E
100
AcDbEntity
  8
0
100
AcDbLine
 10
52.4436
 20
12.869185
 30
0.0
 11
52.6111
 21
19.620385
 31
0.0
  0
LINE
  5
4A
330
1E
100
AcDbEntity
  8
0
100
AcDbLine
 10
59.82569999999999
 20
1.041395
 30
0.0
 11
61.4662
 21
0.7206050000000001
 31
0.0
  0
LINE
  5
59
330
1E
100
AcDbEntity
  8
0
100
AcDbLine
 10
61.4662
 20
0.7206050000000001
 30
0.0
 11
63.41419999999999
 21
0.4504750000000001
 31
0.0
  0
LINE
  5
5A
330
1E
100
AcDbEntity
  8
0
100
AcDbLine
 10
63.41419999999999
 20
0.4504750000000001
 30
0.0
 11
65.46479999999999
 21
0.214104999999999
 31
0.0
  0
LINE
  5
5B
330
1E
100
AcDbEntity
  8
0
100
AcDbLine
 10
59.108
 20
15.486085
 30
0.0
 11
61.2611
 21
15.806885
 31
0.0
  0
LINE
  5
5C
330
1E
100
AcDbEntity
  8
0
100
AcDbLine
 10
52.6111
 20
19.620385
 30
0.0
 11
52.6274
 21
21.776485
 31
0.0
  0
LINE
  5
5D
330
1E
100
AcDbEntity
  8
0
100
AcDbLine
 10
53.0
 20
57.80798499999999
 30
0.0
 11
53.792
 21
57.80798499999999
 31
0.0
  0
LINE
  5
5E
330
1E
100
AcDbEntity
  8
0
100
AcDbLine
 10
53.0
 20
57.80798499999999
 30
0.0
 11
53.528
 21
57.207985
 31
0.0
  0
LINE
  5
5F
330
1E
100
AcDbEntity
  8
0
100
AcDbLine
 10
53.0
 20
57.80798499999999
 30
0.0
 11
53.0
 21
67.20798499999999
 31
0.0
  0
LINE
  5
60
330
1E
100
AcDbEntity
  8
0
100
AcDbLine
 10
52.6274
 20
21.776485
 30
0.0
 11
53.0
 21
51.747285
 31
0.0
  0
LINE
  5
61
330
1E
100
AcDbEntity
  8
0
100
AcDbLine
 10
53.26399999999999
 20
50.848185
 30
0.0
 11
53.792
 21
50.056585
 31
0.0
  0
LINE
  5
62
330
1E
100
AcDbEntity
  8
0
100
AcDbLine
 10
53.792
 20
50.056585
 30
0.0
 11
54.75999999999999
 21
49.33428499999999
 31
0.0
  0
LINE
  5
63
330
1E
100
AcDbEntity
  8
0
100
AcDbLine
 10
54.0
 20
51.207985
 30
0.0
 11
54.0
 21
57.207985
 31
0.0
  0
LINE
  5
64
330
1E
100
AcDbEntity
  8
0
100
AcDbLine
 10
54.0
 20
51.207985
 30
0.0
 11
54.23588429394611
 21
49.7253684447136
 31
0.0
  0
LINE
  5
65
330
1E
100
AcDbEntity
  8
0
100
AcDbLine
 10
54.0
 20
51.210485
 30
0.0
 11
54.0
 21
53.21048499999999
 31
0.0
  0
LINE
  5
66
330
1E
100
AcDbEntity
  8
0
100
AcDbLine
 10
54.0
 20
51.210485
 30
0.0
 11
54.23633562449619
 21
49.7250316719281
 31
0.0
  0
LINE
  5
67
330
1E
100
AcDbEntity
  8
0
100
AcDbLine
 10
54.75999999999999
 20
49.33428499999999
 30
0.0
 11
55.90399999999999
 21
48.601285
 31
0.0
  0
LINE
  5
68
330
1E
100
AcDbEntity
  8
0
100
AcDbLine
 10
55.90399999999999
 20
48.601285
 30
0.0
 11
57.576
 21
47.912585
 31
0.0
  0
LINE
  5
69
330
1E
100
AcDbEntity
  8
0
100
AcDbLine
 10
57.576
 20
47.912585
 30
0.0
 11
59.512
 21
47.34498499999999
 31
0.0
  0
LINE
  5
6A
330
1E
100
AcDbEntity
  8
0
100
AcDbLine
 10
59.512
 20
47.34498499999999
 30
0.0
 11
61.62399999999999
 21
46.791285
 31
0.0
  0
LINE
  5
6B
330
1E
100
AcDbEntity
  8
0
100
AcDbLine
 10
61.62399999999999
 20
46.791285
 30
0.0
 11
64.08800000000001
 21
46.346385
 31
0.0
  0
LINE
  5
6C
330
1E
100
AcDbEntity
  8
0
100
AcDbLine
 10
53.792
 20
51.747285
 30
0.0
 11
54.0
 21
51.747285
 31
0.0
  0
LINE
  5
6D
330
1E
100
AcDbEntity
  8
0
100
AcDbLine
 10
54.0
 20
57.207985
 30
0.0
 11
54.0
 21
51.207985
 31
0.0
  0
LINE
  5
6E
330
1E
100
AcDbEntity
  8
0
100
AcDbLine
 10
53.528
 20
57.207985
 30
0.0
 11
54.32
 21
57.207985
 31
0.0
  0
LINE
  5
6F
330
1E
100
AcDbEntity
  8
0
100
AcDbLine
 10
53.528
 20
57.207985
 30
0.0
 11
54.0
 21
57.207985
 31
0.0
  0
LINE
  5
70
330
1E
100
AcDbEntity
  8
0
100
AcDbLine
 10
53.792
 20
57.80798499999999
 30
0.0
 11
55.90399999999999
 21
57.80798499999999
 31
0.0
  0
LINE
  5
71
330
1E
100
AcDbEntity
  8
0
100
AcDbLine
 10
60.2045
 20
53.21048499999999
 30
0.0
 11
62.2091
 21
53.21048499999999
 31
0.0
  0
LINE
  5
72
330
1E
100
AcDbEntity
  8
0
100
AcDbLine
 10
62.2091
 20
53.21048499999999
 30
0.0
 11
64.5
 21
53.21048499999999
 31
0.0
  0
LINE
  5
73
330
1E
100
AcDbEntity
  8
0
100
AcDbLine
 10
58.3909
 20
53.21048499999999
 30
0.0
 11
60.2045
 21
53.21048499999999
 31
0.0
  0
LINE
  5
74
330
1E
100
AcDbEntity
  8
0
100
AcDbLine
 10
56.7682
 20
53.21048499999999
 30
0.0
 11
58.3909
 21
53.21048499999999
 31
0.0
  0
LINE
  5
75
330
1E
100
AcDbEntity
  8
0
100
AcDbLine
 10
55.6227
 20
53.21048499999999
 30
0.0
 11
56.7682
 21
53.21048499999999
 31
0.0
  0
LINE
  5
76
330
1E
100
AcDbEntity
  8
0
100
AcDbLine
 10
54.76359999999999
 20
53.21048499999999
 30
0.0
 11
55.6227
 21
53.21048499999999
 31
0.0
  0
LINE
  5
77
330
1E
100
AcDbEntity
  8
0
100
AcDbLine
 10
54.32
 20
57.207985
 30
0.0
 11
56.432
 21
57.207985
 31
0.0
  0
LINE
  5
78
330
1E
100
AcDbEntity
  8
0
100
AcDbLine
 10
56.432
 20
57.207985
 30
0.0
 11
59.86399999999999
 21
57.207985
 31
0.0
  0
LINE
  5
79
330
1E
100
AcDbEntity
  8
0
100
AcDbLine
 10
55.90399999999999
 20
57.80798499999999
 30
0.0
 11
59.42399999999999
 21
57.80798499999999
 31
0.0
  0
LINE
  5
7A
330
1E
100
AcDbEntity
  8
0
100
AcDbLine
 10
59.86399999999999
 20
57.207985
 30
0.0
 11
64.352
 21
57.207985
 31
0.0
  0
LINE
  5
7B
330
1E
100
AcDbEntity
  8
0
100
AcDbLine
 10
59.42399999999999
 20
57.80798499999999
 30
0.0
 11
64.08800000000001
 21
57.80798499999999
 31
0.0
  0
LINE
  5
7C
330
1E
100
AcDbEntity
  8
0
100
AcDbLine
 10
54.1909
 20
53.21048499999999
 30
0.0
 11
54.76359999999999
 21
53.21048499999999
 31
0.0
  0
LINE
  5
7D
330
1E
100
AcDbEntity
  8
0
100
AcDbLine
 10
54.0
 20
53.21048499999999
 30
0.0
 11
54.0
 21
51.210485
 31
0.0
  0
LINE
  5
7E
330
1E
100
AcDbEntity
  8
0
100
AcDbLine
 10
54.0
 20
53.21048499999999
 30
0.0
 11
54.1909
 21
53.21048499999999
 31
0.0
  0
LINE
  5
7F
330
1E
100
AcDbEntity
  8
0
100
AcDbLine
 10
53.26399999999999
 20
51.747285
 30
0.0
 11
53.792
 21
51.747285
 31
0.0
  0
LINE
  5
80
330
1E
100
AcDbEntity
  8
0
100
AcDbLine
 10
53.0
 20
51.747285
 30
0.0
 11
53.26399999999999
 21
51.747285
 31
0.0
  0
LINE
  5
81
330
1E
100
AcDbEntity
  8
0
100
AcDbLine
 10
53.0
 20
51.747285
 30
0.0
 11
53.26399999999999
 21
50.848185
 31
0.0
  0
LINE
  5
82
330
1E
100
AcDbEntity
  8
0
100
AcDbLine
 10
61.2611
 20
15.806885
 30
0.0
 11
63.7218
 21
16.093885
 31
0.0
  0
LINE
  5
8D
330
1E
100
AcDbEntity
  8
0
100
AcDbLine
 10
64.352
 20
57.207985
 30
0.0
 11
69.456
 21
57.207985
 31
0.0
  0
LINE
  5
8E
330
1E
100
AcDbEntity
  8
0
100
AcDbLine
 10
64.08800000000001
 20
57.80798499999999
 30
0.0
 11
69.36799999999999
 21
57.80798499999999
 31
0.0
  0
LINE
  5
8F
330
1E
100
AcDbEntity
  8
0
100
AcDbLine
 10
64.5
 20
53.21048499999999
 30
0.0
 11
66.9818
 21
53.21048499999999
 31
0.0
  0
LINE
  5
90
330
1E
100
AcDbEntity
  8
0
100
AcDbLine
 10
64.08800000000001
 20
46.346385
 30
0.0
 11
66.64
 21
46.039085
 31
0.0
  0
LINE
  5
91
330
1E
100
AcDbEntity
  8
0
100
AcDbLine
 10
63.7218
 20
16.093885
 30
0.0
 11
66.38760000000001
 21
16.296485
 31
0.0
  0
LINE
  5
92
330
1E
100
AcDbEntity
  8
0
100
AcDbLine
 10
53.0
 20
67.20798499999999
 30
0.0
 11
53.0
 21
57.80798499999999
 31
0.0
  0
LINE
  5
93
330
1E
100
AcDbEntity
  8
0
100
AcDbLine
 10
53.0
 20
67.20798499999999
 30
0.0
 11
53.792
 21
67.20798499999999
 31
0.0
  0
LINE
  5
94
330
1E
100
AcDbEntity
  8
0
100
AcDbLine
 10
53.792
 20
67.20798499999999
 30
0.0
 11
55.90399999999999
 21
67.20798499999999
 31
0.0
  0
LINE
  5
95
330
1E
100
AcDbEntity
  8
0
100
AcDbLine
 10
55.90399999999999
 20
67.20798499999999
 30
0.0
 11
59.42399999999999
 21
67.20798499999999
 31
0.0
  0
LINE
  5
96
330
1E
100
AcDbEntity
  8
0
100
AcDbLine
 10
59.42399999999999
 20
67.20798499999999
 30
0.0
 11
64.08800000000001
 21
67.20798499999999
 31
0.0
  0
LINE
  5
97
330
1E
100
AcDbEntity
  8
0
100
AcDbLine
 10
64.08800000000001
 20
67.20798499999999
 30
0.0
 11
69.36799999999999
 21
67.20798499999999
 31
0.0
  0
LINE
  5
98
330
1E
100
AcDbEntity
  8
0
100
AcDbLine
 10
47.3824
 20
67.20798499999999
 30
0.0
 11
53.0
 21
67.20798499999999
 31
0.0
  0
LINE
  5
99
330
1E
100
AcDbEntity
  8
0
100
AcDbLine
 10
46.3235
 20
80.20798499999999
 30
0.0
 11
55.6765
 21
80.20798499999999
 31
0.0
  0
LINE
  5
1C5
330
1E
100
AcDbEntity
  8
0
100
AcDbLine
 10
55.6765
 20
80.20798499999999
 30
0.0
 11
65.2059
 21
80.20798499999999
 31
0.0
  0
LINE
  5
1C6
330
1E
100
AcDbEntity
  8
0
100
AcDbLine
 10
65.46479999999999
 20
0.214104999999999
 30
0.0
 11
67.7204
 21
0.0452749999999993
 31
0.0
  0
LINE
  5
1C7
330
1E
100
AcDbEntity
  8
0
100
AcDbLine
 10
67.7204
 20
0.0452749999999993
 30
0.0
 11
70.07859999999999
 21
-0.0897950000000011
 31
0.0
  0
LINE
  5
1C8
330
1E
100
AcDbEntity
  8
0
100
AcDbLine
 10
70.07859999999999
 20
-0.0897950000000011
 30
0.0
 11
72.5393
 21
-0.174215000000002
 31
0.0
  0
LINE
  5
1C9
330
1E
100
AcDbEntity
  8
0
100
AcDbLine
 10
66.38760000000001
 20
16.296485
 30
0.0
 11
69.1559
 21
16.448485
 31
0.0
  0
LINE
  5
1CA
330
1E
100
AcDbEntity
  8
0
100
AcDbLine
 10
69.36799999999999
 20
67.20798499999999
 30
0.0
 11
75.0
 21
67.20798499999999
 31
0.0
  0
LINE
  5
1CB
330
1E
100
AcDbEntity
  8
0
100
AcDbLine
 10
69.36799999999999
 20
57.80798499999999
 30
0.0
 11
75.0
 21
57.80798499999999
 31
0.0
  0
LINE
  5
1CC
330
1E
100
AcDbEntity
  8
0
100
AcDbLine
 10
66.9818
 20
53.21048499999999
 30
0.0
 11
69.5591
 21
53.21048499999999
 31
0.0
  0
LINE
  5
1CD
330
1E
100
AcDbEntity
  8
0
100
AcDbLine
 10
66.64
 20
46.039085
 30
0.0
 11
69.36799999999999
 21
45.75738499999999
 31
0.0
  0
LINE
  5
1CE
330
1E
100
AcDbEntity
  8
0
100
AcDbLine
 10
69.456
 20
57.207985
 30
0.0
 11
75.0
 21
57.207985
 31
0.0
  0
LINE
  5
1CF
330
1E
100
AcDbEntity
  8
0
100
AcDbLine
 10
69.5591
 20
53.21048499999999
 30
0.0
 11
72.23180000000001
 21
53.21048499999999
 31
0.0
  0
LINE
  5
1D0
330
1E
100
AcDbEntity
  8
0
100
AcDbLine
 10
69.36799999999999
 20
45.75738499999999
 30
0.0
 11
72.096
 21
45.59318499999999
 31
0.0
  0
LINE
  5
1D1
330
1E
100
AcDbEntity
  8
0
100
AcDbLine
 10
69.1559
 20
16.448485
 30
0.0
 11
72.02670000000001
 21
16.549785
 31
0.0
  0
LINE
  5
1D2
330
1E
100
AcDbEntity
  8
0
100
AcDbLine
 10
75.0
 20
-0.207985000000002
 30
0.0
 11
77.4607
 21
-0.174215000000002
 31
0.0
  0
LINE
  5
1D3
330
1E
100
AcDbEntity
  8
0
100
AcDbLine
 10
75.0
 20
53.21048499999999
 30
0.0
 11
77.76819999999999
 21
53.21048499999999
 31
0.0
  0
LINE
  5
1D4
330
1E
100
AcDbEntity
  8
0
100
AcDbLine
 10
75.0
 20
45.52278499999999
 30
0.0
 11
77.90399999999999
 21
45.59318499999999
 31
0.0
  0
LINE
  5
1D5
330
1E
100
AcDbEntity
  8
0
100
AcDbLine
 10
75.0
 20
16.583585
 30
0.0
 11
77.97329999999999
 21
16.549785
 31
0.0
  0
LINE
  5
1D6
330
1E
100
AcDbEntity
  8
0
100
AcDbLine
 10
75.0
 20
57.207985
 30
0.0
 11
80.54399999999999
 21
57.207985
 31
0.0
  0
LINE
  5
1D7
330
1E
100
AcDbEntity
  8
0
100
AcDbLine
 10
75.0
 20
67.20798499999999
 30
0.0
 11
80.632
 21
67.20798499999999
 31
0.0
  0
LINE
  5
1D8
330
1E
100
AcDbEntity
  8
0
100
AcDbLine
 10
75.0
 20
57.80798499999999
 30
0.0
 11
80.632
 21
57.80798499999999
 31
0.0
  0
LINE
  5
1D9
330
1E
100
AcDbEntity
  8
0
100
AcDbLine
 10
72.23180000000001
 20
53.21048499999999
 30
0.0
 11
75.0
 21
53.21048499999999
 31
0.0
  0
LINE
  5
1DA
330
1E
100
AcDbEntity
  8
0
100
AcDbLine
 10
72.096
 20
45.59318499999999
 30
0.0
 11
75.0
 21
45.52278499999999
 31
0.0
  0
LINE
  5
1DB
330
1E
100
AcDbEntity
  8
0
100
AcDbLine
 10
72.5393
 20
-0.174215000000002
 30
0.0
 11
75.0
 21
-0.207985000000002
 31
0.0
  0
LINE
  5
1DC
330
1E
100
AcDbEntity
  8
0
100
AcDbLine
 10
72.02670000000001
 20
16.549785
 30
0.0
 11
75.0
 21
16.583585
 31
0.0
  0
LINE
  5
1DD
330
1E
100
AcDbEntity
  8
0
100
AcDbLine
 10
79.9214
 20
-0.0897950000000011
 30
0.0
 11
82.27960000000001
 21
0.0452749999999993
 31
0.0
  0
LINE
  5
1DE
330
1E
100
AcDbEntity
  8
0
100
AcDbLine
 10
77.4607
 20
-0.174215000000002
 30
0.0
 11
79.9214
 21
-0.0897950000000011
 31
0.0
  0
LINE
  5
1DF
330
1E
100
AcDbEntity
  8
0
100
AcDbLine
 10
84.53520000000001
 20
0.214104999999999
 30
0.0
 11
86.5858
 21
0.4504750000000001
 31
0.0
  0
LINE
  5
1E0
330
1E
100
AcDbEntity
  8
0
100
AcDbLine
 10
82.27960000000001
 20
0.0452749999999993
 30
0.0
 11
84.53520000000001
 21
0.214104999999999
 31
0.0
  0
LINE
  5
1E1
330
1E
100
AcDbEntity
  8
0
100
AcDbLine
 10
83.6124
 20
16.296485
 30
0.0
 11
86.27819999999999
 21
16.093885
 31
0.0
  0
LINE
  5
1E2
330
1E
100
AcDbEntity
  8
0
100
AcDbLine
 10
80.8441
 20
16.448485
 30
0.0
 11
83.6124
 21
16.296485
 31
0.0
  0
LINE
  5
1E3
330
1E
100
AcDbEntity
  8
0
100
AcDbLine
 10
77.76819999999999
 20
53.21048499999999
 30
0.0
 11
80.4409
 21
53.21048499999999
 31
0.0
  0
LINE
  5
1E4
330
1E
100
AcDbEntity
  8
0
100
AcDbLine
 10
83.01819999999999
 20
53.21048499999999
 30
0.0
 11
85.5
 21
53.21048499999999
 31
0.0
  0
LINE
  5
1E5
330
1E
100
AcDbEntity
  8
0
100
AcDbLine
 10
80.54399999999999
 20
57.207985
 30
0.0
 11
85.64799999999999
 21
57.207985
 31
0.0
  0
LINE
  5
1E6
330
1E
100
AcDbEntity
  8
0
100
AcDbLine
 10
80.632
 20
67.20798499999999
 30
0.0
 11
85.912
 21
67.20798499999999
 31
0.0
  0
LINE
  5
1E7
330
1E
100
AcDbEntity
  8
0
100
AcDbLine
 10
80.632
 20
57.80798499999999
 30
0.0
 11
85.912
 21
57.80798499999999
 31
0.0
  0
LINE
  5
1E8
330
1E
100
AcDbEntity
  8
0
100
AcDbLine
 10
80.4409
 20
53.21048499999999
 30
0.0
 11
83.01819999999999
 21
53.21048499999999
 31
0.0
  0
LINE
  5
1E9
330
1E
100
AcDbEntity
  8
0
100
AcDbLine
 10
83.36
 20
46.039085
 30
0.0
 11
85.912
 21
46.346385
 31
0.0
  0
LINE
  5
1EA
330
1E
100
AcDbEntity
  8
0
100
AcDbLine
 10
80.632
 20
45.75738499999999
 30
0.0
 11
83.36
 21
46.039085
 31
0.0
  0
LINE
  5
1EB
330
1E
100
AcDbEntity
  8
0
100
AcDbLine
 10
77.90399999999999
 20
45.59318499999999
 30
0.0
 11
80.632
 21
45.75738499999999
 31
0.0
  0
LINE
  5
1EC
330
1E
100
AcDbEntity
  8
0
100
AcDbLine
 10
77.97329999999999
 20
16.549785
 30
0.0
 11
80.8441
 21
16.448485
 31
0.0
  0
LINE
  5
205
330
1E
100
AcDbEntity
  8
0
100
AcDbLine
 10
88.53379999999999
 20
0.7206050000000001
 30
0.0
 11
90.1743
 21
1.041395
 31
0.0
  0
LINE
  5
206
330
1E
100
AcDbEntity
  8
0
100
AcDbLine
 10
86.5858
 20
0.4504750000000001
 30
0.0
 11
88.53379999999999
 21
0.7206050000000001
 31
0.0
  0
LINE
  5
207
330
1E
100
AcDbEntity
  8
0
100
AcDbLine
 10
90.1743
 20
1.041395
 30
0.0
 11
91.6097
 21
1.379064999999999
 31
0.0
  0
LINE
  5
208
330
1E
100
AcDbEntity
  8
0
100
AcDbLine
 10
91.6097
 20
1.379064999999999
 30
0.0
 11
91.91729999999999
 21
1.477454999999999
 31
0.0
  0
LINE
  5
209
330
1E
100
AcDbEntity
  8
0
100
AcDbLine
 10
91.6097
 20
1.379064999999999
 30
0.0
 11
91.91729999999999
 21
1.477454999999999
 31
0.0
  0
LINE
  5
20B
330
1E
100
AcDbEntity
  8
0
100
AcDbLine
 10
91.91729999999999
 20
1.477454999999999
 30
0.0
 11
92.94259999999999
 21
1.848895
 31
0.0
  0
LINE
  5
20C
330
1E
100
AcDbEntity
  8
0
100
AcDbLine
 10
92.94259999999999
 20
1.848895
 30
0.0
 11
93.76279999999999
 21
2.254094999999999
 31
0.0
  0
LINE
  5
20D
330
1E
100
AcDbEntity
  8
0
100
AcDbLine
 10
93.76279999999999
 20
2.254094999999999
 30
0.0
 11
94.2754
 21
2.659304999999999
 31
0.0
  0
LINE
  5
20E
330
1E
100
AcDbEntity
  8
0
100
AcDbLine
 10
94.2754
 20
2.659304999999999
 30
0.0
 11
94.4805
 21
3.081395
 31
0.0
  0
LINE
  5
20F
330
1E
100
AcDbEntity
  8
0
100
AcDbLine
 10
90.89200000000001
 20
15.486085
 30
0.0
 11
92.84
 21
15.131585
 31
0.0
  0
LINE
  5
210
330
1E
100
AcDbEntity
  8
0
100
AcDbLine
 10
92.84
 20
15.131585
 30
0.0
 11
94.58299999999999
 21
14.726385
 31
0.0
  0
LINE
  5
211
330
1E
100
AcDbEntity
  8
0
100
AcDbLine
 10
88.73890000000001
 20
15.806885
 30
0.0
 11
90.89200000000001
 21
15.486085
 31
0.0
  0
LINE
  5
212
330
1E
100
AcDbEntity
  8
0
100
AcDbLine
 10
85.64799999999999
 20
57.207985
 30
0.0
 11
90.13600000000002
 21
57.207985
 31
0.0
  0
LINE
  5
213
330
1E
100
AcDbEntity
  8
0
100
AcDbLine
 10
85.912
 20
67.20798499999999
 30
0.0
 11
90.576
 21
67.20798499999999
 31
0.0
  0
LINE
  5
214
330
1E
100
AcDbEntity
  8
0
100
AcDbLine
 10
85.912
 20
57.80798499999999
 30
0.0
 11
90.576
 21
57.80798499999999
 31
0.0
  0
LINE
  5
215
330
1E
100
AcDbEntity
  8
0
100
AcDbLine
 10
85.5
 20
53.21048499999999
 30
0.0
 11
87.7909
 21
53.21048499999999
 31
0.0
  0
LINE
  5
216
330
1E
100
AcDbEntity
  8
0
100
AcDbLine
 10
87.7909
 20
53.21048499999999
 30
0.0
 11
89.79550000000001
 21
53.21048499999999
 31
0.0
  0
LINE
  5
217
330
1E
100
AcDbEntity
  8
0
100
AcDbLine
 10
90.13600000000002
 20
57.207985
 30
0.0
 11
93.56799999999999
 21
57.207985
 31
0.0
  0
LINE
  5
218
330
1E
100
AcDbEntity
  8
0
100
AcDbLine
 10
89.79550000000001
 20
53.21048499999999
 30
0.0
 11
91.60909999999999
 21
53.21048499999999
 31
0.0
  0
LINE
  5
219
330
1E
100
AcDbEntity
  8
0
100
AcDbLine
 10
91.60909999999999
 20
53.21048499999999
 30
0.0
 11
93.2318
 21
53.21048499999999
 31
0.0
  0
LINE
  5
21A
330
1E
100
AcDbEntity
  8
0
100
AcDbLine
 10
90.576
 20
67.20798499999999
 30
0.0
 11
94.09600000000001
 21
67.20798499999999
 31
0.0
  0
LINE
  5
21B
330
1E
100
AcDbEntity
  8
0
100
AcDbLine
 10
93.56799999999999
 20
57.207985
 30
0.0
 11
95.68000000000001
 21
57.207985
 31
0.0
  0
LINE
  5
21C
330
1E
100
AcDbEntity
  8
0
100
AcDbLine
 10
94.09600000000001
 20
67.20798499999999
 30
0.0
 11
96.208
 21
67.20798499999999
 31
0.0
  0
LINE
  5
21D
330
1E
100
AcDbEntity
  8
0
100
AcDbLine
 10
94.09600000000001
 20
57.80798499999999
 30
0.0
 11
96.208
 21
57.80798499999999
 31
0.0
  0
LINE
  5
21E
330
1E
100
AcDbEntity
  8
0
100
AcDbLine
 10
90.576
 20
57.80798499999999
 30
0.0
 11
94.09600000000001
 21
57.80798499999999
 31
0.0
  0
LINE
  5
21F
330
1E
100
AcDbEntity
  8
0
100
AcDbLine
 10
93.2318
 20
53.21048499999999
 30
0.0
 11
94.3773
 21
53.21048499999999
 31
0.0
  0
LINE
  5
220
330
1E
100
AcDbEntity
  8
0
100
AcDbLine
 10
94.09600000000001
 20
48.601285
 30
0.0
 11
95.23999999999999
 21
49.33428499999999
 31
0.0
  0
LINE
  5
221
330
1E
100
AcDbEntity
  8
0
100
AcDbLine
 10
92.42399999999999
 20
47.912585
 30
0.0
 11
94.09600000000001
 21
48.601285
 31
0.0
  0
LINE
  5
222
330
1E
100
AcDbEntity
  8
0
100
AcDbLine
 10
90.48799999999999
 20
47.34498499999999
 30
0.0
 11
92.42399999999999
 21
47.912585
 31
0.0
  0
LINE
  5
223
330
1E
100
AcDbEntity
  8
0
100
AcDbLine
 10
88.376
 20
46.791285
 30
0.0
 11
90.48799999999999
 21
47.34498499999999
 31
0.0
  0
LINE
  5
224
330
1E
100
AcDbEntity
  8
0
100
AcDbLine
 10
85.912
 20
46.346385
 30
0.0
 11
88.376
 21
46.791285
 31
0.0
  0
LINE
  5
225
330
1E
100
AcDbEntity
  8
0
100
AcDbLine
 10
86.27819999999999
 20
16.093885
 30
0.0
 11
88.73890000000001
 21
15.806885
 31
0.0
  0
LINE
  5
226
330
1E
100
AcDbEntity
  8
0
100
AcDbLine
 10
94.4805
 20
3.081395
 30
0.0
 11
97.55639999999999
 21
12.869185
 31
0.0
  0
LINE
  5
228
330
1E
100
AcDbEntity
  8
0
100
AcDbLine
 10
94.3773
 20
53.21048499999999
 30
0.0
 11
95.2364
 21
53.21048499999999
 31
0.0
  0
LINE
  5
229
330
1E
100
AcDbEntity
  8
0
100
AcDbLine
 10
95.2364
 20
53.21048499999999
 30
0.0
 11
95.80910000000001
 21
53.21048499999999
 31
0.0
  0
LINE
  5
22A
330
1E
100
AcDbEntity
  8
0
100
AcDbLine
 10
95.76411570605399
 20
49.7253684447136
 30
0.0
 11
96.0
 21
51.207985
 31
0.0
  0
LINE
  5
22B
330
1E
100
AcDbEntity
  8
0
100
AcDbLine
 10
95.68000000000001
 20
57.207985
 30
0.0
 11
96.47200000000001
 21
57.207985
 31
0.0
  0
LINE
  5
22C
330
1E
100
AcDbEntity
  8
0
100
AcDbLine
 10
95.80910000000001
 20
53.21048499999999
 30
0.0
 11
96.0
 21
53.21048499999999
 31
0.0
  0
LINE
  5
22D
330
1E
100
AcDbEntity
  8
0
100
AcDbLine
 10
95.76366437550399
 20
49.7250316719281
 30
0.0
 11
96.0
 21
51.210485
 31
0.0
  0
LINE
  5
22E
330
1E
100
AcDbEntity
  8
0
100
AcDbLine
 10
95.23999999999999
 20
49.33428499999999
 30
0.0
 11
96.208
 21
50.056585
 31
0.0
  0
LINE
  5
22F
330
1E
100
AcDbEntity
  8
0
100
AcDbLine
 10
94.58299999999999
 20
14.726385
 30
0.0
 11
95.8134
 21
14.287385
 31
0.0
  0
LINE
  5
230
330
1E
100
AcDbEntity
  8
0
100
AcDbLine
 10
96.0
 20
51.207985
 30
0.0
 11
96.0
 21
57.207985
 31
0.0
  0
LINE
  5
231
330
1E
100
AcDbEntity
  8
0
100
AcDbLine
 10
96.0
 20
51.210485
 30
0.0
 11
96.0
 21
53.21048499999999
 31
0.0
  0
LINE
  5
232
330
1E
100
AcDbEntity
  8
0
100
AcDbLine
 10
96.736
 20
50.848185
 30
0.0
 11
97.0
 21
51.747285
 31
0.0
  0
LINE
  5
233
330
1E
100
AcDbEntity
  8
0
100
AcDbLine
 10
96.208
 20
50.056585
 30
0.0
 11
96.736
 21
50.848185
 31
0.0
  0
LINE
  5
234
330
1E
100
AcDbEntity
  8
0
100
AcDbLine
 10
96.0
 20
51.747285
 30
0.0
 11
96.208
 21
51.747285
 31
0.0
  0
LINE
  5
235
330
1E
100
AcDbEntity
  8
0
100
AcDbLine
 10
96.208
 20
51.747285
 30
0.0
 11
96.736
 21
51.747285
 31
0.0
  0
LINE
  5
236
330
1E
100
AcDbEntity
  8
0
100
AcDbLine
 10
96.736
 20
51.747285
 30
0.0
 11
97.0
 21
51.747285
 31
0.0
  0
LINE
  5
237
330
1E
100
AcDbEntity
  8
0
100
AcDbLine
 10
96.0
 20
57.207985
 30
0.0
 11
96.47200000000001
 21
57.207985
 31
0.0
  0
LINE
  5
238
330
1E
100
AcDbEntity
  8
0
100
AcDbLine
 10
96.0
 20
57.207985
 30
0.0
 11
96.0
 21
51.207985
 31
0.0
  0
LINE
  5
239
330
1E
100
AcDbEntity
  8
0
100
AcDbLine
 10
96.208
 20
67.20798499999999
 30
0.0
 11
97.0
 21
67.20798499999999
 31
0.0
  0
LINE
  5
23A
330
1E
100
AcDbEntity
  8
0
100
AcDbLine
 10
96.208
 20
57.80798499999999
 30
0.0
 11
97.0
 21
57.80798499999999
 31
0.0
  0
LINE
  5
23B
330
1E
100
AcDbEntity
  8
0
100
AcDbLine
 10
97.0
 20
57.80798499999999
 30
0.0
 11
97.0
 21
67.20798499999999
 31
0.0
  0
LINE
  5
23C
330
1E
100
AcDbEntity
  8
0
100
AcDbLine
 10
96.47200000000001
 20
57.207985
 30
0.0
 11
97.0
 21
57.80798499999999
 31
0.0
  0
LINE
  5
23D
330
1E
100
AcDbEntity
  8
0
100
AcDbLine
 10
97.0
 20
67.20798499999999
 30
0.0
 11
97.0
 21
57.80798499999999
 31
0.0
  0
LINE
  5
23E
330
1E
100
AcDbEntity
  8
0
100
AcDbLine
 10
96.0
 20
53.21048499999999
 30
0.0
 11
96.0
 21
51.210485
 31
0.0
  0
LINE
  5
23F
330
1E
100
AcDbEntity
  8
0
100
AcDbLine
 10
97.0
 20
51.747285
 30
0.0
 11
97.3726
 21
21.776485
 31
0.0
  0
LINE
  5
240
330
1E
100
AcDbEntity
  8
0
100
AcDbLine
 10
95.8134
 20
14.287385
 30
0.0
 11
96.7361
 21
13.831485
 31
0.0
  0
LINE
  5
241
330
1E
100
AcDbEntity
  8
0
100
AcDbLine
 10
96.7361
 20
13.831485
 30
0.0
 11
97.35129999999999
 21
13.358785
 31
0.0
  0
LINE
  5
242
330
1E
100
AcDbEntity
  8
0
100
AcDbLine
 10
97.38890000000001
 20
19.620385
 30
0.0
 11
97.55639999999999
 21
12.869185
 31
0.0
  0
LINE
  5
243
330
1E
100
AcDbEntity
  8
0
100
AcDbLine
 10
97.3726
 20
21.776485
 30
0.0
 11
97.38890000000001
 21
19.620385
 31
0.0
  0
LINE
  5
244
330
1E
100
AcDbEntity
  8
0
100
AcDbLine
 10
97.35129999999999
 20
13.358785
 30
0.0
 11
97.55639999999999
 21
12.869185
 31
0.0
  0
LINE
  5
245
330
1E
100
AcDbEntity
  8
0
100
AcDbLine
 10
111.0
 20
67.20798499999999
 30
0.0
 11
118.941
 21
67.20798499999999
 31
0.0
  0
LINE
  5
246
330
1E
100
AcDbEntity
  8
0
100
AcDbLine
 10
102.6179999999999
 20
67.20798499999999
 30
0.0
 11
111.0
 21
67.20798499999999
 31
0.0
  0
LINE
  5
247
330
1E
100
AcDbEntity
  8
0
100
AcDbLine
 10
97.0
 20
67.20798499999999
 30
0.0
 11
102.6179999999999
 21
67.20798499999999
 31
0.0
  0
LINE
  5
248
330
1E
100
AcDbEntity
  8
0
100
AcDbLine
 10
94.32349999999999
 20
80.20798499999999
 30
0.0
 11
103.676
 21
80.20798499999999
 31
0.0
  0
LINE
  5
249
330
1E
100
AcDbEntity
  8
0
100
AcDbLine
 10
84.79409999999999
 20
80.20798499999999
 30
0.0
 11
94.32349999999999
 21
80.20798499999999
 31
0.0
  0
LINE
  5
24A
330
1E
100
AcDbEntity
  8
0
100
AcDbLine
 10
75.0
 20
80.20798499999999
 30
0.0
 11
84.79409999999999
 21
80.20798499999999
 31
0.0
  0
LINE
  5
24B
330
1E
100
AcDbEntity
  8
0
100
AcDbLine
 10
103.676
 20
80.20798499999999
 30
0.0
 11
112.324
 21
80.20798499999999
 31
0.0
  0
LINE
  5
24C
330
1E
100
AcDbEntity
  8
0
100
AcDbLine
 10
126.088
 20
67.20798499999999
 30
0.0
 11
132.3529999999999
 21
67.20798499999999
 31
0.0
  0
LINE
  5
24D
330
1E
100
AcDbEntity
  8
0
100
AcDbLine
 10
118.941
 20
67.20798499999999
 30
0.0
 11
126.088
 21
67.20798499999999
 31
0.0
  0
LINE
  5
24F
330
1E
100
AcDbEntity
  8
0
100
AcDbLine
 10
132.3529999999999
 20
67.20798499999999
 30
0.0
 11
137.647
 21
67.20798499999999
 31
0.0
  0
LINE
  5
250
330
1E
100
AcDbEntity
  8
0
100
AcDbLine
 10
112.324
 20
80.20798499999999
 30
0.0
 11
120.618
 21
80.20798499999999
 31
0.0
  0
LINE
  5
251
330
1E
100
AcDbEntity
  8
0
100
AcDbLine
 10
127.941
 20
80.20798499999999
 30
0.0
 11
134.382
 21
80.20798499999999
 31
0.0
  0
LINE
  5
252
330
1E
100
AcDbEntity
  8
0
100
AcDbLine
 10
137.647
 20
67.20798499999999
 30
0.0
 11
141.706
 21
67.20798499999999
 31
0.0
  0
LINE
  5
253
330
1E
100
AcDbEntity
  8
0
100
AcDbLine
 10
141.706
 20
67.20798499999999
 30
0.0
 11
144.706
 21
67.20798499999999
 31
0.0
  0
LINE
  5
254
330
1E
100
AcDbEntity
  8
0
100
AcDbLine
 10
134.382
 20
80.20798499999999
 30
0.0
 11
139.941
 21
80.20798499999999
 31
0.0
  0
LINE
  5
255
330
1E
100
AcDbEntity
  8
0
100
AcDbLine
 10
139.941
 20
80.20798499999999
 30
0.0
 11
144.176
 21
80.20798499999999
 31
0.0
  0
LINE
  5
256
330
1E
100
AcDbEntity
  8
0
100
AcDbLine
 10
144.706
 20
67.20798499999999
 30
0.0
 11
146.647
 21
67.20798499999999
 31
0.0
  0
LINE
  5
257
330
1E
100
AcDbEntity
  8
0
100
AcDbLine
 10
146.647
 20
67.20798499999999
 30
0.0
 11
147.3529999999999
 21
67.20798499999999
 31
0.0
  0
LINE
  5
258
330
1E
100
AcDbEntity
  8
0
100
AcDbLine
 10
148.5879999999999
 20
67.70798499999999
 30
0.0
 11
149.5589999999999
 21
68.807985
 31
0.0
  0
LINE
  5
259
330
1E
100
AcDbEntity
  8
0
100
AcDbLine
 10
147.3529999999999
 20
67.20798499999999
 30
0.0
 11
148.5879999999999
 21
67.70798499999999
 31
0.0
  0
LINE
  5
25A
330
1E
100
AcDbEntity
  8
0
100
AcDbLine
 10
144.176
 20
80.20798499999999
 30
0.0
 11
147.2649999999999
 21
80.20798499999999
 31
0.0
  0
LINE
  5
25B
330
1E
100
AcDbEntity
  8
0
100
AcDbLine
 10
147.2649999999999
 20
80.20798499999999
 30
0.0
 11
149.206
 21
80.20798499999999
 31
0.0
  0
LINE
  5
25C
330
1E
100
AcDbEntity
  8
0
100
AcDbLine
 10
149.5589999999999
 20
68.807985
 30
0.0
 11
150.0
 21
70.20798499999999
 31
0.0
  0
LINE
  5
25D
330
1E
100
AcDbEntity
  8
0
100
AcDbLine
 10
150.0
 20
80.20798499999999
 30
0.0
 11
150.0
 21
70.20798499999999
 31
0.0
  0
LINE
  5
25E
330
1E
100
AcDbEntity
  8
0
100
AcDbLine
 10
150.0
 20
70.20798499999999
 30
0.0
 11
150.0
 21
80.20798499999999
 31
0.0
  0
LINE
  5
25F
330
1E
100
AcDbEntity
  8
0
100
AcDbLine
 10
149.206
 20
80.20798499999999
 30
0.0
 11
150.0
 21
80.20798499999999
 31
0.0
  0
LINE
  5
380
330
1E
100
AcDbEntity
  8
0
100
AcDbLine
 10
120.618
 20
80.20798499999999
 30
0.0
 11
127.941
 21
80.20798499999999
 31
0.0
  0
LINE
  5
381
330
1E
100
AcDbEntity
  8
0
100
AcDbLine
 10
65.2059
 20
80.20798499999999
 30
0.0
 11
75.0
 21
80.20798499999999
 31
0.0
  0
ENDSEC
  0
SECTION
  2
OBJECTS
  0
DICTIONARY
  5
C
330
0
100
AcDbDictionary
281
     1
  3
ACAD_GROUP
350
D
  3
ACAD_LAYOUT
350
19
  3
ACAD_MLINESTYLE
350
16
  3
ACAD_PLOTSETTINGS
350
18
  3
ACAD_PLOTSTYLENAME
350
E
  3
AcDbVariableDictionary
350
386
  0
DICTIONARY
  5
D
102
{ACAD_REACTORS
330
C
102
}
330
C
100
AcDbDictionary
281
     1
  0
DICTIONARY
  5
19
102
{ACAD_REACTORS
330
C
102
}
330
C
100
AcDbDictionary
281
     1
  3
Layout1
350
1D
  3
Model
350
21
  0
DICTIONARY
  5
16
102
{ACAD_REACTORS
330
C
102
}
330
C
100
AcDbDictionary
281
     1
  3
Standard
350
17
  0
DICTIONARY
  5
18
102
{ACAD_REACTORS
330
C
102
}
330
C
100
AcDbDictionary
281
     1
  0
ACDBDICTIONARYWDFLT
  5
E
102
{ACAD_REACTORS
330
C
102
}
330
C
100
AcDbDictionary
281
     1
  3
Normal
350
F
100
AcDbDictionaryWithDefault
340
F
  0
DICTIONARY
  5
386
102
{ACAD_REACTORS
330
C
102
}
330
C
100
AcDbDictionary
281
     1
  3
DIMASSOC
350
387
  0
LAYOUT
  5
1D
102
{ACAD_REACTORS
330
19
102
}
330
19
100
AcDbPlotSettings
  1

  2
hp deskjet 980c series
  4

  6

 40
0.0
 41
0.0
 42
0.0
 43
0.0
 44
0.0
 45
0.0
 46
0.0
 47
0.0
 48
0.0
 49
0.0
140
0.0
141
0.0
142
1.0
143
1.0
 70
   688
 72
     0
 73
     0
 74
     5
  7

 75
    16
147
1.0
148
0.0
149
0.0
100
AcDbLayout
  1
Layout1
 70
     1
 71
     1
 10
0.0
 20
0.0
 11
12.0
 21
9.0
 12
0.0
 22
0.0
 32
0.0
 14
1.000000000000000E+20
 24
1.000000000000000E+20
 34
1.000000000000000E+20
 15
-1.000000000000000E+20
 25
-1.000000000000000E+20
 35
-1.000000000000000E+20
146
0.0
 13
0.0
 23
0.0
 33
0.0
 16
1.0
 26
0.0
 36
0.0
 17
0.0
 27
1.0
 37
0.0
 76
     0
330
1A
  0
LAYOUT
  5
21
102
{ACAD_REACTORS
330
19
102
}
330
19
100
AcDbPlotSettings
  1

  2
hp deskjet 980c series
  4

  6

 40
0.0
 41
0.0
 42
0.0
 43
0.0
 44
0.0
 45
0.0
 46
0.0
 47
0.0
 48
0.0
 49
0.0
140
0.0
141
0.0
142
1.0
143
1.0
 70
  1712
 72
     0
 73
     0
 74
     0
  7

 75
     0
147
1.0
148
0.0
149
0.0
100
AcDbLayout
  1
Model
 70
     1
 71
     0
 10
0.0
 20
0.0
 11
12.0
 21
9.0
 12
0.0
 22
0.0
 32
0.0
 14
0.0
 24
0.0
 34
0.0
 15
0.0
 25
0.0
 35
0.0
146
0.0
 13
0.0
 23
0.0
 33
0.0
 16
1.0
 26
0.0
 36
0.0
 17
0.0
 27
1.0
 37
0.0
 76
     0
330
1E
  0
MLINESTYLE
  5
17
102
{ACAD_REACTORS
330
16
102
}
330
16
100
AcDbMlineStyle
  2
STANDARD
 70
     0
  3

 62
   256
 51
90.0
 52
90.0
 71
     2
 49
0.5
 62
   256
  6
BYLAYER
 49
-0.5
 62
   256
  6
BYLAYER
  0
ACDBPLACEHOLDER
  5
F
102
{ACAD_REACTORS
330
E
102
}
330
E
  0
DICTIONARYVAR
  5
387
102
{ACAD_REACTORS
330
386
102
}
330
386
100
DictionaryVariables
280
     0
  1
1
  0
ENDSEC
  0
EOF
