  0
SECTION
  2
HEADER
  9
$ACADVER
  1
AC1014
  9
$ACADMAINTVER
 70
     9
  9
$DWGCODEPAGE
  3
ANSI_1252
  9
$INSBASE
 10
0.0
 20
0.0
 30
0.0
  9
$EXTMIN
 10
0.202677999999997
 20
-0.0000000000000092
 30
0.0
  9
$EXTMAX
 10
168.797322
 20
150.0
 30
0.0
  9
$LIMMIN
 10
0.0
 20
0.0
  9
$LIMMAX
 10
12.0
 20
9.0
  9
$ORTHOMODE
 70
     0
  9
$REGENMODE
 70
     1
  9
$FILLMODE
 70
     1
  9
$QTEXTMODE
 70
     0
  9
$MIRRTEXT
 70
     1
  9
$DRAGMODE
 70
     2
  9
$LTSCALE
 40
1.0
  9
$OSMODE
 70
    37
  9
$ATTMODE
 70
     1
  9
$TEXTSIZE
 40
0.2
  9
$TRACEWID
 40
0.05
  9
$TEXTSTYLE
  7
STANDARD
  9
$CLAYER
  8
0
  9
$CELTYPE
  6
CONTINUOUS
  9
$CECOLOR
 62
   256
  9
$CELTSCALE
 40
1.0
  9
$DELOBJ
 70
     1
  9
$DISPSILH
 70
     0
  9
$DIMSCALE
 40
1.0
  9
$DIMASZ
 40
0.18
  9
$DIMEXO
 40
0.0625
  9
$DIMDLI
 40
0.38
  9
$DIMRND
 40
0.0
  9
$DIMDLE
 40
0.0
  9
$DIMEXE
 40
0.18
  9
$DIMTP
 40
0.0
  9
$DIMTM
 40
0.0
  9
$DIMTXT
 40
0.18
  9
$DIMCEN
 40
0.09
  9
$DIMTSZ
 40
0.0
  9
$DIMTOL
 70
     0
  9
$DIMLIM
 70
     0
  9
$DIMTIH
 70
     1
  9
$DIMTOH
 70
     1
  9
$DIMSE1
 70
     0
  9
$DIMSE2
 70
     0
  9
$DIMTAD
 70
     0
  9
$DIMZIN
 70
     0
  9
$DIMBLK
  1

  9
$DIMASO
 70
     1
  9
$DIMSHO
 70
     1
  9
$DIMPOST
  1

  9
$DIMAPOST
  1

  9
$DIMALT
 70
     0
  9
$DIMALTD
 70
     2
  9
$DIMALTF
 40
25.4
  9
$DIMLFAC
 40
1.0
  9
$DIMTOFL
 70
     0
  9
$DIMTVP
 40
0.0
  9
$DIMTIX
 70
     0
  9
$DIMSOXD
 70
     0
  9
$DIMSAH
 70
     0
  9
$DIMBLK1
  1

  9
$DIMBLK2
  1

  9
$DIMSTYLE
  2
STANDARD
  9
$DIMCLRD
 70
     0
  9
$DIMCLRE
 70
     0
  9
$DIMCLRT
 70
     0
  9
$DIMTFAC
 40
1.0
  9
$DIMGAP
 40
0.09
  9
$DIMJUST
 70
     0
  9
$DIMSD1
 70
     0
  9
$DIMSD2
 70
     0
  9
$DIMTOLJ
 70
     1
  9
$DIMTZIN
 70
     0
  9
$DIMALTZ
 70
     0
  9
$DIMALTTZ
 70
     0
  9
$DIMFIT
 70
     3
  9
$DIMUPT
 70
     0
  9
$DIMUNIT
 70
     2
  9
$DIMDEC
 70
     4
  9
$DIMTDEC
 70
     4
  9
$DIMALTU
 70
     2
  9
$DIMALTTD
 70
     2
  9
$DIMTXSTY
  7
STANDARD
  9
$DIMAUNIT
 70
     0
  9
$LUNITS
 70
     2
  9
$LUPREC
 70
     4
  9
$SKETCHINC
 40
0.1
  9
$FILLETRAD
 40
0.0
  9
$AUNITS
 70
     0
  9
$AUPREC
 70
     0
  9
$MENU
  1
.
  9
$ELEVATION
 40
0.0
  9
$PELEVATION
 40
0.0
  9
$THICKNESS
 40
0.0
  9
$LIMCHECK
 70
     0
  9
$BLIPMODE
 70
     0
  9
$CHAMFERA
 40
0.0
  9
$CHAMFERB
 40
0.0
  9
$CHAMFERC
 40
0.0
  9
$CHAMFERD
 40
0.0
  9
$SKPOLY
 70
     0
  9
$TDCREATE
 40
2454697.327937997
  9
$TDUPDATE
 40
2454697.329290358
  9
$TDINDWG
 40
0.0013525463
  9
$TDUSRTIMER
 40
0.0013525463
  9
$USRTIMER
 70
     1
  9
$ANGBASE
 50
0.0
  9
$ANGDIR
 70
     0
  9
$PDMODE
 70
     0
  9
$PDSIZE
 40
0.0
  9
$PLINEWID
 40
0.0
  9
$COORDS
 70
     1
  9
$SPLFRAME
 70
     0
  9
$SPLINETYPE
 70
     6
  9
$SPLINESEGS
 70
     8
  9
$ATTDIA
 70
     0
  9
$ATTREQ
 70
     1
  9
$HANDLING
 70
 22529
  9
$HANDSEED
  5
227
  9
$SURFTAB1
 70
     6
  9
$SURFTAB2
 70
     6
  9
$SURFTYPE
 70
     6
  9
$SURFU
 70
     6
  9
$SURFV
 70
     6
  9
$UCSNAME
  2

  9
$UCSORG
 10
0.0
 20
0.0
 30
0.0
  9
$UCSXDIR
 10
1.0
 20
0.0
 30
0.0
  9
$UCSYDIR
 10
0.0
 20
1.0
 30
0.0
  9
$PUCSNAME
  2

  9
$PUCSORG
 10
0.0
 20
0.0
 30
0.0
  9
$PUCSXDIR
 10
1.0
 20
0.0
 30
0.0
  9
$PUCSYDIR
 10
0.0
 20
1.0
 30
0.0
  9
$USERI1
 70
     0
  9
$USERI2
 70
     0
  9
$USERI3
 70
     0
  9
$USERI4
 70
     0
  9
$USERI5
 70
     0
  9
$USERR1
 40
0.0
  9
$USERR2
 40
0.0
  9
$USERR3
 40
0.0
  9
$USERR4
 40
0.0
  9
$USERR5
 40
0.0
  9
$WORLDVIEW
 70
     1
  9
$SHADEDGE
 70
     3
  9
$SHADEDIF
 70
    70
  9
$TILEMODE
 70
     1
  9
$MAXACTVP
 70
    64
  9
$PINSBASE
 10
0.0
 20
0.0
 30
0.0
  9
$PLIMCHECK
 70
     0
  9
$PEXTMIN
 10
1.000000000000000E+20
 20
1.000000000000000E+20
 30
1.000000000000000E+20
  9
$PEXTMAX
 10
-1.000000000000000E+20
 20
-1.000000000000000E+20
 30
-1.000000000000000E+20
  9
$PLIMMIN
 10
0.0
 20
0.0
  9
$PLIMMAX
 10
12.0
 20
9.0
  9
$UNITMODE
 70
     0
  9
$VISRETAIN
 70
     1
  9
$PLINEGEN
 70
     0
  9
$PSLTSCALE
 70
     1
  9
$TREEDEPTH
 70
  3020
  9
$PICKSTYLE
 70
     1
  9
$CMLSTYLE
  2
STANDARD
  9
$CMLJUST
 70
     0
  9
$CMLSCALE
 40
1.0
  9
$PROXYGRAPHICS
 70
     1
  9
$MEASUREMENT
 70
     0
  0
ENDSEC
  0
SECTION
  2
CLASSES
  0
CLASS
  1
ACDBDICTIONARYWDFLT
  2
AcDbDictionaryWithDefault
  3
AutoCAD 2000
 90
        0
280
     0
281
     0
  0
CLASS
  1
ACDBPLACEHOLDER
  2
AcDbPlaceHolder
  3
AutoCAD 2000
 90
        0
280
     0
281
     0
  0
CLASS
  1
LAYOUT
  2
AcDbLayout
  3
AutoCAD 2000
 90
        0
280
     0
281
     0
  0
CLASS
  1
DICTIONARYVAR
  2
AcDbDictionaryVar
  3
AutoCAD 2000
 90
        0
280
     0
281
     0
  0
CLASS
  1
LONG_TRANSACTION
  2
AcDbLongTransaction
  3
AutoCAD 2000
 90
        0
280
     0
281
     0
  0
CLASS
  1
LWPOLYLINE
  2
AcDbPolyline
  3
AutoCAD 2000
 90
        0
280
     0
281
     1
  0
CLASS
  1
HATCH
  2
AcDbHatch
  3
AutoCAD 2000
 90
        0
280
     0
281
     1
  0
CLASS
  1
XRECORD
  2
AcDbXrecord
  3
AutoCAD 2000
 90
        0
280
     0
281
     0
  0
ENDSEC
  0
SECTION
  2
TABLES
  0
TABLE
  2
VPORT
  5
8
330
0
100
AcDbSymbolTable
 70
     3
  0
VPORT
  5
202
330
8
100
AcDbSymbolTableRecord
100
AcDbViewportTableRecord
  2
*ACTIVE
 70
     0
 10
0.0
 20
0.0
 11
1.0
 21
1.0
 12
84.50000000000001
 22
74.99999999999999
 13
0.0
 23
0.0
 14
1.0
 24
1.0
 15
0.0
 25
0.0
 16
0.0
 26
0.0
 36
1.0
 17
0.0
 27
0.0
 37
0.0
 40
151.1508951406649
 41
2.078104993597951
 42
50.0
 43
0.0
 44
0.0
 50
0.0
 51
0.0
 71
     0
 72
   100
 73
     1
 74
     3
 75
     0
 76
     0
 77
     0
 78
     0
  0
ENDTAB
  0
TABLE
  2
LTYPE
  5
5
330
0
100
AcDbSymbolTable
 70
     1
  0
LTYPE
  5
13
330
5
100
AcDbSymbolTableRecord
100
AcDbLinetypeTableRecord
  2
BYBLOCK
 70
     0
  3

 72
    65
 73
     0
 40
0.0
  0
LTYPE
  5
14
330
5
100
AcDbSymbolTableRecord
100
AcDbLinetypeTableRecord
  2
BYLAYER
 70
     0
  3

 72
    65
 73
     0
 40
0.0
  0
LTYPE
  5
15
330
5
100
AcDbSymbolTableRecord
100
AcDbLinetypeTableRecord
  2
CONTINUOUS
 70
     0
  3
Solid line
 72
    65
 73
     0
 40
0.0
  0
ENDTAB
  0
TABLE
  2
LAYER
  5
2
330
0
100
AcDbSymbolTable
 70
     1
  0
LAYER
  5
10
330
2
100
AcDbSymbolTableRecord
100
AcDbLayerTableRecord
  2
0
 70
     0
 62
     7
  6
CONTINUOUS
  0
ENDTAB
  0
TABLE
  2
STYLE
  5
3
330
0
100
AcDbSymbolTable
 70
     1
  0
STYLE
  5
11
330
3
100
AcDbSymbolTableRecord
100
AcDbTextStyleTableRecord
  2
STANDARD
 70
     0
 40
0.0
 41
1.0
 50
0.0
 71
     0
 42
0.2
  3
txt
  4

  0
ENDTAB
  0
TABLE
  2
VIEW
  5
6
330
0
100
AcDbSymbolTable
 70
     0
  0
ENDTAB
  0
TABLE
  2
UCS
  5
7
330
0
100
AcDbSymbolTable
 70
     0
  0
ENDTAB
  0
TABLE
  2
APPID
  5
9
330
0
100
AcDbSymbolTable
 70
     1
  0
APPID
  5
12
330
9
100
AcDbSymbolTableRecord
100
AcDbRegAppTableRecord
  2
ACAD
 70
     0
  0
ENDTAB
  0
TABLE
  2
DIMSTYLE
  5
A
330
0
100
AcDbSymbolTable
 70
     1
  0
DIMSTYLE
105
1D5
330
A
100
AcDbSymbolTableRecord
100
AcDbDimStyleTableRecord
  2
STANDARD
 70
     0
  3

  4

  5

  6

  7

 40
1.0
 41
0.18
 42
0.0625
 43
0.38
 44
0.18
 45
0.0
 46
0.0
 47
0.0
 48
0.0
140
0.18
141
0.09
142
0.0
143
25.4
144
1.0
145
0.0
146
1.0
147
0.09
 71
     0
 72
     0
 73
     1
 74
     1
 75
     0
 76
     0
 77
     0
 78
     0
170
     0
171
     2
172
     0
173
     0
174
     0
175
     0
176
     0
177
     0
178
     0
270
     2
271
     4
272
     4
273
     2
274
     2
340
11
275
     0
280
     0
281
     0
282
     0
283
     1
284
     0
285
     0
286
     0
287
     3
288
     0
  0
ENDTAB
  0
TABLE
  2
BLOCK_RECORD
  5
1
330
0
100
AcDbSymbolTable
 70
     0
  0
BLOCK_RECORD
  5
1E
102
{ACAD_XDICTIONARY
360
225
102
}
330
1
100
AcDbSymbolTableRecord
100
AcDbBlockTableRecord
  2
*MODEL_SPACE
  0
BLOCK_RECORD
  5
1A
102
{ACAD_XDICTIONARY
360
223
102
}
330
1
100
AcDbSymbolTableRecord
100
AcDbBlockTableRecord
  2
*PAPER_SPACE
  0
ENDTAB
  0
ENDSEC
  0
SECTION
  2
BLOCKS
  0
BLOCK
  5
1F
330
1E
100
AcDbEntity
  8
0
100
AcDbBlockBegin
  2
*MODEL_SPACE
 70
     0
 10
0.0
 20
0.0
 30
0.0
  3
*MODEL_SPACE
  1

  0
ENDBLK
  5
20
330
1E
100
AcDbEntity
  8
0
100
AcDbBlockEnd
  0
BLOCK
  5
1B
330
1A
100
AcDbEntity
 67
     1
  8
0
100
AcDbBlockBegin
  2
*PAPER_SPACE
 70
     0
 10
0.0
 20
0.0
 30
0.0
  3
*PAPER_SPACE
  1

  0
ENDBLK
  5
1C
330
1A
100
AcDbEntity
 67
     1
  8
0
100
AcDbBlockEnd
  0
ENDSEC
  0
SECTION
  2
ENTITIES
  0
LINE
  5
22
330
1E
100
AcDbEntity
  8
0
100
AcDbLine
 10
0.202677999999997
 20
8.31739999999999
 30
0.0
 11
19.797322
 21
64.02488090606929
 31
0.0
  0
LINE
  5
23
330
1E
100
AcDbEntity
  8
0
100
AcDbLine
 10
0.292377999999997
 20
8.310999999999999
 30
0.0
 11
0.817763999999997
 21
8.2918
 31
0.0
  0
LINE
  5
24
330
1E
100
AcDbEntity
  8
0
100
AcDbLine
 10
0.292377999999997
 20
8.310999999999999
 30
0.0
 11
0.817763999999997
 21
8.2918
 31
0.0
  0
LINE
  5
25
330
1E
100
AcDbEntity
  8
0
100
AcDbLine
 10
0.817763999999997
 20
8.2918
 30
0.0
 11
1.396247999999999
 21
8.302699999999999
 31
0.0
  0
LINE
  5
26
330
1E
100
AcDbEntity
  8
0
100
AcDbLine
 10
1.396247999999999
 20
8.302699999999999
 30
0.0
 11
2.203081999999999
 21
8.3757
 31
0.0
  0
LINE
  5
27
330
1E
100
AcDbEntity
  8
0
100
AcDbLine
 10
2.203081999999999
 20
8.3757
 30
0.0
 11
3.380332
 21
8.60089999999999
 31
0.0
  0
LINE
  5
28
330
1E
100
AcDbEntity
  8
0
100
AcDbLine
 10
0.202677999999997
 20
8.317399999999999
 30
0.0
 11
19.797322
 21
64.02488090606929
 31
0.0
  0
LINE
  5
29
330
1E
100
AcDbEntity
  8
0
100
AcDbLine
 10
0.202677999999997
 20
8.317399999999999
 30
0.0
 11
0.292377999999997
 21
8.310999999999999
 31
0.0
  0
LINE
  5
2A
330
1E
100
AcDbEntity
  8
0
100
AcDbLine
 10
3.380332
 20
8.60089999999999
 30
0.0
 11
4.661451999999999
 21
9.0165
 31
0.0
  0
LINE
  5
2B
330
1E
100
AcDbEntity
  8
0
100
AcDbLine
 10
5.925251999999999
 20
9.605399999999999
 30
0.0
 11
7.292932
 21
10.50599999999999
 31
0.0
  0
LINE
  5
2C
330
1E
100
AcDbEntity
  8
0
100
AcDbLine
 10
7.292932
 20
10.50599999999999
 30
0.0
 11
8.591362
 21
11.5624
 31
0.0
  0
LINE
  5
2D
330
1E
100
AcDbEntity
  8
0
100
AcDbLine
 10
8.591362
 20
11.5624
 30
0.0
 11
9.803232000000001
 21
13.0172
 31
0.0
  0
LINE
  5
2E
330
1E
100
AcDbEntity
  8
0
100
AcDbLine
 10
11.032422
 20
15.33789999999999
 30
0.0
 11
24.5175545700546
 21
53.0
 31
0.0
  0
LINE
  5
2F
330
1E
100
AcDbEntity
  8
0
100
AcDbLine
 10
10.616882
 20
14.4547
 30
0.0
 11
11.032422
 21
15.33789999999999
 31
0.0
  0
LINE
  5
30
330
1E
100
AcDbEntity
  8
0
100
AcDbLine
 10
11.032422
 20
15.33789999999999
 30
0.0
 11
24.5175545700546
 21
53.0
 31
0.0
  0
LINE
  5
31
330
1E
100
AcDbEntity
  8
0
100
AcDbLine
 10
9.803232000000001
 20
13.0172
 30
0.0
 11
10.616882
 21
14.4547
 31
0.0
  0
LINE
  5
32
330
1E
100
AcDbEntity
  8
0
100
AcDbLine
 10
4.661451999999999
 20
9.0165
 30
0.0
 11
5.925251999999999
 21
9.605399999999999
 31
0.0
  0
LINE
  5
41
330
1E
100
AcDbEntity
  8
0
100
AcDbLine
 10
51.797322
 20
53.0
 30
0.0
 11
51.797322
 21
53.792
 31
0.0
  0
LINE
  5
44
330
1E
100
AcDbEntity
  8
0
100
AcDbLine
 10
19.797322
 20
54.48022615881821
 30
0.0
 11
19.797322
 21
56.432
 31
0.0
  0
LINE
  5
45
330
1E
100
AcDbEntity
  8
0
100
AcDbLine
 10
19.797322
 20
59.86399999999999
 30
0.0
 11
19.797322
 21
75.0
 31
0.0
  0
LINE
  5
46
330
1E
100
AcDbEntity
  8
0
100
AcDbLine
 10
19.797322
 20
59.86399999999999
 30
0.0
 11
19.797322
 21
56.432
 31
0.0
  0
LINE
  5
47
330
1E
100
AcDbEntity
  8
0
100
AcDbLine
 10
19.797322
 20
56.432
 30
0.0
 11
19.797322
 21
59.86399999999999
 31
0.0
  0
LINE
  5
48
330
1E
100
AcDbEntity
  8
0
100
AcDbLine
 10
19.797322
 20
56.432
 30
0.0
 11
19.797322
 21
54.48022615881821
 31
0.0
  0
LINE
  5
49
330
1E
100
AcDbEntity
  8
0
100
AcDbLine
 10
19.797322
 20
64.02488090606929
 30
0.0
 11
19.797322
 21
64.352
 31
0.0
  0
LINE
  5
53
330
1E
100
AcDbEntity
  8
0
100
AcDbLine
 10
19.797322
 20
64.352
 30
0.0
 11
19.797322
 21
64.02488090606929
 31
0.0
  0
LINE
  5
54
330
1E
100
AcDbEntity
  8
0
100
AcDbLine
 10
19.797322
 20
75.0
 30
0.0
 11
19.797322
 21
59.86399999999999
 31
0.0
  0
LINE
  5
6C
330
1E
100
AcDbEntity
  8
0
100
AcDbLine
 10
19.797322
 20
80.54399999999999
 30
0.0
 11
19.797322
 21
85.64799999999999
 31
0.0
  0
LINE
  5
6D
330
1E
100
AcDbEntity
  8
0
100
AcDbLine
 10
19.797322
 20
80.54399999999999
 30
0.0
 11
19.797322
 21
75.0
 31
0.0
  0
LINE
  5
6F
330
1E
100
AcDbEntity
  8
0
100
AcDbLine
 10
19.797322
 20
75.0
 30
0.0
 11
19.797322
 21
80.54399999999999
 31
0.0
  0
LINE
  5
79
330
1E
100
AcDbEntity
  8
0
100
AcDbLine
 10
51.797322
 20
69.36799999999999
 30
0.0
 11
51.797322
 21
75.0
 31
0.0
  0
LINE
  5
7A
330
1E
100
AcDbEntity
  8
0
100
AcDbLine
 10
51.797322
 20
64.08800000000001
 30
0.0
 11
51.797322
 21
69.36799999999999
 31
0.0
  0
LINE
  5
7B
330
1E
100
AcDbEntity
  8
0
100
AcDbLine
 10
51.797322
 20
59.424
 30
0.0
 11
51.797322
 21
64.08800000000001
 31
0.0
  0
LINE
  5
7C
330
1E
100
AcDbEntity
  8
0
100
AcDbLine
 10
51.797322
 20
55.90399999999999
 30
0.0
 11
51.797322
 21
59.424
 31
0.0
  0
LINE
  5
7D
330
1E
100
AcDbEntity
  8
0
100
AcDbLine
 10
51.797322
 20
53.792
 30
0.0
 11
51.797322
 21
55.90399999999999
 31
0.0
  0
LINE
  5
7E
330
1E
100
AcDbEntity
  8
0
100
AcDbLine
 10
49.211822
 20
80.60450000000001
 30
0.0
 11
51.797322
 21
75.0
 31
0.0
  0
LINE
  5
81
330
1E
100
AcDbEntity
  8
0
100
AcDbLine
 10
59.79732199999999
 20
2.647059999999989
 30
0.0
 11
60.25882199999999
 21
1.411759999999989
 31
0.0
  0
LINE
  5
82
330
1E
100
AcDbEntity
  8
0
100
AcDbLine
 10
59.79732199999999
 20
2.647059999999989
 30
0.0
 11
59.79732199999999
 21
3.35293999999999
 31
0.0
  0
LINE
  5
83
330
1E
100
AcDbEntity
  8
0
100
AcDbLine
 10
59.79732199999999
 20
3.35293999999999
 30
0.0
 11
59.79732199999999
 21
5.29411999999999
 31
0.0
  0
LINE
  5
84
330
1E
100
AcDbEntity
  8
0
100
AcDbLine
 10
59.79732199999999
 20
3.35293999999999
 30
0.0
 11
59.79732199999999
 21
2.647059999999989
 31
0.0
  0
LINE
  5
85
330
1E
100
AcDbEntity
  8
0
100
AcDbLine
 10
59.79732199999999
 20
5.29411999999999
 30
0.0
 11
59.79732199999999
 21
3.35293999999999
 31
0.0
  0
LINE
  5
86
330
1E
100
AcDbEntity
  8
0
100
AcDbLine
 10
59.79732199999999
 20
5.29411999999999
 30
0.0
 11
59.79732199999999
 21
8.29411999999999
 31
0.0
  0
LINE
  5
87
330
1E
100
AcDbEntity
  8
0
100
AcDbLine
 10
59.79732199999999
 20
8.29411999999999
 30
0.0
 11
59.79732199999999
 21
5.29411999999999
 31
0.0
  0
LINE
  5
88
330
1E
100
AcDbEntity
  8
0
100
AcDbLine
 10
59.79732199999999
 20
8.29411999999999
 30
0.0
 11
59.79732199999999
 21
12.35289999999999
 31
0.0
  0
LINE
  5
89
330
1E
100
AcDbEntity
  8
0
100
AcDbLine
 10
59.79732199999999
 20
12.35289999999999
 30
0.0
 11
59.79732199999999
 21
17.6471
 31
0.0
  0
LINE
  5
8A
330
1E
100
AcDbEntity
  8
0
100
AcDbLine
 10
59.79732199999999
 20
12.35289999999999
 30
0.0
 11
59.79732199999999
 21
8.29411999999999
 31
0.0
  0
LINE
  5
8B
330
1E
100
AcDbEntity
  8
0
100
AcDbLine
 10
59.79732199999999
 20
23.91179999999999
 30
0.0
 11
59.79732199999999
 21
31.0588
 31
0.0
  0
LINE
  5
8C
330
1E
100
AcDbEntity
  8
0
100
AcDbLine
 10
59.79732199999999
 20
23.91179999999999
 30
0.0
 11
59.79732199999999
 21
17.6471
 31
0.0
  0
LINE
  5
8D
330
1E
100
AcDbEntity
  8
0
100
AcDbLine
 10
59.79732199999999
 20
31.0588
 30
0.0
 11
59.79732199999999
 21
39.0
 31
0.0
  0
LINE
  5
8E
330
1E
100
AcDbEntity
  8
0
100
AcDbLine
 10
59.79732199999999
 20
31.0588
 30
0.0
 11
59.79732199999999
 21
23.91179999999999
 31
0.0
  0
LINE
  5
8F
330
1E
100
AcDbEntity
  8
0
100
AcDbLine
 10
59.79732199999999
 20
47.3824
 30
0.0
 11
59.79732199999999
 21
39.0
 31
0.0
  0
LINE
  5
90
330
1E
100
AcDbEntity
  8
0
100
AcDbLine
 10
59.79732199999999
 20
47.3824
 30
0.0
 11
59.79732199999999
 21
54.0
 31
0.0
  0
LINE
  5
91
330
1E
100
AcDbEntity
  8
0
100
AcDbLine
 10
59.79732199999999
 20
17.6471
 30
0.0
 11
59.79732199999999
 21
12.35289999999999
 31
0.0
  0
LINE
  5
92
330
1E
100
AcDbEntity
  8
0
100
AcDbLine
 10
59.79732199999999
 20
17.6471
 30
0.0
 11
59.79732199999999
 21
23.91179999999999
 31
0.0
  0
LINE
  5
93
330
1E
100
AcDbEntity
  8
0
100
AcDbLine
 10
59.79732199999999
 20
39.0
 30
0.0
 11
59.79732199999999
 21
31.0588
 31
0.0
  0
LINE
  5
94
330
1E
100
AcDbEntity
  8
0
100
AcDbLine
 10
59.79732199999999
 20
39.0
 30
0.0
 11
59.79732199999999
 21
47.3824
 31
0.0
  0
LINE
  5
95
330
1E
100
AcDbEntity
  8
0
100
AcDbLine
 10
59.79732199999999
 20
56.2941
 30
0.0
 11
59.79732199999999
 21
65.55880000000001
 31
0.0
  0
LINE
  5
96
330
1E
100
AcDbEntity
  8
0
100
AcDbLine
 10
59.79732199999999
 20
56.79999999999999
 30
0.0
 11
59.79732199999999
 21
60.2125
 31
0.0
  0
LINE
  5
97
330
1E
100
AcDbEntity
  8
0
100
AcDbLine
 10
59.79732199999999
 20
54.7875
 30
0.0
 11
59.79732199999999
 21
56.79999999999999
 31
0.0
  0
LINE
  5
98
330
1E
100
AcDbEntity
  8
0
100
AcDbLine
 10
59.79732199999999
 20
54.0
 30
0.0
 11
59.79732199999999
 21
54.7875
 31
0.0
  0
LINE
  5
99
330
1E
100
AcDbEntity
  8
0
100
AcDbLine
 10
59.79732199999999
 20
54.0
 30
0.0
 11
59.79732199999999
 21
47.3824
 31
0.0
  0
LINE
  5
9A
330
1E
100
AcDbEntity
  8
0
100
AcDbLine
 10
59.79732199999999
 20
65.55880000000001
 30
0.0
 11
59.79732199999999
 21
56.2941
 31
0.0
  0
LINE
  5
9B
330
1E
100
AcDbEntity
  8
0
100
AcDbLine
 10
59.79732199999999
 20
60.2125
 30
0.0
 11
59.79732199999999
 21
64.58750000000001
 31
0.0
  0
LINE
  5
9C
330
1E
100
AcDbEntity
  8
0
100
AcDbLine
 10
71.797322
 20
-0.0000000000000092
 30
0.0
 11
71.797322
 21
0.7941179999999909
 31
0.0
  0
LINE
  5
9D
330
1E
100
AcDbEntity
  8
0
100
AcDbLine
 10
71.797322
 20
5.82352999999999
 30
0.0
 11
71.797322
 21
2.73528999999999
 31
0.0
  0
LINE
  5
9E
330
1E
100
AcDbEntity
  8
0
100
AcDbLine
 10
71.797322
 20
5.82352999999999
 30
0.0
 11
71.797322
 21
10.0588
 31
0.0
  0
LINE
  5
9F
330
1E
100
AcDbEntity
  8
0
100
AcDbLine
 10
71.797322
 20
2.73528999999999
 30
0.0
 11
71.797322
 21
0.7941179999999909
 31
0.0
  0
LINE
  5
A0
330
1E
100
AcDbEntity
  8
0
100
AcDbLine
 10
71.797322
 20
2.73528999999999
 30
0.0
 11
71.797322
 21
5.82352999999999
 31
0.0
  0
LINE
  5
A1
330
1E
100
AcDbEntity
  8
0
100
AcDbLine
 10
71.797322
 20
0.7941179999999909
 30
0.0
 11
71.797322
 21
-0.0000000000000091
 31
0.0
  0
LINE
  5
A2
330
1E
100
AcDbEntity
  8
0
100
AcDbLine
 10
71.797322
 20
0.7941179999999909
 30
0.0
 11
71.797322
 21
2.73528999999999
 31
0.0
  0
LINE
  5
A3
330
1E
100
AcDbEntity
  8
0
100
AcDbLine
 10
71.797322
 20
10.0588
 30
0.0
 11
71.797322
 21
15.6176
 31
0.0
  0
LINE
  5
A4
330
1E
100
AcDbEntity
  8
0
100
AcDbLine
 10
71.797322
 20
10.0588
 30
0.0
 11
71.797322
 21
5.82352999999999
 31
0.0
  0
LINE
  5
A5
330
1E
100
AcDbEntity
  8
0
100
AcDbLine
 10
71.797322
 20
15.6176
 30
0.0
 11
71.797322
 21
10.0588
 31
0.0
  0
LINE
  5
A6
330
1E
100
AcDbEntity
  8
0
100
AcDbLine
 10
71.797322
 20
15.6176
 30
0.0
 11
71.797322
 21
22.0588
 31
0.0
  0
LINE
  5
A7
330
1E
100
AcDbEntity
  8
0
100
AcDbLine
 10
71.797322
 20
22.0588
 30
0.0
 11
71.797322
 21
15.6176
 31
0.0
  0
LINE
  5
A8
330
1E
100
AcDbEntity
  8
0
100
AcDbLine
 10
71.797322
 20
22.0588
 30
0.0
 11
71.797322
 21
29.3824
 31
0.0
  0
LINE
  5
A9
330
1E
100
AcDbEntity
  8
0
100
AcDbLine
 10
61.27422199999999
 20
0.4411759999999921
 30
0.0
 11
62.566522
 21
-0.0000000000000086
 31
0.0
  0
LINE
  5
AA
330
1E
100
AcDbEntity
  8
0
100
AcDbLine
 10
61.27422199999999
 20
0.4411759999999921
 30
0.0
 11
62.566522
 21
-0.0000000000000086
 31
0.0
  0
LINE
  5
AB
330
1E
100
AcDbEntity
  8
0
100
AcDbLine
 10
60.25882199999999
 20
1.411759999999989
 30
0.0
 11
61.27422199999999
 21
0.4411759999999921
 31
0.0
  0
LINE
  5
AC
330
1E
100
AcDbEntity
  8
0
100
AcDbLine
 10
60.25882199999999
 20
1.411759999999989
 30
0.0
 11
61.27422199999999
 21
0.4411759999999921
 31
0.0
  0
LINE
  5
AD
330
1E
100
AcDbEntity
  8
0
100
AcDbLine
 10
62.566522
 20
-0.0000000000000086
 30
0.0
 11
71.797322
 21
-0.0000000000000092
 31
0.0
  0
LINE
  5
AE
330
1E
100
AcDbEntity
  8
0
100
AcDbLine
 10
59.79732199999999
 20
64.58750000000001
 30
0.0
 11
59.79732199999999
 21
69.575
 31
0.0
  0
LINE
  5
AF
330
1E
100
AcDbEntity
  8
0
100
AcDbLine
 10
59.79732199999999
 20
80.425
 30
0.0
 11
59.79732199999999
 21
85.41249999999999
 31
0.0
  0
LINE
  5
B0
330
1E
100
AcDbEntity
  8
0
100
AcDbLine
 10
59.79732199999999
 20
75.0
 30
0.0
 11
59.79732199999999
 21
80.425
 31
0.0
  0
LINE
  5
B1
330
1E
100
AcDbEntity
  8
0
100
AcDbLine
 10
59.79732199999999
 20
69.575
 30
0.0
 11
59.79732199999999
 21
75.0
 31
0.0
  0
LINE
  5
B2
330
1E
100
AcDbEntity
  8
0
100
AcDbLine
 10
51.797322
 20
54.0
 30
0.0
 11
59.79732199999999
 21
54.0
 31
0.0
  0
LINE
  5
B3
330
1E
100
AcDbEntity
  8
0
100
AcDbLine
 10
19.797322
 20
90.13600000000002
 30
0.0
 11
19.797322
 21
85.64799999999999
 31
0.0
  0
LINE
  5
B4
330
1E
100
AcDbEntity
  8
0
100
AcDbLine
 10
19.797322
 20
90.13600000000002
 30
0.0
 11
19.797322
 21
93.56799999999999
 31
0.0
  0
LINE
  5
B9
330
1E
100
AcDbEntity
  8
0
100
AcDbLine
 10
46.812822
 20
85.87940000000001
 30
0.0
 11
49.211822
 21
80.60450000000001
 31
0.0
  0
LINE
  5
BA
330
1E
100
AcDbEntity
  8
0
100
AcDbLine
 10
44.773822
 20
90.555
 30
0.0
 11
46.812822
 21
85.87940000000001
 31
0.0
  0
LINE
  5
BB
330
1E
100
AcDbEntity
  8
0
100
AcDbLine
 10
43.09452199999999
 20
94.031
 30
0.0
 11
44.773822
 21
90.555
 31
0.0
  0
LINE
  5
BE
330
1E
100
AcDbEntity
  8
0
100
AcDbLine
 10
19.797322
 20
93.56799999999999
 30
0.0
 11
19.797322
 21
95.68000000000001
 31
0.0
  0
LINE
  5
BF
330
1E
100
AcDbEntity
  8
0
100
AcDbLine
 10
19.797322
 20
85.64799999999999
 30
0.0
 11
19.797322
 21
90.13600000000002
 31
0.0
  0
LINE
  5
C0
330
1E
100
AcDbEntity
  8
0
100
AcDbLine
 10
19.797322
 20
85.64799999999999
 30
0.0
 11
19.797322
 21
80.54399999999999
 31
0.0
  0
LINE
  5
C1
330
1E
100
AcDbEntity
  8
0
100
AcDbLine
 10
59.79732199999999
 20
93.70589999999999
 30
0.0
 11
59.79732199999999
 21
95.2125
 31
0.0
  0
LINE
  5
C2
330
1E
100
AcDbEntity
  8
0
100
AcDbLine
 10
59.79732199999999
 20
93.70589999999999
 30
0.0
 11
59.79732199999999
 21
102.6179999999999
 31
0.0
  0
LINE
  5
C3
330
1E
100
AcDbEntity
  8
0
100
AcDbLine
 10
59.79732199999999
 20
85.41249999999999
 30
0.0
 11
59.79732199999999
 21
102.6179999999999
 31
0.0
  0
LINE
  5
C4
330
1E
100
AcDbEntity
  8
0
100
AcDbLine
 10
19.797322
 20
95.68000000000001
 30
0.0
 11
19.797322
 21
96.47200000000001
 31
0.0
  0
LINE
  5
C5
330
1E
100
AcDbEntity
  8
0
100
AcDbLine
 10
19.797322
 20
95.68000000000001
 30
0.0
 11
19.797322
 21
93.56799999999999
 31
0.0
  0
LINE
  5
C6
330
1E
100
AcDbEntity
  8
0
100
AcDbLine
 10
42.631082822579
 20
95.07320690378771
 30
0.0
 11
44.95732199999999
 21
95.5625
 31
0.0
  0
LINE
  5
C7
330
1E
100
AcDbEntity
  8
0
100
AcDbLine
 10
44.95732199999999
 20
95.5625
 30
0.0
 11
48.59732199999999
 21
96.0
 31
0.0
  0
LINE
  5
C9
330
1E
100
AcDbEntity
  8
0
100
AcDbLine
 10
20.39732199999999
 20
97.0
 30
0.0
 11
41.79732199999999
 21
97.0
 31
0.0
  0
LINE
  5
CA
330
1E
100
AcDbEntity
  8
0
100
AcDbLine
 10
41.79732199999999
 20
97.0
 30
0.0
 11
42.134922
 21
96.189
 31
0.0
  0
LINE
  5
CB
330
1E
100
AcDbEntity
  8
0
100
AcDbLine
 10
19.797322
 20
96.47200000000001
 30
0.0
 11
20.39732199999999
 21
97.0
 31
0.0
  0
LINE
  5
CC
330
1E
100
AcDbEntity
  8
0
100
AcDbLine
 10
19.797322
 20
96.47200000000001
 30
0.0
 11
19.797322
 21
95.68000000000001
 31
0.0
  0
LINE
  5
CD
330
1E
100
AcDbEntity
  8
0
100
AcDbLine
 10
20.39732199999999
 20
97.0
 30
0.0
 11
41.79732199999999
 21
97.0
 31
0.0
  0
LINE
  5
CF
330
1E
100
AcDbEntity
  8
0
100
AcDbLine
 10
42.134922
 20
96.189
 30
0.0
 11
42.631082822579
 21
95.07320690378771
 31
0.0
  0
LINE
  5
D0
330
1E
100
AcDbEntity
  8
0
100
AcDbLine
 10
42.134922
 20
96.189
 30
0.0
 11
43.09452199999999
 21
94.031
 31
0.0
  0
LINE
  5
D1
330
1E
100
AcDbEntity
  8
0
100
AcDbLine
 10
59.79732199999999
 20
102.6179999999999
 30
0.0
 11
59.79732199999999
 21
111.0
 31
0.0
  0
LINE
  5
D2
330
1E
100
AcDbEntity
  8
0
100
AcDbLine
 10
59.79732199999999
 20
102.6179999999999
 30
0.0
 11
59.79732199999999
 21
93.70589999999999
 31
0.0
  0
LINE
  5
D3
330
1E
100
AcDbEntity
  8
0
100
AcDbLine
 10
59.79732199999999
 20
111.0
 30
0.0
 11
59.79732199999999
 21
118.941
 31
0.0
  0
LINE
  5
D4
330
1E
100
AcDbEntity
  8
0
100
AcDbLine
 10
59.79732199999999
 20
111.0
 30
0.0
 11
59.79732199999999
 21
102.6179999999999
 31
0.0
  0
LINE
  5
D5
330
1E
100
AcDbEntity
  8
0
100
AcDbLine
 10
48.59732199999999
 20
96.0
 30
0.0
 11
59.79732199999999
 21
96.0
 31
0.0
  0
LINE
  5
D6
330
1E
100
AcDbEntity
  8
0
100
AcDbLine
 10
59.79732199999999
 20
95.2125
 30
0.0
 11
59.79732199999999
 21
96.0
 31
0.0
  0
LINE
  5
D7
330
1E
100
AcDbEntity
  8
0
100
AcDbLine
 10
71.797322
 20
29.3824
 30
0.0
 11
71.797322
 21
37.67649999999999
 31
0.0
  0
LINE
  5
D8
330
1E
100
AcDbEntity
  8
0
100
AcDbLine
 10
71.797322
 20
37.67649999999999
 30
0.0
 11
71.797322
 21
29.3824
 31
0.0
  0
LINE
  5
D9
330
1E
100
AcDbEntity
  8
0
100
AcDbLine
 10
71.797322
 20
37.67649999999999
 30
0.0
 11
71.797322
 21
46.3235
 31
0.0
  0
LINE
  5
DA
330
1E
100
AcDbEntity
  8
0
100
AcDbLine
 10
71.797322
 20
46.3235
 30
0.0
 11
71.797322
 21
37.67649999999999
 31
0.0
  0
LINE
  5
DB
330
1E
100
AcDbEntity
  8
0
100
AcDbLine
 10
71.797322
 20
46.3235
 30
0.0
 11
71.797322
 21
55.6765
 31
0.0
  0
LINE
  5
DC
330
1E
100
AcDbEntity
  8
0
100
AcDbLine
 10
71.797322
 20
55.6765
 30
0.0
 11
71.797322
 21
46.3235
 31
0.0
  0
LINE
  5
DD
330
1E
100
AcDbEntity
  8
0
100
AcDbLine
 10
71.797322
 20
55.6765
 30
0.0
 11
71.797322
 21
65.2059
 31
0.0
  0
LINE
  5
DE
330
1E
100
AcDbEntity
  8
0
100
AcDbLine
 10
71.797322
 20
65.2059
 30
0.0
 11
71.797322
 21
55.6765
 31
0.0
  0
LINE
  5
DF
330
1E
100
AcDbEntity
  8
0
100
AcDbLine
 10
71.797322
 20
65.2059
 30
0.0
 11
71.797322
 21
75.0
 31
0.0
  0
LINE
  5
E0
330
1E
100
AcDbEntity
  8
0
100
AcDbLine
 10
71.797322
 20
75.0
 30
0.0
 11
71.797322
 21
84.79409999999999
 31
0.0
  0
LINE
  5
E1
330
1E
100
AcDbEntity
  8
0
100
AcDbLine
 10
71.797322
 20
75.0
 30
0.0
 11
71.797322
 21
65.2059
 31
0.0
  0
LINE
  5
E2
330
1E
100
AcDbEntity
  8
0
100
AcDbLine
 10
71.797322
 20
103.676
 30
0.0
 11
71.797322
 21
94.32349999999999
 31
0.0
  0
LINE
  5
E3
330
1E
100
AcDbEntity
  8
0
100
AcDbLine
 10
71.797322
 20
103.676
 30
0.0
 11
71.797322
 21
112.324
 31
0.0
  0
LINE
  5
E4
330
1E
100
AcDbEntity
  8
0
100
AcDbLine
 10
71.797322
 20
94.32349999999999
 30
0.0
 11
71.797322
 21
84.79409999999999
 31
0.0
  0
LINE
  5
E5
330
1E
100
AcDbEntity
  8
0
100
AcDbLine
 10
71.797322
 20
94.32349999999999
 30
0.0
 11
71.797322
 21
103.676
 31
0.0
  0
LINE
  5
E6
330
1E
100
AcDbEntity
  8
0
100
AcDbLine
 10
71.797322
 20
84.79409999999999
 30
0.0
 11
71.797322
 21
75.0
 31
0.0
  0
LINE
  5
E7
330
1E
100
AcDbEntity
  8
0
100
AcDbLine
 10
71.797322
 20
84.79409999999999
 30
0.0
 11
71.797322
 21
94.32349999999999
 31
0.0
  0
LINE
  5
E9
330
1E
100
AcDbEntity
  8
0
100
AcDbLine
 10
59.79732199999999
 20
118.941
 30
0.0
 11
59.79732199999999
 21
126.088
 31
0.0
  0
LINE
  5
EA
330
1E
100
AcDbEntity
  8
0
100
AcDbLine
 10
59.79732199999999
 20
118.941
 30
0.0
 11
59.79732199999999
 21
111.0
 31
0.0
  0
LINE
  5
EB
330
1E
100
AcDbEntity
  8
0
100
AcDbLine
 10
59.79732199999999
 20
132.3529999999999
 30
0.0
 11
59.79732199999999
 21
137.647
 31
0.0
  0
LINE
  5
EC
330
1E
100
AcDbEntity
  8
0
100
AcDbLine
 10
59.79732199999999
 20
132.3529999999999
 30
0.0
 11
59.79732199999999
 21
126.088
 31
0.0
  0
LINE
  5
ED
330
1E
100
AcDbEntity
  8
0
100
AcDbLine
 10
59.79732199999999
 20
144.706
 30
0.0
 11
59.79732199999999
 21
146.647
 31
0.0
  0
LINE
  5
EE
330
1E
100
AcDbEntity
  8
0
100
AcDbLine
 10
59.79732199999999
 20
144.706
 30
0.0
 11
59.79732199999999
 21
141.706
 31
0.0
  0
LINE
  5
EF
330
1E
100
AcDbEntity
  8
0
100
AcDbLine
 10
59.79732199999999
 20
141.706
 30
0.0
 11
59.79732199999999
 21
144.706
 31
0.0
  0
LINE
  5
F0
330
1E
100
AcDbEntity
  8
0
100
AcDbLine
 10
59.79732199999999
 20
141.706
 30
0.0
 11
59.79732199999999
 21
137.647
 31
0.0
  0
LINE
  5
F1
330
1E
100
AcDbEntity
  8
0
100
AcDbLine
 10
59.79732199999999
 20
146.647
 30
0.0
 11
59.79732199999999
 21
147.3529999999999
 31
0.0
  0
LINE
  5
F2
330
1E
100
AcDbEntity
  8
0
100
AcDbLine
 10
59.79732199999999
 20
146.647
 30
0.0
 11
59.79732199999999
 21
144.706
 31
0.0
  0
LINE
  5
F3
330
1E
100
AcDbEntity
  8
0
100
AcDbLine
 10
59.79732199999999
 20
147.3529999999999
 30
0.0
 11
59.79732199999999
 21
146.647
 31
0.0
  0
LINE
  5
F4
330
1E
100
AcDbEntity
  8
0
100
AcDbLine
 10
59.79732199999999
 20
147.3529999999999
 30
0.0
 11
60.25882199999999
 21
148.5879999999999
 31
0.0
  0
LINE
  5
F5
330
1E
100
AcDbEntity
  8
0
100
AcDbLine
 10
59.79732199999999
 20
137.647
 30
0.0
 11
59.79732199999999
 21
132.3529999999999
 31
0.0
  0
LINE
  5
F6
330
1E
100
AcDbEntity
  8
0
100
AcDbLine
 10
59.79732199999999
 20
137.647
 30
0.0
 11
59.79732199999999
 21
141.706
 31
0.0
  0
LINE
  5
F7
330
1E
100
AcDbEntity
  8
0
100
AcDbLine
 10
71.797322
 20
147.2649999999999
 30
0.0
 11
71.797322
 21
144.176
 31
0.0
  0
LINE
  5
F8
330
1E
100
AcDbEntity
  8
0
100
AcDbLine
 10
71.797322
 20
147.2649999999999
 30
0.0
 11
71.797322
 21
149.206
 31
0.0
  0
LINE
  5
F9
330
1E
100
AcDbEntity
  8
0
100
AcDbLine
 10
71.797322
 20
149.206
 30
0.0
 11
71.797322
 21
147.2649999999999
 31
0.0
  0
LINE
  5
FA
330
1E
100
AcDbEntity
  8
0
100
AcDbLine
 10
71.797322
 20
149.206
 30
0.0
 11
71.797322
 21
150.0
 31
0.0
  0
LINE
  5
FB
330
1E
100
AcDbEntity
  8
0
100
AcDbLine
 10
71.797322
 20
144.176
 30
0.0
 11
71.797322
 21
139.941
 31
0.0
  0
LINE
  5
FC
330
1E
100
AcDbEntity
  8
0
100
AcDbLine
 10
71.797322
 20
144.176
 30
0.0
 11
71.797322
 21
147.2649999999999
 31
0.0
  0
LINE
  5
FD
330
1E
100
AcDbEntity
  8
0
100
AcDbLine
 10
71.797322
 20
139.941
 30
0.0
 11
71.797322
 21
134.382
 31
0.0
  0
LINE
  5
FE
330
1E
100
AcDbEntity
  8
0
100
AcDbLine
 10
71.797322
 20
139.941
 30
0.0
 11
71.797322
 21
144.176
 31
0.0
  0
LINE
  5
FF
330
1E
100
AcDbEntity
  8
0
100
AcDbLine
 10
71.797322
 20
127.941
 30
0.0
 11
71.797322
 21
120.618
 31
0.0
  0
LINE
  5
100
330
1E
100
AcDbEntity
  8
0
100
AcDbLine
 10
71.797322
 20
127.941
 30
0.0
 11
71.797322
 21
134.382
 31
0.0
  0
LINE
  5
101
330
1E
100
AcDbEntity
  8
0
100
AcDbLine
 10
71.797322
 20
120.618
 30
0.0
 11
71.797322
 21
112.324
 31
0.0
  0
LINE
  5
102
330
1E
100
AcDbEntity
  8
0
100
AcDbLine
 10
71.797322
 20
120.618
 30
0.0
 11
71.797322
 21
127.941
 31
0.0
  0
LINE
  5
103
330
1E
100
AcDbEntity
  8
0
100
AcDbLine
 10
71.797322
 20
134.382
 30
0.0
 11
71.797322
 21
127.941
 31
0.0
  0
LINE
  5
104
330
1E
100
AcDbEntity
  8
0
100
AcDbLine
 10
71.797322
 20
134.382
 30
0.0
 11
71.797322
 21
139.941
 31
0.0
  0
LINE
  5
105
330
1E
100
AcDbEntity
  8
0
100
AcDbLine
 10
71.797322
 20
150.0
 30
0.0
 11
71.797322
 21
149.206
 31
0.0
  0
LINE
  5
106
330
1E
100
AcDbEntity
  8
0
100
AcDbLine
 10
61.27422199999999
 20
149.5589999999999
 30
0.0
 11
62.566522
 21
150.0
 31
0.0
  0
LINE
  5
107
330
1E
100
AcDbEntity
  8
0
100
AcDbLine
 10
60.25882199999999
 20
148.5879999999999
 30
0.0
 11
61.27422199999999
 21
149.5589999999999
 31
0.0
  0
LINE
  5
108
330
1E
100
AcDbEntity
  8
0
100
AcDbLine
 10
62.566522
 20
150.0
 30
0.0
 11
71.797322
 21
150.0
 31
0.0
  0
LINE
  5
109
330
1E
100
AcDbEntity
  8
0
100
AcDbLine
 10
59.79732199999999
 20
126.088
 30
0.0
 11
59.79732199999999
 21
118.941
 31
0.0
  0
LINE
  5
10A
330
1E
100
AcDbEntity
  8
0
100
AcDbLine
 10
59.79732199999999
 20
126.088
 30
0.0
 11
59.79732199999999
 21
132.3529999999999
 31
0.0
  0
LINE
  5
10B
330
1E
100
AcDbEntity
  8
0
100
AcDbLine
 10
71.797322
 20
112.324
 30
0.0
 11
71.797322
 21
103.676
 31
0.0
  0
LINE
  5
10C
330
1E
100
AcDbEntity
  8
0
100
AcDbLine
 10
71.797322
 20
112.324
 30
0.0
 11
71.797322
 21
120.618
 31
0.0
  0
LINE
  5
1D9
330
1E
100
AcDbEntity
  8
0
100
AcDbLine
 10
51.797322
 20
53.0
 30
0.0
 11
24.5175545700546
 21
53.0
 31
0.0
  0
LINE
  5
1DA
330
1E
100
AcDbEntity
  8
0
100
AcDbLine
 10
24.5175545700546
 20
53.0
 30
0.0
 11
19.797322
 21
54.48022615881821
 31
0.0
  0
ENDSEC
  0
SECTION
  2
OBJECTS
  0
DICTIONARY
  5
C
330
0
100
AcDbDictionary
  3
ACAD_GROUP
350
D
  3
ACAD_LAYOUT
350
19
  3
ACAD_MLINESTYLE
350
16
  3
ACAD_PLOTSETTINGS
350
18
  3
ACAD_PLOTSTYLENAME
350
E
  3
ACDBHEADERROUNDTRIPXREC
350
203
  3
ACDBVARIABLEDICTIONARY
350
1DB
  0
DICTIONARY
  5
225
330
1E
100
AcDbDictionary
280
     1
  3
ACAD_LAYOUTSELFREF
360
226
  0
DICTIONARY
  5
223
330
1A
100
AcDbDictionary
280
     1
  3
ACAD_LAYOUTSELFREF
360
224
  0
DICTIONARY
  5
D
102
{ACAD_REACTORS
330
C
102
}
330
C
100
AcDbDictionary
  0
DICTIONARY
  5
19
102
{ACAD_REACTORS
330
C
102
}
330
C
100
AcDbDictionary
  0
DICTIONARY
  5
16
102
{ACAD_REACTORS
330
C
102
}
330
C
100
AcDbDictionary
  3
STANDARD
350
17
  0
DICTIONARY
  5
18
102
{ACAD_REACTORS
330
C
102
}
330
C
100
AcDbDictionary
  0
ACDBDICTIONARYWDFLT
  5
E
102
{ACAD_REACTORS
330
C
102
}
330
C
100
AcDbDictionary
281
     1
  3
Normal
350
F
100
AcDbDictionaryWithDefault
340
F
  0
DICTIONARY
  5
203
102
{ACAD_REACTORS
330
C
102
}
330
C
100
AcDbDictionary
  3
CEPSNTYPE
350
20D
  3
FINGERPRINTGUID
350
20E
  3
HYPERLINKBASE
350
206
  3
INSUNITS
350
20C
  3
LAYOUTDICT
350
208
  3
LWETCUNION
350
20B
  3
PLOTSETDICT
350
209
  3
PLOTSTYLNAMDICT
350
20A
  3
PSVPSCALE
350
210
  3
PUCSBASE
350
213
  3
PUCSORGBACK
350
219
  3
PUCSORGBOTTOM
350
215
  3
PUCSORGFRONT
350
218
  3
PUCSORGLEFT
350
216
  3
PUCSORGRIGHT
350
217
  3
PUCSORGTOP
350
214
  3
PUCSORTHOREF
350
211
  3
PUCSORTHOVIEW
350
212
  3
STYLESHEET
350
207
  3
TSTACKALIGN
350
204
  3
TSTACKSIZE
350
205
  3
UCSBASE
350
21C
  3
UCSORGBACK
350
222
  3
UCSORGBOTTOM
350
21E
  3
UCSORGFRONT
350
221
  3
UCSORGLEFT
350
21F
  3
UCSORGRIGHT
350
220
  3
UCSORGTOP
350
21D
  3
UCSORTHOREF
350
21A
  3
UCSORTHOVIEW
350
21B
  3
VERSIONGUID
350
20F
  0
DICTIONARY
  5
1DB
102
{ACAD_REACTORS
330
C
102
}
330
C
100
AcDbDictionary
  3
DIMASSOC
350
1DC
  0
XRECORD
  5
226
102
{ACAD_REACTORS
330
225
102
}
330
225
100
AcDbXrecord
340
1E
  0
XRECORD
  5
224
102
{ACAD_REACTORS
330
223
102
}
330
223
100
AcDbXrecord
340
1A
  0
MLINESTYLE
  5
17
102
{ACAD_REACTORS
330
16
102
}
330
16
100
AcDbMlineStyle
  2
STANDARD
 70
     0
  3

 62
   256
 51
90.0
 52
90.0
 71
     2
 49
0.5
 62
   256
  6
BYLAYER
 49
-0.5
 62
   256
  6
BYLAYER
  0
ACDBPLACEHOLDER
  5
F
102
{ACAD_REACTORS
330
E
102
}
330
E
100
AcDbPlaceHolder
280
     0
  0
XRECORD
  5
20D
102
{ACAD_REACTORS
330
203
102
}
330
203
100
AcDbXrecord
 90
        0
  0
XRECORD
  5
20E
102
{ACAD_REACTORS
330
203
102
}
330
203
100
AcDbXrecord
  1
{1BCC8D5D-88F5-4467-8215-F8C1AD57E66A}
  0
XRECORD
  5
206
102
{ACAD_REACTORS
330
203
102
}
330
203
100
AcDbXrecord
  1

  0
XRECORD
  5
20C
102
{ACAD_REACTORS
330
203
102
}
330
203
100
AcDbXrecord
 90
        0
  0
XRECORD
  5
208
102
{ACAD_REACTORS
330
203
102
}
330
203
100
AcDbXrecord
340
19
  0
XRECORD
  5
20B
102
{ACAD_REACTORS
330
203
102
}
330
203
100
AcDbXrecord
 90
    10781
  0
XRECORD
  5
209
102
{ACAD_REACTORS
330
203
102
}
330
203
100
AcDbXrecord
340
18
  0
XRECORD
  5
20A
102
{ACAD_REACTORS
330
203
102
}
330
203
100
AcDbXrecord
340
E
  0
XRECORD
  5
210
102
{ACAD_REACTORS
330
203
102
}
330
203
100
AcDbXrecord
 40
0.0
  0
XRECORD
  5
213
102
{ACAD_REACTORS
330
203
102
}
330
203
100
AcDbXrecord
340
0
  0
XRECORD
  5
219
102
{ACAD_REACTORS
330
203
102
}
330
203
100
AcDbXrecord
 10
0.0
 20
0.0
 30
0.0
  0
XRECORD
  5
215
102
{ACAD_REACTORS
330
203
102
}
330
203
100
AcDbXrecord
 10
0.0
 20
0.0
 30
0.0
  0
XRECORD
  5
218
102
{ACAD_REACTORS
330
203
102
}
330
203
100
AcDbXrecord
 10
0.0
 20
0.0
 30
0.0
  0
XRECORD
  5
216
102
{ACAD_REACTORS
330
203
102
}
330
203
100
AcDbXrecord
 10
0.0
 20
0.0
 30
0.0
  0
XRECORD
  5
217
102
{ACAD_REACTORS
330
203
102
}
330
203
100
AcDbXrecord
 10
0.0
 20
0.0
 30
0.0
  0
XRECORD
  5
214
102
{ACAD_REACTORS
330
203
102
}
330
203
100
AcDbXrecord
 10
0.0
 20
0.0
 30
0.0
  0
XRECORD
  5
211
102
{ACAD_REACTORS
330
203
102
}
330
203
100
AcDbXrecord
340
0
  0
XRECORD
  5
212
102
{ACAD_REACTORS
330
203
102
}
330
203
100
AcDbXrecord
 70
     0
  0
XRECORD
  5
207
102
{ACAD_REACTORS
330
203
102
}
330
203
100
AcDbXrecord
  1

  0
XRECORD
  5
204
102
{ACAD_REACTORS
330
203
102
}
330
203
100
AcDbXrecord
 90
        1
  0
XRECORD
  5
205
102
{ACAD_REACTORS
330
203
102
}
330
203
100
AcDbXrecord
 90
       70
  0
XRECORD
  5
21C
102
{ACAD_REACTORS
330
203
102
}
330
203
100
AcDbXrecord
340
0
  0
XRECORD
  5
222
102
{ACAD_REACTORS
330
203
102
}
330
203
100
AcDbXrecord
 10
0.0
 20
0.0
 30
0.0
  0
XRECORD
  5
21E
102
{ACAD_REACTORS
330
203
102
}
330
203
100
AcDbXrecord
 10
0.0
 20
0.0
 30
0.0
  0
XRECORD
  5
221
102
{ACAD_REACTORS
330
203
102
}
330
203
100
AcDbXrecord
 10
0.0
 20
0.0
 30
0.0
  0
XRECORD
  5
21F
102
{ACAD_REACTORS
330
203
102
}
330
203
100
AcDbXrecord
 10
0.0
 20
0.0
 30
0.0
  0
XRECORD
  5
220
102
{ACAD_REACTORS
330
203
102
}
330
203
100
AcDbXrecord
 10
0.0
 20
0.0
 30
0.0
  0
XRECORD
  5
21D
102
{ACAD_REACTORS
330
203
102
}
330
203
100
AcDbXrecord
 10
0.0
 20
0.0
 30
0.0
  0
XRECORD
  5
21A
102
{ACAD_REACTORS
330
203
102
}
330
203
100
AcDbXrecord
340
0
  0
XRECORD
  5
21B
102
{ACAD_REACTORS
330
203
102
}
330
203
100
AcDbXrecord
 70
     1
  0
XRECORD
  5
20F
102
{ACAD_REACTORS
330
203
102
}
330
203
100
AcDbXrecord
  1
{E9B848E1-8746-4022-92D3-B8426BBFDAAE}
  0
DICTIONARYVAR
  5
1DC
102
{ACAD_REACTORS
330
1DB
102
}
330
1DB
100
DictionaryVariables
280
     0
  1
1
  0
ENDSEC
  0
EOF
