  0
SECTION
  2
HEADER
  9
$ACADVER
  1
AC1014
  9
$ACADMAINTVER
 70
     9
  9
$DWGCODEPAGE
  3
ANSI_1252
  9
$INSBASE
 10
0.0
 20
0.0
 30
0.0
  9
$EXTMIN
 10
0.202677999999997
 20
-0.0000000000000092
 30
0.0
  9
$EXTMAX
 10
168.797322
 20
150.0
 30
0.0
  9
$LIMMIN
 10
0.0
 20
0.0
  9
$LIMMAX
 10
12.0
 20
9.0
  9
$ORTHOMODE
 70
     0
  9
$REGENMODE
 70
     1
  9
$FILLMODE
 70
     1
  9
$QTEXTMODE
 70
     0
  9
$MIRRTEXT
 70
     1
  9
$DRAGMODE
 70
     2
  9
$LTSCALE
 40
1.0
  9
$OSMODE
 70
    37
  9
$ATTMODE
 70
     1
  9
$TEXTSIZE
 40
0.2
  9
$TRACEWID
 40
0.05
  9
$TEXTSTYLE
  7
STANDARD
  9
$CLAYER
  8
0
  9
$CELTYPE
  6
CONTINUOUS
  9
$CECOLOR
 62
   256
  9
$CELTSCALE
 40
1.0
  9
$DELOBJ
 70
     1
  9
$DISPSILH
 70
     0
  9
$DIMSCALE
 40
1.0
  9
$DIMASZ
 40
0.18
  9
$DIMEXO
 40
0.0625
  9
$DIMDLI
 40
0.38
  9
$DIMRND
 40
0.0
  9
$DIMDLE
 40
0.0
  9
$DIMEXE
 40
0.18
  9
$DIMTP
 40
0.0
  9
$DIMTM
 40
0.0
  9
$DIMTXT
 40
0.18
  9
$DIMCEN
 40
0.09
  9
$DIMTSZ
 40
0.0
  9
$DIMTOL
 70
     0
  9
$DIMLIM
 70
     0
  9
$DIMTIH
 70
     1
  9
$DIMTOH
 70
     1
  9
$DIMSE1
 70
     0
  9
$DIMSE2
 70
     0
  9
$DIMTAD
 70
     0
  9
$DIMZIN
 70
     0
  9
$DIMBLK
  1

  9
$DIMASO
 70
     1
  9
$DIMSHO
 70
     1
  9
$DIMPOST
  1

  9
$DIMAPOST
  1

  9
$DIMALT
 70
     0
  9
$DIMALTD
 70
     2
  9
$DIMALTF
 40
25.4
  9
$DIMLFAC
 40
1.0
  9
$DIMTOFL
 70
     0
  9
$DIMTVP
 40
0.0
  9
$DIMTIX
 70
     0
  9
$DIMSOXD
 70
     0
  9
$DIMSAH
 70
     0
  9
$DIMBLK1
  1

  9
$DIMBLK2
  1

  9
$DIMSTYLE
  2
STANDARD
  9
$DIMCLRD
 70
     0
  9
$DIMCLRE
 70
     0
  9
$DIMCLRT
 70
     0
  9
$DIMTFAC
 40
1.0
  9
$DIMGAP
 40
0.09
  9
$DIMJUST
 70
     0
  9
$DIMSD1
 70
     0
  9
$DIMSD2
 70
     0
  9
$DIMTOLJ
 70
     1
  9
$DIMTZIN
 70
     0
  9
$DIMALTZ
 70
     0
  9
$DIMALTTZ
 70
     0
  9
$DIMFIT
 70
     3
  9
$DIMUPT
 70
     0
  9
$DIMUNIT
 70
     2
  9
$DIMDEC
 70
     4
  9
$DIMTDEC
 70
     4
  9
$DIMALTU
 70
     2
  9
$DIMALTTD
 70
     2
  9
$DIMTXSTY
  7
STANDARD
  9
$DIMAUNIT
 70
     0
  9
$LUNITS
 70
     2
  9
$LUPREC
 70
     4
  9
$SKETCHINC
 40
0.1
  9
$FILLETRAD
 40
0.0
  9
$AUNITS
 70
     0
  9
$AUPREC
 70
     0
  9
$MENU
  1
.
  9
$ELEVATION
 40
0.0
  9
$PELEVATION
 40
0.0
  9
$THICKNESS
 40
0.0
  9
$LIMCHECK
 70
     0
  9
$BLIPMODE
 70
     0
  9
$CHAMFERA
 40
0.0
  9
$CHAMFERB
 40
0.0
  9
$CHAMFERC
 40
0.0
  9
$CHAMFERD
 40
0.0
  9
$SKPOLY
 70
     0
  9
$TDCREATE
 40
2454697.327937997
  9
$TDUPDATE
 40
2454697.329196134
  9
$TDINDWG
 40
0.0012586806
  9
$TDUSRTIMER
 40
0.0012586806
  9
$USRTIMER
 70
     1
  9
$ANGBASE
 50
0.0
  9
$ANGDIR
 70
     0
  9
$PDMODE
 70
     0
  9
$PDSIZE
 40
0.0
  9
$PLINEWID
 40
0.0
  9
$COORDS
 70
     1
  9
$SPLFRAME
 70
     0
  9
$SPLINETYPE
 70
     6
  9
$SPLINESEGS
 70
     8
  9
$ATTDIA
 70
     0
  9
$ATTREQ
 70
     1
  9
$HANDLING
 70
 22529
  9
$HANDSEED
  5
202
  9
$SURFTAB1
 70
     6
  9
$SURFTAB2
 70
     6
  9
$SURFTYPE
 70
     6
  9
$SURFU
 70
     6
  9
$SURFV
 70
     6
  9
$UCSNAME
  2

  9
$UCSORG
 10
0.0
 20
0.0
 30
0.0
  9
$UCSXDIR
 10
1.0
 20
0.0
 30
0.0
  9
$UCSYDIR
 10
0.0
 20
1.0
 30
0.0
  9
$PUCSNAME
  2

  9
$PUCSORG
 10
0.0
 20
0.0
 30
0.0
  9
$PUCSXDIR
 10
1.0
 20
0.0
 30
0.0
  9
$PUCSYDIR
 10
0.0
 20
1.0
 30
0.0
  9
$USERI1
 70
     0
  9
$USERI2
 70
     0
  9
$USERI3
 70
     0
  9
$USERI4
 70
     0
  9
$USERI5
 70
     0
  9
$USERR1
 40
0.0
  9
$USERR2
 40
0.0
  9
$USERR3
 40
0.0
  9
$USERR4
 40
0.0
  9
$USERR5
 40
0.0
  9
$WORLDVIEW
 70
     1
  9
$SHADEDGE
 70
     3
  9
$SHADEDIF
 70
    70
  9
$TILEMODE
 70
     1
  9
$MAXACTVP
 70
    64
  9
$PINSBASE
 10
0.0
 20
0.0
 30
0.0
  9
$PLIMCHECK
 70
     0
  9
$PEXTMIN
 10
1.000000000000000E+20
 20
1.000000000000000E+20
 30
1.000000000000000E+20
  9
$PEXTMAX
 10
-1.000000000000000E+20
 20
-1.000000000000000E+20
 30
-1.000000000000000E+20
  9
$PLIMMIN
 10
0.0
 20
0.0
  9
$PLIMMAX
 10
12.0
 20
9.0
  9
$UNITMODE
 70
     0
  9
$VISRETAIN
 70
     1
  9
$PLINEGEN
 70
     0
  9
$PSLTSCALE
 70
     1
  9
$TREEDEPTH
 70
  3020
  9
$PICKSTYLE
 70
     1
  9
$CMLSTYLE
  2
STANDARD
  9
$CMLJUST
 70
     0
  9
$CMLSCALE
 40
1.0
  9
$PROXYGRAPHICS
 70
     1
  9
$MEASUREMENT
 70
     0
  0
ENDSEC
  0
SECTION
  2
CLASSES
  0
CLASS
  1
ACDBDICTIONARYWDFLT
  2
AcDbDictionaryWithDefault
  3
AutoCAD 2000
 90
        0
280
     0
281
     0
  0
CLASS
  1
ACDBPLACEHOLDER
  2
AcDbPlaceHolder
  3
AutoCAD 2000
 90
        0
280
     0
281
     0
  0
CLASS
  1
LAYOUT
  2
AcDbLayout
  3
AutoCAD 2000
 90
        0
280
     0
281
     0
  0
CLASS
  1
DICTIONARYVAR
  2
AcDbDictionaryVar
  3
AutoCAD 2000
 90
        0
280
     0
281
     0
  0
CLASS
  1
LONG_TRANSACTION
  2
AcDbLongTransaction
  3
AutoCAD 2000
 90
        0
280
     0
281
     0
  0
CLASS
  1
LWPOLYLINE
  2
AcDbPolyline
  3
AutoCAD 2000
 90
        0
280
     0
281
     1
  0
CLASS
  1
HATCH
  2
AcDbHatch
  3
AutoCAD 2000
 90
        0
280
     0
281
     1
  0
CLASS
  1
XRECORD
  2
AcDbXrecord
  3
AutoCAD 2000
 90
        0
280
     0
281
     0
  0
ENDSEC
  0
SECTION
  2
TABLES
  0
TABLE
  2
VPORT
  5
8
330
0
100
AcDbSymbolTable
 70
     2
  0
VPORT
  5
1DD
330
8
100
AcDbSymbolTableRecord
100
AcDbViewportTableRecord
  2
*ACTIVE
 70
     0
 10
0.0
 20
0.0
 11
1.0
 21
1.0
 12
84.50000000000001
 22
74.99999999999999
 13
0.0
 23
0.0
 14
1.0
 24
1.0
 15
0.0
 25
0.0
 16
0.0
 26
0.0
 36
1.0
 17
0.0
 27
0.0
 37
0.0
 40
151.1508951406649
 41
2.078104993597951
 42
50.0
 43
0.0
 44
0.0
 50
0.0
 51
0.0
 71
     0
 72
   100
 73
     1
 74
     3
 75
     0
 76
     0
 77
     0
 78
     0
  0
ENDTAB
  0
TABLE
  2
LTYPE
  5
5
330
0
100
AcDbSymbolTable
 70
     1
  0
LTYPE
  5
13
330
5
100
AcDbSymbolTableRecord
100
AcDbLinetypeTableRecord
  2
BYBLOCK
 70
     0
  3

 72
    65
 73
     0
 40
0.0
  0
LTYPE
  5
14
330
5
100
AcDbSymbolTableRecord
100
AcDbLinetypeTableRecord
  2
BYLAYER
 70
     0
  3

 72
    65
 73
     0
 40
0.0
  0
LTYPE
  5
15
330
5
100
AcDbSymbolTableRecord
100
AcDbLinetypeTableRecord
  2
CONTINUOUS
 70
     0
  3
Solid line
 72
    65
 73
     0
 40
0.0
  0
ENDTAB
  0
TABLE
  2
LAYER
  5
2
330
0
100
AcDbSymbolTable
 70
     1
  0
LAYER
  5
10
330
2
100
AcDbSymbolTableRecord
100
AcDbLayerTableRecord
  2
0
 70
     0
 62
     7
  6
CONTINUOUS
  0
ENDTAB
  0
TABLE
  2
STYLE
  5
3
330
0
100
AcDbSymbolTable
 70
     1
  0
STYLE
  5
11
330
3
100
AcDbSymbolTableRecord
100
AcDbTextStyleTableRecord
  2
STANDARD
 70
     0
 40
0.0
 41
1.0
 50
0.0
 71
     0
 42
0.2
  3
txt
  4

  0
ENDTAB
  0
TABLE
  2
VIEW
  5
6
330
0
100
AcDbSymbolTable
 70
     0
  0
ENDTAB
  0
TABLE
  2
UCS
  5
7
330
0
100
AcDbSymbolTable
 70
     0
  0
ENDTAB
  0
TABLE
  2
APPID
  5
9
330
0
100
AcDbSymbolTable
 70
     1
  0
APPID
  5
12
330
9
100
AcDbSymbolTableRecord
100
AcDbRegAppTableRecord
  2
ACAD
 70
     0
  0
ENDTAB
  0
TABLE
  2
DIMSTYLE
  5
A
330
0
100
AcDbSymbolTable
 70
     1
  0
DIMSTYLE
105
1D5
330
A
100
AcDbSymbolTableRecord
100
AcDbDimStyleTableRecord
  2
STANDARD
 70
     0
  3

  4

  5

  6

  7

 40
1.0
 41
0.18
 42
0.0625
 43
0.38
 44
0.18
 45
0.0
 46
0.0
 47
0.0
 48
0.0
140
0.18
141
0.09
142
0.0
143
25.4
144
1.0
145
0.0
146
1.0
147
0.09
 71
     0
 72
     0
 73
     1
 74
     1
 75
     0
 76
     0
 77
     0
 78
     0
170
     0
171
     2
172
     0
173
     0
174
     0
175
     0
176
     0
177
     0
178
     0
270
     2
271
     4
272
     4
273
     2
274
     2
340
11
275
     0
280
     0
281
     0
282
     0
283
     1
284
     0
285
     0
286
     0
287
     3
288
     0
  0
ENDTAB
  0
TABLE
  2
BLOCK_RECORD
  5
1
330
0
100
AcDbSymbolTable
 70
     0
  0
BLOCK_RECORD
  5
1E
102
{ACAD_XDICTIONARY
360
200
102
}
330
1
100
AcDbSymbolTableRecord
100
AcDbBlockTableRecord
  2
*MODEL_SPACE
  0
BLOCK_RECORD
  5
1A
102
{ACAD_XDICTIONARY
360
1FE
102
}
330
1
100
AcDbSymbolTableRecord
100
AcDbBlockTableRecord
  2
*PAPER_SPACE
  0
ENDTAB
  0
ENDSEC
  0
SECTION
  2
BLOCKS
  0
BLOCK
  5
1F
330
1E
100
AcDbEntity
  8
0
100
AcDbBlockBegin
  2
*MODEL_SPACE
 70
     0
 10
0.0
 20
0.0
 30
0.0
  3
*MODEL_SPACE
  1

  0
ENDBLK
  5
20
330
1E
100
AcDbEntity
  8
0
100
AcDbBlockEnd
  0
BLOCK
  5
1B
330
1A
100
AcDbEntity
 67
     1
  8
0
100
AcDbBlockBegin
  2
*PAPER_SPACE
 70
     0
 10
0.0
 20
0.0
 30
0.0
  3
*PAPER_SPACE
  1

  0
ENDBLK
  5
1C
330
1A
100
AcDbEntity
 67
     1
  8
0
100
AcDbBlockEnd
  0
ENDSEC
  0
SECTION
  2
ENTITIES
  0
LINE
  5
22
330
1E
100
AcDbEntity
  8
0
100
AcDbLine
 10
0.202677999999997
 20
8.31739999999999
 30
0.0
 11
19.797322
 21
64.02488090606929
 31
0.0
  0
LINE
  5
23
330
1E
100
AcDbEntity
  8
0
100
AcDbLine
 10
0.292377999999997
 20
8.310999999999999
 30
0.0
 11
0.817763999999997
 21
8.2918
 31
0.0
  0
LINE
  5
24
330
1E
100
AcDbEntity
  8
0
100
AcDbLine
 10
0.292377999999997
 20
8.310999999999999
 30
0.0
 11
0.817763999999997
 21
8.2918
 31
0.0
  0
LINE
  5
25
330
1E
100
AcDbEntity
  8
0
100
AcDbLine
 10
0.817763999999997
 20
8.2918
 30
0.0
 11
1.396247999999999
 21
8.302699999999999
 31
0.0
  0
LINE
  5
26
330
1E
100
AcDbEntity
  8
0
100
AcDbLine
 10
1.396247999999999
 20
8.302699999999999
 30
0.0
 11
2.203081999999999
 21
8.3757
 31
0.0
  0
LINE
  5
27
330
1E
100
AcDbEntity
  8
0
100
AcDbLine
 10
2.203081999999999
 20
8.3757
 30
0.0
 11
3.380332
 21
8.60089999999999
 31
0.0
  0
LINE
  5
28
330
1E
100
AcDbEntity
  8
0
100
AcDbLine
 10
0.202677999999997
 20
8.317399999999999
 30
0.0
 11
19.797322
 21
64.02488090606929
 31
0.0
  0
LINE
  5
29
330
1E
100
AcDbEntity
  8
0
100
AcDbLine
 10
0.202677999999997
 20
8.317399999999999
 30
0.0
 11
0.292377999999997
 21
8.310999999999999
 31
0.0
  0
LINE
  5
2A
330
1E
100
AcDbEntity
  8
0
100
AcDbLine
 10
3.380332
 20
8.60089999999999
 30
0.0
 11
4.661451999999999
 21
9.0165
 31
0.0
  0
LINE
  5
2B
330
1E
100
AcDbEntity
  8
0
100
AcDbLine
 10
5.925251999999999
 20
9.605399999999999
 30
0.0
 11
7.292932
 21
10.50599999999999
 31
0.0
  0
LINE
  5
2C
330
1E
100
AcDbEntity
  8
0
100
AcDbLine
 10
7.292932
 20
10.50599999999999
 30
0.0
 11
8.591362
 21
11.5624
 31
0.0
  0
LINE
  5
2D
330
1E
100
AcDbEntity
  8
0
100
AcDbLine
 10
8.591362
 20
11.5624
 30
0.0
 11
9.803232000000001
 21
13.0172
 31
0.0
  0
LINE
  5
2E
330
1E
100
AcDbEntity
  8
0
100
AcDbLine
 10
11.032422
 20
15.33789999999999
 30
0.0
 11
24.5175545700546
 21
53.0
 31
0.0
  0
LINE
  5
2F
330
1E
100
AcDbEntity
  8
0
100
AcDbLine
 10
10.616882
 20
14.4547
 30
0.0
 11
11.032422
 21
15.33789999999999
 31
0.0
  0
LINE
  5
30
330
1E
100
AcDbEntity
  8
0
100
AcDbLine
 10
11.032422
 20
15.33789999999999
 30
0.0
 11
24.5175545700546
 21
53.0
 31
0.0
  0
LINE
  5
31
330
1E
100
AcDbEntity
  8
0
100
AcDbLine
 10
9.803232000000001
 20
13.0172
 30
0.0
 11
10.616882
 21
14.4547
 31
0.0
  0
LINE
  5
32
330
1E
100
AcDbEntity
  8
0
100
AcDbLine
 10
4.661451999999999
 20
9.0165
 30
0.0
 11
5.925251999999999
 21
9.605399999999999
 31
0.0
  0
LINE
  5
41
330
1E
100
AcDbEntity
  8
0
100
AcDbLine
 10
51.797322
 20
53.0
 30
0.0
 11
51.797322
 21
53.792
 31
0.0
  0
LINE
  5
44
330
1E
100
AcDbEntity
  8
0
100
AcDbLine
 10
19.797322
 20
54.48022615881821
 30
0.0
 11
19.797322
 21
56.432
 31
0.0
  0
LINE
  5
45
330
1E
100
AcDbEntity
  8
0
100
AcDbLine
 10
19.797322
 20
59.86399999999999
 30
0.0
 11
19.797322
 21
75.0
 31
0.0
  0
LINE
  5
46
330
1E
100
AcDbEntity
  8
0
100
AcDbLine
 10
19.797322
 20
59.86399999999999
 30
0.0
 11
19.797322
 21
56.432
 31
0.0
  0
LINE
  5
47
330
1E
100
AcDbEntity
  8
0
100
AcDbLine
 10
19.797322
 20
56.432
 30
0.0
 11
19.797322
 21
59.86399999999999
 31
0.0
  0
LINE
  5
48
330
1E
100
AcDbEntity
  8
0
100
AcDbLine
 10
19.797322
 20
56.432
 30
0.0
 11
19.797322
 21
54.48022615881821
 31
0.0
  0
LINE
  5
49
330
1E
100
AcDbEntity
  8
0
100
AcDbLine
 10
19.797322
 20
64.02488090606929
 30
0.0
 11
19.797322
 21
64.352
 31
0.0
  0
LINE
  5
53
330
1E
100
AcDbEntity
  8
0
100
AcDbLine
 10
19.797322
 20
64.352
 30
0.0
 11
19.797322
 21
64.02488090606929
 31
0.0
  0
LINE
  5
54
330
1E
100
AcDbEntity
  8
0
100
AcDbLine
 10
19.797322
 20
75.0
 30
0.0
 11
19.797322
 21
59.86399999999999
 31
0.0
  0
LINE
  5
6C
330
1E
100
AcDbEntity
  8
0
100
AcDbLine
 10
19.797322
 20
80.54399999999999
 30
0.0
 11
19.797322
 21
85.64799999999999
 31
0.0
  0
LINE
  5
6D
330
1E
100
AcDbEntity
  8
0
100
AcDbLine
 10
19.797322
 20
80.54399999999999
 30
0.0
 11
19.797322
 21
75.0
 31
0.0
  0
LINE
  5
6F
330
1E
100
AcDbEntity
  8
0
100
AcDbLine
 10
19.797322
 20
75.0
 30
0.0
 11
19.797322
 21
80.54399999999999
 31
0.0
  0
LINE
  5
79
330
1E
100
AcDbEntity
  8
0
100
AcDbLine
 10
51.797322
 20
69.36799999999999
 30
0.0
 11
51.797322
 21
75.0
 31
0.0
  0
LINE
  5
7A
330
1E
100
AcDbEntity
  8
0
100
AcDbLine
 10
51.797322
 20
64.08800000000001
 30
0.0
 11
51.797322
 21
69.36799999999999
 31
0.0
  0
LINE
  5
7B
330
1E
100
AcDbEntity
  8
0
100
AcDbLine
 10
51.797322
 20
59.424
 30
0.0
 11
51.797322
 21
64.08800000000001
 31
0.0
  0
LINE
  5
7C
330
1E
100
AcDbEntity
  8
0
100
AcDbLine
 10
51.797322
 20
55.90399999999999
 30
0.0
 11
51.797322
 21
59.424
 31
0.0
  0
LINE
  5
7D
330
1E
100
AcDbEntity
  8
0
100
AcDbLine
 10
51.797322
 20
53.792
 30
0.0
 11
51.797322
 21
55.90399999999999
 31
0.0
  0
LINE
  5
7E
330
1E
100
AcDbEntity
  8
0
100
AcDbLine
 10
49.211822
 20
80.60450000000001
 30
0.0
 11
51.797322
 21
75.0
 31
0.0
  0
LINE
  5
81
330
1E
100
AcDbEntity
  8
0
100
AcDbLine
 10
59.79732199999999
 20
2.647059999999989
 30
0.0
 11
60.25882199999999
 21
1.411759999999989
 31
0.0
  0
LINE
  5
82
330
1E
100
AcDbEntity
  8
0
100
AcDbLine
 10
59.79732199999999
 20
2.647059999999989
 30
0.0
 11
59.79732199999999
 21
3.35293999999999
 31
0.0
  0
LINE
  5
83
330
1E
100
AcDbEntity
  8
0
100
AcDbLine
 10
59.79732199999999
 20
3.35293999999999
 30
0.0
 11
59.79732199999999
 21
5.29411999999999
 31
0.0
  0
LINE
  5
84
330
1E
100
AcDbEntity
  8
0
100
AcDbLine
 10
59.79732199999999
 20
3.35293999999999
 30
0.0
 11
59.79732199999999
 21
2.647059999999989
 31
0.0
  0
LINE
  5
85
330
1E
100
AcDbEntity
  8
0
100
AcDbLine
 10
59.79732199999999
 20
5.29411999999999
 30
0.0
 11
59.79732199999999
 21
3.35293999999999
 31
0.0
  0
LINE
  5
86
330
1E
100
AcDbEntity
  8
0
100
AcDbLine
 10
59.79732199999999
 20
5.29411999999999
 30
0.0
 11
59.79732199999999
 21
8.29411999999999
 31
0.0
  0
LINE
  5
87
330
1E
100
AcDbEntity
  8
0
100
AcDbLine
 10
59.79732199999999
 20
8.29411999999999
 30
0.0
 11
59.79732199999999
 21
5.29411999999999
 31
0.0
  0
LINE
  5
88
330
1E
100
AcDbEntity
  8
0
100
AcDbLine
 10
59.79732199999999
 20
8.29411999999999
 30
0.0
 11
59.79732199999999
 21
12.35289999999999
 31
0.0
  0
LINE
  5
89
330
1E
100
AcDbEntity
  8
0
100
AcDbLine
 10
59.79732199999999
 20
12.35289999999999
 30
0.0
 11
59.79732199999999
 21
17.6471
 31
0.0
  0
LINE
  5
8A
330
1E
100
AcDbEntity
  8
0
100
AcDbLine
 10
59.79732199999999
 20
12.35289999999999
 30
0.0
 11
59.79732199999999
 21
8.29411999999999
 31
0.0
  0
LINE
  5
8B
330
1E
100
AcDbEntity
  8
0
100
AcDbLine
 10
59.79732199999999
 20
23.91179999999999
 30
0.0
 11
59.79732199999999
 21
31.0588
 31
0.0
  0
LINE
  5
8C
330
1E
100
AcDbEntity
  8
0
100
AcDbLine
 10
59.79732199999999
 20
23.91179999999999
 30
0.0
 11
59.79732199999999
 21
17.6471
 31
0.0
  0
LINE
  5
8D
330
1E
100
AcDbEntity
  8
0
100
AcDbLine
 10
59.79732199999999
 20
31.0588
 30
0.0
 11
59.79732199999999
 21
39.0
 31
0.0
  0
LINE
  5
8E
330
1E
100
AcDbEntity
  8
0
100
AcDbLine
 10
59.79732199999999
 20
31.0588
 30
0.0
 11
59.79732199999999
 21
23.91179999999999
 31
0.0
  0
LINE
  5
8F
330
1E
100
AcDbEntity
  8
0
100
AcDbLine
 10
59.79732199999999
 20
47.3824
 30
0.0
 11
59.79732199999999
 21
39.0
 31
0.0
  0
LINE
  5
90
330
1E
100
AcDbEntity
  8
0
100
AcDbLine
 10
59.79732199999999
 20
47.3824
 30
0.0
 11
59.79732199999999
 21
54.0
 31
0.0
  0
LINE
  5
91
330
1E
100
AcDbEntity
  8
0
100
AcDbLine
 10
59.79732199999999
 20
17.6471
 30
0.0
 11
59.79732199999999
 21
12.35289999999999
 31
0.0
  0
LINE
  5
92
330
1E
100
AcDbEntity
  8
0
100
AcDbLine
 10
59.79732199999999
 20
17.6471
 30
0.0
 11
59.79732199999999
 21
23.91179999999999
 31
0.0
  0
LINE
  5
93
330
1E
100
AcDbEntity
  8
0
100
AcDbLine
 10
59.79732199999999
 20
39.0
 30
0.0
 11
59.79732199999999
 21
31.0588
 31
0.0
  0
LINE
  5
94
330
1E
100
AcDbEntity
  8
0
100
AcDbLine
 10
59.79732199999999
 20
39.0
 30
0.0
 11
59.79732199999999
 21
47.3824
 31
0.0
  0
LINE
  5
95
330
1E
100
AcDbEntity
  8
0
100
AcDbLine
 10
59.79732199999999
 20
56.2941
 30
0.0
 11
59.79732199999999
 21
65.55880000000001
 31
0.0
  0
LINE
  5
96
330
1E
100
AcDbEntity
  8
0
100
AcDbLine
 10
59.79732199999999
 20
56.79999999999999
 30
0.0
 11
59.79732199999999
 21
60.2125
 31
0.0
  0
LINE
  5
97
330
1E
100
AcDbEntity
  8
0
100
AcDbLine
 10
59.79732199999999
 20
54.7875
 30
0.0
 11
59.79732199999999
 21
56.79999999999999
 31
0.0
  0
LINE
  5
98
330
1E
100
AcDbEntity
  8
0
100
AcDbLine
 10
59.79732199999999
 20
54.0
 30
0.0
 11
59.79732199999999
 21
54.7875
 31
0.0
  0
LINE
  5
99
330
1E
100
AcDbEntity
  8
0
100
AcDbLine
 10
59.79732199999999
 20
54.0
 30
0.0
 11
59.79732199999999
 21
47.3824
 31
0.0
  0
LINE
  5
9A
330
1E
100
AcDbEntity
  8
0
100
AcDbLine
 10
59.79732199999999
 20
65.55880000000001
 30
0.0
 11
59.79732199999999
 21
56.2941
 31
0.0
  0
LINE
  5
9B
330
1E
100
AcDbEntity
  8
0
100
AcDbLine
 10
59.79732199999999
 20
60.2125
 30
0.0
 11
59.79732199999999
 21
64.58750000000001
 31
0.0
  0
LINE
  5
9C
330
1E
100
AcDbEntity
  8
0
100
AcDbLine
 10
71.797322
 20
-0.0000000000000092
 30
0.0
 11
71.797322
 21
0.7941179999999909
 31
0.0
  0
LINE
  5
9D
330
1E
100
AcDbEntity
  8
0
100
AcDbLine
 10
71.797322
 20
5.82352999999999
 30
0.0
 11
71.797322
 21
2.73528999999999
 31
0.0
  0
LINE
  5
9E
330
1E
100
AcDbEntity
  8
0
100
AcDbLine
 10
71.797322
 20
5.82352999999999
 30
0.0
 11
71.797322
 21
10.0588
 31
0.0
  0
LINE
  5
9F
330
1E
100
AcDbEntity
  8
0
100
AcDbLine
 10
71.797322
 20
2.73528999999999
 30
0.0
 11
71.797322
 21
0.7941179999999909
 31
0.0
  0
LINE
  5
A0
330
1E
100
AcDbEntity
  8
0
100
AcDbLine
 10
71.797322
 20
2.73528999999999
 30
0.0
 11
71.797322
 21
5.82352999999999
 31
0.0
  0
LINE
  5
A1
330
1E
100
AcDbEntity
  8
0
100
AcDbLine
 10
71.797322
 20
0.7941179999999909
 30
0.0
 11
71.797322
 21
-0.0000000000000091
 31
0.0
  0
LINE
  5
A2
330
1E
100
AcDbEntity
  8
0
100
AcDbLine
 10
71.797322
 20
0.7941179999999909
 30
0.0
 11
71.797322
 21
2.73528999999999
 31
0.0
  0
LINE
  5
A3
330
1E
100
AcDbEntity
  8
0
100
AcDbLine
 10
71.797322
 20
10.0588
 30
0.0
 11
71.797322
 21
15.6176
 31
0.0
  0
LINE
  5
A4
330
1E
100
AcDbEntity
  8
0
100
AcDbLine
 10
71.797322
 20
10.0588
 30
0.0
 11
71.797322
 21
5.82352999999999
 31
0.0
  0
LINE
  5
A5
330
1E
100
AcDbEntity
  8
0
100
AcDbLine
 10
71.797322
 20
15.6176
 30
0.0
 11
71.797322
 21
10.0588
 31
0.0
  0
LINE
  5
A6
330
1E
100
AcDbEntity
  8
0
100
AcDbLine
 10
71.797322
 20
15.6176
 30
0.0
 11
71.797322
 21
22.0588
 31
0.0
  0
LINE
  5
A7
330
1E
100
AcDbEntity
  8
0
100
AcDbLine
 10
71.797322
 20
22.0588
 30
0.0
 11
71.797322
 21
15.6176
 31
0.0
  0
LINE
  5
A8
330
1E
100
AcDbEntity
  8
0
100
AcDbLine
 10
71.797322
 20
22.0588
 30
0.0
 11
71.797322
 21
29.3824
 31
0.0
  0
LINE
  5
A9
330
1E
100
AcDbEntity
  8
0
100
AcDbLine
 10
61.27422199999999
 20
0.4411759999999921
 30
0.0
 11
62.566522
 21
-0.0000000000000086
 31
0.0
  0
LINE
  5
AA
330
1E
100
AcDbEntity
  8
0
100
AcDbLine
 10
61.27422199999999
 20
0.4411759999999921
 30
0.0
 11
62.566522
 21
-0.0000000000000086
 31
0.0
  0
LINE
  5
AB
330
1E
100
AcDbEntity
  8
0
100
AcDbLine
 10
60.25882199999999
 20
1.411759999999989
 30
0.0
 11
61.27422199999999
 21
0.4411759999999921
 31
0.0
  0
LINE
  5
AC
330
1E
100
AcDbEntity
  8
0
100
AcDbLine
 10
60.25882199999999
 20
1.411759999999989
 30
0.0
 11
61.27422199999999
 21
0.4411759999999921
 31
0.0
  0
LINE
  5
AD
330
1E
100
AcDbEntity
  8
0
100
AcDbLine
 10
62.566522
 20
-0.0000000000000086
 30
0.0
 11
71.797322
 21
-0.0000000000000092
 31
0.0
  0
LINE
  5
AE
330
1E
100
AcDbEntity
  8
0
100
AcDbLine
 10
59.79732199999999
 20
64.58750000000001
 30
0.0
 11
59.79732199999999
 21
69.575
 31
0.0
  0
LINE
  5
AF
330
1E
100
AcDbEntity
  8
0
100
AcDbLine
 10
59.79732199999999
 20
80.425
 30
0.0
 11
59.79732199999999
 21
85.41249999999999
 31
0.0
  0
LINE
  5
B0
330
1E
100
AcDbEntity
  8
0
100
AcDbLine
 10
59.79732199999999
 20
75.0
 30
0.0
 11
59.79732199999999
 21
80.425
 31
0.0
  0
LINE
  5
B1
330
1E
100
AcDbEntity
  8
0
100
AcDbLine
 10
59.79732199999999
 20
69.575
 30
0.0
 11
59.79732199999999
 21
75.0
 31
0.0
  0
LINE
  5
B2
330
1E
100
AcDbEntity
  8
0
100
AcDbLine
 10
51.797322
 20
54.0
 30
0.0
 11
59.79732199999999
 21
54.0
 31
0.0
  0
LINE
  5
B3
330
1E
100
AcDbEntity
  8
0
100
AcDbLine
 10
19.797322
 20
90.13600000000002
 30
0.0
 11
19.797322
 21
85.64799999999999
 31
0.0
  0
LINE
  5
B4
330
1E
100
AcDbEntity
  8
0
100
AcDbLine
 10
19.797322
 20
90.13600000000002
 30
0.0
 11
19.797322
 21
93.56799999999999
 31
0.0
  0
LINE
  5
B9
330
1E
100
AcDbEntity
  8
0
100
AcDbLine
 10
46.812822
 20
85.87940000000001
 30
0.0
 11
49.211822
 21
80.60450000000001
 31
0.0
  0
LINE
  5
BA
330
1E
100
AcDbEntity
  8
0
100
AcDbLine
 10
44.773822
 20
90.555
 30
0.0
 11
46.812822
 21
85.87940000000001
 31
0.0
  0
LINE
  5
BB
330
1E
100
AcDbEntity
  8
0
100
AcDbLine
 10
43.09452199999999
 20
94.031
 30
0.0
 11
44.773822
 21
90.555
 31
0.0
  0
LINE
  5
BE
330
1E
100
AcDbEntity
  8
0
100
AcDbLine
 10
19.797322
 20
93.56799999999999
 30
0.0
 11
19.797322
 21
95.68000000000001
 31
0.0
  0
LINE
  5
BF
330
1E
100
AcDbEntity
  8
0
100
AcDbLine
 10
19.797322
 20
85.64799999999999
 30
0.0
 11
19.797322
 21
90.13600000000002
 31
0.0
  0
LINE
  5
C0
330
1E
100
AcDbEntity
  8
0
100
AcDbLine
 10
19.797322
 20
85.64799999999999
 30
0.0
 11
19.797322
 21
80.54399999999999
 31
0.0
  0
LINE
  5
C1
330
1E
100
AcDbEntity
  8
0
100
AcDbLine
 10
59.79732199999999
 20
93.70589999999999
 30
0.0
 11
59.79732199999999
 21
95.2125
 31
0.0
  0
LINE
  5
C2
330
1E
100
AcDbEntity
  8
0
100
AcDbLine
 10
59.79732199999999
 20
93.70589999999999
 30
0.0
 11
59.79732199999999
 21
102.6179999999999
 31
0.0
  0
LINE
  5
C3
330
1E
100
AcDbEntity
  8
0
100
AcDbLine
 10
59.79732199999999
 20
85.41249999999999
 30
0.0
 11
59.79732199999999
 21
102.6179999999999
 31
0.0
  0
LINE
  5
C4
330
1E
100
AcDbEntity
  8
0
100
AcDbLine
 10
19.797322
 20
95.68000000000001
 30
0.0
 11
19.797322
 21
96.47200000000001
 31
0.0
  0
LINE
  5
C5
330
1E
100
AcDbEntity
  8
0
100
AcDbLine
 10
19.797322
 20
95.68000000000001
 30
0.0
 11
19.797322
 21
93.56799999999999
 31
0.0
  0
LINE
  5
C6
330
1E
100
AcDbEntity
  8
0
100
AcDbLine
 10
42.631082822579
 20
95.07320690378771
 30
0.0
 11
44.95732199999999
 21
95.5625
 31
0.0
  0
LINE
  5
C7
330
1E
100
AcDbEntity
  8
0
100
AcDbLine
 10
44.95732199999999
 20
95.5625
 30
0.0
 11
48.59732199999999
 21
96.0
 31
0.0
  0
LINE
  5
C9
330
1E
100
AcDbEntity
  8
0
100
AcDbLine
 10
20.39732199999999
 20
97.0
 30
0.0
 11
41.79732199999999
 21
97.0
 31
0.0
  0
LINE
  5
CA
330
1E
100
AcDbEntity
  8
0
100
AcDbLine
 10
41.79732199999999
 20
97.0
 30
0.0
 11
42.134922
 21
96.189
 31
0.0
  0
LINE
  5
CB
330
1E
100
AcDbEntity
  8
0
100
AcDbLine
 10
19.797322
 20
96.47200000000001
 30
0.0
 11
20.39732199999999
 21
97.0
 31
0.0
  0
LINE
  5
CC
330
1E
100
AcDbEntity
  8
0
100
AcDbLine
 10
19.797322
 20
96.47200000000001
 30
0.0
 11
19.797322
 21
95.68000000000001
 31
0.0
  0
LINE
  5
CD
330
1E
100
AcDbEntity
  8
0
100
AcDbLine
 10
20.39732199999999
 20
97.0
 30
0.0
 11
41.79732199999999
 21
97.0
 31
0.0
  0
LINE
  5
CF
330
1E
100
AcDbEntity
  8
0
100
AcDbLine
 10
42.134922
 20
96.189
 30
0.0
 11
42.631082822579
 21
95.07320690378771
 31
0.0
  0
LINE
  5
D0
330
1E
100
AcDbEntity
  8
0
100
AcDbLine
 10
42.134922
 20
96.189
 30
0.0
 11
43.09452199999999
 21
94.031
 31
0.0
  0
LINE
  5
D1
330
1E
100
AcDbEntity
  8
0
100
AcDbLine
 10
59.79732199999999
 20
102.6179999999999
 30
0.0
 11
59.79732199999999
 21
111.0
 31
0.0
  0
LINE
  5
D2
330
1E
100
AcDbEntity
  8
0
100
AcDbLine
 10
59.79732199999999
 20
102.6179999999999
 30
0.0
 11
59.79732199999999
 21
93.70589999999999
 31
0.0
  0
LINE
  5
D3
330
1E
100
AcDbEntity
  8
0
100
AcDbLine
 10
59.79732199999999
 20
111.0
 30
0.0
 11
59.79732199999999
 21
118.941
 31
0.0
  0
LINE
  5
D4
330
1E
100
AcDbEntity
  8
0
100
AcDbLine
 10
59.79732199999999
 20
111.0
 30
0.0
 11
59.79732199999999
 21
102.6179999999999
 31
0.0
  0
LINE
  5
D5
330
1E
100
AcDbEntity
  8
0
100
AcDbLine
 10
48.59732199999999
 20
96.0
 30
0.0
 11
59.79732199999999
 21
96.0
 31
0.0
  0
LINE
  5
D6
330
1E
100
AcDbEntity
  8
0
100
AcDbLine
 10
59.79732199999999
 20
95.2125
 30
0.0
 11
59.79732199999999
 21
96.0
 31
0.0
  0
LINE
  5
D7
330
1E
100
AcDbEntity
  8
0
100
AcDbLine
 10
71.797322
 20
29.3824
 30
0.0
 11
71.797322
 21
37.67649999999999
 31
0.0
  0
LINE
  5
D8
330
1E
100
AcDbEntity
  8
0
100
AcDbLine
 10
71.797322
 20
37.67649999999999
 30
0.0
 11
71.797322
 21
29.3824
 31
0.0
  0
LINE
  5
D9
330
1E
100
AcDbEntity
  8
0
100
AcDbLine
 10
71.797322
 20
37.67649999999999
 30
0.0
 11
71.797322
 21
46.3235
 31
0.0
  0
LINE
  5
DA
330
1E
100
AcDbEntity
  8
0
100
AcDbLine
 10
71.797322
 20
46.3235
 30
0.0
 11
71.797322
 21
37.67649999999999
 31
0.0
  0
LINE
  5
DB
330
1E
100
AcDbEntity
  8
0
100
AcDbLine
 10
71.797322
 20
46.3235
 30
0.0
 11
71.797322
 21
55.6765
 31
0.0
  0
LINE
  5
DC
330
1E
100
AcDbEntity
  8
0
100
AcDbLine
 10
71.797322
 20
55.6765
 30
0.0
 11
71.797322
 21
46.3235
 31
0.0
  0
LINE
  5
DD
330
1E
100
AcDbEntity
  8
0
100
AcDbLine
 10
71.797322
 20
55.6765
 30
0.0
 11
71.797322
 21
65.2059
 31
0.0
  0
LINE
  5
DE
330
1E
100
AcDbEntity
  8
0
100
AcDbLine
 10
71.797322
 20
65.2059
 30
0.0
 11
71.797322
 21
55.6765
 31
0.0
  0
LINE
  5
DF
330
1E
100
AcDbEntity
  8
0
100
AcDbLine
 10
71.797322
 20
65.2059
 30
0.0
 11
71.797322
 21
75.0
 31
0.0
  0
LINE
  5
E0
330
1E
100
AcDbEntity
  8
0
100
AcDbLine
 10
71.797322
 20
75.0
 30
0.0
 11
71.797322
 21
84.79409999999999
 31
0.0
  0
LINE
  5
E1
330
1E
100
AcDbEntity
  8
0
100
AcDbLine
 10
71.797322
 20
75.0
 30
0.0
 11
71.797322
 21
65.2059
 31
0.0
  0
LINE
  5
E2
330
1E
100
AcDbEntity
  8
0
100
AcDbLine
 10
71.797322
 20
103.676
 30
0.0
 11
71.797322
 21
94.32349999999999
 31
0.0
  0
LINE
  5
E3
330
1E
100
AcDbEntity
  8
0
100
AcDbLine
 10
71.797322
 20
103.676
 30
0.0
 11
71.797322
 21
112.324
 31
0.0
  0
LINE
  5
E4
330
1E
100
AcDbEntity
  8
0
100
AcDbLine
 10
71.797322
 20
94.32349999999999
 30
0.0
 11
71.797322
 21
84.79409999999999
 31
0.0
  0
LINE
  5
E5
330
1E
100
AcDbEntity
  8
0
100
AcDbLine
 10
71.797322
 20
94.32349999999999
 30
0.0
 11
71.797322
 21
103.676
 31
0.0
  0
LINE
  5
E6
330
1E
100
AcDbEntity
  8
0
100
AcDbLine
 10
71.797322
 20
84.79409999999999
 30
0.0
 11
71.797322
 21
75.0
 31
0.0
  0
LINE
  5
E7
330
1E
100
AcDbEntity
  8
0
100
AcDbLine
 10
71.797322
 20
84.79409999999999
 30
0.0
 11
71.797322
 21
94.32349999999999
 31
0.0
  0
LINE
  5
E8
330
1E
100
AcDbEntity
  8
0
100
AcDbLine
 10
71.797322
 20
35.0
 30
0.0
 11
93.79732199999999
 21
35.0
 31
0.0
  0
LINE
  5
E9
330
1E
100
AcDbEntity
  8
0
100
AcDbLine
 10
59.79732199999999
 20
118.941
 30
0.0
 11
59.79732199999999
 21
126.088
 31
0.0
  0
LINE
  5
EA
330
1E
100
AcDbEntity
  8
0
100
AcDbLine
 10
59.79732199999999
 20
118.941
 30
0.0
 11
59.79732199999999
 21
111.0
 31
0.0
  0
LINE
  5
EB
330
1E
100
AcDbEntity
  8
0
100
AcDbLine
 10
59.79732199999999
 20
132.3529999999999
 30
0.0
 11
59.79732199999999
 21
137.647
 31
0.0
  0
LINE
  5
EC
330
1E
100
AcDbEntity
  8
0
100
AcDbLine
 10
59.79732199999999
 20
132.3529999999999
 30
0.0
 11
59.79732199999999
 21
126.088
 31
0.0
  0
LINE
  5
ED
330
1E
100
AcDbEntity
  8
0
100
AcDbLine
 10
59.79732199999999
 20
144.706
 30
0.0
 11
59.79732199999999
 21
146.647
 31
0.0
  0
LINE
  5
EE
330
1E
100
AcDbEntity
  8
0
100
AcDbLine
 10
59.79732199999999
 20
144.706
 30
0.0
 11
59.79732199999999
 21
141.706
 31
0.0
  0
LINE
  5
EF
330
1E
100
AcDbEntity
  8
0
100
AcDbLine
 10
59.79732199999999
 20
141.706
 30
0.0
 11
59.79732199999999
 21
144.706
 31
0.0
  0
LINE
  5
F0
330
1E
100
AcDbEntity
  8
0
100
AcDbLine
 10
59.79732199999999
 20
141.706
 30
0.0
 11
59.79732199999999
 21
137.647
 31
0.0
  0
LINE
  5
F1
330
1E
100
AcDbEntity
  8
0
100
AcDbLine
 10
59.79732199999999
 20
146.647
 30
0.0
 11
59.79732199999999
 21
147.3529999999999
 31
0.0
  0
LINE
  5
F2
330
1E
100
AcDbEntity
  8
0
100
AcDbLine
 10
59.79732199999999
 20
146.647
 30
0.0
 11
59.79732199999999
 21
144.706
 31
0.0
  0
LINE
  5
F3
330
1E
100
AcDbEntity
  8
0
100
AcDbLine
 10
59.79732199999999
 20
147.3529999999999
 30
0.0
 11
59.79732199999999
 21
146.647
 31
0.0
  0
LINE
  5
F4
330
1E
100
AcDbEntity
  8
0
100
AcDbLine
 10
59.79732199999999
 20
147.3529999999999
 30
0.0
 11
60.25882199999999
 21
148.5879999999999
 31
0.0
  0
LINE
  5
F5
330
1E
100
AcDbEntity
  8
0
100
AcDbLine
 10
59.79732199999999
 20
137.647
 30
0.0
 11
59.79732199999999
 21
132.3529999999999
 31
0.0
  0
LINE
  5
F6
330
1E
100
AcDbEntity
  8
0
100
AcDbLine
 10
59.79732199999999
 20
137.647
 30
0.0
 11
59.79732199999999
 21
141.706
 31
0.0
  0
LINE
  5
F7
330
1E
100
AcDbEntity
  8
0
100
AcDbLine
 10
71.797322
 20
147.2649999999999
 30
0.0
 11
71.797322
 21
144.176
 31
0.0
  0
LINE
  5
F8
330
1E
100
AcDbEntity
  8
0
100
AcDbLine
 10
71.797322
 20
147.2649999999999
 30
0.0
 11
71.797322
 21
149.206
 31
0.0
  0
LINE
  5
F9
330
1E
100
AcDbEntity
  8
0
100
AcDbLine
 10
71.797322
 20
149.206
 30
0.0
 11
71.797322
 21
147.2649999999999
 31
0.0
  0
LINE
  5
FA
330
1E
100
AcDbEntity
  8
0
100
AcDbLine
 10
71.797322
 20
149.206
 30
0.0
 11
71.797322
 21
150.0
 31
0.0
  0
LINE
  5
FB
330
1E
100
AcDbEntity
  8
0
100
AcDbLine
 10
71.797322
 20
144.176
 30
0.0
 11
71.797322
 21
139.941
 31
0.0
  0
LINE
  5
FC
330
1E
100
AcDbEntity
  8
0
100
AcDbLine
 10
71.797322
 20
144.176
 30
0.0
 11
71.797322
 21
147.2649999999999
 31
0.0
  0
LINE
  5
FD
330
1E
100
AcDbEntity
  8
0
100
AcDbLine
 10
71.797322
 20
139.941
 30
0.0
 11
71.797322
 21
134.382
 31
0.0
  0
LINE
  5
FE
330
1E
100
AcDbEntity
  8
0
100
AcDbLine
 10
71.797322
 20
139.941
 30
0.0
 11
71.797322
 21
144.176
 31
0.0
  0
LINE
  5
FF
330
1E
100
AcDbEntity
  8
0
100
AcDbLine
 10
71.797322
 20
127.941
 30
0.0
 11
71.797322
 21
120.618
 31
0.0
  0
LINE
  5
100
330
1E
100
AcDbEntity
  8
0
100
AcDbLine
 10
71.797322
 20
127.941
 30
0.0
 11
71.797322
 21
134.382
 31
0.0
  0
LINE
  5
101
330
1E
100
AcDbEntity
  8
0
100
AcDbLine
 10
71.797322
 20
120.618
 30
0.0
 11
71.797322
 21
112.324
 31
0.0
  0
LINE
  5
102
330
1E
100
AcDbEntity
  8
0
100
AcDbLine
 10
71.797322
 20
120.618
 30
0.0
 11
71.797322
 21
127.941
 31
0.0
  0
LINE
  5
103
330
1E
100
AcDbEntity
  8
0
100
AcDbLine
 10
71.797322
 20
134.382
 30
0.0
 11
71.797322
 21
127.941
 31
0.0
  0
LINE
  5
104
330
1E
100
AcDbEntity
  8
0
100
AcDbLine
 10
71.797322
 20
134.382
 30
0.0
 11
71.797322
 21
139.941
 31
0.0
  0
LINE
  5
105
330
1E
100
AcDbEntity
  8
0
100
AcDbLine
 10
71.797322
 20
150.0
 30
0.0
 11
71.797322
 21
149.206
 31
0.0
  0
LINE
  5
106
330
1E
100
AcDbEntity
  8
0
100
AcDbLine
 10
61.27422199999999
 20
149.5589999999999
 30
0.0
 11
62.566522
 21
150.0
 31
0.0
  0
LINE
  5
107
330
1E
100
AcDbEntity
  8
0
100
AcDbLine
 10
60.25882199999999
 20
148.5879999999999
 30
0.0
 11
61.27422199999999
 21
149.5589999999999
 31
0.0
  0
LINE
  5
108
330
1E
100
AcDbEntity
  8
0
100
AcDbLine
 10
62.566522
 20
150.0
 30
0.0
 11
71.797322
 21
150.0
 31
0.0
  0
LINE
  5
109
330
1E
100
AcDbEntity
  8
0
100
AcDbLine
 10
59.79732199999999
 20
126.088
 30
0.0
 11
59.79732199999999
 21
118.941
 31
0.0
  0
LINE
  5
10A
330
1E
100
AcDbEntity
  8
0
100
AcDbLine
 10
59.79732199999999
 20
126.088
 30
0.0
 11
59.79732199999999
 21
132.3529999999999
 31
0.0
  0
LINE
  5
10B
330
1E
100
AcDbEntity
  8
0
100
AcDbLine
 10
71.797322
 20
112.324
 30
0.0
 11
71.797322
 21
103.676
 31
0.0
  0
LINE
  5
10C
330
1E
100
AcDbEntity
  8
0
100
AcDbLine
 10
71.797322
 20
112.324
 30
0.0
 11
71.797322
 21
120.618
 31
0.0
  0
LINE
  5
10D
330
1E
100
AcDbEntity
  8
0
100
AcDbLine
 10
93.79732199999999
 20
62.96800000000001
 30
0.0
 11
93.79732199999999
 21
75.0
 31
0.0
  0
LINE
  5
10E
330
1E
100
AcDbEntity
  8
0
100
AcDbLine
 10
93.79732199999999
 20
62.96800000000001
 30
0.0
 11
93.79732199999999
 21
51.688
 31
0.0
  0
LINE
  5
10F
330
1E
100
AcDbEntity
  8
0
100
AcDbLine
 10
93.79732199999999
 20
51.688
 30
0.0
 11
93.79732199999999
 21
62.96800000000001
 31
0.0
  0
LINE
  5
110
330
1E
100
AcDbEntity
  8
0
100
AcDbLine
 10
93.79732199999999
 20
51.688
 30
0.0
 11
93.79732199999999
 21
41.72399999999999
 31
0.0
  0
LINE
  5
111
330
1E
100
AcDbEntity
  8
0
100
AcDbLine
 10
93.79732199999999
 20
41.72399999999999
 30
0.0
 11
93.79732199999999
 21
51.688
 31
0.0
  0
LINE
  5
112
330
1E
100
AcDbEntity
  8
0
100
AcDbLine
 10
93.79732199999999
 20
41.72399999999999
 30
0.0
 11
93.79732199999999
 21
35.0
 31
0.0
  0
LINE
  5
113
330
1E
100
AcDbEntity
  8
0
100
AcDbLine
 10
93.79732199999999
 20
75.0
 30
0.0
 11
93.79732199999999
 21
87.032
 31
0.0
  0
LINE
  5
114
330
1E
100
AcDbEntity
  8
0
100
AcDbLine
 10
93.79732199999999
 20
75.0
 30
0.0
 11
93.79732199999999
 21
62.96800000000001
 31
0.0
  0
LINE
  5
115
330
1E
100
AcDbEntity
  8
0
100
AcDbLine
 10
93.79732199999999
 20
87.032
 30
0.0
 11
93.79732199999999
 21
75.0
 31
0.0
  0
LINE
  5
116
330
1E
100
AcDbEntity
  8
0
100
AcDbLine
 10
93.79732199999999
 20
87.032
 30
0.0
 11
93.79732199999999
 21
98.31200000000002
 31
0.0
  0
LINE
  5
117
330
1E
100
AcDbEntity
  8
0
100
AcDbLine
 10
93.79732199999999
 20
98.31200000000002
 30
0.0
 11
93.79732199999999
 21
87.032
 31
0.0
  0
LINE
  5
118
330
1E
100
AcDbEntity
  8
0
100
AcDbLine
 10
93.79732199999999
 20
98.31200000000002
 30
0.0
 11
93.79732199999999
 21
108.276
 31
0.0
  0
LINE
  5
119
330
1E
100
AcDbEntity
  8
0
100
AcDbLine
 10
93.79732199999999
 20
108.276
 30
0.0
 11
93.79732199999999
 21
98.31200000000002
 31
0.0
  0
LINE
  5
11A
330
1E
100
AcDbEntity
  8
0
100
AcDbLine
 10
93.79732199999999
 20
108.276
 30
0.0
 11
93.79732199999999
 21
115.796
 31
0.0
  0
LINE
  5
11B
330
1E
100
AcDbEntity
  8
0
100
AcDbLine
 10
93.79732199999999
 20
115.796
 30
0.0
 11
93.79732199999999
 21
108.276
 31
0.0
  0
LINE
  5
11C
330
1E
100
AcDbEntity
  8
0
100
AcDbLine
 10
93.79732199999999
 20
115.796
 30
0.0
 11
93.79732199999999
 21
120.3079999999999
 31
0.0
  0
LINE
  5
11D
330
1E
100
AcDbEntity
  8
0
100
AcDbLine
 10
93.79732199999999
 20
120.3079999999999
 30
0.0
 11
93.79732199999999
 21
115.796
 31
0.0
  0
LINE
  5
11E
330
1E
100
AcDbEntity
  8
0
100
AcDbLine
 10
93.79732199999999
 20
120.3079999999999
 30
0.0
 11
93.79732199999999
 21
122.0
 31
0.0
  0
LINE
  5
11F
330
1E
100
AcDbEntity
  8
0
100
AcDbLine
 10
113.7973219999999
 20
63.224
 30
0.0
 11
113.7973219999999
 21
75.0
 31
0.0
  0
LINE
  5
120
330
1E
100
AcDbEntity
  8
0
100
AcDbLine
 10
113.7973219999999
 20
63.224
 30
0.0
 11
113.7973219999999
 21
52.18399999999999
 31
0.0
  0
LINE
  5
121
330
1E
100
AcDbEntity
  8
0
100
AcDbLine
 10
113.7973219999999
 20
52.18399999999999
 30
0.0
 11
113.7973219999999
 21
63.224
 31
0.0
  0
LINE
  5
122
330
1E
100
AcDbEntity
  8
0
100
AcDbLine
 10
113.7973219999999
 20
52.18399999999999
 30
0.0
 11
113.7973219999999
 21
42.43199999999999
 31
0.0
  0
LINE
  5
123
330
1E
100
AcDbEntity
  8
0
100
AcDbLine
 10
113.7973219999999
 20
42.43199999999999
 30
0.0
 11
113.7973219999999
 21
52.18399999999999
 31
0.0
  0
LINE
  5
124
330
1E
100
AcDbEntity
  8
0
100
AcDbLine
 10
113.7973219999999
 20
42.43199999999999
 30
0.0
 11
113.7973219999999
 21
35.0
 31
0.0
  0
LINE
  5
125
330
1E
100
AcDbEntity
  8
0
100
AcDbLine
 10
113.7973219999999
 20
75.0
 30
0.0
 11
113.7973219999999
 21
86.77600000000001
 31
0.0
  0
LINE
  5
126
330
1E
100
AcDbEntity
  8
0
100
AcDbLine
 10
113.7973219999999
 20
75.0
 30
0.0
 11
113.7973219999999
 21
63.224
 31
0.0
  0
LINE
  5
127
330
1E
100
AcDbEntity
  8
0
100
AcDbLine
 10
113.7973219999999
 20
86.77600000000001
 30
0.0
 11
113.7973219999999
 21
75.0
 31
0.0
  0
LINE
  5
128
330
1E
100
AcDbEntity
  8
0
100
AcDbLine
 10
113.7973219999999
 20
86.77600000000001
 30
0.0
 11
113.7973219999999
 21
97.816
 31
0.0
  0
LINE
  5
129
330
1E
100
AcDbEntity
  8
0
100
AcDbLine
 10
113.7973219999999
 20
97.816
 30
0.0
 11
113.7973219999999
 21
86.77600000000001
 31
0.0
  0
LINE
  5
12A
330
1E
100
AcDbEntity
  8
0
100
AcDbLine
 10
113.7973219999999
 20
97.816
 30
0.0
 11
113.7973219999999
 21
107.5679999999999
 31
0.0
  0
LINE
  5
12B
330
1E
100
AcDbEntity
  8
0
100
AcDbLine
 10
113.7973219999999
 20
107.5679999999999
 30
0.0
 11
113.7973219999999
 21
97.816
 31
0.0
  0
LINE
  5
12C
330
1E
100
AcDbEntity
  8
0
100
AcDbLine
 10
113.7973219999999
 20
107.5679999999999
 30
0.0
 11
113.7973219999999
 21
114.928
 31
0.0
  0
LINE
  5
12D
330
1E
100
AcDbEntity
  8
0
100
AcDbLine
 10
113.7973219999999
 20
114.928
 30
0.0
 11
113.7973219999999
 21
107.5679999999999
 31
0.0
  0
LINE
  5
12E
330
1E
100
AcDbEntity
  8
0
100
AcDbLine
 10
113.7973219999999
 20
114.928
 30
0.0
 11
113.7973219999999
 21
119.344
 31
0.0
  0
LINE
  5
12F
330
1E
100
AcDbEntity
  8
0
100
AcDbLine
 10
133.797322
 20
40.0
 30
0.0
 11
141.797322
 21
40.0
 31
0.0
  0
LINE
  5
130
330
1E
100
AcDbEntity
  8
0
100
AcDbLine
 10
133.797322
 20
61.0
 30
0.0
 11
153.797322
 21
61.0
 31
0.0
  0
LINE
  5
131
330
1E
100
AcDbEntity
  8
0
100
AcDbLine
 10
133.797322
 20
55.0
 30
0.0
 11
153.797322
 21
55.0
 31
0.0
  0
LINE
  5
132
330
1E
100
AcDbEntity
  8
0
100
AcDbLine
 10
133.797322
 20
63.47999999999999
 30
0.0
 11
133.797322
 21
52.68
 31
0.0
  0
LINE
  5
133
330
1E
100
AcDbEntity
  8
0
100
AcDbLine
 10
133.797322
 20
63.47999999999999
 30
0.0
 11
133.797322
 21
75.0
 31
0.0
  0
LINE
  5
134
330
1E
100
AcDbEntity
  8
0
100
AcDbLine
 10
133.797322
 20
52.68
 30
0.0
 11
133.797322
 21
43.14
 31
0.0
  0
LINE
  5
135
330
1E
100
AcDbEntity
  8
0
100
AcDbLine
 10
133.797322
 20
52.68
 30
0.0
 11
133.797322
 21
63.47999999999999
 31
0.0
  0
LINE
  5
136
330
1E
100
AcDbEntity
  8
0
100
AcDbLine
 10
133.797322
 20
43.14
 30
0.0
 11
133.797322
 21
35.93999999999999
 31
0.0
  0
LINE
  5
137
330
1E
100
AcDbEntity
  8
0
100
AcDbLine
 10
133.797322
 20
43.14
 30
0.0
 11
133.797322
 21
52.68
 31
0.0
  0
LINE
  5
138
330
1E
100
AcDbEntity
  8
0
100
AcDbLine
 10
133.797322
 20
35.93999999999999
 30
0.0
 11
133.797322
 21
35.0
 31
0.0
  0
LINE
  5
139
330
1E
100
AcDbEntity
  8
0
100
AcDbLine
 10
133.797322
 20
35.93999999999999
 30
0.0
 11
133.797322
 21
43.14
 31
0.0
  0
LINE
  5
13A
330
1E
100
AcDbEntity
  8
0
100
AcDbLine
 10
133.797322
 20
87.9764807839739
 30
0.0
 11
142.797322
 21
87.9500216659445
 31
0.0
  0
LINE
  5
13B
330
1E
100
AcDbEntity
  8
0
100
AcDbLine
 10
133.797322
 20
75.0
 30
0.0
 11
133.797322
 21
86.51999999999999
 31
0.0
  0
LINE
  5
13C
330
1E
100
AcDbEntity
  8
0
100
AcDbLine
 10
133.797322
 20
75.0
 30
0.0
 11
133.797322
 21
63.47999999999999
 31
0.0
  0
LINE
  5
13D
330
1E
100
AcDbEntity
  8
0
100
AcDbLine
 10
133.797322
 20
86.51999999999999
 30
0.0
 11
133.797322
 21
75.0
 31
0.0
  0
LINE
  5
13E
330
1E
100
AcDbEntity
  8
0
100
AcDbLine
 10
133.797322
 20
86.51999999999999
 30
0.0
 11
133.797322
 21
97.31999999999999
 31
0.0
  0
LINE
  5
13F
330
1E
100
AcDbEntity
  8
0
100
AcDbLine
 10
133.797322
 20
97.31999999999999
 30
0.0
 11
133.797322
 21
86.51999999999999
 31
0.0
  0
LINE
  5
140
330
1E
100
AcDbEntity
  8
0
100
AcDbLine
 10
133.797322
 20
97.31999999999999
 30
0.0
 11
133.797322
 21
106.8599999999999
 31
0.0
  0
LINE
  5
141
330
1E
100
AcDbEntity
  8
0
100
AcDbLine
 10
133.797322
 20
106.8599999999999
 30
0.0
 11
133.797322
 21
97.31999999999999
 31
0.0
  0
LINE
  5
142
330
1E
100
AcDbEntity
  8
0
100
AcDbLine
 10
133.797322
 20
106.8599999999999
 30
0.0
 11
133.797322
 21
114.06
 31
0.0
  0
LINE
  5
143
330
1E
100
AcDbEntity
  8
0
100
AcDbLine
 10
133.797322
 20
114.06
 30
0.0
 11
133.797322
 21
106.8599999999999
 31
0.0
  0
LINE
  5
144
330
1E
100
AcDbEntity
  8
0
100
AcDbLine
 10
133.797322
 20
114.06
 30
0.0
 11
133.797322
 21
118.3799999999999
 31
0.0
  0
LINE
  5
145
330
1E
100
AcDbEntity
  8
0
100
AcDbLine
 10
133.797322
 20
118.3799999999999
 30
0.0
 11
133.797322
 21
114.06
 31
0.0
  0
LINE
  5
146
330
1E
100
AcDbEntity
  8
0
100
AcDbLine
 10
133.797322
 20
118.3799999999999
 30
0.0
 11
133.797322
 21
120.0
 31
0.0
  0
LINE
  5
147
330
1E
100
AcDbEntity
  8
0
100
AcDbLine
 10
133.797322
 20
120.0
 30
0.0
 11
133.797322
 21
118.3799999999999
 31
0.0
  0
LINE
  5
148
330
1E
100
AcDbEntity
  8
0
100
AcDbLine
 10
113.7973219999999
 20
119.344
 30
0.0
 11
113.7973219999999
 21
114.928
 31
0.0
  0
LINE
  5
149
330
1E
100
AcDbEntity
  8
0
100
AcDbLine
 10
113.7973219999999
 20
119.344
 30
0.0
 11
113.7973219999999
 21
121.0
 31
0.0
  0
LINE
  5
14A
330
1E
100
AcDbEntity
  8
0
100
AcDbLine
 10
113.7973219999999
 20
35.0
 30
0.0
 11
133.797322
 21
35.0
 31
0.0
  0
LINE
  5
14B
330
1E
100
AcDbEntity
  8
0
100
AcDbLine
 10
113.7973219999999
 20
35.0
 30
0.0
 11
113.7973219999999
 21
42.43199999999999
 31
0.0
  0
LINE
  5
14C
330
1E
100
AcDbEntity
  8
0
100
AcDbLine
 10
144.797322
 20
43.0
 30
0.0
 11
144.797322
 21
55.0
 31
0.0
  0
LINE
  5
14D
330
1E
100
AcDbEntity
  8
0
100
AcDbLine
 10
144.344422
 20
41.29904999999999
 30
0.0
 11
144.797322
 21
43.0
 31
0.0
  0
LINE
  5
14E
330
1E
100
AcDbEntity
  8
0
100
AcDbLine
 10
143.2226219999999
 20
40.48276
 30
0.0
 11
144.344422
 21
41.29904999999999
 31
0.0
  0
LINE
  5
14F
330
1E
100
AcDbEntity
  8
0
100
AcDbLine
 10
141.797322
 20
40.0
 30
0.0
 11
143.2226219999999
 21
40.48276
 31
0.0
  0
LINE
  5
150
330
1E
100
AcDbEntity
  8
0
100
AcDbLine
 10
144.797322
 20
61.0
 30
0.0
 11
144.797322
 21
62.3625232463532
 31
0.0
  0
LINE
  5
151
330
1E
100
AcDbEntity
  8
0
100
AcDbLine
 10
144.797322
 20
55.0
 30
0.0
 11
144.797322
 21
43.0
 31
0.0
  0
LINE
  5
152
330
1E
100
AcDbEntity
  8
0
100
AcDbLine
 10
144.797322
 20
55.0
 30
0.0
 11
153.797322
 21
55.0
 31
0.0
  0
LINE
  5
153
330
1E
100
AcDbEntity
  8
0
100
AcDbLine
 10
153.797322
 20
61.0
 30
0.0
 11
153.797322
 21
62.1866666666667
 31
0.0
  0
LINE
  5
154
330
1E
100
AcDbEntity
  8
0
100
AcDbLine
 10
153.797322
 20
55.0
 30
0.0
 11
153.797322
 21
54.0
 31
0.0
  0
LINE
  5
155
330
1E
100
AcDbEntity
  8
0
100
AcDbLine
 10
153.797322
 20
54.0
 30
0.0
 11
153.797322
 21
62.28125
 31
0.0
  0
LINE
  5
156
330
1E
100
AcDbEntity
  8
0
100
AcDbLine
 10
153.797322
 20
54.0
 30
0.0
 11
153.797322
 21
55.0
 31
0.0
  0
LINE
  5
157
330
1E
100
AcDbEntity
  8
0
100
AcDbLine
 10
153.797322
 20
54.0
 30
0.0
 11
157.797322
 21
54.0
 31
0.0
  0
LINE
  5
158
330
1E
100
AcDbEntity
  8
0
100
AcDbLine
 10
157.797322
 20
61.0
 30
0.0
 11
158.797322
 21
61.0
 31
0.0
  0
LINE
  5
159
330
1E
100
AcDbEntity
  8
0
100
AcDbLine
 10
158.797322
 20
55.0
 30
0.0
 11
158.797322
 21
55.108
 31
0.0
  0
LINE
  5
15A
330
1E
100
AcDbEntity
  8
0
100
AcDbLine
 10
158.797322
 20
55.108
 30
0.0
 11
158.797322
 21
55.396
 31
0.0
  0
LINE
  5
15B
330
1E
100
AcDbEntity
  8
0
100
AcDbLine
 10
158.797322
 20
55.108
 30
0.0
 11
158.797322
 21
55.0
 31
0.0
  0
LINE
  5
15C
330
1E
100
AcDbEntity
  8
0
100
AcDbLine
 10
158.797322
 20
55.396
 30
0.0
 11
158.797322
 21
55.87600000000001
 31
0.0
  0
LINE
  5
15D
330
1E
100
AcDbEntity
  8
0
100
AcDbLine
 10
158.797322
 20
55.396
 30
0.0
 11
158.797322
 21
55.108
 31
0.0
  0
LINE
  5
15E
330
1E
100
AcDbEntity
  8
0
100
AcDbLine
 10
158.797322
 20
55.87600000000001
 30
0.0
 11
158.797322
 21
56.512
 31
0.0
  0
LINE
  5
15F
330
1E
100
AcDbEntity
  8
0
100
AcDbLine
 10
158.797322
 20
55.87600000000001
 30
0.0
 11
158.797322
 21
55.396
 31
0.0
  0
LINE
  5
160
330
1E
100
AcDbEntity
  8
0
100
AcDbLine
 10
158.797322
 20
56.512
 30
0.0
 11
158.797322
 21
57.232
 31
0.0
  0
LINE
  5
161
330
1E
100
AcDbEntity
  8
0
100
AcDbLine
 10
158.797322
 20
56.512
 30
0.0
 11
158.797322
 21
55.87600000000001
 31
0.0
  0
LINE
  5
162
330
1E
100
AcDbEntity
  8
0
100
AcDbLine
 10
158.797322
 20
61.0
 30
0.0
 11
158.797322
 21
60.89199999999999
 31
0.0
  0
LINE
  5
163
330
1E
100
AcDbEntity
  8
0
100
AcDbLine
 10
158.797322
 20
60.89199999999999
 30
0.0
 11
158.797322
 21
61.0
 31
0.0
  0
LINE
  5
164
330
1E
100
AcDbEntity
  8
0
100
AcDbLine
 10
158.797322
 20
60.89199999999999
 30
0.0
 11
158.797322
 21
60.604
 31
0.0
  0
LINE
  5
165
330
1E
100
AcDbEntity
  8
0
100
AcDbLine
 10
158.797322
 20
60.604
 30
0.0
 11
158.797322
 21
60.89199999999999
 31
0.0
  0
LINE
  5
166
330
1E
100
AcDbEntity
  8
0
100
AcDbLine
 10
158.797322
 20
60.604
 30
0.0
 11
158.797322
 21
60.12399999999999
 31
0.0
  0
LINE
  5
167
330
1E
100
AcDbEntity
  8
0
100
AcDbLine
 10
158.797322
 20
60.12399999999999
 30
0.0
 11
158.797322
 21
60.604
 31
0.0
  0
LINE
  5
168
330
1E
100
AcDbEntity
  8
0
100
AcDbLine
 10
158.797322
 20
60.12399999999999
 30
0.0
 11
158.797322
 21
59.488
 31
0.0
  0
LINE
  5
169
330
1E
100
AcDbEntity
  8
0
100
AcDbLine
 10
158.797322
 20
59.488
 30
0.0
 11
158.797322
 21
60.12399999999999
 31
0.0
  0
LINE
  5
16A
330
1E
100
AcDbEntity
  8
0
100
AcDbLine
 10
158.797322
 20
59.488
 30
0.0
 11
158.797322
 21
58.768
 31
0.0
  0
LINE
  5
16B
330
1E
100
AcDbEntity
  8
0
100
AcDbLine
 10
158.797322
 20
58.768
 30
0.0
 11
158.797322
 21
59.488
 31
0.0
  0
LINE
  5
16C
330
1E
100
AcDbEntity
  8
0
100
AcDbLine
 10
158.797322
 20
58.768
 30
0.0
 11
158.797322
 21
58.0
 31
0.0
  0
LINE
  5
16D
330
1E
100
AcDbEntity
  8
0
100
AcDbLine
 10
158.797322
 20
58.0
 30
0.0
 11
158.797322
 21
57.232
 31
0.0
  0
LINE
  5
16E
330
1E
100
AcDbEntity
  8
0
100
AcDbLine
 10
158.797322
 20
58.0
 30
0.0
 11
158.797322
 21
58.768
 31
0.0
  0
LINE
  5
16F
330
1E
100
AcDbEntity
  8
0
100
AcDbLine
 10
158.797322
 20
57.232
 30
0.0
 11
158.797322
 21
58.0
 31
0.0
  0
LINE
  5
170
330
1E
100
AcDbEntity
  8
0
100
AcDbLine
 10
158.797322
 20
57.232
 30
0.0
 11
158.797322
 21
56.512
 31
0.0
  0
LINE
  5
171
330
1E
100
AcDbEntity
  8
0
100
AcDbLine
 10
157.797322
 20
55.0
 30
0.0
 11
158.797322
 21
55.0
 31
0.0
  0
LINE
  5
172
330
1E
100
AcDbEntity
  8
0
100
AcDbLine
 10
157.797322
 20
54.0
 30
0.0
 11
157.797322
 21
62.28125
 31
0.0
  0
LINE
  5
173
330
1E
100
AcDbEntity
  8
0
100
AcDbLine
 10
155.797322
 20
62.0
 30
0.0
 11
159.125322
 21
62.468
 31
0.0
  0
LINE
  5
174
330
1E
100
AcDbEntity
  8
0
100
AcDbLine
 10
144.797322
 20
62.3625232463532
 30
0.0
 11
144.797322
 21
61.0
 31
0.0
  0
LINE
  5
175
330
1E
100
AcDbEntity
  8
0
100
AcDbLine
 10
153.797322
 20
62.28125
 30
0.0
 11
153.797322
 21
54.0
 31
0.0
  0
LINE
  5
177
330
1E
100
AcDbEntity
  8
0
100
AcDbLine
 10
157.797322
 20
62.28125
 30
0.0
 11
157.797322
 21
54.0
 31
0.0
  0
LINE
  5
178
330
1E
100
AcDbEntity
  8
0
100
AcDbLine
 10
153.797322
 20
62.1866666666667
 30
0.0
 11
153.797322
 21
61.0
 31
0.0
  0
LINE
  5
179
330
1E
100
AcDbEntity
  8
0
100
AcDbLine
 10
159.125322
 20
62.468
 30
0.0
 11
162.2453219999999
 21
63.716
 31
0.0
  0
LINE
  5
17A
330
1E
100
AcDbEntity
  8
0
100
AcDbLine
 10
162.2453219999999
 20
63.716
 30
0.0
 11
165.0013219999999
 21
65.79600000000001
 31
0.0
  0
LINE
  5
17B
330
1E
100
AcDbEntity
  8
0
100
AcDbLine
 10
152.469322
 20
62.468
 30
0.0
 11
155.797322
 21
62.0
 31
0.0
  0
LINE
  5
17C
330
1E
100
AcDbEntity
  8
0
100
AcDbLine
 10
155.797322
 20
63.8571
 30
0.0
 11
158.649922
 21
64.25830000000001
 31
0.0
  0
LINE
  5
17D
330
1E
100
AcDbEntity
  8
0
100
AcDbLine
 10
161.324222
 20
65.328
 30
0.0
 11
163.6864219999999
 21
67.1109
 31
0.0
  0
LINE
  5
17E
330
1E
100
AcDbEntity
  8
0
100
AcDbLine
 10
158.649922
 20
64.25830000000001
 30
0.0
 11
161.324222
 21
65.328
 31
0.0
  0
LINE
  5
17F
330
1E
100
AcDbEntity
  8
0
100
AcDbLine
 10
152.9447219999999
 20
64.25830000000001
 30
0.0
 11
155.797322
 21
63.8571
 31
0.0
  0
LINE
  5
180
330
1E
100
AcDbEntity
  8
0
100
AcDbLine
 10
165.0013219999999
 20
65.79600000000001
 30
0.0
 11
167.081322
 21
68.55199999999999
 31
0.0
  0
LINE
  5
181
330
1E
100
AcDbEntity
  8
0
100
AcDbLine
 10
163.6864219999999
 20
67.1109
 30
0.0
 11
165.469322
 21
69.4731
 31
0.0
  0
LINE
  5
182
330
1E
100
AcDbEntity
  8
0
100
AcDbLine
 10
150.270422
 20
65.328
 30
0.0
 11
152.9447219999999
 21
64.25830000000001
 31
0.0
  0
LINE
  5
183
330
1E
100
AcDbEntity
  8
0
100
AcDbLine
 10
147.908222
 20
67.1109
 30
0.0
 11
150.270422
 21
65.328
 31
0.0
  0
LINE
  5
184
330
1E
100
AcDbEntity
  8
0
100
AcDbLine
 10
149.3493219999999
 20
63.716
 30
0.0
 11
152.469322
 21
62.468
 31
0.0
  0
LINE
  5
185
330
1E
100
AcDbEntity
  8
0
100
AcDbLine
 10
146.5933219999999
 20
65.79600000000001
 30
0.0
 11
149.3493219999999
 21
63.716
 31
0.0
  0
LINE
  5
187
330
1E
100
AcDbEntity
  8
0
100
AcDbLine
 10
165.469322
 20
69.4731
 30
0.0
 11
166.5390219999999
 21
72.1474
 31
0.0
  0
LINE
  5
199
330
1E
100
AcDbEntity
  8
0
100
AcDbLine
 10
166.5390219999999
 20
72.1474
 30
0.0
 11
166.940222
 21
75.0
 31
0.0
  0
LINE
  5
19A
330
1E
100
AcDbEntity
  8
0
100
AcDbLine
 10
146.125322
 20
69.4731
 30
0.0
 11
147.908222
 21
67.1109
 31
0.0
  0
LINE
  5
19B
330
1E
100
AcDbEntity
  8
0
100
AcDbLine
 10
145.0556219999999
 20
72.1474
 30
0.0
 11
146.125322
 21
69.4731
 31
0.0
  0
LINE
  5
19C
330
1E
100
AcDbEntity
  8
0
100
AcDbLine
 10
144.5133219999999
 20
68.55199999999999
 30
0.0
 11
146.5933219999999
 21
65.79600000000001
 31
0.0
  0
LINE
  5
19D
330
1E
100
AcDbEntity
  8
0
100
AcDbLine
 10
143.2653219999999
 20
71.672
 30
0.0
 11
144.5133219999999
 21
68.55199999999999
 31
0.0
  0
LINE
  5
19E
330
1E
100
AcDbEntity
  8
0
100
AcDbLine
 10
145.0556219999999
 20
77.8526
 30
0.0
 11
146.125322
 21
80.5269
 31
0.0
  0
LINE
  5
19F
330
1E
100
AcDbEntity
  8
0
100
AcDbLine
 10
143.2653219999999
 20
78.328
 30
0.0
 11
144.5133219999999
 21
81.44800000000001
 31
0.0
  0
LINE
  5
1A0
330
1E
100
AcDbEntity
  8
0
100
AcDbLine
 10
144.654422
 20
75.0
 30
0.0
 11
145.0556219999999
 21
77.8526
 31
0.0
  0
LINE
  5
1A1
330
1E
100
AcDbEntity
  8
0
100
AcDbLine
 10
144.654422
 20
75.0
 30
0.0
 11
145.0556219999999
 21
72.1474
 31
0.0
  0
LINE
  5
1A4
330
1E
100
AcDbEntity
  8
0
100
AcDbLine
 10
142.797322
 20
75.0
 30
0.0
 11
143.2653219999999
 21
78.328
 31
0.0
  0
LINE
  5
1A5
330
1E
100
AcDbEntity
  8
0
100
AcDbLine
 10
142.797322
 20
75.0
 30
0.0
 11
143.2653219999999
 21
71.672
 31
0.0
  0
LINE
  5
1A6
330
1E
100
AcDbEntity
  8
0
100
AcDbLine
 10
146.125322
 20
80.5269
 30
0.0
 11
147.908222
 21
82.88909999999999
 31
0.0
  0
LINE
  5
1A7
330
1E
100
AcDbEntity
  8
0
100
AcDbLine
 10
144.5133219999999
 20
81.44800000000001
 30
0.0
 11
146.5933219999999
 21
84.20399999999998
 31
0.0
  0
LINE
  5
1A8
330
1E
100
AcDbEntity
  8
0
100
AcDbLine
 10
165.469322
 20
80.5269
 30
0.0
 11
166.5390219999999
 21
77.8526
 31
0.0
  0
LINE
  5
1A9
330
1E
100
AcDbEntity
  8
0
100
AcDbLine
 10
167.081322
 20
68.55199999999999
 30
0.0
 11
168.3293219999999
 21
71.672
 31
0.0
  0
LINE
  5
1AA
330
1E
100
AcDbEntity
  8
0
100
AcDbLine
 10
168.3293219999999
 20
71.672
 30
0.0
 11
168.797322
 21
75.0
 31
0.0
  0
LINE
  5
1AB
330
1E
100
AcDbEntity
  8
0
100
AcDbLine
 10
166.5390219999999
 20
77.8526
 30
0.0
 11
166.940222
 21
75.0
 31
0.0
  0
LINE
  5
1AC
330
1E
100
AcDbEntity
  8
0
100
AcDbLine
 10
150.270422
 20
84.67200000000001
 30
0.0
 11
152.9447219999999
 21
85.7417
 31
0.0
  0
LINE
  5
1AD
330
1E
100
AcDbEntity
  8
0
100
AcDbLine
 10
147.908222
 20
82.88909999999999
 30
0.0
 11
150.270422
 21
84.67200000000001
 31
0.0
  0
LINE
  5
1AE
330
1E
100
AcDbEntity
  8
0
100
AcDbLine
 10
146.5933219999999
 20
84.20399999999998
 30
0.0
 11
149.3493219999999
 21
86.28399999999999
 31
0.0
  0
LINE
  5
1AF
330
1E
100
AcDbEntity
  8
0
100
AcDbLine
 10
152.9447219999999
 20
85.7417
 30
0.0
 11
155.797322
 21
86.1429
 31
0.0
  0
LINE
  5
1B0
330
1E
100
AcDbEntity
  8
0
100
AcDbLine
 10
149.3493219999999
 20
86.28399999999999
 30
0.0
 11
152.469322
 21
87.53200000000001
 31
0.0
  0
LINE
  5
1B1
330
1E
100
AcDbEntity
  8
0
100
AcDbLine
 10
155.797322
 20
86.1429
 30
0.0
 11
158.649922
 21
85.7417
 31
0.0
  0
LINE
  5
1B2
330
1E
100
AcDbEntity
  8
0
100
AcDbLine
 10
158.649922
 20
85.7417
 30
0.0
 11
161.324222
 21
84.67200000000001
 31
0.0
  0
LINE
  5
1B3
330
1E
100
AcDbEntity
  8
0
100
AcDbLine
 10
161.324222
 20
84.67200000000001
 30
0.0
 11
163.6864219999999
 21
82.88909999999999
 31
0.0
  0
LINE
  5
1B4
330
1E
100
AcDbEntity
  8
0
100
AcDbLine
 10
163.6864219999999
 20
82.88909999999999
 30
0.0
 11
165.469322
 21
80.5269
 31
0.0
  0
LINE
  5
1B5
330
1E
100
AcDbEntity
  8
0
100
AcDbLine
 10
142.797322
 20
87.9500216659445
 30
0.0
 11
142.797322
 21
110.0
 31
0.0
  0
LINE
  5
1B6
330
1E
100
AcDbEntity
  8
0
100
AcDbLine
 10
152.469322
 20
87.53200000000001
 30
0.0
 11
155.797322
 21
88.0
 31
0.0
  0
LINE
  5
1B7
330
1E
100
AcDbEntity
  8
0
100
AcDbLine
 10
152.469322
 20
110.0
 30
0.0
 11
155.797322
 21
110.0
 31
0.0
  0
LINE
  5
1B8
330
1E
100
AcDbEntity
  8
0
100
AcDbLine
 10
149.3493219999999
 20
110.0
 30
0.0
 11
152.469322
 21
110.0
 31
0.0
  0
LINE
  5
1B9
330
1E
100
AcDbEntity
  8
0
100
AcDbLine
 10
146.5933219999999
 20
110.0
 30
0.0
 11
149.3493219999999
 21
110.0
 31
0.0
  0
LINE
  5
1BA
330
1E
100
AcDbEntity
  8
0
100
AcDbLine
 10
144.5133219999999
 20
110.0
 30
0.0
 11
146.5933219999999
 21
110.0
 31
0.0
  0
LINE
  5
1BB
330
1E
100
AcDbEntity
  8
0
100
AcDbLine
 10
143.2653219999999
 20
110.0
 30
0.0
 11
144.5133219999999
 21
110.0
 31
0.0
  0
LINE
  5
1BC
330
1E
100
AcDbEntity
  8
0
100
AcDbLine
 10
142.797322
 20
110.0
 30
0.0
 11
143.2653219999999
 21
110.0
 31
0.0
  0
LINE
  5
1BD
330
1E
100
AcDbEntity
  8
0
100
AcDbLine
 10
142.797322
 20
110.0
 30
0.0
 11
142.797322
 21
87.9500216659445
 31
0.0
  0
LINE
  5
1BE
330
1E
100
AcDbEntity
  8
0
100
AcDbLine
 10
155.797322
 20
110.0
 30
0.0
 11
159.125322
 21
110.0
 31
0.0
  0
LINE
  5
1BF
330
1E
100
AcDbEntity
  8
0
100
AcDbLine
 10
159.125322
 20
110.0
 30
0.0
 11
162.2453219999999
 21
110.0
 31
0.0
  0
LINE
  5
1C0
330
1E
100
AcDbEntity
  8
0
100
AcDbLine
 10
155.797322
 20
88.0
 30
0.0
 11
159.125322
 21
87.53200000000001
 31
0.0
  0
LINE
  5
1C1
330
1E
100
AcDbEntity
  8
0
100
AcDbLine
 10
162.2453219999999
 20
110.0
 30
0.0
 11
165.0013219999999
 21
110.0
 31
0.0
  0
LINE
  5
1C2
330
1E
100
AcDbEntity
  8
0
100
AcDbLine
 10
165.0013219999999
 20
110.0
 30
0.0
 11
167.081322
 21
110.0
 31
0.0
  0
LINE
  5
1C3
330
1E
100
AcDbEntity
  8
0
100
AcDbLine
 10
159.125322
 20
87.53200000000001
 30
0.0
 11
162.2453219999999
 21
86.28399999999999
 31
0.0
  0
LINE
  5
1C4
330
1E
100
AcDbEntity
  8
0
100
AcDbLine
 10
162.2453219999999
 20
86.28399999999999
 30
0.0
 11
165.0013219999999
 21
84.20399999999998
 31
0.0
  0
LINE
  5
1C5
330
1E
100
AcDbEntity
  8
0
100
AcDbLine
 10
167.081322
 20
110.0
 30
0.0
 11
168.3293219999999
 21
110.0
 31
0.0
  0
LINE
  5
1C6
330
1E
100
AcDbEntity
  8
0
100
AcDbLine
 10
168.3293219999999
 20
110.0
 30
0.0
 11
168.797322
 21
110.0
 31
0.0
  0
LINE
  5
1C7
330
1E
100
AcDbEntity
  8
0
100
AcDbLine
 10
165.0013219999999
 20
84.20399999999998
 30
0.0
 11
167.081322
 21
81.44800000000001
 31
0.0
  0
LINE
  5
1C8
330
1E
100
AcDbEntity
  8
0
100
AcDbLine
 10
167.081322
 20
81.44800000000001
 30
0.0
 11
168.3293219999999
 21
78.328
 31
0.0
  0
LINE
  5
1C9
330
1E
100
AcDbEntity
  8
0
100
AcDbLine
 10
168.797322
 20
110.0
 30
0.0
 11
168.797322
 21
75.0
 31
0.0
  0
LINE
  5
1CA
330
1E
100
AcDbEntity
  8
0
100
AcDbLine
 10
168.797322
 20
75.0
 30
0.0
 11
168.797322
 21
110.0
 31
0.0
  0
LINE
  5
1CB
330
1E
100
AcDbEntity
  8
0
100
AcDbLine
 10
168.3293219999999
 20
78.328
 30
0.0
 11
168.797322
 21
75.0
 31
0.0
  0
LINE
  5
1CC
330
1E
100
AcDbEntity
  8
0
100
AcDbLine
 10
144.797322
 20
62.1266666666667
 30
0.0
 11
153.797322
 21
62.1866666666667
 31
0.0
  0
LINE
  5
1CD
330
1E
100
AcDbEntity
  8
0
100
AcDbLine
 10
133.797322
 20
35.0
 30
0.0
 11
133.797322
 21
35.93999999999999
 31
0.0
  0
LINE
  5
1CE
330
1E
100
AcDbEntity
  8
0
100
AcDbLine
 10
113.7973219999999
 20
121.0
 30
0.0
 11
113.7973219999999
 21
119.344
 31
0.0
  0
LINE
  5
1CF
330
1E
100
AcDbEntity
  8
0
100
AcDbLine
 10
113.7973219999999
 20
120.0
 30
0.0
 11
133.797322
 21
120.0
 31
0.0
  0
LINE
  5
1D0
330
1E
100
AcDbEntity
  8
0
100
AcDbLine
 10
93.79732199999999
 20
35.0
 30
0.0
 11
113.7973219999999
 21
35.0
 31
0.0
  0
LINE
  5
1D1
330
1E
100
AcDbEntity
  8
0
100
AcDbLine
 10
93.79732199999999
 20
35.0
 30
0.0
 11
93.79732199999999
 21
41.72399999999999
 31
0.0
  0
LINE
  5
1D2
330
1E
100
AcDbEntity
  8
0
100
AcDbLine
 10
93.79732199999999
 20
122.0
 30
0.0
 11
93.79732199999999
 21
120.3079999999999
 31
0.0
  0
LINE
  5
1D3
330
1E
100
AcDbEntity
  8
0
100
AcDbLine
 10
93.79732199999999
 20
121.0
 30
0.0
 11
113.7973219999999
 21
121.0
 31
0.0
  0
LINE
  5
1D4
330
1E
100
AcDbEntity
  8
0
100
AcDbLine
 10
71.797322
 20
122.0
 30
0.0
 11
93.79732199999999
 21
122.0
 31
0.0
  0
LINE
  5
1D9
330
1E
100
AcDbEntity
  8
0
100
AcDbLine
 10
51.797322
 20
53.0
 30
0.0
 11
24.5175545700546
 21
53.0
 31
0.0
  0
LINE
  5
1DA
330
1E
100
AcDbEntity
  8
0
100
AcDbLine
 10
24.5175545700546
 20
53.0
 30
0.0
 11
19.797322
 21
54.48022615881821
 31
0.0
  0
ENDSEC
  0
SECTION
  2
OBJECTS
  0
DICTIONARY
  5
C
330
0
100
AcDbDictionary
  3
ACAD_GROUP
350
D
  3
ACAD_LAYOUT
350
19
  3
ACAD_MLINESTYLE
350
16
  3
ACAD_PLOTSETTINGS
350
18
  3
ACAD_PLOTSTYLENAME
350
E
  3
ACDBHEADERROUNDTRIPXREC
350
1DE
  3
ACDBVARIABLEDICTIONARY
350
1DB
  0
DICTIONARY
  5
200
330
1E
100
AcDbDictionary
280
     1
  3
ACAD_LAYOUTSELFREF
360
201
  0
DICTIONARY
  5
1FE
330
1A
100
AcDbDictionary
280
     1
  3
ACAD_LAYOUTSELFREF
360
1FF
  0
DICTIONARY
  5
D
102
{ACAD_REACTORS
330
C
102
}
330
C
100
AcDbDictionary
  0
DICTIONARY
  5
19
102
{ACAD_REACTORS
330
C
102
}
330
C
100
AcDbDictionary
  0
DICTIONARY
  5
16
102
{ACAD_REACTORS
330
C
102
}
330
C
100
AcDbDictionary
  3
STANDARD
350
17
  0
DICTIONARY
  5
18
102
{ACAD_REACTORS
330
C
102
}
330
C
100
AcDbDictionary
  0
ACDBDICTIONARYWDFLT
  5
E
102
{ACAD_REACTORS
330
C
102
}
330
C
100
AcDbDictionary
281
     1
  3
Normal
350
F
100
AcDbDictionaryWithDefault
340
F
  0
DICTIONARY
  5
1DE
102
{ACAD_REACTORS
330
C
102
}
330
C
100
AcDbDictionary
  3
CEPSNTYPE
350
1E8
  3
FINGERPRINTGUID
350
1E9
  3
HYPERLINKBASE
350
1E1
  3
INSUNITS
350
1E7
  3
LAYOUTDICT
350
1E3
  3
LWETCUNION
350
1E6
  3
PLOTSETDICT
350
1E4
  3
PLOTSTYLNAMDICT
350
1E5
  3
PSVPSCALE
350
1EB
  3
PUCSBASE
350
1EE
  3
PUCSORGBACK
350
1F4
  3
PUCSORGBOTTOM
350
1F0
  3
PUCSORGFRONT
350
1F3
  3
PUCSORGLEFT
350
1F1
  3
PUCSORGRIGHT
350
1F2
  3
PUCSORGTOP
350
1EF
  3
PUCSORTHOREF
350
1EC
  3
PUCSORTHOVIEW
350
1ED
  3
STYLESHEET
350
1E2
  3
TSTACKALIGN
350
1DF
  3
TSTACKSIZE
350
1E0
  3
UCSBASE
350
1F7
  3
UCSORGBACK
350
1FD
  3
UCSORGBOTTOM
350
1F9
  3
UCSORGFRONT
350
1FC
  3
UCSORGLEFT
350
1FA
  3
UCSORGRIGHT
350
1FB
  3
UCSORGTOP
350
1F8
  3
UCSORTHOREF
350
1F5
  3
UCSORTHOVIEW
350
1F6
  3
VERSIONGUID
350
1EA
  0
DICTIONARY
  5
1DB
102
{ACAD_REACTORS
330
C
102
}
330
C
100
AcDbDictionary
  3
DIMASSOC
350
1DC
  0
XRECORD
  5
201
102
{ACAD_REACTORS
330
200
102
}
330
200
100
AcDbXrecord
340
1E
  0
XRECORD
  5
1FF
102
{ACAD_REACTORS
330
1FE
102
}
330
1FE
100
AcDbXrecord
340
1A
  0
MLINESTYLE
  5
17
102
{ACAD_REACTORS
330
16
102
}
330
16
100
AcDbMlineStyle
  2
STANDARD
 70
     0
  3

 62
   256
 51
90.0
 52
90.0
 71
     2
 49
0.5
 62
   256
  6
BYLAYER
 49
-0.5
 62
   256
  6
BYLAYER
  0
ACDBPLACEHOLDER
  5
F
102
{ACAD_REACTORS
330
E
102
}
330
E
100
AcDbPlaceHolder
280
     0
  0
XRECORD
  5
1E8
102
{ACAD_REACTORS
330
1DE
102
}
330
1DE
100
AcDbXrecord
 90
        0
  0
XRECORD
  5
1E9
102
{ACAD_REACTORS
330
1DE
102
}
330
1DE
100
AcDbXrecord
  1
{1BCC8D5D-88F5-4467-8215-F8C1AD57E66A}
  0
XRECORD
  5
1E1
102
{ACAD_REACTORS
330
1DE
102
}
330
1DE
100
AcDbXrecord
  1

  0
XRECORD
  5
1E7
102
{ACAD_REACTORS
330
1DE
102
}
330
1DE
100
AcDbXrecord
 90
        0
  0
XRECORD
  5
1E3
102
{ACAD_REACTORS
330
1DE
102
}
330
1DE
100
AcDbXrecord
340
19
  0
XRECORD
  5
1E6
102
{ACAD_REACTORS
330
1DE
102
}
330
1DE
100
AcDbXrecord
 90
    10781
  0
XRECORD
  5
1E4
102
{ACAD_REACTORS
330
1DE
102
}
330
1DE
100
AcDbXrecord
340
18
  0
XRECORD
  5
1E5
102
{ACAD_REACTORS
330
1DE
102
}
330
1DE
100
AcDbXrecord
340
E
  0
XRECORD
  5
1EB
102
{ACAD_REACTORS
330
1DE
102
}
330
1DE
100
AcDbXrecord
 40
0.0
  0
XRECORD
  5
1EE
102
{ACAD_REACTORS
330
1DE
102
}
330
1DE
100
AcDbXrecord
340
0
  0
XRECORD
  5
1F4
102
{ACAD_REACTORS
330
1DE
102
}
330
1DE
100
AcDbXrecord
 10
0.0
 20
0.0
 30
0.0
  0
XRECORD
  5
1F0
102
{ACAD_REACTORS
330
1DE
102
}
330
1DE
100
AcDbXrecord
 10
0.0
 20
0.0
 30
0.0
  0
XRECORD
  5
1F3
102
{ACAD_REACTORS
330
1DE
102
}
330
1DE
100
AcDbXrecord
 10
0.0
 20
0.0
 30
0.0
  0
XRECORD
  5
1F1
102
{ACAD_REACTORS
330
1DE
102
}
330
1DE
100
AcDbXrecord
 10
0.0
 20
0.0
 30
0.0
  0
XRECORD
  5
1F2
102
{ACAD_REACTORS
330
1DE
102
}
330
1DE
100
AcDbXrecord
 10
0.0
 20
0.0
 30
0.0
  0
XRECORD
  5
1EF
102
{ACAD_REACTORS
330
1DE
102
}
330
1DE
100
AcDbXrecord
 10
0.0
 20
0.0
 30
0.0
  0
XRECORD
  5
1EC
102
{ACAD_REACTORS
330
1DE
102
}
330
1DE
100
AcDbXrecord
340
0
  0
XRECORD
  5
1ED
102
{ACAD_REACTORS
330
1DE
102
}
330
1DE
100
AcDbXrecord
 70
     0
  0
XRECORD
  5
1E2
102
{ACAD_REACTORS
330
1DE
102
}
330
1DE
100
AcDbXrecord
  1

  0
XRECORD
  5
1DF
102
{ACAD_REACTORS
330
1DE
102
}
330
1DE
100
AcDbXrecord
 90
        1
  0
XRECORD
  5
1E0
102
{ACAD_REACTORS
330
1DE
102
}
330
1DE
100
AcDbXrecord
 90
       70
  0
XRECORD
  5
1F7
102
{ACAD_REACTORS
330
1DE
102
}
330
1DE
100
AcDbXrecord
340
0
  0
XRECORD
  5
1FD
102
{ACAD_REACTORS
330
1DE
102
}
330
1DE
100
AcDbXrecord
 10
0.0
 20
0.0
 30
0.0
  0
XRECORD
  5
1F9
102
{ACAD_REACTORS
330
1DE
102
}
330
1DE
100
AcDbXrecord
 10
0.0
 20
0.0
 30
0.0
  0
XRECORD
  5
1FC
102
{ACAD_REACTORS
330
1DE
102
}
330
1DE
100
AcDbXrecord
 10
0.0
 20
0.0
 30
0.0
  0
XRECORD
  5
1FA
102
{ACAD_REACTORS
330
1DE
102
}
330
1DE
100
AcDbXrecord
 10
0.0
 20
0.0
 30
0.0
  0
XRECORD
  5
1FB
102
{ACAD_REACTORS
330
1DE
102
}
330
1DE
100
AcDbXrecord
 10
0.0
 20
0.0
 30
0.0
  0
XRECORD
  5
1F8
102
{ACAD_REACTORS
330
1DE
102
}
330
1DE
100
AcDbXrecord
 10
0.0
 20
0.0
 30
0.0
  0
XRECORD
  5
1F5
102
{ACAD_REACTORS
330
1DE
102
}
330
1DE
100
AcDbXrecord
340
0
  0
XRECORD
  5
1F6
102
{ACAD_REACTORS
330
1DE
102
}
330
1DE
100
AcDbXrecord
 70
     1
  0
XRECORD
  5
1EA
102
{ACAD_REACTORS
330
1DE
102
}
330
1DE
100
AcDbXrecord
  1
{65AF56E8-5D85-4D8E-B483-884A378DD1F3}
  0
DICTIONARYVAR
  5
1DC
102
{ACAD_REACTORS
330
1DB
102
}
330
1DB
100
DictionaryVariables
280
     0
  1
1
  0
ENDSEC
  0
EOF
