  0
SECTION
  2
HEADER
  9
$ACADVER
  1
AC1014
  9
$ACADMAINTVER
 70
     9
  9
$DWGCODEPAGE
  3
ANSI_1252
  9
$INSBASE
 10
0.0
 20
0.0
 30
0.0
  9
$EXTMIN
 10
0.147037
 20
-0.000000000000008
 30
0.0
  9
$EXTMAX
 10
165.8529629999999
 20
158.0
 30
0.0
  9
$LIMMIN
 10
0.0
 20
0.0
  9
$LIMMAX
 10
12.0
 20
9.0
  9
$ORTHOMODE
 70
     0
  9
$REGENMODE
 70
     1
  9
$FILLMODE
 70
     1
  9
$QTEXTMODE
 70
     0
  9
$MIRRTEXT
 70
     1
  9
$DRAGMODE
 70
     2
  9
$LTSCALE
 40
1.0
  9
$OSMODE
 70
    37
  9
$ATTMODE
 70
     1
  9
$TEXTSIZE
 40
0.2
  9
$TRACEWID
 40
0.05
  9
$TEXTSTYLE
  7
STANDARD
  9
$CLAYER
  8
0
  9
$CELTYPE
  6
CONTINUOUS
  9
$CECOLOR
 62
   256
  9
$CELTSCALE
 40
1.0
  9
$DELOBJ
 70
     1
  9
$DISPSILH
 70
     0
  9
$DIMSCALE
 40
1.0
  9
$DIMASZ
 40
0.18
  9
$DIMEXO
 40
0.0625
  9
$DIMDLI
 40
0.38
  9
$DIMRND
 40
0.0
  9
$DIMDLE
 40
0.0
  9
$DIMEXE
 40
0.18
  9
$DIMTP
 40
0.0
  9
$DIMTM
 40
0.0
  9
$DIMTXT
 40
0.18
  9
$DIMCEN
 40
0.09
  9
$DIMTSZ
 40
0.0
  9
$DIMTOL
 70
     0
  9
$DIMLIM
 70
     0
  9
$DIMTIH
 70
     1
  9
$DIMTOH
 70
     1
  9
$DIMSE1
 70
     0
  9
$DIMSE2
 70
     0
  9
$DIMTAD
 70
     0
  9
$DIMZIN
 70
     0
  9
$DIMBLK
  1

  9
$DIMASO
 70
     1
  9
$DIMSHO
 70
     1
  9
$DIMPOST
  1

  9
$DIMAPOST
  1

  9
$DIMALT
 70
     0
  9
$DIMALTD
 70
     2
  9
$DIMALTF
 40
25.4
  9
$DIMLFAC
 40
1.0
  9
$DIMTOFL
 70
     0
  9
$DIMTVP
 40
0.0
  9
$DIMTIX
 70
     0
  9
$DIMSOXD
 70
     0
  9
$DIMSAH
 70
     0
  9
$DIMBLK1
  1

  9
$DIMBLK2
  1

  9
$DIMSTYLE
  2
STANDARD
  9
$DIMCLRD
 70
     0
  9
$DIMCLRE
 70
     0
  9
$DIMCLRT
 70
     0
  9
$DIMTFAC
 40
1.0
  9
$DIMGAP
 40
0.09
  9
$DIMJUST
 70
     0
  9
$DIMSD1
 70
     0
  9
$DIMSD2
 70
     0
  9
$DIMTOLJ
 70
     1
  9
$DIMTZIN
 70
     0
  9
$DIMALTZ
 70
     0
  9
$DIMALTTZ
 70
     0
  9
$DIMFIT
 70
     3
  9
$DIMUPT
 70
     0
  9
$DIMUNIT
 70
     2
  9
$DIMDEC
 70
     4
  9
$DIMTDEC
 70
     4
  9
$DIMALTU
 70
     2
  9
$DIMALTTD
 70
     2
  9
$DIMTXSTY
  7
STANDARD
  9
$DIMAUNIT
 70
     0
  9
$LUNITS
 70
     2
  9
$LUPREC
 70
     4
  9
$SKETCHINC
 40
0.1
  9
$FILLETRAD
 40
0.0
  9
$AUNITS
 70
     0
  9
$AUPREC
 70
     0
  9
$MENU
  1
.
  9
$ELEVATION
 40
0.0
  9
$PELEVATION
 40
0.0
  9
$THICKNESS
 40
0.0
  9
$LIMCHECK
 70
     0
  9
$BLIPMODE
 70
     0
  9
$CHAMFERA
 40
0.0
  9
$CHAMFERB
 40
0.0
  9
$CHAMFERC
 40
0.0
  9
$CHAMFERD
 40
0.0
  9
$SKPOLY
 70
     0
  9
$TDCREATE
 40
2454700.540087523
  9
$TDUPDATE
 40
2454700.540971134
  9
$TDINDWG
 40
0.0008839699
  9
$TDUSRTIMER
 40
0.0008839699
  9
$USRTIMER
 70
     1
  9
$ANGBASE
 50
0.0
  9
$ANGDIR
 70
     0
  9
$PDMODE
 70
     0
  9
$PDSIZE
 40
0.0
  9
$PLINEWID
 40
0.0
  9
$COORDS
 70
     1
  9
$SPLFRAME
 70
     0
  9
$SPLINETYPE
 70
     6
  9
$SPLINESEGS
 70
     8
  9
$ATTDIA
 70
     0
  9
$ATTREQ
 70
     1
  9
$HANDLING
 70
 22529
  9
$HANDSEED
  5
1C2
  9
$SURFTAB1
 70
     6
  9
$SURFTAB2
 70
     6
  9
$SURFTYPE
 70
     6
  9
$SURFU
 70
     6
  9
$SURFV
 70
     6
  9
$UCSNAME
  2

  9
$UCSORG
 10
0.0
 20
0.0
 30
0.0
  9
$UCSXDIR
 10
1.0
 20
0.0
 30
0.0
  9
$UCSYDIR
 10
0.0
 20
1.0
 30
0.0
  9
$PUCSNAME
  2

  9
$PUCSORG
 10
0.0
 20
0.0
 30
0.0
  9
$PUCSXDIR
 10
1.0
 20
0.0
 30
0.0
  9
$PUCSYDIR
 10
0.0
 20
1.0
 30
0.0
  9
$USERI1
 70
     0
  9
$USERI2
 70
     0
  9
$USERI3
 70
     0
  9
$USERI4
 70
     0
  9
$USERI5
 70
     0
  9
$USERR1
 40
0.0
  9
$USERR2
 40
0.0
  9
$USERR3
 40
0.0
  9
$USERR4
 40
0.0
  9
$USERR5
 40
0.0
  9
$WORLDVIEW
 70
     1
  9
$SHADEDGE
 70
     3
  9
$SHADEDIF
 70
    70
  9
$TILEMODE
 70
     1
  9
$MAXACTVP
 70
    64
  9
$PINSBASE
 10
0.0
 20
0.0
 30
0.0
  9
$PLIMCHECK
 70
     0
  9
$PEXTMIN
 10
1.000000000000000E+20
 20
1.000000000000000E+20
 30
1.000000000000000E+20
  9
$PEXTMAX
 10
-1.000000000000000E+20
 20
-1.000000000000000E+20
 30
-1.000000000000000E+20
  9
$PLIMMIN
 10
0.0
 20
0.0
  9
$PLIMMAX
 10
12.0
 20
9.0
  9
$UNITMODE
 70
     0
  9
$VISRETAIN
 70
     1
  9
$PLINEGEN
 70
     0
  9
$PSLTSCALE
 70
     1
  9
$TREEDEPTH
 70
  3020
  9
$PICKSTYLE
 70
     1
  9
$CMLSTYLE
  2
STANDARD
  9
$CMLJUST
 70
     0
  9
$CMLSCALE
 40
1.0
  9
$PROXYGRAPHICS
 70
     1
  9
$MEASUREMENT
 70
     0
  0
ENDSEC
  0
SECTION
  2
CLASSES
  0
CLASS
  1
ACDBDICTIONARYWDFLT
  2
AcDbDictionaryWithDefault
  3
AutoCAD 2000
 90
        0
280
     0
281
     0
  0
CLASS
  1
ACDBPLACEHOLDER
  2
AcDbPlaceHolder
  3
AutoCAD 2000
 90
        0
280
     0
281
     0
  0
CLASS
  1
LAYOUT
  2
AcDbLayout
  3
AutoCAD 2000
 90
        0
280
     0
281
     0
  0
CLASS
  1
DICTIONARYVAR
  2
AcDbDictionaryVar
  3
AutoCAD 2000
 90
        0
280
     0
281
     0
  0
CLASS
  1
LONG_TRANSACTION
  2
AcDbLongTransaction
  3
AutoCAD 2000
 90
        0
280
     0
281
     0
  0
CLASS
  1
LWPOLYLINE
  2
AcDbPolyline
  3
AutoCAD 2000
 90
        0
280
     0
281
     1
  0
CLASS
  1
HATCH
  2
AcDbHatch
  3
AutoCAD 2000
 90
        0
280
     0
281
     1
  0
CLASS
  1
XRECORD
  2
AcDbXrecord
  3
AutoCAD 2000
 90
        0
280
     0
281
     0
  0
ENDSEC
  0
SECTION
  2
TABLES
  0
TABLE
  2
VPORT
  5
8
330
0
100
AcDbSymbolTable
 70
     2
  0
VPORT
  5
19D
330
8
100
AcDbSymbolTableRecord
100
AcDbViewportTableRecord
  2
*ACTIVE
 70
     0
 10
0.0
 20
0.0
 11
1.0
 21
1.0
 12
82.99999999999998
 22
78.99999999999998
 13
0.0
 23
0.0
 14
1.0
 24
1.0
 15
0.0
 25
0.0
 16
0.0
 26
0.0
 36
1.0
 17
0.0
 27
0.0
 37
0.0
 40
159.2122762148337
 41
2.078104993597951
 42
50.0
 43
0.0
 44
0.0
 50
0.0
 51
0.0
 71
     0
 72
   100
 73
     1
 74
     3
 75
     0
 76
     0
 77
     0
 78
     0
  0
ENDTAB
  0
TABLE
  2
LTYPE
  5
5
330
0
100
AcDbSymbolTable
 70
     1
  0
LTYPE
  5
13
330
5
100
AcDbSymbolTableRecord
100
AcDbLinetypeTableRecord
  2
BYBLOCK
 70
     0
  3

 72
    65
 73
     0
 40
0.0
  0
LTYPE
  5
14
330
5
100
AcDbSymbolTableRecord
100
AcDbLinetypeTableRecord
  2
BYLAYER
 70
     0
  3

 72
    65
 73
     0
 40
0.0
  0
LTYPE
  5
15
330
5
100
AcDbSymbolTableRecord
100
AcDbLinetypeTableRecord
  2
CONTINUOUS
 70
     0
  3
Solid line
 72
    65
 73
     0
 40
0.0
  0
ENDTAB
  0
TABLE
  2
LAYER
  5
2
330
0
100
AcDbSymbolTable
 70
     1
  0
LAYER
  5
10
330
2
100
AcDbSymbolTableRecord
100
AcDbLayerTableRecord
  2
0
 70
     0
 62
     7
  6
CONTINUOUS
  0
ENDTAB
  0
TABLE
  2
STYLE
  5
3
330
0
100
AcDbSymbolTable
 70
     1
  0
STYLE
  5
11
330
3
100
AcDbSymbolTableRecord
100
AcDbTextStyleTableRecord
  2
STANDARD
 70
     0
 40
0.0
 41
1.0
 50
0.0
 71
     0
 42
0.2
  3
txt
  4

  0
ENDTAB
  0
TABLE
  2
VIEW
  5
6
330
0
100
AcDbSymbolTable
 70
     0
  0
ENDTAB
  0
TABLE
  2
UCS
  5
7
330
0
100
AcDbSymbolTable
 70
     0
  0
ENDTAB
  0
TABLE
  2
APPID
  5
9
330
0
100
AcDbSymbolTable
 70
     1
  0
APPID
  5
12
330
9
100
AcDbSymbolTableRecord
100
AcDbRegAppTableRecord
  2
ACAD
 70
     0
  0
ENDTAB
  0
TABLE
  2
DIMSTYLE
  5
A
330
0
100
AcDbSymbolTable
 70
     1
  0
DIMSTYLE
105
191
330
A
100
AcDbSymbolTableRecord
100
AcDbDimStyleTableRecord
  2
STANDARD
 70
     0
  3

  4

  5

  6

  7

 40
1.0
 41
0.18
 42
0.0625
 43
0.38
 44
0.18
 45
0.0
 46
0.0
 47
0.0
 48
0.0
140
0.18
141
0.09
142
0.0
143
25.4
144
1.0
145
0.0
146
1.0
147
0.09
 71
     0
 72
     0
 73
     1
 74
     1
 75
     0
 76
     0
 77
     0
 78
     0
170
     0
171
     2
172
     0
173
     0
174
     0
175
     0
176
     0
177
     0
178
     0
270
     2
271
     4
272
     4
273
     2
274
     2
340
11
275
     0
280
     0
281
     0
282
     0
283
     1
284
     0
285
     0
286
     0
287
     3
288
     0
  0
ENDTAB
  0
TABLE
  2
BLOCK_RECORD
  5
1
330
0
100
AcDbSymbolTable
 70
     0
  0
BLOCK_RECORD
  5
1E
102
{ACAD_XDICTIONARY
360
1C0
102
}
330
1
100
AcDbSymbolTableRecord
100
AcDbBlockTableRecord
  2
*MODEL_SPACE
  0
BLOCK_RECORD
  5
1A
102
{ACAD_XDICTIONARY
360
1BE
102
}
330
1
100
AcDbSymbolTableRecord
100
AcDbBlockTableRecord
  2
*PAPER_SPACE
  0
ENDTAB
  0
ENDSEC
  0
SECTION
  2
BLOCKS
  0
BLOCK
  5
1F
330
1E
100
AcDbEntity
  8
0
100
AcDbBlockBegin
  2
*MODEL_SPACE
 70
     0
 10
0.0
 20
0.0
 30
0.0
  3
*MODEL_SPACE
  1

  0
ENDBLK
  5
20
330
1E
100
AcDbEntity
  8
0
100
AcDbBlockEnd
  0
BLOCK
  5
1B
330
1A
100
AcDbEntity
 67
     1
  8
0
100
AcDbBlockBegin
  2
*PAPER_SPACE
 70
     0
 10
0.0
 20
0.0
 30
0.0
  3
*PAPER_SPACE
  1

  0
ENDBLK
  5
1C
330
1A
100
AcDbEntity
 67
     1
  8
0
100
AcDbBlockEnd
  0
ENDSEC
  0
SECTION
  2
ENTITIES
  0
LINE
  5
22
330
1E
100
AcDbEntity
  8
0
100
AcDbLine
 10
1.872672999999999
 20
84.6503
 30
0.0
 11
2.198693
 21
81.88549999999999
 31
0.0
  0
LINE
  5
23
330
1E
100
AcDbEntity
  8
0
100
AcDbLine
 10
1.518554999999999
 20
87.65349999999999
 30
0.0
 11
1.872672999999999
 21
84.6503
 31
0.0
  0
LINE
  5
24
330
1E
100
AcDbEntity
  8
0
100
AcDbLine
 10
2.704582999999999
 20
77.59520000000001
 30
0.0
 11
2.839482999999999
 21
76.45109999999999
 31
0.0
  0
LINE
  5
25
330
1E
100
AcDbEntity
  8
0
100
AcDbLine
 10
2.485362999999999
 20
79.4543
 30
0.0
 11
2.704582999999999
 21
77.59520000000001
 31
0.0
  0
LINE
  5
26
330
1E
100
AcDbEntity
  8
0
100
AcDbLine
 10
2.839482999999999
 20
76.45109999999999
 30
0.0
 11
2.890073
 21
76.02209999999999
 31
0.0
  0
LINE
  5
27
330
1E
100
AcDbEntity
  8
0
100
AcDbLine
 10
2.890073
 20
76.02209999999999
 30
0.0
 11
3.168263
 21
75.76489999999999
 31
0.0
  0
LINE
  5
28
330
1E
100
AcDbEntity
  8
0
100
AcDbLine
 10
3.168263
 20
75.76489999999999
 30
0.0
 11
10.868763
 21
76.6729
 31
0.0
  0
LINE
  5
29
330
1E
100
AcDbEntity
  8
0
100
AcDbLine
 10
3.117672999999999
 20
76.1939
 30
0.0
 11
3.168263
 21
75.76489999999999
 31
0.0
  0
LINE
  5
2A
330
1E
100
AcDbEntity
  8
0
100
AcDbLine
 10
2.982763
 20
77.33800000000001
 30
0.0
 11
3.117672999999999
 21
76.1939
 31
0.0
  0
LINE
  5
2B
330
1E
100
AcDbEntity
  8
0
100
AcDbLine
 10
2.757932999999999
 20
79.24479999999999
 30
0.0
 11
2.982763
 21
77.33800000000001
 31
0.0
  0
LINE
  5
2C
330
1E
100
AcDbEntity
  8
0
100
AcDbLine
 10
2.198693
 20
81.88549999999999
 30
0.0
 11
2.485362999999999
 21
79.4543
 31
0.0
  0
LINE
  5
2D
330
1E
100
AcDbEntity
  8
0
100
AcDbLine
 10
2.460013
 20
81.7713
 30
0.0
 11
2.757932999999999
 21
79.24479999999999
 31
0.0
  0
LINE
  5
2E
330
1E
100
AcDbEntity
  8
0
100
AcDbLine
 10
2.122752999999999
 20
84.6315
 30
0.0
 11
2.460013
 21
81.7713
 31
0.0
  0
LINE
  5
2F
330
1E
100
AcDbEntity
  8
0
100
AcDbLine
 10
1.763013
 20
87.6823
 30
0.0
 11
2.122752999999999
 21
84.6315
 31
0.0
  0
LINE
  5
30
330
1E
100
AcDbEntity
  8
0
100
AcDbLine
 10
1.164433999999999
 20
90.6567
 30
0.0
 11
1.518554999999999
 21
87.65349999999999
 31
0.0
  0
LINE
  5
31
330
1E
100
AcDbEntity
  8
0
100
AcDbLine
 10
1.403272999999999
 20
90.7332
 30
0.0
 11
1.763013
 21
87.6823
 31
0.0
  0
LINE
  5
32
330
1E
100
AcDbEntity
  8
0
100
AcDbLine
 10
9.823252999999999
 20
85.5395
 30
0.0
 11
10.16051299999999
 21
82.67929999999999
 31
0.0
  0
LINE
  5
33
330
1E
100
AcDbEntity
  8
0
100
AcDbLine
 10
9.847142999999999
 20
85.33689999999999
 30
0.0
 11
10.200333
 21
82.34160000000001
 31
0.0
  0
LINE
  5
34
330
1E
100
AcDbEntity
  8
0
100
AcDbLine
 10
9.463513
 20
88.5903
 30
0.0
 11
9.847142999999999
 21
85.33689999999999
 31
0.0
  0
LINE
  5
35
330
1E
100
AcDbEntity
  8
0
100
AcDbLine
 10
9.463513
 20
88.5903
 30
0.0
 11
9.823252999999999
 21
85.5395
 31
0.0
  0
LINE
  5
36
330
1E
100
AcDbEntity
  8
0
100
AcDbLine
 10
10.818163
 20
77.1019
 30
0.0
 11
10.868763
 21
76.6729
 31
0.0
  0
LINE
  5
37
330
1E
100
AcDbEntity
  8
0
100
AcDbLine
 10
10.7703253272518
 20
77.5076159480447
 30
0.0
 11
10.818163
 21
77.1019
 31
0.0
  0
LINE
  5
38
330
1E
100
AcDbEntity
  8
0
100
AcDbLine
 10
10.748363
 20
77.69379999999999
 30
0.0
 11
10.89456299999999
 21
76.4544
 31
0.0
  0
LINE
  5
39
330
1E
100
AcDbEntity
  8
0
100
AcDbLine
 10
10.458423
 20
80.1528
 30
0.0
 11
10.61427703696929
 21
78.8310490762629
 31
0.0
  0
LINE
  5
3A
330
1E
100
AcDbEntity
  8
0
100
AcDbLine
 10
10.51089299999999
 20
79.7079
 30
0.0
 11
10.748363
 21
77.69379999999999
 31
0.0
  0
LINE
  5
3B
330
1E
100
AcDbEntity
  8
0
100
AcDbLine
 10
10.51089299999999
 20
79.7079
 30
0.0
 11
10.61427703696929
 21
78.8310490762629
 31
0.0
  0
LINE
  5
3C
330
1E
100
AcDbEntity
  8
0
100
AcDbLine
 10
10.949363
 20
75.98959999999999
 30
0.0
 11
11.291463
 21
75.7158
 31
0.0
  0
LINE
  5
3D
330
1E
100
AcDbEntity
  8
0
100
AcDbLine
 10
10.89456299999999
 20
76.4544
 30
0.0
 11
10.949363
 21
75.98959999999999
 31
0.0
  0
LINE
  5
3E
330
1E
100
AcDbEntity
  8
0
100
AcDbLine
 10
11.291463
 20
75.7158
 30
0.0
 11
18.625263
 21
76.5806
 31
0.0
  0
LINE
  5
3F
330
1E
100
AcDbEntity
  8
0
100
AcDbLine
 10
11.236663
 20
76.18059999999999
 30
0.0
 11
11.291463
 21
75.7158
 31
0.0
  0
LINE
  5
40
330
1E
100
AcDbEntity
  8
0
100
AcDbLine
 10
11.09046299999999
 20
77.42
 30
0.0
 11
11.236663
 21
76.18059999999999
 31
0.0
  0
LINE
  5
41
330
1E
100
AcDbEntity
  8
0
100
AcDbLine
 10
10.846863
 20
79.4857
 30
0.0
 11
11.09046299999999
 21
77.42
 31
0.0
  0
LINE
  5
42
330
1E
100
AcDbEntity
  8
0
100
AcDbLine
 10
10.16051299999999
 20
82.67929999999999
 30
0.0
 11
10.458423
 21
80.1528
 31
0.0
  0
LINE
  5
43
330
1E
100
AcDbEntity
  8
0
100
AcDbLine
 10
10.200333
 20
82.34160000000001
 30
0.0
 11
10.51089299999999
 21
79.7079
 31
0.0
  0
LINE
  5
44
330
1E
100
AcDbEntity
  8
0
100
AcDbLine
 10
10.52417299999999
 20
82.22269999999999
 30
0.0
 11
10.846863
 21
79.4857
 31
0.0
  0
LINE
  5
45
330
1E
100
AcDbEntity
  8
0
100
AcDbLine
 10
10.158803
 20
85.3213
 30
0.0
 11
10.52417299999999
 21
82.22269999999999
 31
0.0
  0
LINE
  5
46
330
1E
100
AcDbEntity
  8
0
100
AcDbLine
 10
9.769083
 20
88.6264
 30
0.0
 11
10.158803
 21
85.3213
 31
0.0
  0
LINE
  5
47
330
1E
100
AcDbEntity
  8
0
100
AcDbLine
 10
9.079883
 20
91.8438
 30
0.0
 11
9.463513
 21
88.5903
 31
0.0
  0
LINE
  5
48
330
1E
100
AcDbEntity
  8
0
100
AcDbLine
 10
9.379362999999999
 20
91.93150000000001
 30
0.0
 11
9.769083
 21
88.6264
 31
0.0
  0
LINE
  5
49
330
1E
100
AcDbEntity
  8
0
100
AcDbLine
 10
30.427863
 20
75.6534
 30
0.0
 11
77.64586300000001
 21
75.78520000000001
 31
0.0
  0
LINE
  5
4A
330
1E
100
AcDbEntity
  8
0
100
AcDbLine
 10
29.812463
 20
76.40340000000001
 30
0.0
 11
29.812463
 21
77.8593
 31
0.0
  0
LINE
  5
4B
330
1E
100
AcDbEntity
  8
0
100
AcDbLine
 10
29.812463
 20
76.40340000000001
 30
0.0
 11
29.812463
 21
75.87399999999999
 31
0.0
  0
LINE
  5
4C
330
1E
100
AcDbEntity
  8
0
100
AcDbLine
 10
29.504763
 20
76.3152
 30
0.0
 11
29.812463
 21
75.87399999999999
 31
0.0
  0
LINE
  5
4D
330
1E
100
AcDbEntity
  8
0
100
AcDbLine
 10
29.504763
 20
76.3152
 30
0.0
 11
29.504763
 21
76.8446
 31
0.0
  0
LINE
  5
4E
330
1E
100
AcDbEntity
  8
0
100
AcDbLine
 10
29.812463
 20
75.87399999999999
 30
0.0
 11
30.427863
 21
75.6534
 31
0.0
  0
LINE
  5
4F
330
1E
100
AcDbEntity
  8
0
100
AcDbLine
 10
29.812463
 20
75.87399999999999
 30
0.0
 11
29.812463
 21
76.40340000000001
 31
0.0
  0
LINE
  5
50
330
1E
100
AcDbEntity
  8
0
100
AcDbLine
 10
30.427863
 20
75.6534
 30
0.0
 11
77.64586300000001
 21
75.78520000000001
 31
0.0
  0
LINE
  5
51
330
1E
100
AcDbEntity
  8
0
100
AcDbLine
 10
18.813763
 20
77.6097
 30
0.0
 11
28.439363
 21
78.74469999999999
 31
0.0
  0
LINE
  5
52
330
1E
100
AcDbEntity
  8
0
100
AcDbLine
 10
18.763163
 20
78.0387
 30
0.0
 11
18.813763
 21
77.6097
 31
0.0
  0
LINE
  5
53
330
1E
100
AcDbEntity
  8
0
100
AcDbLine
 10
29.812463
 20
77.8593
 30
0.0
 11
29.812463
 21
80.1975
 31
0.0
  0
LINE
  5
54
330
1E
100
AcDbEntity
  8
0
100
AcDbLine
 10
29.812463
 20
77.8593
 30
0.0
 11
29.812463
 21
76.40340000000001
 31
0.0
  0
LINE
  5
55
330
1E
100
AcDbEntity
  8
0
100
AcDbLine
 10
29.504763
 20
78.2563
 30
0.0
 11
29.504763
 21
76.8446
 31
0.0
  0
LINE
  5
56
330
1E
100
AcDbEntity
  8
0
100
AcDbLine
 10
29.504763
 20
78.2563
 30
0.0
 11
29.504763
 21
80.50629999999999
 31
0.0
  0
LINE
  5
57
330
1E
100
AcDbEntity
  8
0
100
AcDbLine
 10
29.504763
 20
76.8446
 30
0.0
 11
29.504763
 21
76.3152
 31
0.0
  0
LINE
  5
58
330
1E
100
AcDbEntity
  8
0
100
AcDbLine
 10
29.504763
 20
76.8446
 30
0.0
 11
29.504763
 21
78.2563
 31
0.0
  0
LINE
  5
59
330
1E
100
AcDbEntity
  8
0
100
AcDbLine
 10
18.839463
 20
77.39119999999999
 30
0.0
 11
18.894263
 21
76.9264
 31
0.0
  0
LINE
  5
5A
330
1E
100
AcDbEntity
  8
0
100
AcDbLine
 10
18.625263
 20
76.5806
 30
0.0
 11
18.894263
 21
76.9264
 31
0.0
  0
LINE
  5
5B
330
1E
100
AcDbEntity
  8
0
100
AcDbLine
 10
18.570463
 20
77.0453
 30
0.0
 11
18.625263
 21
76.5806
 31
0.0
  0
LINE
  5
5C
330
1E
100
AcDbEntity
  8
0
100
AcDbLine
 10
18.628263
 20
79.1828
 30
0.0
 11
18.763163
 21
78.0387
 31
0.0
  0
LINE
  5
5D
330
1E
100
AcDbEntity
  8
0
100
AcDbLine
 10
18.5655352122787
 20
79.71463346210341
 30
0.0
 11
18.628263
 21
79.1828
 31
0.0
  0
LINE
  5
5E
330
1E
100
AcDbEntity
  8
0
100
AcDbLine
 10
29.812463
 20
80.1975
 30
0.0
 11
29.812463
 21
83.2857
 31
0.0
  0
LINE
  5
5F
330
1E
100
AcDbEntity
  8
0
100
AcDbLine
 10
29.812463
 20
80.1975
 30
0.0
 11
29.812463
 21
77.8593
 31
0.0
  0
LINE
  5
60
330
1E
100
AcDbEntity
  8
0
100
AcDbLine
 10
29.504763
 20
80.50629999999999
 30
0.0
 11
29.504763
 21
83.5063
 31
0.0
  0
LINE
  5
61
330
1E
100
AcDbEntity
  8
0
100
AcDbLine
 10
29.504763
 20
80.50629999999999
 30
0.0
 11
29.504763
 21
78.2563
 31
0.0
  0
LINE
  5
62
330
1E
100
AcDbEntity
  8
0
100
AcDbLine
 10
28.660563
 20
79.4958
 30
0.0
 11
28.711163
 21
79.0668
 31
0.0
  0
LINE
  5
63
330
1E
100
AcDbEntity
  8
0
100
AcDbLine
 10
28.439363
 20
78.74469999999999
 30
0.0
 11
28.711163
 21
79.0668
 31
0.0
  0
LINE
  5
64
330
1E
100
AcDbEntity
  8
0
100
AcDbLine
 10
28.388763
 20
79.1737
 30
0.0
 11
28.439363
 21
78.74469999999999
 31
0.0
  0
LINE
  5
65
330
1E
100
AcDbEntity
  8
0
100
AcDbLine
 10
28.525663
 20
80.6399
 30
0.0
 11
28.660563
 21
79.4958
 31
0.0
  0
LINE
  5
66
330
1E
100
AcDbEntity
  8
0
100
AcDbLine
 10
28.25386299999999
 20
80.31780000000001
 30
0.0
 11
28.388763
 21
79.1737
 31
0.0
  0
LINE
  5
67
330
1E
100
AcDbEntity
  8
0
100
AcDbLine
 10
18.693363
 20
78.6306
 30
0.0
 11
18.839463
 21
77.39119999999999
 31
0.0
  0
LINE
  5
68
330
1E
100
AcDbEntity
  8
0
100
AcDbLine
 10
18.42426299999999
 20
78.2848
 30
0.0
 11
18.570463
 21
77.0453
 31
0.0
  0
LINE
  5
69
330
1E
100
AcDbEntity
  8
0
100
AcDbLine
 10
28.306463
 20
82.499
 30
0.0
 11
28.525663
 21
80.6399
 31
0.0
  0
LINE
  5
6A
330
1E
100
AcDbEntity
  8
0
100
AcDbLine
 10
28.028963
 20
82.22459999999999
 30
0.0
 11
28.25386299999999
 21
80.31780000000001
 31
0.0
  0
LINE
  5
6B
330
1E
100
AcDbEntity
  8
0
100
AcDbLine
 10
18.455863
 20
80.6447
 30
0.0
 11
18.693363
 21
78.6306
 31
0.0
  0
LINE
  5
6C
330
1E
100
AcDbEntity
  8
0
100
AcDbLine
 10
18.18066299999999
 20
80.3504
 30
0.0
 11
18.42426299999999
 21
78.2848
 31
0.0
  0
LINE
  5
6D
330
1E
100
AcDbEntity
  8
0
100
AcDbLine
 10
18.105463
 20
83.6161
 30
0.0
 11
18.23973110840429
 21
82.47736762039769
 31
0.0
  0
LINE
  5
6E
330
1E
100
AcDbEntity
  8
0
100
AcDbLine
 10
29.812463
 20
83.2857
 30
0.0
 11
29.812463
 21
86.8593
 31
0.0
  0
LINE
  5
6F
330
1E
100
AcDbEntity
  8
0
100
AcDbLine
 10
29.812463
 20
83.2857
 30
0.0
 11
29.812463
 21
80.1975
 31
0.0
  0
LINE
  5
70
330
1E
100
AcDbEntity
  8
0
100
AcDbLine
 10
29.504763
 20
83.5063
 30
0.0
 11
29.504763
 21
80.50629999999999
 31
0.0
  0
LINE
  5
71
330
1E
100
AcDbEntity
  8
0
100
AcDbLine
 10
29.504763
 20
83.5063
 30
0.0
 11
29.504763
 21
85.9188500771968
 31
0.0
  0
LINE
  5
72
330
1E
100
AcDbEntity
  8
0
100
AcDbLine
 10
29.504763
 20
83.5063
 30
0.0
 11
29.504763
 21
86.9475
 31
0.0
  0
LINE
  5
73
330
1E
100
AcDbEntity
  8
0
100
AcDbLine
 10
29.504763
 20
85.9188500771968
 30
0.0
 11
29.504763
 21
83.5063
 31
0.0
  0
LINE
  5
74
330
1E
100
AcDbEntity
  8
0
100
AcDbLine
 10
27.925163
 20
85.73260000000001
 30
0.0
 11
29.504763
 21
85.9188500771968
 31
0.0
  0
LINE
  5
75
330
1E
100
AcDbEntity
  8
0
100
AcDbLine
 10
27.9110963333307
 20
85.85180000002271
 30
0.0
 11
27.925163
 21
85.73260000000001
 31
0.0
  0
LINE
  5
76
330
1E
100
AcDbEntity
  8
0
100
AcDbLine
 10
28.019763
 20
84.93019999999999
 30
0.0
 11
28.306463
 21
82.499
 31
0.0
  0
LINE
  5
77
330
1E
100
AcDbEntity
  8
0
100
AcDbLine
 10
27.731063
 20
84.75109999999999
 30
0.0
 11
28.028963
 21
82.22459999999999
 31
0.0
  0
LINE
  5
78
330
1E
100
AcDbEntity
  8
0
100
AcDbLine
 10
18.14526299999999
 20
83.2784
 30
0.0
 11
18.455863
 21
80.6447
 31
0.0
  0
LINE
  5
79
330
1E
100
AcDbEntity
  8
0
100
AcDbLine
 10
17.857963
 20
83.08750000000001
 30
0.0
 11
18.18066299999999
 21
80.3504
 31
0.0
  0
LINE
  5
7A
330
1E
100
AcDbEntity
  8
0
100
AcDbLine
 10
17.768263
 20
86.47629999999999
 30
0.0
 11
18.105463
 21
83.6161
 31
0.0
  0
LINE
  5
7B
330
1E
100
AcDbEntity
  8
0
100
AcDbLine
 10
29.504763
 20
86.9475
 30
0.0
 11
29.504763
 21
90.6534
 31
0.0
  0
LINE
  5
7C
330
1E
100
AcDbEntity
  8
0
100
AcDbLine
 10
29.504763
 20
86.9475
 30
0.0
 11
29.504763
 21
83.5063
 31
0.0
  0
LINE
  5
7D
330
1E
100
AcDbEntity
  8
0
100
AcDbLine
 10
29.812463
 20
86.8593
 30
0.0
 11
29.812463
 21
90.6534
 31
0.0
  0
LINE
  5
7E
330
1E
100
AcDbEntity
  8
0
100
AcDbLine
 10
29.812463
 20
86.8593
 30
0.0
 11
29.812463
 21
83.2857
 31
0.0
  0
LINE
  5
7F
330
1E
100
AcDbEntity
  8
0
100
AcDbLine
 10
27.754263
 20
87.18250000000001
 30
0.0
 11
27.8367519049266
 21
86.48231372901539
 31
0.0
  0
LINE
  5
80
330
1E
100
AcDbEntity
  8
0
100
AcDbLine
 10
27.630063
 20
88.23529999999999
 30
0.0
 11
27.754263
 21
87.18250000000001
 31
0.0
  0
LINE
  5
81
330
1E
100
AcDbEntity
  8
0
100
AcDbLine
 10
27.489563
 20
89.427
 30
0.0
 11
27.630063
 21
88.23529999999999
 31
0.0
  0
LINE
  5
82
330
1E
100
AcDbEntity
  8
0
100
AcDbLine
 10
27.693763
 20
87.69499999999998
 30
0.0
 11
28.019763
 21
84.93019999999999
 31
0.0
  0
LINE
  5
83
330
1E
100
AcDbEntity
  8
0
100
AcDbLine
 10
27.393863
 20
87.61129999999999
 30
0.0
 11
27.731063
 21
84.75109999999999
 31
0.0
  0
LINE
  5
84
330
1E
100
AcDbEntity
  8
0
100
AcDbLine
 10
17.792063
 20
86.2737
 30
0.0
 11
18.14526299999999
 21
83.2784
 31
0.0
  0
LINE
  5
85
330
1E
100
AcDbEntity
  8
0
100
AcDbLine
 10
17.492563
 20
86.186
 30
0.0
 11
17.857963
 21
83.08750000000001
 31
0.0
  0
LINE
  5
86
330
1E
100
AcDbEntity
  8
0
100
AcDbLine
 10
17.048763
 20
92.57799999999999
 30
0.0
 11
17.408463
 21
89.52719999999999
 31
0.0
  0
LINE
  5
87
330
1E
100
AcDbEntity
  8
0
100
AcDbLine
 10
29.504763
 20
90.6534
 30
0.0
 11
29.504763
 21
86.9475
 31
0.0
  0
LINE
  5
88
330
1E
100
AcDbEntity
  8
0
100
AcDbLine
 10
29.504763
 20
90.6534
 30
0.0
 11
29.504763
 21
94.3593
 31
0.0
  0
LINE
  5
89
330
1E
100
AcDbEntity
  8
0
100
AcDbLine
 10
29.812463
 20
90.6534
 30
0.0
 11
29.812463
 21
86.8593
 31
0.0
  0
LINE
  5
8A
330
1E
100
AcDbEntity
  8
0
100
AcDbLine
 10
29.812463
 20
90.6534
 30
0.0
 11
29.812463
 21
94.4475
 31
0.0
  0
LINE
  5
8B
330
1E
100
AcDbEntity
  8
0
100
AcDbLine
 10
27.339663
 20
90.69819999999999
 30
0.0
 11
27.693763
 21
87.69499999999998
 31
0.0
  0
LINE
  5
8C
330
1E
100
AcDbEntity
  8
0
100
AcDbLine
 10
27.339663
 20
90.69819999999999
 30
0.0
 11
27.489563
 21
89.427
 31
0.0
  0
LINE
  5
8D
330
1E
100
AcDbEntity
  8
0
100
AcDbLine
 10
27.034063
 20
90.66219999999999
 30
0.0
 11
27.393863
 21
87.61129999999999
 31
0.0
  0
LINE
  5
8E
330
1E
100
AcDbEntity
  8
0
100
AcDbLine
 10
17.408463
 20
89.52719999999999
 30
0.0
 11
17.792063
 21
86.2737
 31
0.0
  0
LINE
  5
8F
330
1E
100
AcDbEntity
  8
0
100
AcDbLine
 10
17.408463
 20
89.52719999999999
 30
0.0
 11
17.768263
 21
86.47629999999999
 31
0.0
  0
LINE
  5
90
330
1E
100
AcDbEntity
  8
0
100
AcDbLine
 10
17.10286299999999
 20
89.49110000000001
 30
0.0
 11
17.492563
 21
86.186
 31
0.0
  0
LINE
  5
91
330
1E
100
AcDbEntity
  8
0
100
AcDbLine
 10
17.024863
 20
92.78060000000001
 30
0.0
 11
17.408463
 21
89.52719999999999
 31
0.0
  0
LINE
  5
92
330
1E
100
AcDbEntity
  8
0
100
AcDbLine
 10
0.8384169999999999
 20
93.4215
 30
0.0
 11
1.164433999999999
 21
90.6567
 31
0.0
  0
LINE
  5
93
330
1E
100
AcDbEntity
  8
0
100
AcDbLine
 10
1.066014
 20
93.59340000000001
 30
0.0
 11
1.403272999999999
 21
90.7332
 31
0.0
  0
LINE
  5
94
330
1E
100
AcDbEntity
  8
0
100
AcDbLine
 10
0.551747
 20
95.85269999999999
 30
0.0
 11
0.8384169999999999
 21
93.4215
 31
0.0
  0
LINE
  5
95
330
1E
100
AcDbEntity
  8
0
100
AcDbLine
 10
8.726692999999999
 20
94.839
 30
0.0
 11
9.079883
 21
91.8438
 31
0.0
  0
LINE
  5
96
330
1E
100
AcDbEntity
  8
0
100
AcDbLine
 10
9.014003
 20
95.03
 30
0.0
 11
9.379362999999999
 21
91.93150000000001
 31
0.0
  0
LINE
  5
97
330
1E
100
AcDbEntity
  8
0
100
AcDbLine
 10
0.768103
 20
96.1199
 30
0.0
 11
1.066014
 21
93.59340000000001
 31
0.0
  0
LINE
  5
98
330
1E
100
AcDbEntity
  8
0
100
AcDbLine
 10
0.332529
 20
97.71180000000001
 30
0.0
 11
0.551747
 21
95.85269999999999
 31
0.0
  0
LINE
  5
99
330
1E
100
AcDbEntity
  8
0
100
AcDbLine
 10
0.5432640000000001
 20
98.0267
 30
0.0
 11
0.768103
 21
96.1199
 31
0.0
  0
LINE
  5
9A
330
1E
100
AcDbEntity
  8
0
100
AcDbLine
 10
8.416133
 20
97.47280000000001
 30
0.0
 11
8.726692999999999
 21
94.839
 31
0.0
  0
LINE
  5
9B
330
1E
100
AcDbEntity
  8
0
100
AcDbLine
 10
8.691263000000001
 20
97.76700000000001
 30
0.0
 11
9.014003
 21
95.03
 31
0.0
  0
LINE
  5
9C
330
1E
100
AcDbEntity
  8
0
100
AcDbLine
 10
0.147037
 20
99.2849
 30
0.0
 11
0.197626
 21
98.8559
 31
0.0
  0
LINE
  5
9D
330
1E
100
AcDbEntity
  8
0
100
AcDbLine
 10
0.147037
 20
99.2849
 30
0.0
 11
0.357771
 21
99.59980000000001
 31
0.0
  0
LINE
  5
9E
330
1E
100
AcDbEntity
  8
0
100
AcDbLine
 10
0.197626
 20
98.8559
 30
0.0
 11
0.332529
 21
97.71180000000001
 31
0.0
  0
LINE
  5
9F
330
1E
100
AcDbEntity
  8
0
100
AcDbLine
 10
0.40836
 20
99.1707
 30
0.0
 11
0.5432640000000001
 21
98.0267
 31
0.0
  0
LINE
  5
A0
330
1E
100
AcDbEntity
  8
0
100
AcDbLine
 10
0.357771000000001
 20
99.59980000000001
 30
0.0
 11
8.05821437679033
 21
100.5079942653539
 31
0.0
  0
LINE
  5
A1
330
1E
100
AcDbEntity
  8
0
100
AcDbLine
 10
0.357771
 20
99.59980000000001
 30
0.0
 11
0.40836
 21
99.1707
 31
0.0
  0
LINE
  5
A2
330
1E
100
AcDbEntity
  8
0
100
AcDbLine
 10
0.357771
 20
99.59980000000001
 30
0.0
 11
8.05821437679033
 21
100.5079942653539
 31
0.0
  0
LINE
  5
A3
330
1E
100
AcDbEntity
  8
0
100
AcDbLine
 10
8.178653
 20
99.48680000000001
 30
0.0
 11
8.416133
 21
97.47280000000001
 31
0.0
  0
LINE
  5
A4
330
1E
100
AcDbEntity
  8
0
100
AcDbLine
 10
8.447682999999999
 20
99.8327
 30
0.0
 11
8.691263000000001
 21
97.76700000000001
 31
0.0
  0
LINE
  5
A5
330
1E
100
AcDbEntity
  8
0
100
AcDbLine
 10
7.977702999999999
 20
101.191
 30
0.0
 11
8.032503
 21
100.726
 31
0.0
  0
LINE
  5
A6
330
1E
100
AcDbEntity
  8
0
100
AcDbLine
 10
7.977702999999999
 20
101.191
 30
0.0
 11
8.246733
 21
101.537
 31
0.0
  0
LINE
  5
A7
330
1E
100
AcDbEntity
  8
0
100
AcDbLine
 10
8.032503
 20
100.726
 30
0.0
 11
8.178653
 21
99.48680000000001
 31
0.0
  0
LINE
  5
A8
330
1E
100
AcDbEntity
  8
0
100
AcDbLine
 10
8.032503
 20
100.726
 30
0.0
 11
8.05821437679033
 21
100.5079942653539
 31
0.0
  0
LINE
  5
A9
330
1E
100
AcDbEntity
  8
0
100
AcDbLine
 10
8.246733
 20
101.537
 30
0.0
 11
8.301542999999998
 21
101.072
 31
0.0
  0
LINE
  5
AA
330
1E
100
AcDbEntity
  8
0
100
AcDbLine
 10
8.246733
 20
101.537
 30
0.0
 11
15.580563
 21
102.4019999999999
 31
0.0
  0
LINE
  5
AB
330
1E
100
AcDbEntity
  8
0
100
AcDbLine
 10
8.301542999999998
 20
101.072
 30
0.0
 11
8.447682999999999
 21
99.8327
 31
0.0
  0
LINE
  5
AC
330
1E
100
AcDbEntity
  8
0
100
AcDbLine
 10
15.922663
 20
102.1279999999999
 30
0.0
 11
15.977463
 21
101.6629999999999
 31
0.0
  0
LINE
  5
AD
330
1E
100
AcDbEntity
  8
0
100
AcDbLine
 10
15.580563
 20
102.4019999999999
 30
0.0
 11
15.63536299999999
 21
101.937
 31
0.0
  0
LINE
  5
AE
330
1E
100
AcDbEntity
  8
0
100
AcDbLine
 10
15.580563
 20
102.4019999999999
 30
0.0
 11
15.922663
 21
102.1279999999999
 31
0.0
  0
LINE
  5
AF
330
1E
100
AcDbEntity
  8
0
100
AcDbLine
 10
15.63536299999999
 20
101.937
 30
0.0
 11
15.781463
 21
100.6979999999999
 31
0.0
  0
LINE
  5
B0
330
1E
100
AcDbEntity
  8
0
100
AcDbLine
 10
16.003263
 20
101.4449999999999
 30
0.0
 11
16.053863
 21
101.016
 31
0.0
  0
LINE
  5
B1
330
1E
100
AcDbEntity
  8
0
100
AcDbLine
 10
16.003263
 20
101.4449999999999
 30
0.0
 11
25.628863
 21
102.58
 31
0.0
  0
LINE
  5
B2
330
1E
100
AcDbEntity
  8
0
100
AcDbLine
 10
16.053863
 20
101.016
 30
0.0
 11
16.188763
 21
99.87149999999999
 31
0.0
  0
LINE
  5
B3
330
1E
100
AcDbEntity
  8
0
100
AcDbLine
 10
15.977463
 20
101.6629999999999
 30
0.0
 11
16.123563
 21
100.424
 31
0.0
  0
LINE
  5
B4
330
1E
100
AcDbEntity
  8
0
100
AcDbLine
 10
15.781463
 20
100.6979999999999
 30
0.0
 11
16.02506299999999
 21
98.63179999999999
 31
0.0
  0
LINE
  5
B5
330
1E
100
AcDbEntity
  8
0
100
AcDbLine
 10
16.188763
 20
99.87149999999999
 30
0.0
 11
16.41356299999999
 21
97.96469999999999
 31
0.0
  0
LINE
  5
B6
330
1E
100
AcDbEntity
  8
0
100
AcDbLine
 10
16.123563
 20
100.424
 30
0.0
 11
16.361063
 21
98.4096
 31
0.0
  0
LINE
  5
B7
330
1E
100
AcDbEntity
  8
0
100
AcDbLine
 10
16.02506299999999
 20
98.63179999999999
 30
0.0
 11
16.347763
 21
95.8948
 31
0.0
  0
LINE
  5
B8
330
1E
100
AcDbEntity
  8
0
100
AcDbLine
 10
16.41356299999999
 20
97.96469999999999
 30
0.0
 11
16.57719489162539
 21
96.57693237935021
 31
0.0
  0
LINE
  5
B9
330
1E
100
AcDbEntity
  8
0
100
AcDbLine
 10
16.361063
 20
98.4096
 30
0.0
 11
16.67166299999999
 21
95.77589999999998
 31
0.0
  0
LINE
  5
BA
330
1E
100
AcDbEntity
  8
0
100
AcDbLine
 10
16.347763
 20
95.8948
 30
0.0
 11
16.713163
 21
92.79619999999999
 31
0.0
  0
LINE
  5
BB
330
1E
100
AcDbEntity
  8
0
100
AcDbLine
 10
25.628863
 20
102.58
 30
0.0
 11
25.679463
 21
102.151
 31
0.0
  0
LINE
  5
BC
330
1E
100
AcDbEntity
  8
0
100
AcDbLine
 10
25.628863
 20
102.58
 30
0.0
 11
25.968163
 21
102.33
 31
0.0
  0
LINE
  5
BD
330
1E
100
AcDbEntity
  8
0
100
AcDbLine
 10
25.968163
 20
102.33
 30
0.0
 11
26.018763
 21
101.901
 31
0.0
  0
LINE
  5
BE
330
1E
100
AcDbEntity
  8
0
100
AcDbLine
 10
26.018763
 20
101.901
 30
0.0
 11
26.153663
 21
100.757
 31
0.0
  0
LINE
  5
BF
330
1E
100
AcDbEntity
  8
0
100
AcDbLine
 10
25.679463
 20
102.151
 30
0.0
 11
25.814363
 21
101.007
 31
0.0
  0
LINE
  5
C0
330
1E
100
AcDbEntity
  8
0
100
AcDbLine
 10
25.814363
 20
101.007
 30
0.0
 11
26.039163
 21
99.09970000000001
 31
0.0
  0
LINE
  5
C1
330
1E
100
AcDbEntity
  8
0
100
AcDbLine
 10
26.153663
 20
100.757
 30
0.0
 11
26.37286299999999
 21
98.89740000000001
 31
0.0
  0
LINE
  5
C2
330
1E
100
AcDbEntity
  8
0
100
AcDbLine
 10
26.039163
 20
99.09970000000001
 30
0.0
 11
26.337063
 21
96.5732
 31
0.0
  0
LINE
  5
C3
330
1E
100
AcDbEntity
  8
0
100
AcDbLine
 10
26.37286299999999
 20
98.89740000000001
 30
0.0
 11
26.659563
 21
96.4662
 31
0.0
  0
LINE
  5
C4
330
1E
100
AcDbEntity
  8
0
100
AcDbLine
 10
26.337063
 20
96.5732
 30
0.0
 11
26.674363
 21
93.71299999999999
 31
0.0
  0
LINE
  5
C5
330
1E
100
AcDbEntity
  8
0
100
AcDbLine
 10
26.659563
 20
96.4662
 30
0.0
 11
26.98556299999999
 21
93.70140000000001
 31
0.0
  0
LINE
  5
C6
330
1E
100
AcDbEntity
  8
0
100
AcDbLine
 10
26.7541745295165
 20
95.66380135948678
 30
0.0
 11
29.504763
 21
95.98813315879571
 31
0.0
  0
LINE
  5
C7
330
1E
100
AcDbEntity
  8
0
100
AcDbLine
 10
26.768229666662
 20
95.5446000000399
 30
0.0
 11
26.775263
 21
95.485
 31
0.0
  0
LINE
  5
C8
330
1E
100
AcDbEntity
  8
0
100
AcDbLine
 10
26.775263
 20
95.485
 30
0.0
 11
26.81573501426139
 21
95.14170802138099
 31
0.0
  0
LINE
  5
C9
330
1E
100
AcDbEntity
  8
0
100
AcDbLine
 10
26.8422087268123
 20
94.91718495248269
 30
0.0
 11
26.925163
 21
94.2138
 31
0.0
  0
LINE
  5
CA
330
1E
100
AcDbEntity
  8
0
100
AcDbLine
 10
29.504763
 20
94.3593
 30
0.0
 11
29.504763
 21
97.80050000000001
 31
0.0
  0
LINE
  5
CB
330
1E
100
AcDbEntity
  8
0
100
AcDbLine
 10
29.504763
 20
94.3593
 30
0.0
 11
29.504763
 21
90.6534
 31
0.0
  0
LINE
  5
CC
330
1E
100
AcDbEntity
  8
0
100
AcDbLine
 10
29.504763
 20
95.98813315879571
 30
0.0
 11
29.504763
 21
97.80050000000001
 31
0.0
  0
LINE
  5
CD
330
1E
100
AcDbEntity
  8
0
100
AcDbLine
 10
29.504763
 20
97.80050000000001
 30
0.0
 11
29.504763
 21
95.98813315879571
 31
0.0
  0
LINE
  5
CE
330
1E
100
AcDbEntity
  8
0
100
AcDbLine
 10
29.504763
 20
97.80050000000001
 30
0.0
 11
29.504763
 21
100.8
 31
0.0
  0
LINE
  5
CF
330
1E
100
AcDbEntity
  8
0
100
AcDbLine
 10
29.504763
 20
97.80050000000001
 30
0.0
 11
29.504763
 21
94.3593
 31
0.0
  0
LINE
  5
D0
330
1E
100
AcDbEntity
  8
0
100
AcDbLine
 10
29.504763
 20
100.8
 30
0.0
 11
29.504763
 21
103.0499999999999
 31
0.0
  0
LINE
  5
D1
330
1E
100
AcDbEntity
  8
0
100
AcDbLine
 10
29.504763
 20
100.8
 30
0.0
 11
29.504763
 21
97.80050000000001
 31
0.0
  0
LINE
  5
D2
330
1E
100
AcDbEntity
  8
0
100
AcDbLine
 10
29.504763
 20
103.0499999999999
 30
0.0
 11
29.504763
 21
100.8
 31
0.0
  0
LINE
  5
D3
330
1E
100
AcDbEntity
  8
0
100
AcDbLine
 10
29.504763
 20
103.0499999999999
 30
0.0
 11
29.504763
 21
104.462
 31
0.0
  0
LINE
  5
D4
330
1E
100
AcDbEntity
  8
0
100
AcDbLine
 10
29.812463
 20
98.02100000000001
 30
0.0
 11
29.812463
 21
101.109
 31
0.0
  0
LINE
  5
D5
330
1E
100
AcDbEntity
  8
0
100
AcDbLine
 10
29.812463
 20
94.4475
 30
0.0
 11
29.812463
 21
98.02100000000001
 31
0.0
  0
LINE
  5
D6
330
1E
100
AcDbEntity
  8
0
100
AcDbLine
 10
29.812463
 20
94.4475
 30
0.0
 11
29.812463
 21
90.6534
 31
0.0
  0
LINE
  5
D7
330
1E
100
AcDbEntity
  8
0
100
AcDbLine
 10
29.812463
 20
101.109
 30
0.0
 11
29.812463
 21
103.447
 31
0.0
  0
LINE
  5
D8
330
1E
100
AcDbEntity
  8
0
100
AcDbLine
 10
29.812463
 20
101.109
 30
0.0
 11
29.812463
 21
98.02100000000001
 31
0.0
  0
LINE
  5
D9
330
1E
100
AcDbEntity
  8
0
100
AcDbLine
 10
29.812463
 20
103.447
 30
0.0
 11
29.812463
 21
104.9029999999999
 31
0.0
  0
LINE
  5
DA
330
1E
100
AcDbEntity
  8
0
100
AcDbLine
 10
29.812463
 20
103.447
 30
0.0
 11
29.812463
 21
101.109
 31
0.0
  0
LINE
  5
DB
330
1E
100
AcDbEntity
  8
0
100
AcDbLine
 10
29.812463
 20
104.9029999999999
 30
0.0
 11
29.812463
 21
105.4329999999999
 31
0.0
  0
LINE
  5
DC
330
1E
100
AcDbEntity
  8
0
100
AcDbLine
 10
29.812463
 20
104.9029999999999
 30
0.0
 11
29.812463
 21
103.447
 31
0.0
  0
LINE
  5
DD
330
1E
100
AcDbEntity
  8
0
100
AcDbLine
 10
29.504763
 20
104.462
 30
0.0
 11
29.504763
 21
103.0499999999999
 31
0.0
  0
LINE
  5
DE
330
1E
100
AcDbEntity
  8
0
100
AcDbLine
 10
29.504763
 20
104.462
 30
0.0
 11
29.504763
 21
104.9919999999999
 31
0.0
  0
LINE
  5
DF
330
1E
100
AcDbEntity
  8
0
100
AcDbLine
 10
29.504763
 20
104.9919999999999
 30
0.0
 11
29.504763
 21
104.462
 31
0.0
  0
LINE
  5
E0
330
1E
100
AcDbEntity
  8
0
100
AcDbLine
 10
29.504763
 20
104.9919999999999
 30
0.0
 11
29.812463
 21
105.4329999999999
 31
0.0
  0
LINE
  5
E1
330
1E
100
AcDbEntity
  8
0
100
AcDbLine
 10
29.812463
 20
105.4329999999999
 30
0.0
 11
30.427863
 21
105.6529999999999
 31
0.0
  0
LINE
  5
E2
330
1E
100
AcDbEntity
  8
0
100
AcDbLine
 10
29.812463
 20
105.4329999999999
 30
0.0
 11
29.812463
 21
104.9029999999999
 31
0.0
  0
LINE
  5
E3
330
1E
100
AcDbEntity
  8
0
100
AcDbLine
 10
30.427863
 20
105.6529999999999
 30
0.0
 11
70.26636299999999
 21
105.44
 31
0.0
  0
LINE
  5
E4
330
1E
100
AcDbEntity
  8
0
100
AcDbLine
 10
26.925163
 20
94.2138
 30
0.0
 11
27.0174569171549
 21
93.4309006721274
 31
0.0
  0
LINE
  5
E5
330
1E
100
AcDbEntity
  8
0
100
AcDbLine
 10
26.98556299999999
 20
93.70140000000001
 30
0.0
 11
27.339663
 21
90.69819999999999
 31
0.0
  0
LINE
  5
E6
330
1E
100
AcDbEntity
  8
0
100
AcDbLine
 10
26.674363
 20
93.71299999999999
 30
0.0
 11
27.034063
 21
90.66219999999999
 31
0.0
  0
LINE
  5
E7
330
1E
100
AcDbEntity
  8
0
100
AcDbLine
 10
16.94121541714429
 20
93.48997034237688
 30
0.0
 11
17.024863
 21
92.78060000000001
 31
0.0
  0
LINE
  5
E8
330
1E
100
AcDbEntity
  8
0
100
AcDbLine
 10
16.94121541714429
 20
93.48997034237688
 30
0.0
 11
17.048763
 21
92.57799999999999
 31
0.0
  0
LINE
  5
E9
330
1E
100
AcDbEntity
  8
0
100
AcDbLine
 10
16.67166299999999
 20
95.77589999999998
 30
0.0
 11
17.024863
 21
92.78060000000001
 31
0.0
  0
LINE
  5
EA
330
1E
100
AcDbEntity
  8
0
100
AcDbLine
 10
16.713163
 20
92.79619999999999
 30
0.0
 11
17.10286299999999
 21
89.49110000000001
 31
0.0
  0
LINE
  5
EC
330
1E
100
AcDbEntity
  8
0
100
AcDbLine
 10
70.26636299999999
 20
105.44
 30
0.0
 11
71.57286299999999
 21
106.422
 31
0.0
  0
LINE
  5
F9
330
1E
100
AcDbEntity
  8
0
100
AcDbLine
 10
23.620063
 20
141.1669999999999
 30
0.0
 11
23.64646299999999
 21
141.867
 31
0.0
  0
LINE
  5
FA
330
1E
100
AcDbEntity
  8
0
100
AcDbLine
 10
23.604863
 20
140.768
 30
0.0
 11
23.620063
 21
141.1669999999999
 31
0.0
  0
LINE
  5
FB
330
1E
100
AcDbEntity
  8
0
100
AcDbLine
 10
23.597563
 20
140.567
 30
0.0
 11
23.604863
 21
140.768
 31
0.0
  0
LINE
  5
FC
330
1E
100
AcDbEntity
  8
0
100
AcDbLine
 10
23.597563
 20
140.567
 30
0.0
 11
65.028921354947
 21
139.0046182786219
 31
0.0
  0
LINE
  5
FD
330
1E
100
AcDbEntity
  8
0
100
AcDbLine
 10
23.597563
 20
140.567
 30
0.0
 11
65.0289213549471
 21
139.0046182786219
 31
0.0
  0
LINE
  5
FE
330
1E
100
AcDbEntity
  8
0
100
AcDbLine
 10
23.64646299999999
 20
141.867
 30
0.0
 11
23.684163
 21
142.866
 31
0.0
  0
LINE
  5
FF
330
1E
100
AcDbEntity
  8
0
100
AcDbLine
 10
23.721763
 20
143.865
 30
0.0
 11
23.76706299999999
 21
145.0639999999999
 31
0.0
  0
LINE
  5
100
330
1E
100
AcDbEntity
  8
0
100
AcDbLine
 10
23.684163
 20
142.866
 30
0.0
 11
23.721763
 21
143.865
 31
0.0
  0
LINE
  5
101
330
1E
100
AcDbEntity
  8
0
100
AcDbLine
 10
23.26746299999999
 20
145.083
 30
0.0
 11
23.305163
 21
146.082
 31
0.0
  0
LINE
  5
102
330
1E
100
AcDbEntity
  8
0
100
AcDbLine
 10
23.305163
 20
146.082
 30
0.0
 11
23.342863
 21
147.081
 31
0.0
  0
LINE
  5
103
330
1E
100
AcDbEntity
  8
0
100
AcDbLine
 10
23.342863
 20
147.081
 30
0.0
 11
23.376563
 21
147.981
 31
0.0
  0
LINE
  5
104
330
1E
100
AcDbEntity
  8
0
100
AcDbLine
 10
23.376563
 20
147.981
 30
0.0
 11
23.399363
 21
148.581
 31
0.0
  0
LINE
  5
105
330
1E
100
AcDbEntity
  8
0
100
AcDbLine
 10
23.399363
 20
148.581
 30
0.0
 11
23.414263
 21
148.981
 31
0.0
  0
LINE
  5
106
330
1E
100
AcDbEntity
  8
0
100
AcDbLine
 10
23.76706299999999
 20
145.0639999999999
 30
0.0
 11
23.812363
 21
146.263
 31
0.0
  0
LINE
  5
107
330
1E
100
AcDbEntity
  8
0
100
AcDbLine
 10
23.812363
 20
146.263
 30
0.0
 11
23.849963
 21
147.263
 31
0.0
  0
LINE
  5
108
330
1E
100
AcDbEntity
  8
0
100
AcDbLine
 10
23.849963
 20
147.263
 30
0.0
 11
23.88766299999999
 21
148.262
 31
0.0
  0
LINE
  5
109
330
1E
100
AcDbEntity
  8
0
100
AcDbLine
 10
23.88766299999999
 20
148.262
 30
0.0
 11
23.91406299999999
 21
148.961
 31
0.0
  0
LINE
  5
10A
330
1E
100
AcDbEntity
  8
0
100
AcDbLine
 10
66.805263
 20
146.557
 30
0.0
 11
70.350763
 21
147.5079999999999
 31
0.0
  0
LINE
  5
10B
330
1E
100
AcDbEntity
  8
0
100
AcDbLine
 10
64.532463
 20
145.9489999999999
 30
0.0
 11
66.805263
 21
146.557
 31
0.0
  0
LINE
  5
10C
330
1E
100
AcDbEntity
  8
0
100
AcDbLine
 10
67.773863
 20
147.306
 30
0.0
 11
75.68316300000001
 21
149.425
 31
0.0
  0
LINE
  5
10D
330
1E
100
AcDbEntity
  8
0
100
AcDbLine
 10
65.773963
 20
146.77
 30
0.0
 11
67.773863
 21
147.306
 31
0.0
  0
LINE
  5
10E
330
1E
100
AcDbEntity
  8
0
100
AcDbLine
 10
23.91406299999999
 20
148.961
 30
0.0
 11
23.92896299999999
 21
149.3619999999999
 31
0.0
  0
LINE
  5
10F
330
1E
100
AcDbEntity
  8
0
100
AcDbLine
 10
23.93656299999999
 20
149.561
 30
0.0
 11
69.7424105218857
 21
147.833666012061
 31
0.0
  0
LINE
  5
110
330
1E
100
AcDbEntity
  8
0
100
AcDbLine
 10
23.92896299999999
 20
149.3619999999999
 30
0.0
 11
23.93656299999999
 21
149.561
 31
0.0
  0
LINE
  5
111
330
1E
100
AcDbEntity
  8
0
100
AcDbLine
 10
23.93656299999999
 20
149.561
 30
0.0
 11
69.7424105218857
 21
147.833666012061
 31
0.0
  0
LINE
  5
112
330
1E
100
AcDbEntity
  8
0
100
AcDbLine
 10
23.418163
 20
149.08
 30
0.0
 11
23.93656299999999
 21
149.561
 31
0.0
  0
LINE
  5
113
330
1E
100
AcDbEntity
  8
0
100
AcDbLine
 10
23.414263
 20
148.981
 30
0.0
 11
23.418163
 21
149.08
 31
0.0
  0
LINE
  5
114
330
1E
100
AcDbEntity
  8
0
100
AcDbLine
 10
23.22956299999999
 20
144.084
 30
0.0
 11
23.26746299999999
 21
145.083
 31
0.0
  0
LINE
  5
115
330
1E
100
AcDbEntity
  8
0
100
AcDbLine
 10
23.191963
 20
143.085
 30
0.0
 11
23.22956299999999
 21
144.084
 31
0.0
  0
LINE
  5
116
330
1E
100
AcDbEntity
  8
0
100
AcDbLine
 10
23.158163
 20
142.185
 30
0.0
 11
23.191963
 21
143.085
 31
0.0
  0
LINE
  5
117
330
1E
100
AcDbEntity
  8
0
100
AcDbLine
 10
23.135463
 20
141.586
 30
0.0
 11
23.158163
 21
142.185
 31
0.0
  0
LINE
  5
118
330
1E
100
AcDbEntity
  8
0
100
AcDbLine
 10
23.12046299999999
 20
141.186
 30
0.0
 11
23.135463
 21
141.586
 31
0.0
  0
LINE
  5
119
330
1E
100
AcDbEntity
  8
0
100
AcDbLine
 10
23.116663
 20
141.086
 30
0.0
 11
23.12046299999999
 21
141.186
 31
0.0
  0
LINE
  5
11A
330
1E
100
AcDbEntity
  8
0
100
AcDbLine
 10
23.116663
 20
141.086
 30
0.0
 11
23.597563
 21
140.567
 31
0.0
  0
LINE
  5
11B
330
1E
100
AcDbEntity
  8
0
100
AcDbLine
 10
65.0289213549471
 20
139.0046182786219
 30
0.0
 11
70.1482765683361
 21
119.899060738224
 31
0.0
  0
LINE
  5
11D
330
1E
100
AcDbEntity
  8
0
100
AcDbLine
 10
72.510963
 20
114.354
 30
0.0
 11
74.78366300000001
 21
114.9629999999999
 31
0.0
  0
LINE
  5
11E
330
1E
100
AcDbEntity
  8
0
100
AcDbLine
 10
72.48536300000001
 20
112.0589999999999
 30
0.0
 11
73.087563
 21
112.539
 31
0.0
  0
LINE
  5
11F
330
1E
100
AcDbEntity
  8
0
100
AcDbLine
 10
72.48536300000001
 20
112.0589999999999
 30
0.0
 11
73.303563
 21
112.2779999999999
 31
0.0
  0
LINE
  5
120
330
1E
100
AcDbEntity
  8
0
100
AcDbLine
 10
72.303763
 20
111.3729999999999
 30
0.0
 11
72.48536300000001
 21
112.0589999999999
 31
0.0
  0
LINE
  5
121
330
1E
100
AcDbEntity
  8
0
100
AcDbLine
 10
72.303763
 20
111.3729999999999
 30
0.0
 11
73.03750279741129
 21
108.661800629799
 31
0.0
  0
LINE
  5
122
330
1E
100
AcDbEntity
  8
0
100
AcDbLine
 10
72.303763
 20
111.3729999999999
 30
0.0
 11
73.03750279741129
 21
108.661800629799
 31
0.0
  0
LINE
  5
123
330
1E
100
AcDbEntity
  8
0
100
AcDbLine
 10
71.69276299999999
 20
114.135
 30
0.0
 11
72.84626300000001
 21
113.466
 31
0.0
  0
LINE
  5
124
330
1E
100
AcDbEntity
  8
0
100
AcDbLine
 10
71.69276299999999
 20
114.135
 30
0.0
 11
72.510963
 21
114.354
 31
0.0
  0
LINE
  5
127
330
1E
100
AcDbEntity
  8
0
100
AcDbLine
 10
70.350763
 20
147.5079999999999
 30
0.0
 11
75.168963
 21
148.798
 31
0.0
  0
LINE
  5
128
330
1E
100
AcDbEntity
  8
0
100
AcDbLine
 10
70.1482765683361
 20
119.899060738224
 30
0.0
 11
71.69276299999999
 21
114.135
 31
0.0
  0
LINE
  5
12A
330
1E
100
AcDbEntity
  8
0
100
AcDbLine
 10
71.57286299999999
 20
106.422
 30
0.0
 11
72.603363
 21
107.674
 31
0.0
  0
LINE
  5
12B
330
1E
100
AcDbEntity
  8
0
100
AcDbLine
 10
82.35826986704271
 20
74.22117481377149
 30
0.0
 11
102.444963
 21
0.0
 31
0.0
  0
LINE
  5
12C
330
1E
100
AcDbEntity
  8
0
100
AcDbLine
 10
102.444963
 20
-0.000000000000005
 30
0.0
 11
103.204963
 21
-0.000000000000005
 31
0.0
  0
LINE
  5
12D
330
1E
100
AcDbEntity
  8
0
100
AcDbLine
 10
103.204963
 20
-0.000000000000005
 30
0.0
 11
105.6349629999999
 21
-0.0000000000000052
 31
0.0
  0
LINE
  5
12E
330
1E
100
AcDbEntity
  8
0
100
AcDbLine
 10
82.35826986704271
 20
74.22117481377149
 30
0.0
 11
102.444963
 21
-0.000000000000005
 31
0.0
  0
LINE
  5
12F
330
1E
100
AcDbEntity
  8
0
100
AcDbLine
 10
114.794963
 20
-0.0000000000000057
 30
0.0
 11
120.7449629999999
 21
-0.0000000000000061
 31
0.0
  0
LINE
  5
130
330
1E
100
AcDbEntity
  8
0
100
AcDbLine
 10
133.4249629999999
 20
-0.0000000000000069
 30
0.0
 11
139.6739629999999
 21
0.0000399999999927
 31
0.0
  0
LINE
  5
131
330
1E
100
AcDbEntity
  8
0
100
AcDbLine
 10
127.2049629999999
 20
-0.0000000000000065
 30
0.0
 11
133.4249629999999
 21
-0.0000000000000069
 31
0.0
  0
LINE
  5
132
330
1E
100
AcDbEntity
  8
0
100
AcDbLine
 10
133.4249629999999
 20
-0.0000000000000069
 30
0.0
 11
139.6739629999999
 21
0.0000399999999927
 31
0.0
  0
LINE
  5
133
330
1E
100
AcDbEntity
  8
0
100
AcDbLine
 10
120.7449629999999
 20
-0.0000000000000061
 30
0.0
 11
127.2049629999999
 21
-0.0000000000000065
 31
0.0
  0
LINE
  5
134
330
1E
100
AcDbEntity
  8
0
100
AcDbLine
 10
147.1145388098899
 20
17.3302483134204
 30
0.0
 11
151.7449629999999
 21
-0.000000000000008
 31
0.0
  0
LINE
  5
135
330
1E
100
AcDbEntity
  8
0
100
AcDbLine
 10
147.1145388098899
 20
17.3302483134204
 30
0.0
 11
151.452963
 21
41.9756
 31
0.0
  0
LINE
  5
136
330
1E
100
AcDbEntity
  8
0
100
AcDbLine
 10
144.6859629999999
 20
0.0000399999999924
 30
0.0
 11
148.4979629999999
 21
0.0000399999999922
 31
0.0
  0
LINE
  5
137
330
1E
100
AcDbEntity
  8
0
100
AcDbLine
 10
139.6739629999999
 20
0.0000399999999927
 30
0.0
 11
144.6859629999999
 21
0.0000399999999924
 31
0.0
  0
LINE
  5
138
330
1E
100
AcDbEntity
  8
0
100
AcDbLine
 10
109.5749629999999
 20
-0.0000000000000054
 30
0.0
 11
114.794963
 21
-0.0000000000000057
 31
0.0
  0
LINE
  5
139
330
1E
100
AcDbEntity
  8
0
100
AcDbLine
 10
150.8979629999999
 20
0.000039999999992
 30
0.0
 11
151.7449629999999
 21
-0.000000000000008
 31
0.0
  0
LINE
  5
13A
330
1E
100
AcDbEntity
  8
0
100
AcDbLine
 10
150.8979629999999
 20
0.000039999999992
 30
0.0
 11
151.7449629999999
 21
-0.000000000000008
 31
0.0
  0
LINE
  5
13B
330
1E
100
AcDbEntity
  8
0
100
AcDbLine
 10
148.4979629999999
 20
0.0000399999999922
 30
0.0
 11
150.8979629999999
 21
0.000039999999992
 31
0.0
  0
LINE
  5
13C
330
1E
100
AcDbEntity
  8
0
100
AcDbLine
 10
144.069714114486
 20
28.7260871989586
 30
0.0
 11
146.4529629999999
 21
42.4756
 31
0.0
  0
LINE
  5
13D
330
1E
100
AcDbEntity
  8
0
100
AcDbLine
 10
146.4529629999999
 20
42.4756
 30
0.0
 11
146.8529629999999
 21
43.87559999999999
 31
0.0
  0
LINE
  5
13E
330
1E
100
AcDbEntity
  8
0
100
AcDbLine
 10
151.452963
 20
41.9756
 30
0.0
 11
151.5529629999999
 21
42.27559999999999
 31
0.0
  0
LINE
  5
13F
330
1E
100
AcDbEntity
  8
0
100
AcDbLine
 10
151.5529629999999
 20
42.27559999999999
 30
0.0
 11
151.8529629999999
 21
42.4756
 31
0.0
  0
LINE
  5
140
330
1E
100
AcDbEntity
  8
0
100
AcDbLine
 10
151.8529629999999
 20
42.4756
 30
0.0
 11
165.8529629999999
 21
42.4756
 31
0.0
  0
LINE
  5
141
330
1E
100
AcDbEntity
  8
0
100
AcDbLine
 10
165.8529629999999
 20
43.1756
 30
0.0
 11
165.8529629999999
 21
44.27559999999999
 31
0.0
  0
LINE
  5
142
330
1E
100
AcDbEntity
  8
0
100
AcDbLine
 10
165.8529629999999
 20
43.1756
 30
0.0
 11
165.8529629999999
 21
42.4756
 31
0.0
  0
LINE
  5
143
330
1E
100
AcDbEntity
  8
0
100
AcDbLine
 10
151.8529629999999
 20
47.4756
 30
0.0
 11
165.8529629999999
 21
47.4756
 31
0.0
  0
LINE
  5
144
330
1E
100
AcDbEntity
  8
0
100
AcDbLine
 10
165.8529629999999
 20
44.27559999999999
 30
0.0
 11
165.8529629999999
 21
45.6756
 31
0.0
  0
LINE
  5
145
330
1E
100
AcDbEntity
  8
0
100
AcDbLine
 10
165.8529629999999
 20
45.6756
 30
0.0
 11
165.8529629999999
 21
44.27559999999999
 31
0.0
  0
LINE
  5
146
330
1E
100
AcDbEntity
  8
0
100
AcDbLine
 10
165.8529629999999
 20
45.6756
 30
0.0
 11
165.8529629999999
 21
46.77559999999999
 31
0.0
  0
LINE
  5
147
330
1E
100
AcDbEntity
  8
0
100
AcDbLine
 10
165.8529629999999
 20
46.77559999999999
 30
0.0
 11
165.8529629999999
 21
45.6756
 31
0.0
  0
LINE
  5
148
330
1E
100
AcDbEntity
  8
0
100
AcDbLine
 10
165.8529629999999
 20
46.77559999999999
 30
0.0
 11
165.8529629999999
 21
47.4756
 31
0.0
  0
LINE
  5
149
330
1E
100
AcDbEntity
  8
0
100
AcDbLine
 10
165.8529629999999
 20
47.4756
 30
0.0
 11
165.8529629999999
 21
46.77559999999999
 31
0.0
  0
LINE
  5
14A
330
1E
100
AcDbEntity
  8
0
100
AcDbLine
 10
165.8529629999999
 20
42.4756
 30
0.0
 11
165.8529629999999
 21
43.1756
 31
0.0
  0
LINE
  5
14B
330
1E
100
AcDbEntity
  8
0
100
AcDbLine
 10
147.1145388098899
 20
17.3302483134204
 30
0.0
 11
151.7449629999999
 21
0.0
 31
0.0
  0
LINE
  5
14C
330
1E
100
AcDbEntity
  8
0
100
AcDbLine
 10
147.1145388098899
 20
17.3302483134204
 30
0.0
 11
151.452963
 21
41.9756
 31
0.0
  0
LINE
  5
14D
330
1E
100
AcDbEntity
  8
0
100
AcDbLine
 10
105.6349629999999
 20
-0.0000000000000052
 30
0.0
 11
109.5749629999999
 21
-0.0000000000000054
 31
0.0
  0
LINE
  5
14E
330
1E
100
AcDbEntity
  8
0
100
AcDbLine
 10
73.087563
 20
112.539
 30
0.0
 11
76.087663
 21
113.3429999999999
 31
0.0
  0
LINE
  5
14F
330
1E
100
AcDbEntity
  8
0
100
AcDbLine
 10
73.303563
 20
112.2779999999999
 30
0.0
 11
75.553663
 21
112.881
 31
0.0
  0
LINE
  5
150
330
1E
100
AcDbEntity
  8
0
100
AcDbLine
 10
75.553663
 20
112.881
 30
0.0
 11
79.167363
 21
113.85
 31
0.0
  0
LINE
  5
151
330
1E
100
AcDbEntity
  8
0
100
AcDbLine
 10
73.664563
 20
113.686
 30
0.0
 11
75.84636299999999
 21
114.27
 31
0.0
  0
LINE
  5
152
330
1E
100
AcDbEntity
  8
0
100
AcDbLine
 10
74.78366300000001
 20
114.9629999999999
 30
0.0
 11
78.510963
 21
115.962
 31
0.0
  0
LINE
  5
153
330
1E
100
AcDbEntity
  8
0
100
AcDbLine
 10
75.168963
 20
148.798
 30
0.0
 11
80.62356300000001
 21
150.2599999999999
 31
0.0
  0
LINE
  5
154
330
1E
100
AcDbEntity
  8
0
100
AcDbLine
 10
73.17162544507059
 20
113.55347371125
 30
0.0
 11
73.26864134073691
 21
112.5874675588139
 31
0.0
  0
LINE
  5
155
330
1E
100
AcDbEntity
  8
0
100
AcDbLine
 10
72.84626300000001
 20
113.466
 30
0.0
 11
73.17162544507059
 21
113.55347371125
 31
0.0
  0
LINE
  5
156
330
1E
100
AcDbEntity
  8
0
100
AcDbLine
 10
72.84626300000001
 20
113.466
 30
0.0
 11
73.664563
 21
113.686
 31
0.0
  0
LINE
  5
157
330
1E
100
AcDbEntity
  8
0
100
AcDbLine
 10
75.84636299999999
 20
114.27
 30
0.0
 11
79.391863
 21
115.2209999999999
 31
0.0
  0
LINE
  5
158
330
1E
100
AcDbEntity
  8
0
100
AcDbLine
 10
79.167363
 20
113.85
 30
0.0
 11
83.940163
 21
115.1279999999999
 31
0.0
  0
LINE
  5
159
330
1E
100
AcDbEntity
  8
0
100
AcDbLine
 10
78.510963
 20
115.962
 30
0.0
 11
83.329263
 21
117.2529999999999
 31
0.0
  0
LINE
  5
15A
330
1E
100
AcDbEntity
  8
0
100
AcDbLine
 10
76.087663
 20
113.3429999999999
 30
0.0
 11
89.519663
 21
116.942
 31
0.0
  0
LINE
  5
15B
330
1E
100
AcDbEntity
  8
0
100
AcDbLine
 10
75.68316300000001
 20
149.425
 30
0.0
 11
80.86506300000001
 21
150.814
 31
0.0
  0
LINE
  5
15C
330
1E
100
AcDbEntity
  8
0
100
AcDbLine
 10
77.64586300000001
 20
75.78520000000001
 30
0.0
 11
79.35536299999999
 21
75.59699999999999
 31
0.0
  0
LINE
  5
15D
330
1E
100
AcDbEntity
  8
0
100
AcDbLine
 10
79.391863
 20
115.2209999999999
 30
0.0
 11
84.02826299999999
 21
116.463
 31
0.0
  0
LINE
  5
15E
330
1E
100
AcDbEntity
  8
0
100
AcDbLine
 10
80.62356300000001
 20
150.2599999999999
 30
0.0
 11
86.44186299999999
 21
151.82
 31
0.0
  0
LINE
  5
15F
330
1E
100
AcDbEntity
  8
0
100
AcDbLine
 10
83.329263
 20
117.2529999999999
 30
0.0
 11
88.87476300000001
 21
118.7389999999999
 31
0.0
  0
LINE
  5
160
330
1E
100
AcDbEntity
  8
0
100
AcDbLine
 10
84.02826299999999
 20
116.463
 30
0.0
 11
89.392063
 21
117.9
 31
0.0
  0
LINE
  5
161
330
1E
100
AcDbEntity
  8
0
100
AcDbLine
 10
89.392063
 20
117.9
 30
0.0
 11
95.119363
 21
119.4339999999999
 31
0.0
  0
LINE
  5
162
330
1E
100
AcDbEntity
  8
0
100
AcDbLine
 10
88.87476300000001
 20
118.7389999999999
 30
0.0
 11
94.874863
 21
120.347
 31
0.0
  0
LINE
  5
163
330
1E
100
AcDbEntity
  8
0
100
AcDbLine
 10
95.119363
 20
119.4339999999999
 30
0.0
 11
100.4067629999999
 21
122.611
 31
0.0
  0
LINE
  5
164
330
1E
100
AcDbEntity
  8
0
100
AcDbLine
 10
89.519663
 20
116.942
 30
0.0
 11
117.5207833621439
 21
124.396949380704
 31
0.0
  0
LINE
  5
165
330
1E
100
AcDbEntity
  8
0
100
AcDbLine
 10
95.326663
 20
118.179
 30
0.0
 11
101.189963
 21
119.751
 31
0.0
  0
LINE
  5
166
330
1E
100
AcDbEntity
  8
0
100
AcDbLine
 10
89.462963
 20
116.608
 30
0.0
 11
95.326663
 21
118.179
 31
0.0
  0
LINE
  5
167
330
1E
100
AcDbEntity
  8
0
100
AcDbLine
 10
83.940163
 20
115.1279999999999
 30
0.0
 11
89.462963
 21
116.608
 31
0.0
  0
LINE
  5
168
330
1E
100
AcDbEntity
  8
0
100
AcDbLine
 10
86.44186299999999
 20
151.82
 30
0.0
 11
92.26016300000001
 21
153.3779999999999
 31
0.0
  0
LINE
  5
169
330
1E
100
AcDbEntity
  8
0
100
AcDbLine
 10
100.4067629999999
 20
122.611
 30
0.0
 11
105.3789629999999
 21
125.5079999999999
 31
0.0
  0
LINE
  5
16A
330
1E
100
AcDbEntity
  8
0
100
AcDbLine
 10
94.874863
 20
120.347
 30
0.0
 11
100.4349629999999
 21
123.597
 31
0.0
  0
LINE
  5
16B
330
1E
100
AcDbEntity
  8
0
100
AcDbLine
 10
100.4349629999999
 20
123.597
 30
0.0
 11
105.564963
 21
126.6329999999999
 31
0.0
  0
LINE
  5
16C
330
1E
100
AcDbEntity
  8
0
100
AcDbLine
 10
92.26016300000001
 20
153.3779999999999
 30
0.0
 11
97.71476300000001
 21
154.8399999999999
 31
0.0
  0
LINE
  5
16D
330
1E
100
AcDbEntity
  8
0
100
AcDbLine
 10
97.71476300000001
 20
154.8399999999999
 30
0.0
 11
102.5329629999999
 21
156.1309999999999
 31
0.0
  0
LINE
  5
16E
330
1E
100
AcDbEntity
  8
0
100
AcDbLine
 10
86.319563
 20
152.276
 30
0.0
 11
96.95616300000001
 21
155.126
 31
0.0
  0
LINE
  5
16F
330
1E
100
AcDbEntity
  8
0
100
AcDbLine
 10
101.189963
 20
119.751
 30
0.0
 11
106.7129629999999
 21
121.23
 31
0.0
  0
LINE
  5
170
330
1E
100
AcDbEntity
  8
0
100
AcDbLine
 10
80.86506300000001
 20
150.814
 30
0.0
 11
86.319563
 21
152.276
 31
0.0
  0
LINE
  5
171
330
1E
100
AcDbEntity
  8
0
100
AcDbLine
 10
96.95616300000001
 20
155.126
 30
0.0
 11
101.4109629999999
 21
156.3189999999999
 31
0.0
  0
LINE
  5
172
330
1E
100
AcDbEntity
  8
0
100
AcDbLine
 10
106.7129629999999
 20
121.23
 30
0.0
 11
111.4859629999999
 21
122.509
 31
0.0
  0
LINE
  5
173
330
1E
100
AcDbEntity
  8
0
100
AcDbLine
 10
105.3789629999999
 20
125.5079999999999
 30
0.0
 11
109.6739629999999
 21
128.027
 31
0.0
  0
LINE
  5
174
330
1E
100
AcDbEntity
  8
0
100
AcDbLine
 10
109.6739629999999
 20
128.027
 30
0.0
 11
112.9749629999999
 21
129.8899999999999
 31
0.0
  0
LINE
  5
175
330
1E
100
AcDbEntity
  8
0
100
AcDbLine
 10
105.564963
 20
126.6329999999999
 30
0.0
 11
110.0169629999999
 21
129.293
 31
0.0
  0
LINE
  5
176
330
1E
100
AcDbEntity
  8
0
100
AcDbLine
 10
110.0169629999999
 20
129.293
 30
0.0
 11
113.4749629999999
 21
131.2949999999999
 31
0.0
  0
LINE
  5
178
330
1E
100
AcDbEntity
  8
0
100
AcDbLine
 10
112.9749629999999
 20
129.8899999999999
 30
0.0
 11
114.984963
 21
131.113
 31
0.0
  0
LINE
  5
179
330
1E
100
AcDbEntity
  8
0
100
AcDbLine
 10
115.0999629999999
 20
123.4779999999999
 30
0.0
 11
117.349963
 21
124.0799999999999
 31
0.0
  0
LINE
  5
17A
330
1E
100
AcDbEntity
  8
0
100
AcDbLine
 10
111.4859629999999
 20
122.509
 30
0.0
 11
115.0999629999999
 21
123.4779999999999
 31
0.0
  0
LINE
  5
17B
330
1E
100
AcDbEntity
  8
0
100
AcDbLine
 10
114.984963
 20
131.113
 30
0.0
 11
115.7549629999999
 21
131.5149999999999
 31
0.0
  0
LINE
  5
17C
330
1E
100
AcDbEntity
  8
0
100
AcDbLine
 10
113.4749629999999
 20
131.2949999999999
 30
0.0
 11
115.600963
 21
132.4509999999999
 31
0.0
  0
LINE
  5
17D
330
1E
100
AcDbEntity
  8
0
100
AcDbLine
 10
115.600963
 20
132.4509999999999
 30
0.0
 11
116.3459629999999
 21
132.945
 31
0.0
  0
LINE
  5
17E
330
1E
100
AcDbEntity
  8
0
100
AcDbLine
 10
102.5329629999999
 20
156.1309999999999
 30
0.0
 11
106.0789629999999
 21
157.081
 31
0.0
  0
LINE
  5
17F
330
1E
100
AcDbEntity
  8
0
100
AcDbLine
 10
114.2602616809319
 20
130.6720498939199
 30
0.0
 11
116.5169629999999
 21
126.624
 31
0.0
  0
LINE
  5
180
330
1E
100
AcDbEntity
  8
0
100
AcDbLine
 10
117.349963
 20
124.0799999999999
 30
0.0
 11
118.1679629999999
 21
124.3
 31
0.0
  0
LINE
  5
181
330
1E
100
AcDbEntity
  8
0
100
AcDbLine
 10
117.5207833621439
 20
124.396949380704
 30
0.0
 11
118.1679629999999
 21
124.3
 31
0.0
  0
LINE
  5
182
330
1E
100
AcDbEntity
  8
0
100
AcDbLine
 10
118.6679629999999
 20
123.797
 30
0.0
 11
144.069714114486
 21
28.7260871989586
 31
0.0
  0
LINE
  5
183
330
1E
100
AcDbEntity
  8
0
100
AcDbLine
 10
118.6679629999999
 20
123.797
 30
0.0
 11
144.069714114486
 21
28.7260871989586
 31
0.0
  0
LINE
  5
184
330
1E
100
AcDbEntity
  8
0
100
AcDbLine
 10
118.1679629999999
 20
124.3
 30
0.0
 11
118.6679629999999
 21
123.797
 31
0.0
  0
LINE
  5
185
330
1E
100
AcDbEntity
  8
0
100
AcDbLine
 10
116.5169629999999
 20
126.624
 30
0.0
 11
117.5207833621439
 21
124.396949380704
 31
0.0
  0
LINE
  5
186
330
1E
100
AcDbEntity
  8
0
100
AcDbLine
 10
115.7549629999999
 20
131.5149999999999
 30
0.0
 11
116.3459629999999
 21
132.945
 31
0.0
  0
LINE
  5
187
330
1E
100
AcDbEntity
  8
0
100
AcDbLine
 10
106.0789629999999
 20
157.081
 30
0.0
 11
108.350963
 21
157.69
 31
0.0
  0
LINE
  5
188
330
1E
100
AcDbEntity
  8
0
100
AcDbLine
 10
108.350963
 20
157.69
 30
0.0
 11
109.1699629999999
 21
157.9089999999999
 31
0.0
  0
LINE
  5
189
330
1E
100
AcDbEntity
  8
0
100
AcDbLine
 10
109.9909629999999
 20
156.6629999999999
 30
0.0
 11
116.3459629999999
 21
132.945
 31
0.0
  0
LINE
  5
18A
330
1E
100
AcDbEntity
  8
0
100
AcDbLine
 10
101.4109629999999
 20
156.3189999999999
 30
0.0
 11
106.8649629999999
 21
157.781
 31
0.0
  0
LINE
  5
18B
330
1E
100
AcDbEntity
  8
0
100
AcDbLine
 10
109.1699629999999
 20
157.9089999999999
 30
0.0
 11
109.9909629999999
 21
156.6629999999999
 31
0.0
  0
LINE
  5
18C
330
1E
100
AcDbEntity
  8
0
100
AcDbLine
 10
107.683963
 20
158.0
 30
0.0
 11
109.1699629999999
 21
157.9089999999999
 31
0.0
  0
LINE
  5
18D
330
1E
100
AcDbEntity
  8
0
100
AcDbLine
 10
106.8649629999999
 20
157.781
 30
0.0
 11
107.683963
 21
158.0
 31
0.0
  0
LINE
  5
18E
330
1E
100
AcDbEntity
  8
0
100
AcDbLine
 10
79.35536299999999
 20
75.59699999999999
 30
0.0
 11
81.309763
 21
75.1262
 31
0.0
  0
LINE
  5
18F
330
1E
100
AcDbEntity
  8
0
100
AcDbLine
 10
81.309763
 20
75.1262
 30
0.0
 11
82.35826986704271
 21
74.22117481377149
 31
0.0
  0
LINE
  5
190
330
1E
100
AcDbEntity
  8
0
100
AcDbLine
 10
72.603363
 20
107.674
 30
0.0
 11
73.03750279741129
 21
108.661800629799
 31
0.0
  0
LINE
  5
195
330
1E
100
AcDbEntity
  8
0
100
AcDbLine
 10
151.8529629999999
 20
47.4756
 30
0.0
 11
149.5231982847722
 21
47.15140098467259
 31
0.0
  0
LINE
  5
196
330
1E
100
AcDbEntity
  8
0
100
AcDbLine
 10
149.5231982847722
 20
47.15140098467259
 30
0.0
 11
148.067908537597
 21
46.16355783589961
 31
0.0
  0
LINE
  5
197
330
1E
100
AcDbEntity
  8
0
100
AcDbLine
 10
148.067908537597
 20
46.16355783589961
 30
0.0
 11
147.2167010217549
 21
45.06595450201632
 31
0.0
  0
LINE
  5
198
330
1E
100
AcDbEntity
  8
0
100
AcDbLine
 10
147.2167010217549
 20
45.06595450201632
 30
0.0
 11
146.8529629999999
 21
43.87559999999999
 31
0.0
  0
LINE
  5
199
330
1E
100
AcDbEntity
  8
0
100
AcDbLine
 10
144.069714114486
 20
28.72608719895861
 30
0.0
 11
147.1145388098899
 21
17.3302483134204
 31
0.0
  0
LINE
  5
19A
330
1E
100
AcDbEntity
  8
0
100
AcDbLine
 10
64.532463
 20
145.9489999999999
 30
0.0
 11
65.0289213549471
 21
139.0046182786219
 31
0.0
  0
ENDSEC
  0
SECTION
  2
OBJECTS
  0
DICTIONARY
  5
C
330
0
100
AcDbDictionary
  3
ACAD_GROUP
350
D
  3
ACAD_LAYOUT
350
19
  3
ACAD_MLINESTYLE
350
16
  3
ACAD_PLOTSETTINGS
350
18
  3
ACAD_PLOTSTYLENAME
350
E
  3
ACDBHEADERROUNDTRIPXREC
350
19E
  3
ACDBVARIABLEDICTIONARY
350
19B
  0
DICTIONARY
  5
1C0
330
1E
100
AcDbDictionary
280
     1
  3
ACAD_LAYOUTSELFREF
360
1C1
  0
DICTIONARY
  5
1BE
330
1A
100
AcDbDictionary
280
     1
  3
ACAD_LAYOUTSELFREF
360
1BF
  0
DICTIONARY
  5
D
102
{ACAD_REACTORS
330
C
102
}
330
C
100
AcDbDictionary
  0
DICTIONARY
  5
19
102
{ACAD_REACTORS
330
C
102
}
330
C
100
AcDbDictionary
  0
DICTIONARY
  5
16
102
{ACAD_REACTORS
330
C
102
}
330
C
100
AcDbDictionary
  3
STANDARD
350
17
  0
DICTIONARY
  5
18
102
{ACAD_REACTORS
330
C
102
}
330
C
100
AcDbDictionary
  0
ACDBDICTIONARYWDFLT
  5
E
102
{ACAD_REACTORS
330
C
102
}
330
C
100
AcDbDictionary
281
     1
  3
Normal
350
F
100
AcDbDictionaryWithDefault
340
F
  0
DICTIONARY
  5
19E
102
{ACAD_REACTORS
330
C
102
}
330
C
100
AcDbDictionary
  3
CEPSNTYPE
350
1A8
  3
FINGERPRINTGUID
350
1A9
  3
HYPERLINKBASE
350
1A1
  3
INSUNITS
350
1A7
  3
LAYOUTDICT
350
1A3
  3
LWETCUNION
350
1A6
  3
PLOTSETDICT
350
1A4
  3
PLOTSTYLNAMDICT
350
1A5
  3
PSVPSCALE
350
1AB
  3
PUCSBASE
350
1AE
  3
PUCSORGBACK
350
1B4
  3
PUCSORGBOTTOM
350
1B0
  3
PUCSORGFRONT
350
1B3
  3
PUCSORGLEFT
350
1B1
  3
PUCSORGRIGHT
350
1B2
  3
PUCSORGTOP
350
1AF
  3
PUCSORTHOREF
350
1AC
  3
PUCSORTHOVIEW
350
1AD
  3
STYLESHEET
350
1A2
  3
TSTACKALIGN
350
19F
  3
TSTACKSIZE
350
1A0
  3
UCSBASE
350
1B7
  3
UCSORGBACK
350
1BD
  3
UCSORGBOTTOM
350
1B9
  3
UCSORGFRONT
350
1BC
  3
UCSORGLEFT
350
1BA
  3
UCSORGRIGHT
350
1BB
  3
UCSORGTOP
350
1B8
  3
UCSORTHOREF
350
1B5
  3
UCSORTHOVIEW
350
1B6
  3
VERSIONGUID
350
1AA
  0
DICTIONARY
  5
19B
102
{ACAD_REACTORS
330
C
102
}
330
C
100
AcDbDictionary
  3
DIMASSOC
350
19C
  0
XRECORD
  5
1C1
102
{ACAD_REACTORS
330
1C0
102
}
330
1C0
100
AcDbXrecord
340
1E
  0
XRECORD
  5
1BF
102
{ACAD_REACTORS
330
1BE
102
}
330
1BE
100
AcDbXrecord
340
1A
  0
MLINESTYLE
  5
17
102
{ACAD_REACTORS
330
16
102
}
330
16
100
AcDbMlineStyle
  2
STANDARD
 70
     0
  3

 62
   256
 51
90.0
 52
90.0
 71
     2
 49
0.5
 62
   256
  6
BYLAYER
 49
-0.5
 62
   256
  6
BYLAYER
  0
ACDBPLACEHOLDER
  5
F
102
{ACAD_REACTORS
330
E
102
}
330
E
100
AcDbPlaceHolder
280
     0
  0
XRECORD
  5
1A8
102
{ACAD_REACTORS
330
19E
102
}
330
19E
100
AcDbXrecord
 90
        0
  0
XRECORD
  5
1A9
102
{ACAD_REACTORS
330
19E
102
}
330
19E
100
AcDbXrecord
  1
{BEB0F775-F3F6-4626-9B26-9000A1871987}
  0
XRECORD
  5
1A1
102
{ACAD_REACTORS
330
19E
102
}
330
19E
100
AcDbXrecord
  1

  0
XRECORD
  5
1A7
102
{ACAD_REACTORS
330
19E
102
}
330
19E
100
AcDbXrecord
 90
        0
  0
XRECORD
  5
1A3
102
{ACAD_REACTORS
330
19E
102
}
330
19E
100
AcDbXrecord
340
19
  0
XRECORD
  5
1A6
102
{ACAD_REACTORS
330
19E
102
}
330
19E
100
AcDbXrecord
 90
    10781
  0
XRECORD
  5
1A4
102
{ACAD_REACTORS
330
19E
102
}
330
19E
100
AcDbXrecord
340
18
  0
XRECORD
  5
1A5
102
{ACAD_REACTORS
330
19E
102
}
330
19E
100
AcDbXrecord
340
E
  0
XRECORD
  5
1AB
102
{ACAD_REACTORS
330
19E
102
}
330
19E
100
AcDbXrecord
 40
0.0
  0
XRECORD
  5
1AE
102
{ACAD_REACTORS
330
19E
102
}
330
19E
100
AcDbXrecord
340
0
  0
XRECORD
  5
1B4
102
{ACAD_REACTORS
330
19E
102
}
330
19E
100
AcDbXrecord
 10
0.0
 20
0.0
 30
0.0
  0
XRECORD
  5
1B0
102
{ACAD_REACTORS
330
19E
102
}
330
19E
100
AcDbXrecord
 10
0.0
 20
0.0
 30
0.0
  0
XRECORD
  5
1B3
102
{ACAD_REACTORS
330
19E
102
}
330
19E
100
AcDbXrecord
 10
0.0
 20
0.0
 30
0.0
  0
XRECORD
  5
1B1
102
{ACAD_REACTORS
330
19E
102
}
330
19E
100
AcDbXrecord
 10
0.0
 20
0.0
 30
0.0
  0
XRECORD
  5
1B2
102
{ACAD_REACTORS
330
19E
102
}
330
19E
100
AcDbXrecord
 10
0.0
 20
0.0
 30
0.0
  0
XRECORD
  5
1AF
102
{ACAD_REACTORS
330
19E
102
}
330
19E
100
AcDbXrecord
 10
0.0
 20
0.0
 30
0.0
  0
XRECORD
  5
1AC
102
{ACAD_REACTORS
330
19E
102
}
330
19E
100
AcDbXrecord
340
0
  0
XRECORD
  5
1AD
102
{ACAD_REACTORS
330
19E
102
}
330
19E
100
AcDbXrecord
 70
     0
  0
XRECORD
  5
1A2
102
{ACAD_REACTORS
330
19E
102
}
330
19E
100
AcDbXrecord
  1

  0
XRECORD
  5
19F
102
{ACAD_REACTORS
330
19E
102
}
330
19E
100
AcDbXrecord
 90
        1
  0
XRECORD
  5
1A0
102
{ACAD_REACTORS
330
19E
102
}
330
19E
100
AcDbXrecord
 90
       70
  0
XRECORD
  5
1B7
102
{ACAD_REACTORS
330
19E
102
}
330
19E
100
AcDbXrecord
340
0
  0
XRECORD
  5
1BD
102
{ACAD_REACTORS
330
19E
102
}
330
19E
100
AcDbXrecord
 10
0.0
 20
0.0
 30
0.0
  0
XRECORD
  5
1B9
102
{ACAD_REACTORS
330
19E
102
}
330
19E
100
AcDbXrecord
 10
0.0
 20
0.0
 30
0.0
  0
XRECORD
  5
1BC
102
{ACAD_REACTORS
330
19E
102
}
330
19E
100
AcDbXrecord
 10
0.0
 20
0.0
 30
0.0
  0
XRECORD
  5
1BA
102
{ACAD_REACTORS
330
19E
102
}
330
19E
100
AcDbXrecord
 10
0.0
 20
0.0
 30
0.0
  0
XRECORD
  5
1BB
102
{ACAD_REACTORS
330
19E
102
}
330
19E
100
AcDbXrecord
 10
0.0
 20
0.0
 30
0.0
  0
XRECORD
  5
1B8
102
{ACAD_REACTORS
330
19E
102
}
330
19E
100
AcDbXrecord
 10
0.0
 20
0.0
 30
0.0
  0
XRECORD
  5
1B5
102
{ACAD_REACTORS
330
19E
102
}
330
19E
100
AcDbXrecord
340
0
  0
XRECORD
  5
1B6
102
{ACAD_REACTORS
330
19E
102
}
330
19E
100
AcDbXrecord
 70
     1
  0
XRECORD
  5
1AA
102
{ACAD_REACTORS
330
19E
102
}
330
19E
100
AcDbXrecord
  1
{F49DF9A3-280E-49E7-BE12-C89196C7D572}
  0
DICTIONARYVAR
  5
19C
102
{ACAD_REACTORS
330
19B
102
}
330
19B
100
DictionaryVariables
280
     0
  1
1
  0
ENDSEC
  0
EOF
