  0
SECTION
  2
HEADER
  9
$ACADVER
  1
AC1015
  9
$ACADMAINTVER
 70
    13
  9
$DWGCODEPAGE
  3
ANSI_1252
  9
$INSBASE
 10
0.0
 20
0.0
 30
0.0
  9
$EXTMIN
 10
0.0677395000000152
 20
0.24999999999999
 30
0.0
  9
$EXTMAX
 10
154.9322604999999
 20
133.25
 30
0.0
  9
$LIMMIN
 10
0.0
 20
0.0
  9
$LIMMAX
 10
12.0
 20
9.0
  9
$ORTHOMODE
 70
     0
  9
$REGENMODE
 70
     1
  9
$FILLMODE
 70
     1
  9
$QTEXTMODE
 70
     0
  9
$MIRRTEXT
 70
     1
  9
$LTSCALE
 40
1.0
  9
$ATTMODE
 70
     1
  9
$TEXTSIZE
 40
0.2
  9
$TRACEWID
 40
0.05
  9
$TEXTSTYLE
  7
Standard
  9
$CLAYER
  8
0
  9
$CELTYPE
  6
Continuous
  9
$CECOLOR
 62
   256
  9
$CELTSCALE
 40
1.0
  9
$DISPSILH
 70
     0
  9
$DIMSCALE
 40
1.0
  9
$DIMASZ
 40
0.18
  9
$DIMEXO
 40
0.0625
  9
$DIMDLI
 40
0.38
  9
$DIMRND
 40
0.0
  9
$DIMDLE
 40
0.0
  9
$DIMEXE
 40
0.18
  9
$DIMTP
 40
0.0
  9
$DIMTM
 40
0.0
  9
$DIMTXT
 40
0.18
  9
$DIMCEN
 40
0.09
  9
$DIMTSZ
 40
0.0
  9
$DIMTOL
 70
     0
  9
$DIMLIM
 70
     0
  9
$DIMTIH
 70
     1
  9
$DIMTOH
 70
     1
  9
$DIMSE1
 70
     0
  9
$DIMSE2
 70
     0
  9
$DIMTAD
 70
     0
  9
$DIMZIN
 70
     0
  9
$DIMBLK
  1

  9
$DIMASO
 70
     1
  9
$DIMSHO
 70
     1
  9
$DIMPOST
  1

  9
$DIMAPOST
  1

  9
$DIMALT
 70
     0
  9
$DIMALTD
 70
     2
  9
$DIMALTF
 40
25.4
  9
$DIMLFAC
 40
1.0
  9
$DIMTOFL
 70
     0
  9
$DIMTVP
 40
0.0
  9
$DIMTIX
 70
     0
  9
$DIMSOXD
 70
     0
  9
$DIMSAH
 70
     0
  9
$DIMBLK1
  1

  9
$DIMBLK2
  1

  9
$DIMSTYLE
  2
Standard
  9
$DIMCLRD
 70
     0
  9
$DIMCLRE
 70
     0
  9
$DIMCLRT
 70
     0
  9
$DIMTFAC
 40
1.0
  9
$DIMGAP
 40
0.09
  9
$DIMJUST
 70
     0
  9
$DIMSD1
 70
     0
  9
$DIMSD2
 70
     0
  9
$DIMTOLJ
 70
     1
  9
$DIMTZIN
 70
     0
  9
$DIMALTZ
 70
     0
  9
$DIMALTTZ
 70
     0
  9
$DIMUPT
 70
     0
  9
$DIMDEC
 70
     4
  9
$DIMTDEC
 70
     4
  9
$DIMALTU
 70
     2
  9
$DIMALTTD
 70
     2
  9
$DIMTXSTY
  7
Standard
  9
$DIMAUNIT
 70
     0
  9
$DIMADEC
 70
     0
  9
$DIMALTRND
 40
0.0
  9
$DIMAZIN
 70
     0
  9
$DIMDSEP
 70
    46
  9
$DIMATFIT
 70
     3
  9
$DIMFRAC
 70
     0
  9
$DIMLDRBLK
  1

  9
$DIMLUNIT
 70
     2
  9
$DIMLWD
 70
    -2
  9
$DIMLWE
 70
    -2
  9
$DIMTMOVE
 70
     0
  9
$LUNITS
 70
     2
  9
$LUPREC
 70
     4
  9
$SKETCHINC
 40
0.1
  9
$FILLETRAD
 40
0.0
  9
$AUNITS
 70
     0
  9
$AUPREC
 70
     0
  9
$MENU
  1
.
  9
$ELEVATION
 40
0.0
  9
$PELEVATION
 40
0.0
  9
$THICKNESS
 40
0.0
  9
$LIMCHECK
 70
     0
  9
$CHAMFERA
 40
0.0
  9
$CHAMFERB
 40
0.0
  9
$CHAMFERC
 40
0.0
  9
$CHAMFERD
 40
0.0
  9
$SKPOLY
 70
     0
  9
$TDCREATE
 40
2454835.607335243
  9
$TDUCREATE
 40
2454835.565668576
  9
$TDUPDATE
 40
2454835.608461365
  9
$TDUUPDATE
 40
2454835.566794699
  9
$TDINDWG
 40
0.0011261227
  9
$TDUSRTIMER
 40
0.0011261227
  9
$USRTIMER
 70
     1
  9
$ANGBASE
 50
0.0
  9
$ANGDIR
 70
     0
  9
$PDMODE
 70
     0
  9
$PDSIZE
 40
0.0
  9
$PLINEWID
 40
0.0
  9
$SPLFRAME
 70
     0
  9
$SPLINETYPE
 70
     6
  9
$SPLINESEGS
 70
     8
  9
$HANDSEED
  5
1FE
  9
$SURFTAB1
 70
     6
  9
$SURFTAB2
 70
     6
  9
$SURFTYPE
 70
     6
  9
$SURFU
 70
     6
  9
$SURFV
 70
     6
  9
$UCSBASE
  2

  9
$UCSNAME
  2

  9
$UCSORG
 10
0.0
 20
0.0
 30
0.0
  9
$UCSXDIR
 10
1.0
 20
0.0
 30
0.0
  9
$UCSYDIR
 10
0.0
 20
1.0
 30
0.0
  9
$UCSORTHOREF
  2

  9
$UCSORTHOVIEW
 70
     1
  9
$UCSORGTOP
 10
0.0
 20
0.0
 30
0.0
  9
$UCSORGBOTTOM
 10
0.0
 20
0.0
 30
0.0
  9
$UCSORGLEFT
 10
0.0
 20
0.0
 30
0.0
  9
$UCSORGRIGHT
 10
0.0
 20
0.0
 30
0.0
  9
$UCSORGFRONT
 10
0.0
 20
0.0
 30
0.0
  9
$UCSORGBACK
 10
0.0
 20
0.0
 30
0.0
  9
$PUCSBASE
  2

  9
$PUCSNAME
  2

  9
$PUCSORG
 10
0.0
 20
0.0
 30
0.0
  9
$PUCSXDIR
 10
1.0
 20
0.0
 30
0.0
  9
$PUCSYDIR
 10
0.0
 20
1.0
 30
0.0
  9
$PUCSORTHOREF
  2

  9
$PUCSORTHOVIEW
 70
     0
  9
$PUCSORGTOP
 10
0.0
 20
0.0
 30
0.0
  9
$PUCSORGBOTTOM
 10
0.0
 20
0.0
 30
0.0
  9
$PUCSORGLEFT
 10
0.0
 20
0.0
 30
0.0
  9
$PUCSORGRIGHT
 10
0.0
 20
0.0
 30
0.0
  9
$PUCSORGFRONT
 10
0.0
 20
0.0
 30
0.0
  9
$PUCSORGBACK
 10
0.0
 20
0.0
 30
0.0
  9
$USERI1
 70
     0
  9
$USERI2
 70
     0
  9
$USERI3
 70
     0
  9
$USERI4
 70
     0
  9
$USERI5
 70
     0
  9
$USERR1
 40
0.0
  9
$USERR2
 40
0.0
  9
$USERR3
 40
0.0
  9
$USERR4
 40
0.0
  9
$USERR5
 40
0.0
  9
$WORLDVIEW
 70
     1
  9
$SHADEDGE
 70
     3
  9
$SHADEDIF
 70
    70
  9
$TILEMODE
 70
     1
  9
$MAXACTVP
 70
    64
  9
$PINSBASE
 10
0.0
 20
0.0
 30
0.0
  9
$PLIMCHECK
 70
     0
  9
$PEXTMIN
 10
1.000000000000000E+20
 20
1.000000000000000E+20
 30
1.000000000000000E+20
  9
$PEXTMAX
 10
-1.000000000000000E+20
 20
-1.000000000000000E+20
 30
-1.000000000000000E+20
  9
$PLIMMIN
 10
0.0
 20
0.0
  9
$PLIMMAX
 10
12.0
 20
9.0
  9
$UNITMODE
 70
     0
  9
$VISRETAIN
 70
     1
  9
$PLINEGEN
 70
     0
  9
$PSLTSCALE
 70
     1
  9
$TREEDEPTH
 70
  3020
  9
$CMLSTYLE
  2
Standard
  9
$CMLJUST
 70
     0
  9
$CMLSCALE
 40
1.0
  9
$PROXYGRAPHICS
 70
     1
  9
$MEASUREMENT
 70
     0
  9
$CELWEIGHT
370
    -1
  9
$ENDCAPS
280
     0
  9
$JOINSTYLE
280
     0
  9
$LWDISPLAY
290
     0
  9
$INSUNITS
 70
     0
  9
$HYPERLINKBASE
  1

  9
$STYLESHEET
  1

  9
$XEDIT
290
     1
  9
$CEPSNTYPE
380
     0
  9
$PSTYLEMODE
290
     1
  9
$FINGERPRINTGUID
  2
{A942C240-0FE3-48F1-85B2-D72C3804BF12}
  9
$VERSIONGUID
  2
{DAC7B8AC-C32F-4C7F-896B-B65FA83E8248}
  9
$EXTNAMES
290
     1
  9
$PSVPSCALE
 40
0.0
  9
$OLESTARTUP
290
     0
  0
ENDSEC
  0
SECTION
  2
CLASSES
  0
CLASS
  1
ACDBDICTIONARYWDFLT
  2
AcDbDictionaryWithDefault
  3
AutoCAD 2000
 90
        0
280
     0
281
     0
  0
CLASS
  1
ACDBPLACEHOLDER
  2
AcDbPlaceHolder
  3
AutoCAD 2000
 90
        0
280
     0
281
     0
  0
CLASS
  1
LAYOUT
  2
AcDbLayout
  3
AutoCAD 2000
 90
        0
280
     0
281
     0
  0
CLASS
  1
DICTIONARYVAR
  2
AcDbDictionaryVar
  3
AutoCAD 2000
 90
        0
280
     0
281
     0
  0
ENDSEC
  0
SECTION
  2
TABLES
  0
TABLE
  2
VPORT
  5
8
330
0
100
AcDbSymbolTable
 70
     2
  0
VPORT
  5
1FD
330
8
100
AcDbSymbolTableRecord
100
AcDbViewportTableRecord
  2
*Active
 70
     0
 10
0.0
 20
0.0
 11
1.0
 21
1.0
 12
77.5
 22
66.74999999999998
 13
0.0
 23
0.0
 14
1.0
 24
1.0
 15
0.0
 25
0.0
 16
0.0
 26
0.0
 36
1.0
 17
0.0
 27
0.0
 37
0.0
 40
134.0204603580562
 41
2.078104993597951
 42
50.0
 43
0.0
 44
0.0
 50
0.0
 51
0.0
 71
     0
 72
   100
 73
     1
 74
     3
 75
     0
 76
     0
 77
     0
 78
     0
281
     0
 65
     1
110
0.0
120
0.0
130
0.0
111
1.0
121
0.0
131
0.0
112
0.0
122
1.0
132
0.0
 79
     1
146
0.0
  0
ENDTAB
  0
TABLE
  2
LTYPE
  5
5
330
0
100
AcDbSymbolTable
 70
     1
  0
LTYPE
  5
13
330
5
100
AcDbSymbolTableRecord
100
AcDbLinetypeTableRecord
  2
ByBlock
 70
     0
  3

 72
    65
 73
     0
 40
0.0
  0
LTYPE
  5
14
330
5
100
AcDbSymbolTableRecord
100
AcDbLinetypeTableRecord
  2
ByLayer
 70
     0
  3

 72
    65
 73
     0
 40
0.0
  0
LTYPE
  5
15
330
5
100
AcDbSymbolTableRecord
100
AcDbLinetypeTableRecord
  2
Continuous
 70
     0
  3
Solid line
 72
    65
 73
     0
 40
0.0
  0
ENDTAB
  0
TABLE
  2
LAYER
  5
2
330
0
100
AcDbSymbolTable
 70
     1
  0
LAYER
  5
10
330
2
100
AcDbSymbolTableRecord
100
AcDbLayerTableRecord
  2
0
 70
     0
 62
     7
  6
Continuous
370
    -3
390
F
  0
ENDTAB
  0
TABLE
  2
STYLE
  5
3
330
0
100
AcDbSymbolTable
 70
     1
  0
STYLE
  5
11
330
3
100
AcDbSymbolTableRecord
100
AcDbTextStyleTableRecord
  2
Standard
 70
     0
 40
0.0
 41
1.0
 50
0.0
 71
     0
 42
0.2
  3
txt
  4

  0
ENDTAB
  0
TABLE
  2
VIEW
  5
6
330
0
100
AcDbSymbolTable
 70
     0
  0
ENDTAB
  0
TABLE
  2
UCS
  5
7
330
0
100
AcDbSymbolTable
 70
     0
  0
ENDTAB
  0
TABLE
  2
APPID
  5
9
330
0
100
AcDbSymbolTable
 70
     1
  0
APPID
  5
12
330
9
100
AcDbSymbolTableRecord
100
AcDbRegAppTableRecord
  2
ACAD
 70
     0
  0
ENDTAB
  0
TABLE
  2
DIMSTYLE
  5
A
330
0
100
AcDbSymbolTable
 70
     1
100
AcDbDimStyleTable
 71
     0
  0
DIMSTYLE
105
1F5
330
A
100
AcDbSymbolTableRecord
100
AcDbDimStyleTableRecord
  2
Standard
 70
     0
340
11
  0
ENDTAB
  0
TABLE
  2
BLOCK_RECORD
  5
1
330
0
100
AcDbSymbolTable
 70
     0
  0
BLOCK_RECORD
  5
1E
330
1
100
AcDbSymbolTableRecord
100
AcDbBlockTableRecord
  2
*Model_Space
340
21
  0
BLOCK_RECORD
  5
1A
330
1
100
AcDbSymbolTableRecord
100
AcDbBlockTableRecord
  2
*Paper_Space
340
1D
  0
ENDTAB
  0
ENDSEC
  0
SECTION
  2
BLOCKS
  0
BLOCK
  5
1F
330
1E
100
AcDbEntity
  8
0
100
AcDbBlockBegin
  2
*Model_Space
 70
     0
 10
0.0
 20
0.0
 30
0.0
  3
*Model_Space
  1

  0
ENDBLK
  5
20
330
1E
100
AcDbEntity
  8
0
100
AcDbBlockEnd
  0
BLOCK
  5
1B
330
1A
100
AcDbEntity
 67
     1
  8
0
100
AcDbBlockBegin
  2
*Paper_Space
 70
     0
 10
0.0
 20
0.0
 30
0.0
  3
*Paper_Space
  1

  0
ENDBLK
  5
1C
330
1A
100
AcDbEntity
 67
     1
  8
0
100
AcDbBlockEnd
  0
ENDSEC
  0
SECTION
  2
ENTITIES
  0
LINE
  5
22
330
1E
100
AcDbEntity
  8
0
100
AcDbLine
 10
144.2882605
 20
0.249999999999996
 30
0.0
 11
146.4882604999999
 21
0.249999999999996
 31
0.0
  0
LINE
  5
23
330
1E
100
AcDbEntity
  8
0
100
AcDbLine
 10
146.4882604999999
 20
0.249999999999996
 30
0.0
 11
148.2882605
 21
0.249999999999995
 31
0.0
  0
LINE
  5
24
330
1E
100
AcDbEntity
  8
0
100
AcDbLine
 10
141.8882605
 20
0.249999999999996
 30
0.0
 11
144.2882605
 21
0.249999999999996
 31
0.0
  0
LINE
  5
25
330
1E
100
AcDbEntity
  8
0
100
AcDbLine
 10
139.2882605
 20
0.249999999999996
 30
0.0
 11
141.8882605
 21
0.249999999999996
 31
0.0
  0
LINE
  5
26
330
1E
100
AcDbEntity
  8
0
100
AcDbLine
 10
136.3882605
 20
0.249999999999996
 30
0.0
 11
139.2882605
 21
0.249999999999996
 31
0.0
  0
LINE
  5
27
330
1E
100
AcDbEntity
  8
0
100
AcDbLine
 10
133.3882605
 20
0.249999999999996
 30
0.0
 11
136.3882605
 21
0.249999999999996
 31
0.0
  0
LINE
  5
28
330
1E
100
AcDbEntity
  8
0
100
AcDbLine
 10
130.1882604999999
 20
0.249999999999997
 30
0.0
 11
133.3882605
 21
0.249999999999996
 31
0.0
  0
LINE
  5
29
330
1E
100
AcDbEntity
  8
0
100
AcDbLine
 10
4.308400500000009
 20
53.5108
 30
0.0
 11
5.109650500000009
 21
50.84459999999999
 31
0.0
  0
LINE
  5
2A
330
1E
100
AcDbEntity
  8
0
100
AcDbLine
 10
3.438170500000009
 20
56.4069
 30
0.0
 11
4.308400500000009
 21
53.5108
 31
0.0
  0
LINE
  5
2B
330
1E
100
AcDbEntity
  8
0
100
AcDbLine
 10
5.814060500000009
 20
48.50010000000001
 30
0.0
 11
6.352770500000009
 21
46.70729999999999
 31
0.0
  0
LINE
  5
2C
330
1E
100
AcDbEntity
  8
0
100
AcDbLine
 10
6.808610500000009
 20
45.19029999999999
 30
0.0
 11
7.127250500000009
 21
44.9854
 31
0.0
  0
LINE
  5
2D
330
1E
100
AcDbEntity
  8
0
100
AcDbLine
 10
6.684280500000009
 20
45.6041
 30
0.0
 11
6.808610500000009
 21
45.19029999999999
 31
0.0
  0
LINE
  5
2E
330
1E
100
AcDbEntity
  8
0
100
AcDbLine
 10
7.127250500000009
 20
44.9854
 30
0.0
 11
14.5530605
 21
47.2168
 31
0.0
  0
LINE
  5
2F
330
1E
100
AcDbEntity
  8
0
100
AcDbLine
 10
7.002920500000009
 20
45.39909999999999
 30
0.0
 11
7.127250500000009
 21
44.9854
 31
0.0
  0
LINE
  5
30
330
1E
100
AcDbEntity
  8
0
100
AcDbLine
 10
6.352770500000009
 20
46.70729999999999
 30
0.0
 11
6.684280500000009
 21
45.6041
 31
0.0
  0
LINE
  5
31
330
1E
100
AcDbEntity
  8
0
100
AcDbLine
 10
6.671400500000009
 20
46.50229999999999
 30
0.0
 11
7.002920500000009
 21
45.39909999999999
 31
0.0
  0
LINE
  5
32
330
1E
100
AcDbEntity
  8
0
100
AcDbLine
 10
6.118900500000019
 20
48.34109999999999
 30
0.0
 11
6.671400500000009
 21
46.50229999999999
 31
0.0
  0
LINE
  5
33
330
1E
100
AcDbEntity
  8
0
100
AcDbLine
 10
5.109650500000009
 20
50.84459999999999
 30
0.0
 11
5.814060500000009
 21
48.50010000000001
 31
0.0
  0
LINE
  5
34
330
1E
100
AcDbEntity
  8
0
100
AcDbLine
 10
5.386810500000009
 20
50.7775
 30
0.0
 11
6.118900500000019
 21
48.34109999999999
 31
0.0
  0
LINE
  5
35
330
1E
100
AcDbEntity
  8
0
100
AcDbLine
 10
4.557970500000009
 20
53.5357
 30
0.0
 11
5.386810500000009
 21
50.7775
 31
0.0
  0
LINE
  5
36
330
1E
100
AcDbEntity
  8
0
100
AcDbLine
 10
3.673960500000009
 20
56.4777
 30
0.0
 11
4.557970500000009
 21
53.5357
 31
0.0
  0
LINE
  5
37
330
1E
100
AcDbEntity
  8
0
100
AcDbLine
 10
2.56795050000001
 20
59.303
 30
0.0
 11
3.438170500000009
 21
56.4069
 31
0.0
  0
LINE
  5
38
330
1E
100
AcDbEntity
  8
0
100
AcDbLine
 10
1.76680450000001
 20
61.9692
 30
0.0
 11
2.56795050000001
 21
59.303
 31
0.0
  0
LINE
  5
39
330
1E
100
AcDbEntity
  8
0
100
AcDbLine
 10
2.789840500000009
 20
59.4198
 30
0.0
 11
3.673960500000009
 21
56.4777
 31
0.0
  0
LINE
  5
3A
330
1E
100
AcDbEntity
  8
0
100
AcDbLine
 10
11.9837605
 20
55.7671
 30
0.0
 11
12.5714439777977
 21
53.8115582356597
 31
0.0
  0
LINE
  5
3B
330
1E
100
AcDbEntity
  8
0
100
AcDbLine
 10
11.0997605000017
 20
58.7090999999944
 30
0.0
 11
12.0425605
 21
55.5717
 31
0.0
  0
LINE
  5
3C
330
1E
100
AcDbEntity
  8
0
100
AcDbLine
 10
12.0425605
 20
55.5717
 30
0.0
 11
12.9104605
 21
52.6833
 31
0.0
  0
LINE
  5
3D
330
1E
100
AcDbEntity
  8
0
100
AcDbLine
 10
12.0425605
 20
55.5717
 30
0.0
 11
12.5714439777976
 21
53.8115582356602
 31
0.0
  0
LINE
  5
3E
330
1E
100
AcDbEntity
  8
0
100
AcDbLine
 10
11.09976049999999
 20
58.7091
 30
0.0
 11
12.0425605
 21
55.5717
 31
0.0
  0
LINE
  5
3F
330
1E
100
AcDbEntity
  8
0
100
AcDbLine
 10
11.09976049999999
 20
58.7091
 30
0.0
 11
11.9837605
 21
55.7671
 31
0.0
  0
LINE
  5
40
330
1E
100
AcDbEntity
  8
0
100
AcDbLine
 10
13.6854970073737
 20
50.1041085253237
 30
0.0
 11
14.0972605
 21
48.7337
 31
0.0
  0
LINE
  5
41
330
1E
100
AcDbEntity
  8
0
100
AcDbLine
 10
13.6854970073735
 20
50.1041085253244
 30
0.0
 11
14.2572605
 21
48.2013
 31
0.0
  0
LINE
  5
42
330
1E
100
AcDbEntity
  8
0
100
AcDbLine
 10
13.6854970073749
 20
50.1041085253197
 30
0.0
 11
14.2572605
 21
48.2013
 31
0.0
  0
LINE
  5
43
330
1E
100
AcDbEntity
  8
0
100
AcDbLine
 10
13.6736605
 20
50.1435
 30
0.0
 11
14.2572605
 21
48.2013
 31
0.0
  0
LINE
  5
44
330
1E
100
AcDbEntity
  8
0
100
AcDbLine
 10
14.4287605
 20
47.63049999999999
 30
0.0
 11
14.5530605
 21
47.2168
 31
0.0
  0
LINE
  5
45
330
1E
100
AcDbEntity
  8
0
100
AcDbLine
 10
14.6164605
 20
47.0061
 30
0.0
 11
14.7511605
 21
46.55789999999999
 31
0.0
  0
LINE
  5
46
330
1E
100
AcDbEntity
  8
0
100
AcDbLine
 10
14.7511605
 20
46.55789999999999
 30
0.0
 11
15.1355605
 21
46.34759999999999
 31
0.0
  0
LINE
  5
47
330
1E
100
AcDbEntity
  8
0
100
AcDbLine
 10
15.1355605
 20
46.34759999999999
 30
0.0
 11
22.2077605
 21
48.4727
 31
0.0
  0
LINE
  5
48
330
1E
100
AcDbEntity
  8
0
100
AcDbLine
 10
15.0008605
 20
46.7958
 30
0.0
 11
15.1355605
 21
46.34759999999999
 31
0.0
  0
LINE
  5
49
330
1E
100
AcDbEntity
  8
0
100
AcDbLine
 10
14.0972605
 20
48.7337
 30
0.0
 11
14.4287605
 21
47.63049999999999
 31
0.0
  0
LINE
  5
4A
330
1E
100
AcDbEntity
  8
0
100
AcDbLine
 10
14.2572605
 20
48.2013
 30
0.0
 11
14.6164605
 21
47.0061
 31
0.0
  0
LINE
  5
4B
330
1E
100
AcDbEntity
  8
0
100
AcDbLine
 10
14.6416605
 20
47.99100000000001
 30
0.0
 11
15.0008605
 21
46.7958
 31
0.0
  0
LINE
  5
4C
330
1E
100
AcDbEntity
  8
0
100
AcDbLine
 10
14.0431605
 20
49.983
 30
0.0
 11
14.6416605
 21
47.99100000000001
 31
0.0
  0
LINE
  5
4D
330
1E
100
AcDbEntity
  8
0
100
AcDbLine
 10
12.9104605
 20
52.6833
 30
0.0
 11
13.6736605
 21
50.1435
 31
0.0
  0
LINE
  5
4E
330
1E
100
AcDbEntity
  8
0
100
AcDbLine
 10
13.2499605
 20
52.6224
 30
0.0
 11
14.0431605
 21
49.983
 31
0.0
  0
LINE
  5
4F
330
1E
100
AcDbEntity
  8
0
100
AcDbLine
 10
12.3521605
 20
55.6105
 30
0.0
 11
13.2499605
 21
52.6224
 31
0.0
  0
LINE
  5
50
330
1E
100
AcDbEntity
  8
0
100
AcDbLine
 10
11.3943605
 20
58.7977
 30
0.0
 11
12.3521605
 21
55.6105
 31
0.0
  0
LINE
  5
51
330
1E
100
AcDbEntity
  8
0
100
AcDbLine
 10
10.1569605
 20
61.8465
 30
0.0
 11
11.09976049999999
 21
58.7091
 31
0.0
  0
LINE
  5
52
330
1E
100
AcDbEntity
  8
0
100
AcDbLine
 10
17.8772605
 20
63.9534
 30
0.0
 11
18.7612605
 21
61.0114
 31
0.0
  0
LINE
  5
53
330
1E
100
AcDbEntity
  8
0
100
AcDbLine
 10
1.96109650000001
 20
62.178
 30
0.0
 11
2.789840500000009
 21
59.4198
 31
0.0
  0
LINE
  5
54
330
1E
100
AcDbEntity
  8
0
100
AcDbLine
 10
10.43668049999999
 20
61.9849
 30
0.0
 11
11.3943605
 21
58.7977
 31
0.0
  0
LINE
  5
55
330
1E
100
AcDbEntity
  8
0
100
AcDbLine
 10
22.0903605
 20
49.93269999999999
 30
0.0
 11
22.2146605
 21
49.519
 31
0.0
  0
LINE
  5
56
330
1E
100
AcDbEntity
  8
0
100
AcDbLine
 10
22.0296938332541
 20
50.1346111113749
 30
0.0
 11
22.0903605
 21
49.93269999999999
 31
0.0
  0
LINE
  5
57
330
1E
100
AcDbEntity
  8
0
100
AcDbLine
 10
22.0730605
 20
48.9209
 30
0.0
 11
22.2077605
 21
48.4727
 31
0.0
  0
LINE
  5
58
330
1E
100
AcDbEntity
  8
0
100
AcDbLine
 10
22.2146605
 20
49.519
 30
0.0
 11
33.658567653522
 21
52.9025877915962
 31
0.0
  0
LINE
  5
59
330
1E
100
AcDbEntity
  8
0
100
AcDbLine
 10
22.2146605
 20
49.519
 30
0.0
 11
33.658567653522
 21
52.9025877915962
 31
0.0
  0
LINE
  5
5A
330
1E
100
AcDbEntity
  8
0
100
AcDbLine
 10
22.2779605
 20
49.3083
 30
0.0
 11
22.4126605
 21
48.8601
 31
0.0
  0
LINE
  5
5B
330
1E
100
AcDbEntity
  8
0
100
AcDbLine
 10
22.2077605
 20
48.4727
 30
0.0
 11
22.4126605
 21
48.8601
 31
0.0
  0
LINE
  5
5C
330
1E
100
AcDbEntity
  8
0
100
AcDbLine
 10
21.71622161113849
 20
51.1778749999088
 30
0.0
 11
21.7588605
 21
51.036
 31
0.0
  0
LINE
  5
5D
330
1E
100
AcDbEntity
  8
0
100
AcDbLine
 10
21.7588605
 20
51.036
 30
0.0
 11
21.8656123247893
 21
50.68070802929099
 31
0.0
  0
LINE
  5
5E
330
1E
100
AcDbEntity
  8
0
100
AcDbLine
 10
21.7588605
 20
51.036
 30
0.0
 11
21.8656123247896
 21
50.6807080292902
 31
0.0
  0
LINE
  5
5F
330
1E
100
AcDbEntity
  8
0
100
AcDbLine
 10
21.7162216111382
 20
51.1778749999098
 30
0.0
 11
21.7588605
 21
51.036
 31
0.0
  0
LINE
  5
60
330
1E
100
AcDbEntity
  8
0
100
AcDbLine
 10
21.9188605
 20
50.5035
 30
0.0
 11
22.2779605
 21
49.3083
 31
0.0
  0
LINE
  5
61
330
1E
100
AcDbEntity
  8
0
100
AcDbLine
 10
21.7138605
 20
50.11610000000001
 30
0.0
 11
22.0730605
 21
48.9209
 31
0.0
  0
LINE
  5
62
330
1E
100
AcDbEntity
  8
0
100
AcDbLine
 10
21.33526049999999
 20
52.4457
 30
0.0
 11
21.9188605
 21
50.5035
 31
0.0
  0
LINE
  5
63
330
1E
100
AcDbEntity
  8
0
100
AcDbLine
 10
21.1153605
 20
52.1082
 30
0.0
 11
21.7138605
 21
50.11610000000001
 31
0.0
  0
LINE
  5
64
330
1E
100
AcDbEntity
  8
0
100
AcDbLine
 10
20.4741605
 20
55.3111
 30
0.0
 11
20.793422154142
 21
54.24860977441399
 31
0.0
  0
LINE
  5
65
330
1E
100
AcDbEntity
  8
0
100
AcDbLine
 10
20.4741605
 20
55.3111
 30
0.0
 11
20.79342215414219
 21
54.2486097744134
 31
0.0
  0
LINE
  5
66
330
1E
100
AcDbEntity
  8
0
100
AcDbLine
 10
20.57196049999999
 20
54.9855
 30
0.0
 11
21.33526049999999
 21
52.4457
 31
0.0
  0
LINE
  5
67
330
1E
100
AcDbEntity
  8
0
100
AcDbLine
 10
20.3222605
 20
54.74759999999999
 30
0.0
 11
21.1153605
 21
52.1082
 31
0.0
  0
LINE
  5
68
330
1E
100
AcDbEntity
  8
0
100
AcDbLine
 10
19.6454605
 20
58.0693
 30
0.0
 11
20.4741605
 21
55.3111
 31
0.0
  0
LINE
  5
69
330
1E
100
AcDbEntity
  8
0
100
AcDbLine
 10
19.7041605
 20
57.8739
 30
0.0
 11
20.57196049999999
 21
54.9855
 31
0.0
  0
LINE
  5
6A
330
1E
100
AcDbEntity
  8
0
100
AcDbLine
 10
19.4244605
 20
57.73559999999999
 30
0.0
 11
20.3222605
 21
54.74759999999999
 31
0.0
  0
LINE
  5
6B
330
1E
100
AcDbEntity
  8
0
100
AcDbLine
 10
18.7612605
 20
61.0114
 30
0.0
 11
19.7041605
 21
57.8739
 31
0.0
  0
LINE
  5
6C
330
1E
100
AcDbEntity
  8
0
100
AcDbLine
 10
18.7612605
 20
61.0114
 30
0.0
 11
19.6454605
 21
58.0693
 31
0.0
  0
LINE
  5
6D
330
1E
100
AcDbEntity
  8
0
100
AcDbLine
 10
18.4667605
 20
60.9228
 30
0.0
 11
19.4244605
 21
57.73559999999999
 31
0.0
  0
LINE
  5
6E
330
1E
100
AcDbEntity
  8
0
100
AcDbLine
 10
1.062286500000019
 20
64.3137
 30
0.0
 11
1.76680450000001
 21
61.9692
 31
0.0
  0
LINE
  5
6F
330
1E
100
AcDbEntity
  8
0
100
AcDbLine
 10
1.229000500000019
 20
64.6144
 30
0.0
 11
1.96109650000001
 21
62.178
 31
0.0
  0
LINE
  5
70
330
1E
100
AcDbEntity
  8
0
100
AcDbLine
 10
9.289120500000018
 20
64.73489999999999
 30
0.0
 11
10.1569605
 21
61.8465
 31
0.0
  0
LINE
  5
71
330
1E
100
AcDbEntity
  8
0
100
AcDbLine
 10
0.5235875000000151
 20
66.1064
 30
0.0
 11
1.062286500000019
 21
64.3137
 31
0.0
  0
LINE
  5
72
330
1E
100
AcDbEntity
  8
0
100
AcDbLine
 10
0.6764045000000151
 20
66.45310000000001
 30
0.0
 11
1.229000500000019
 21
64.6144
 31
0.0
  0
LINE
  5
73
330
1E
100
AcDbEntity
  8
0
100
AcDbLine
 10
9.538880500000018
 20
64.97289999999999
 30
0.0
 11
10.43668049999999
 21
61.9849
 31
0.0
  0
LINE
  5
74
330
1E
100
AcDbEntity
  8
0
100
AcDbLine
 10
17.6855599568418
 20
64.59134554546889
 30
0.0
 11
17.8772605
 21
63.9534
 31
0.0
  0
LINE
  5
75
330
1E
100
AcDbEntity
  8
0
100
AcDbLine
 10
17.6855599568412
 20
64.591345545471
 30
0.0
 11
17.8772605
 21
63.9534
 31
0.0
  0
LINE
  5
76
330
1E
100
AcDbEntity
  8
0
100
AcDbLine
 10
17.6855599568423
 20
64.59134554546739
 30
0.0
 11
17.8185605
 21
64.1487
 31
0.0
  0
LINE
  5
77
330
1E
100
AcDbEntity
  8
0
100
AcDbLine
 10
16.9506605
 20
67.0372
 30
0.0
 11
17.8185605
 21
64.1487
 31
0.0
  0
LINE
  5
78
330
1E
100
AcDbEntity
  8
0
100
AcDbLine
 10
0.192066500000015
 20
67.2097
 30
0.0
 11
0.5235875000000151
 21
66.1064
 31
0.0
  0
LINE
  5
79
330
1E
100
AcDbEntity
  8
0
100
AcDbLine
 10
0.0677395000000152
 20
67.6234
 30
0.0
 11
0.192066500000015
 21
67.2097
 31
0.0
  0
LINE
  5
7A
330
1E
100
AcDbEntity
  8
0
100
AcDbLine
 10
0.0677395000000152
 20
67.6234
 30
0.0
 11
0.220557500000015
 21
67.9701
 31
0.0
  0
LINE
  5
7B
330
1E
100
AcDbEntity
  8
0
100
AcDbLine
 10
0.220557500000015
 20
67.9701
 30
0.0
 11
7.646400500000019
 21
70.2015
 31
0.0
  0
LINE
  5
7C
330
1E
100
AcDbEntity
  8
0
100
AcDbLine
 10
0.220557500000015
 20
67.9701
 30
0.0
 11
0.3449005000000151
 21
67.5563
 31
0.0
  0
LINE
  5
7D
330
1E
100
AcDbEntity
  8
0
100
AcDbLine
 10
0.220557500000015
 20
67.9701
 30
0.0
 11
7.646400500000019
 21
70.2015
 31
0.0
  0
LINE
  5
7E
330
1E
100
AcDbEntity
  8
0
100
AcDbLine
 10
0.3449005000000151
 20
67.5563
 30
0.0
 11
0.6764045000000151
 21
66.45310000000001
 31
0.0
  0
LINE
  5
7F
330
1E
100
AcDbEntity
  8
0
100
AcDbLine
 10
8.102240500000009
 20
68.6845
 30
0.0
 11
8.221704364953481
 21
68.28700052752461
 31
0.0
  0
LINE
  5
80
330
1E
100
AcDbEntity
  8
0
100
AcDbLine
 10
7.942260500000009
 20
69.21689999999999
 30
0.0
 11
8.525880500000019
 21
67.27479999999999
 31
0.0
  0
LINE
  5
81
330
1E
100
AcDbEntity
  8
0
100
AcDbLine
 10
7.942260500000009
 20
69.21689999999999
 30
0.0
 11
8.221704364952639
 21
68.2870005275274
 31
0.0
  0
LINE
  5
82
330
1E
100
AcDbEntity
  8
0
100
AcDbLine
 10
7.942260500000009
 20
69.21689999999999
 30
0.0
 11
8.22170436495384
 21
68.2870005275234
 31
0.0
  0
LINE
  5
83
330
1E
100
AcDbEntity
  8
0
100
AcDbLine
 10
8.525880500000019
 20
67.27479999999999
 30
0.0
 11
9.289120500000018
 21
64.73489999999999
 31
0.0
  0
LINE
  5
84
330
1E
100
AcDbEntity
  8
0
100
AcDbLine
 10
8.147210500000008
 20
69.60429999999999
 30
0.0
 11
8.745710500000019
 21
67.61230000000001
 31
0.0
  0
LINE
  5
85
330
1E
100
AcDbEntity
  8
0
100
AcDbLine
 10
8.745710500000019
 20
67.61230000000001
 30
0.0
 11
9.538880500000018
 21
64.97289999999999
 31
0.0
  0
LINE
  5
86
330
1E
100
AcDbEntity
  8
0
100
AcDbLine
 10
7.448480500000019
 20
70.8604
 30
0.0
 11
7.583160500000009
 21
70.41209999999999
 31
0.0
  0
LINE
  5
87
330
1E
100
AcDbEntity
  8
0
100
AcDbLine
 10
7.448480500000019
 20
70.8604
 30
0.0
 11
7.653330500000018
 21
71.24769999999999
 31
0.0
  0
LINE
  5
88
330
1E
100
AcDbEntity
  8
0
100
AcDbLine
 10
7.646400500000019
 20
70.2015
 30
0.0
 11
7.770740500000009
 21
69.7877
 31
0.0
  0
LINE
  5
89
330
1E
100
AcDbEntity
  8
0
100
AcDbLine
 10
7.770740500000009
 20
69.7877
 30
0.0
 11
8.102240500000009
 21
68.6845
 31
0.0
  0
LINE
  5
8A
330
1E
100
AcDbEntity
  8
0
100
AcDbLine
 10
7.583160500000009
 20
70.41209999999999
 30
0.0
 11
7.942260500000009
 21
69.21689999999999
 31
0.0
  0
LINE
  5
8B
330
1E
100
AcDbEntity
  8
0
100
AcDbLine
 10
7.653330500000018
 20
71.24769999999999
 30
0.0
 11
7.788010500000019
 21
70.7995
 31
0.0
  0
LINE
  5
8C
330
1E
100
AcDbEntity
  8
0
100
AcDbLine
 10
7.653330500000018
 20
71.24769999999999
 30
0.0
 11
14.7255605
 21
73.3729
 31
0.0
  0
LINE
  5
8D
330
1E
100
AcDbEntity
  8
0
100
AcDbLine
 10
7.788010500000019
 20
70.7995
 30
0.0
 11
8.147210500000008
 21
69.60429999999999
 31
0.0
  0
LINE
  5
8E
330
1E
100
AcDbEntity
  8
0
100
AcDbLine
 10
15.1099605
 20
73.16259999999999
 30
0.0
 11
15.2446605
 21
72.7144
 31
0.0
  0
LINE
  5
8F
330
1E
100
AcDbEntity
  8
0
100
AcDbLine
 10
14.7255605
 20
73.3729
 30
0.0
 11
14.8602605
 21
72.9247
 31
0.0
  0
LINE
  5
90
330
1E
100
AcDbEntity
  8
0
100
AcDbLine
 10
14.7255605
 20
73.3729
 30
0.0
 11
15.1099605
 21
73.16259999999999
 31
0.0
  0
LINE
  5
91
330
1E
100
AcDbEntity
  8
0
100
AcDbLine
 10
14.8602605
 20
72.9247
 30
0.0
 11
15.2194605
 21
71.7295
 31
0.0
  0
LINE
  5
92
330
1E
100
AcDbEntity
  8
0
100
AcDbLine
 10
15.3080605
 20
72.5037
 30
0.0
 11
27.0415221702293
 21
75.97254458104291
 31
0.0
  0
LINE
  5
93
330
1E
100
AcDbEntity
  8
0
100
AcDbLine
 10
15.3080605
 20
72.5037
 30
0.0
 11
15.4323605
 21
72.09
 31
0.0
  0
LINE
  5
94
330
1E
100
AcDbEntity
  8
0
100
AcDbLine
 10
15.3080605
 20
72.5037
 30
0.0
 11
27.0415221702293
 21
75.97254458104291
 31
0.0
  0
LINE
  5
95
330
1E
100
AcDbEntity
  8
0
100
AcDbLine
 10
15.4323605
 20
72.09
 30
0.0
 11
15.6571086751113
 21
71.3419919710398
 31
0.0
  0
LINE
  5
96
330
1E
100
AcDbEntity
  8
0
100
AcDbLine
 10
15.4323605
 20
72.09
 30
0.0
 11
15.6571086751103
 21
71.34199197104308
 31
0.0
  0
LINE
  5
97
330
1E
100
AcDbEntity
  8
0
100
AcDbLine
 10
15.2446605
 20
72.7144
 30
0.0
 11
15.6038605
 21
71.5192
 31
0.0
  0
LINE
  5
98
330
1E
100
AcDbEntity
  8
0
100
AcDbLine
 10
15.6038605
 20
71.5192
 30
0.0
 11
16.1874605
 21
69.57699999999999
 31
0.0
  0
LINE
  5
99
330
1E
100
AcDbEntity
  8
0
100
AcDbLine
 10
15.6038605
 20
71.5192
 30
0.0
 11
15.65710867511049
 21
71.3419919710425
 31
0.0
  0
LINE
  5
9A
330
1E
100
AcDbEntity
  8
0
100
AcDbLine
 10
15.2194605
 20
71.7295
 30
0.0
 11
15.8179605
 21
69.73739999999999
 31
0.0
  0
LINE
  5
9B
330
1E
100
AcDbEntity
  8
0
100
AcDbLine
 10
15.8179605
 20
69.73739999999999
 30
0.0
 11
16.6110605
 21
67.0981
 31
0.0
  0
LINE
  5
9C
330
1E
100
AcDbEntity
  8
0
100
AcDbLine
 10
16.1874605
 20
69.57699999999999
 30
0.0
 11
16.9506605
 21
67.0372
 31
0.0
  0
LINE
  5
9D
330
1E
100
AcDbEntity
  8
0
100
AcDbLine
 10
16.6110605
 20
67.0981
 30
0.0
 11
17.5089605
 21
64.11
 31
0.0
  0
LINE
  5
9E
330
1E
100
AcDbEntity
  8
0
100
AcDbLine
 10
17.8185605
 20
64.1487
 30
0.0
 11
18.7612605
 21
61.0114
 31
0.0
  0
LINE
  5
9F
330
1E
100
AcDbEntity
  8
0
100
AcDbLine
 10
17.5089605
 20
64.11
 30
0.0
 11
18.4667605
 21
60.9228
 31
0.0
  0
LINE
  5
A0
330
1E
100
AcDbEntity
  8
0
100
AcDbLine
 10
107.4882604999999
 20
0.249999999999998
 30
0.0
 11
109.6882605
 21
0.249999999999998
 31
0.0
  0
LINE
  5
A1
330
1E
100
AcDbEntity
  8
0
100
AcDbLine
 10
105.6882604999999
 20
0.249999999999998
 30
0.0
 11
107.4882604999999
 21
0.249999999999998
 31
0.0
  0
LINE
  5
A2
330
1E
100
AcDbEntity
  8
0
100
AcDbLine
 10
103.2882604999999
 20
0.249999999999998
 30
0.0
 11
103.9882605
 21
0.249999999999998
 31
0.0
  0
LINE
  5
A3
330
1E
100
AcDbEntity
  8
0
100
AcDbLine
 10
103.9882605
 20
0.249999999999998
 30
0.0
 11
105.6882604999999
 21
0.249999999999998
 31
0.0
  0
LINE
  5
A4
330
1E
100
AcDbEntity
  8
0
100
AcDbLine
 10
102.6882604999999
 20
0.249999999999998
 30
0.0
 11
103.2882604999999
 21
0.249999999999998
 31
0.0
  0
LINE
  5
A5
330
1E
100
AcDbEntity
  8
0
100
AcDbLine
 10
36.31346049999999
 20
52.1072
 30
0.0
 11
38.61196049999999
 21
52.2173
 31
0.0
  0
LINE
  5
A6
330
1E
100
AcDbEntity
  8
0
100
AcDbLine
 10
34.45636049999999
 20
52.4506
 30
0.0
 11
36.31346049999999
 21
52.1072
 31
0.0
  0
LINE
  5
A7
330
1E
100
AcDbEntity
  8
0
100
AcDbLine
 10
33.658567653522
 20
52.9025877915962
 30
0.0
 11
34.45636049999999
 21
52.4506
 31
0.0
  0
LINE
  5
A8
330
1E
100
AcDbEntity
  8
0
100
AcDbLine
 10
91.76816049999999
 20
48.6768
 30
0.0
 11
92.66706050000001
 21
46.26809999999999
 31
0.0
  0
LINE
  5
A9
330
1E
100
AcDbEntity
  8
0
100
AcDbLine
 10
88.6188605
 20
52.96829999999999
 30
0.0
 11
90.3893605
 21
51.1019
 31
0.0
  0
LINE
  5
AA
330
1E
100
AcDbEntity
  8
0
100
AcDbLine
 10
87.0422605
 20
54.2243
 30
0.0
 11
88.6188605
 21
52.96829999999999
 31
0.0
  0
LINE
  5
AB
330
1E
100
AcDbEntity
  8
0
100
AcDbLine
 10
85.0627605
 20
55.4617
 30
0.0
 11
87.0422605
 21
54.2243
 31
0.0
  0
LINE
  5
AC
330
1E
100
AcDbEntity
  8
0
100
AcDbLine
 10
82.88576050000001
 20
56.417
 30
0.0
 11
85.0627605
 21
55.4617
 31
0.0
  0
LINE
  5
AD
330
1E
100
AcDbEntity
  8
0
100
AcDbLine
 10
80.2223605
 20
57.037
 30
0.0
 11
82.88576050000001
 21
56.417
 31
0.0
  0
LINE
  5
AE
330
1E
100
AcDbEntity
  8
0
100
AcDbLine
 10
77.67866049999999
 20
57.3896
 30
0.0
 11
80.2223605
 21
57.037
 31
0.0
  0
LINE
  5
AF
330
1E
100
AcDbEntity
  8
0
100
AcDbLine
 10
71.35466049999999
 20
56.8266
 30
0.0
 11
77.67866049999999
 21
57.3896
 31
0.0
  0
LINE
  5
B0
330
1E
100
AcDbEntity
  8
0
100
AcDbLine
 10
90.3893605
 20
51.1019
 30
0.0
 11
91.76816049999999
 21
48.6768
 31
0.0
  0
LINE
  5
B1
330
1E
100
AcDbEntity
  8
0
100
AcDbLine
 10
38.61196049999999
 20
52.2173
 30
0.0
 11
71.35466049999999
 21
56.8266
 31
0.0
  0
LINE
  5
B2
330
1E
100
AcDbEntity
  8
0
100
AcDbLine
 10
92.66706050000001
 20
46.26809999999999
 30
0.0
 11
92.7447605
 21
45.9442
 31
0.0
  0
LINE
  5
B3
330
1E
100
AcDbEntity
  8
0
100
AcDbLine
 10
92.7447605
 20
45.9442
 30
0.0
 11
102.4882604999999
 21
0.249999999999998
 31
0.0
  0
LINE
  5
B4
330
1E
100
AcDbEntity
  8
0
100
AcDbLine
 10
92.7447605
 20
45.9442
 30
0.0
 11
102.4882604999999
 21
0.249999999999997
 31
0.0
  0
LINE
  5
B5
330
1E
100
AcDbEntity
  8
0
100
AcDbLine
 10
102.4882604999999
 20
0.249999999999998
 30
0.0
 11
102.6882604999999
 21
0.249999999999998
 31
0.0
  0
LINE
  5
B6
330
1E
100
AcDbEntity
  8
0
100
AcDbLine
 10
109.6882605
 20
0.249999999999998
 30
0.0
 11
112.0882605
 21
0.249999999999998
 31
0.0
  0
LINE
  5
B7
330
1E
100
AcDbEntity
  8
0
100
AcDbLine
 10
112.0882605
 20
0.249999999999998
 30
0.0
 11
114.6882605
 21
0.249999999999997
 31
0.0
  0
LINE
  5
B8
330
1E
100
AcDbEntity
  8
0
100
AcDbLine
 10
114.6882605
 20
0.249999999999997
 30
0.0
 11
117.5882604999999
 21
0.249999999999997
 31
0.0
  0
LINE
  5
B9
330
1E
100
AcDbEntity
  8
0
100
AcDbLine
 10
117.5882604999999
 20
0.249999999999997
 30
0.0
 11
120.5882604999999
 21
0.249999999999997
 31
0.0
  0
LINE
  5
BA
330
1E
100
AcDbEntity
  8
0
100
AcDbLine
 10
123.7882605
 20
0.249999999999997
 30
0.0
 11
126.9882605
 21
0.249999999999997
 31
0.0
  0
LINE
  5
BB
330
1E
100
AcDbEntity
  8
0
100
AcDbLine
 10
120.5882604999999
 20
0.249999999999997
 30
0.0
 11
123.7882605
 21
0.249999999999997
 31
0.0
  0
LINE
  5
C9
330
1E
100
AcDbEntity
  8
0
100
AcDbLine
 10
40.7654605
 20
81.32420000000001
 30
0.0
 11
43.03046049999999
 21
81.72360000000001
 31
0.0
  0
LINE
  5
CA
330
1E
100
AcDbEntity
  8
0
100
AcDbLine
 10
43.03046049999999
 20
81.72360000000001
 30
0.0
 11
45.2955605
 21
82.12299999999999
 31
0.0
  0
LINE
  5
CB
330
1E
100
AcDbEntity
  8
0
100
AcDbLine
 10
45.2955605
 20
82.12299999999999
 30
0.0
 11
109.014238493999
 21
93.37530531129591
 31
0.0
  0
LINE
  5
CC
330
1E
100
AcDbEntity
  8
0
100
AcDbLine
 10
87.6410605
 20
91.06299999999999
 30
0.0
 11
88.1610605
 21
91.1546
 31
0.0
  0
LINE
  5
CD
330
1E
100
AcDbEntity
  8
0
100
AcDbLine
 10
88.1610605
 20
91.1546
 30
0.0
 11
89.1143605
 21
91.3227
 31
0.0
  0
LINE
  5
CE
330
1E
100
AcDbEntity
  8
0
100
AcDbLine
 10
89.1143605
 20
91.3227
 30
0.0
 11
90.2409605
 21
91.52140000000001
 31
0.0
  0
LINE
  5
CF
330
1E
100
AcDbEntity
  8
0
100
AcDbLine
 10
90.2409605
 20
91.52140000000001
 30
0.0
 11
91.8875605
 21
91.81169999999999
 31
0.0
  0
LINE
  5
D0
330
1E
100
AcDbEntity
  8
0
100
AcDbLine
 10
91.8875605
 20
91.81169999999999
 30
0.0
 11
93.79416050000001
 21
92.1479
 31
0.0
  0
LINE
  5
D1
330
1E
100
AcDbEntity
  8
0
100
AcDbLine
 10
93.79416050000001
 20
92.1479
 30
0.0
 11
95.8740605
 21
92.51470000000001
 31
0.0
  0
LINE
  5
D2
330
1E
100
AcDbEntity
  8
0
100
AcDbLine
 10
95.8740605
 20
92.51470000000001
 30
0.0
 11
98.30066049999999
 21
92.94249999999999
 31
0.0
  0
LINE
  5
D3
330
1E
100
AcDbEntity
  8
0
100
AcDbLine
 10
98.30066049999999
 20
92.94249999999999
 30
0.0
 11
100.8138605
 21
93.3857
 31
0.0
  0
LINE
  5
D4
330
1E
100
AcDbEntity
  8
0
100
AcDbLine
 10
100.8138605
 20
93.3857
 30
0.0
 11
103.5002605
 21
93.85939999999999
 31
0.0
  0
LINE
  5
D5
330
1E
100
AcDbEntity
  8
0
100
AcDbLine
 10
103.5002605
 20
93.85939999999999
 30
0.0
 11
106.1872605
 21
94.3331
 31
0.0
  0
LINE
  5
D6
330
1E
100
AcDbEntity
  8
0
100
AcDbLine
 10
109.0472604999999
 20
94.8374
 30
0.0
 11
111.7422605
 21
96.2256
 31
0.0
  0
LINE
  5
D7
330
1E
100
AcDbEntity
  8
0
100
AcDbLine
 10
106.1872605
 20
94.3331
 30
0.0
 11
109.0472604999999
 21
94.8374
 31
0.0
  0
LINE
  5
DA
330
1E
100
AcDbEntity
  8
0
100
AcDbLine
 10
109.3222605
 20
93.42969999999999
 30
0.0
 11
111.9812605
 21
93.8986
 31
0.0
  0
LINE
  5
DB
330
1E
100
AcDbEntity
  8
0
100
AcDbLine
 10
111.9812605
 20
93.8986
 30
0.0
 11
114.6402605
 21
94.3674
 31
0.0
  0
LINE
  5
E1
330
1E
100
AcDbEntity
  8
0
100
AcDbLine
 10
114.6402605
 20
94.3674
 30
0.0
 11
117.2012605
 21
94.81889999999999
 31
0.0
  0
LINE
  5
E2
330
1E
100
AcDbEntity
  8
0
100
AcDbLine
 10
111.7422605
 20
96.2256
 30
0.0
 11
114.2792604999999
 21
97.4768
 31
0.0
  0
LINE
  5
E3
330
1E
100
AcDbEntity
  8
0
100
AcDbLine
 10
117.2012605
 20
94.81889999999999
 30
0.0
 11
125.6702605
 21
96.3123
 31
0.0
  0
LINE
  5
E8
330
1E
100
AcDbEntity
  8
0
100
AcDbLine
 10
125.6702605
 20
96.3123
 30
0.0
 11
129.2152605
 21
96.9374
 31
0.0
  0
LINE
  5
EA
330
1E
100
AcDbEntity
  8
0
100
AcDbLine
 10
109.0537026784129
 20
93.38227443033389
 30
0.0
 11
109.3222605
 21
93.42969999999999
 31
0.0
  0
LINE
  5
EB
330
1E
100
AcDbEntity
  8
0
100
AcDbLine
 10
88.08447978844199
 20
91.1411100131179
 30
0.0
 11
88.3344540672329
 21
89.72338949214359
 31
0.0
  0
LINE
  5
EC
330
1E
100
AcDbEntity
  8
0
100
AcDbLine
 10
87.3811605
 20
91.0171
 30
0.0
 11
87.6410605
 21
91.06299999999999
 31
0.0
  0
LINE
  5
ED
330
1E
100
AcDbEntity
  8
0
100
AcDbLine
 10
27.56896049999999
 20
78.99729999999999
 30
0.0
 11
40.7654605
 21
81.32420000000001
 31
0.0
  0
LINE
  5
EF
330
1E
100
AcDbEntity
  8
0
100
AcDbLine
 10
26.93176049999999
 20
78.58029999999999
 30
0.0
 11
27.56896049999999
 21
78.99729999999999
 31
0.0
  0
LINE
  5
F1
330
1E
100
AcDbEntity
  8
0
100
AcDbLine
 10
26.7578605
 20
77.8388
 30
0.0
 11
26.93176049999999
 21
78.58029999999999
 31
0.0
  0
LINE
  5
F2
330
1E
100
AcDbEntity
  8
0
100
AcDbLine
 10
26.7578605
 20
77.8388
 30
0.0
 11
27.0415221702293
 21
75.97254458104291
 31
0.0
  0
LINE
  5
F3
330
1E
100
AcDbEntity
  8
0
100
AcDbLine
 10
129.2152605
 20
96.9374
 30
0.0
 11
130.0032605
 21
97.07640000000001
 31
0.0
  0
LINE
  5
F4
330
1E
100
AcDbEntity
  8
0
100
AcDbLine
 10
26.9882605
 20
132.299
 30
0.0
 11
27.07936049999999
 21
133.0579999999999
 31
0.0
  0
LINE
  5
F5
330
1E
100
AcDbEntity
  8
0
100
AcDbLine
 10
26.9882605
 20
132.299
 30
0.0
 11
27.5519605
 21
131.3919999999999
 31
0.0
  0
LINE
  5
F7
330
1E
100
AcDbEntity
  8
0
100
AcDbLine
 10
82.64826049999999
 20
107.735
 30
0.0
 11
82.6677605
 21
107.6659999999999
 31
0.0
  0
LINE
  5
F8
330
1E
100
AcDbEntity
  8
0
100
AcDbLine
 10
82.64826049999999
 20
107.735
 30
0.0
 11
82.69840782301479
 21
107.749061457279
 31
0.0
  0
LINE
  5
F9
330
1E
100
AcDbEntity
  8
0
100
AcDbLine
 10
82.6677605
 20
107.6659999999999
 30
0.0
 11
82.7195605
 21
107.481
 31
0.0
  0
LINE
  5
FA
330
1E
100
AcDbEntity
  8
0
100
AcDbLine
 10
82.7195605
 20
107.481
 30
0.0
 11
82.80596049999999
 21
107.1729999999999
 31
0.0
  0
LINE
  5
FB
330
1E
100
AcDbEntity
  8
0
100
AcDbLine
 10
82.80596049999999
 20
107.1729999999999
 30
0.0
 11
82.9203605
 21
106.7639999999999
 31
0.0
  0
LINE
  5
FC
330
1E
100
AcDbEntity
  8
0
100
AcDbLine
 10
82.9203605
 20
106.7639999999999
 30
0.0
 11
83.0498605
 21
106.302
 31
0.0
  0
LINE
  5
FD
330
1E
100
AcDbEntity
  8
0
100
AcDbLine
 10
83.7278605
 20
103.8829999999999
 30
0.0
 11
83.7765746143625
 21
103.8966595813459
 31
0.0
  0
LINE
  5
FE
330
1E
100
AcDbEntity
  8
0
100
AcDbLine
 10
83.70836049999999
 20
103.9529999999999
 30
0.0
 11
83.7278605
 21
103.8829999999999
 31
0.0
  0
LINE
  5
FF
330
1E
100
AcDbEntity
  8
0
100
AcDbLine
 10
83.6565605
 20
104.1379999999999
 30
0.0
 11
83.70836049999999
 21
103.9529999999999
 31
0.0
  0
LINE
  5
100
330
1E
100
AcDbEntity
  8
0
100
AcDbLine
 10
83.57026049999999
 20
104.4459999999999
 30
0.0
 11
83.6565605
 21
104.1379999999999
 31
0.0
  0
LINE
  5
101
330
1E
100
AcDbEntity
  8
0
100
AcDbLine
 10
83.4557605
 20
104.854
 30
0.0
 11
83.57026049999999
 21
104.4459999999999
 31
0.0
  0
LINE
  5
102
330
1E
100
AcDbEntity
  8
0
100
AcDbLine
 10
83.3262605
 20
105.316
 30
0.0
 11
83.4557605
 21
104.854
 31
0.0
  0
LINE
  5
103
330
1E
100
AcDbEntity
  8
0
100
AcDbLine
 10
83.18806049999999
 20
105.8089999999999
 30
0.0
 11
83.40643008787729
 21
105.870231476505
 31
0.0
  0
LINE
  5
104
330
1E
100
AcDbEntity
  8
0
100
AcDbLine
 10
83.18806049999999
 20
105.8089999999999
 30
0.0
 11
83.3262605
 21
105.316
 31
0.0
  0
LINE
  5
105
330
1E
100
AcDbEntity
  8
0
100
AcDbLine
 10
83.0498605
 20
106.302
 30
0.0
 11
83.18806049999999
 21
105.8089999999999
 31
0.0
  0
LINE
  5
106
330
1E
100
AcDbEntity
  8
0
100
AcDbLine
 10
75.0758605
 20
125.6839999999999
 30
0.0
 11
76.1562605
 21
125.045
 31
0.0
  0
LINE
  5
107
330
1E
100
AcDbEntity
  8
0
100
AcDbLine
 10
73.8317605
 20
126.224
 30
0.0
 11
75.0758605
 21
125.6839999999999
 31
0.0
  0
LINE
  5
108
330
1E
100
AcDbEntity
  8
0
100
AcDbLine
 10
72.2110605
 20
126.7979999999999
 30
0.0
 11
73.8317605
 21
126.224
 31
0.0
  0
LINE
  5
109
330
1E
100
AcDbEntity
  8
0
100
AcDbLine
 10
70.34006049999999
 20
127.139
 30
0.0
 11
72.2110605
 21
126.7979999999999
 31
0.0
  0
LINE
  5
10A
330
1E
100
AcDbEntity
  8
0
100
AcDbLine
 10
67.89446049999999
 20
127.3449999999999
 30
0.0
 11
70.34006049999999
 21
127.139
 31
0.0
  0
LINE
  5
10B
330
1E
100
AcDbEntity
  8
0
100
AcDbLine
 10
65.5184605
 20
127.496
 30
0.0
 11
67.89446049999999
 21
127.3449999999999
 31
0.0
  0
LINE
  5
10C
330
1E
100
AcDbEntity
  8
0
100
AcDbLine
 10
77.20396049999999
 20
124.209
 30
0.0
 11
78.0715605
 21
123.1439999999999
 31
0.0
  0
LINE
  5
10D
330
1E
100
AcDbEntity
  8
0
100
AcDbLine
 10
76.1562605
 20
125.045
 30
0.0
 11
77.20396049999999
 21
124.209
 31
0.0
  0
LINE
  5
110
330
1E
100
AcDbEntity
  8
0
100
AcDbLine
 10
37.82996049999999
 20
129.2599999999999
 30
0.0
 11
44.32626049999999
 21
128.719
 31
0.0
  0
LINE
  5
115
330
1E
100
AcDbEntity
  8
0
100
AcDbLine
 10
31.9835605
 20
129.9509999999999
 30
0.0
 11
37.82996049999999
 21
129.2599999999999
 31
0.0
  0
LINE
  5
123
330
1E
100
AcDbEntity
  8
0
100
AcDbLine
 10
29.0626605
 20
130.661
 30
0.0
 11
31.9835605
 21
129.9509999999999
 31
0.0
  0
LINE
  5
124
330
1E
100
AcDbEntity
  8
0
100
AcDbLine
 10
27.5519605
 20
131.3919999999999
 30
0.0
 11
29.0626605
 21
130.661
 31
0.0
  0
LINE
  5
125
330
1E
100
AcDbEntity
  8
0
100
AcDbLine
 10
44.32626049999999
 20
128.719
 30
0.0
 11
65.5184605
 21
127.496
 31
0.0
  0
LINE
  5
128
330
1E
100
AcDbEntity
  8
0
100
AcDbLine
 10
78.0715605
 20
123.1439999999999
 30
0.0
 11
78.7427605
 21
121.883
 31
0.0
  0
LINE
  5
129
330
1E
100
AcDbEntity
  8
0
100
AcDbLine
 10
78.7427605
 20
121.883
 30
0.0
 11
82.6984078230147
 21
107.749061457279
 31
0.0
  0
LINE
  5
12A
330
1E
100
AcDbEntity
  8
0
100
AcDbLine
 10
78.7427605
 20
121.883
 30
0.0
 11
82.69840782301479
 21
107.749061457279
 31
0.0
  0
LINE
  5
12B
330
1E
100
AcDbEntity
  8
0
100
AcDbLine
 10
114.2792604999999
 20
97.4768
 30
0.0
 11
116.7982604999999
 21
98.65439999999999
 31
0.0
  0
LINE
  5
12C
330
1E
100
AcDbEntity
  8
0
100
AcDbLine
 10
116.7982604999999
 20
98.65439999999999
 30
0.0
 11
119.1522605
 21
99.8136
 31
0.0
  0
LINE
  5
133
330
1E
100
AcDbEntity
  8
0
100
AcDbLine
 10
119.1522605
 20
99.8136
 30
0.0
 11
121.4462605
 21
100.9179999999999
 31
0.0
  0
LINE
  5
136
330
1E
100
AcDbEntity
  8
0
100
AcDbLine
 10
121.4462605
 20
100.9179999999999
 30
0.0
 11
123.3952605
 21
101.838
 31
0.0
  0
LINE
  5
13A
330
1E
100
AcDbEntity
  8
0
100
AcDbLine
 10
83.7765746143625
 20
103.8966595813459
 30
0.0
 11
87.3811605
 21
91.0171
 31
0.0
  0
LINE
  5
13B
330
1E
100
AcDbEntity
  8
0
100
AcDbLine
 10
114.3472605
 20
133.247
 30
0.0
 11
116.2922605
 21
133.247
 31
0.0
  0
LINE
  5
13C
330
1E
100
AcDbEntity
  8
0
100
AcDbLine
 10
112.1112604999999
 20
133.247
 30
0.0
 11
114.3472605
 21
133.247
 31
0.0
  0
LINE
  5
13D
330
1E
100
AcDbEntity
  8
0
100
AcDbLine
 10
109.6802605
 20
133.247
 30
0.0
 11
112.1112604999999
 21
133.247
 31
0.0
  0
LINE
  5
13E
330
1E
100
AcDbEntity
  8
0
100
AcDbLine
 10
107.1522604999999
 20
133.247
 30
0.0
 11
109.6802605
 21
133.247
 31
0.0
  0
LINE
  5
13F
330
1E
100
AcDbEntity
  8
0
100
AcDbLine
 10
104.5272605
 20
133.247
 30
0.0
 11
107.1522604999999
 21
133.247
 31
0.0
  0
LINE
  5
140
330
1E
100
AcDbEntity
  8
0
100
AcDbLine
 10
101.9022604999999
 20
133.247
 30
0.0
 11
104.5272605
 21
133.247
 31
0.0
  0
LINE
  5
141
330
1E
100
AcDbEntity
  8
0
100
AcDbLine
 10
116.2922605
 20
133.247
 30
0.0
 11
118.0422604999999
 21
133.247
 31
0.0
  0
LINE
  5
142
330
1E
100
AcDbEntity
  8
0
100
AcDbLine
 10
118.0422604999999
 20
133.247
 30
0.0
 11
119.5982604999999
 21
133.247
 31
0.0
  0
LINE
  5
143
330
1E
100
AcDbEntity
  8
0
100
AcDbLine
 10
119.5982604999999
 20
133.247
 30
0.0
 11
120.7642604999999
 21
133.247
 31
0.0
  0
LINE
  5
144
330
1E
100
AcDbEntity
  8
0
100
AcDbLine
 10
120.7642604999999
 20
133.247
 30
0.0
 11
121.5422605
 21
133.247
 31
0.0
  0
LINE
  5
145
330
1E
100
AcDbEntity
  8
0
100
AcDbLine
 10
121.5422605
 20
133.247
 30
0.0
 11
122.1262604999999
 21
133.247
 31
0.0
  0
LINE
  5
146
330
1E
100
AcDbEntity
  8
0
100
AcDbLine
 10
122.1262604999999
 20
133.247
 30
0.0
 11
122.3202604999999
 21
133.247
 31
0.0
  0
LINE
  5
147
330
1E
100
AcDbEntity
  8
0
100
AcDbLine
 10
27.37106049999999
 20
133.1929999999999
 30
0.0
 11
28.0516605
 21
133.25
 31
0.0
  0
LINE
  5
148
330
1E
100
AcDbEntity
  8
0
100
AcDbLine
 10
27.07936049999999
 20
133.0579999999999
 30
0.0
 11
27.37106049999999
 21
133.1929999999999
 31
0.0
  0
LINE
  5
14A
330
1E
100
AcDbEntity
  8
0
100
AcDbLine
 10
33.20476049999999
 20
133.25
 30
0.0
 11
34.95486049999999
 21
133.25
 31
0.0
  0
LINE
  5
14B
330
1E
100
AcDbEntity
  8
0
100
AcDbLine
 10
34.95486049999999
 20
133.25
 30
0.0
 11
36.89946049999999
 21
133.25
 31
0.0
  0
LINE
  5
14C
330
1E
100
AcDbEntity
  8
0
100
AcDbLine
 10
36.89946049999999
 20
133.25
 30
0.0
 11
38.9412605
 21
133.25
 31
0.0
  0
LINE
  5
14D
330
1E
100
AcDbEntity
  8
0
100
AcDbLine
 10
38.9412605
 20
133.25
 30
0.0
 11
41.0802605
 21
133.25
 31
0.0
  0
LINE
  5
14E
330
1E
100
AcDbEntity
  8
0
100
AcDbLine
 10
41.0802605
 20
133.25
 30
0.0
 11
43.31646049999999
 21
133.25
 31
0.0
  0
LINE
  5
151
330
1E
100
AcDbEntity
  8
0
100
AcDbLine
 10
45.55276049999999
 20
133.25
 30
0.0
 11
101.9022604999999
 21
133.247
 31
0.0
  0
LINE
  5
152
330
1E
100
AcDbEntity
  8
0
100
AcDbLine
 10
43.31646049999999
 20
133.25
 30
0.0
 11
45.55276049999999
 21
133.25
 31
0.0
  0
LINE
  5
153
330
1E
100
AcDbEntity
  8
0
100
AcDbLine
 10
31.7463605
 20
133.25
 30
0.0
 11
33.20476049999999
 21
133.25
 31
0.0
  0
LINE
  5
154
330
1E
100
AcDbEntity
  8
0
100
AcDbLine
 10
30.3851605
 20
133.25
 30
0.0
 11
31.7463605
 21
133.25
 31
0.0
  0
LINE
  5
155
330
1E
100
AcDbEntity
  8
0
100
AcDbLine
 10
29.4128605
 20
133.25
 30
0.0
 11
30.3851605
 21
133.25
 31
0.0
  0
LINE
  5
156
330
1E
100
AcDbEntity
  8
0
100
AcDbLine
 10
28.73226049999999
 20
133.25
 30
0.0
 11
29.4128605
 21
133.25
 31
0.0
  0
LINE
  5
163
330
1E
100
AcDbEntity
  8
0
100
AcDbLine
 10
28.24616049999999
 20
133.25
 30
0.0
 11
28.73226049999999
 21
133.25
 31
0.0
  0
LINE
  5
164
330
1E
100
AcDbEntity
  8
0
100
AcDbLine
 10
28.0516605
 20
133.25
 30
0.0
 11
28.24616049999999
 21
133.25
 31
0.0
  0
LINE
  5
165
330
1E
100
AcDbEntity
  8
0
100
AcDbLine
 10
122.3202604999999
 20
133.247
 30
0.0
 11
123.0012604999999
 21
133.19
 31
0.0
  0
LINE
  5
166
330
1E
100
AcDbEntity
  8
0
100
AcDbLine
 10
123.3952605
 20
101.838
 30
0.0
 11
125.2162605
 21
102.7209999999999
 31
0.0
  0
LINE
  5
167
330
1E
100
AcDbEntity
  8
0
100
AcDbLine
 10
125.2162605
 20
102.7209999999999
 30
0.0
 11
126.7232605
 21
103.4389999999999
 31
0.0
  0
LINE
  5
168
330
1E
100
AcDbEntity
  8
0
100
AcDbLine
 10
126.7232605
 20
103.4389999999999
 30
0.0
 11
127.7712605
 21
103.9349999999999
 31
0.0
  0
LINE
  5
16A
330
1E
100
AcDbEntity
  8
0
100
AcDbLine
 10
127.7712605
 20
103.9349999999999
 30
0.0
 11
128.6542604999999
 21
104.377
 31
0.0
  0
LINE
  5
16B
330
1E
100
AcDbEntity
  8
0
100
AcDbLine
 10
128.6542604999999
 20
104.377
 30
0.0
 11
129.1692605
 21
104.635
 31
0.0
  0
LINE
  5
16C
330
1E
100
AcDbEntity
  8
0
100
AcDbLine
 10
129.1692605
 20
104.635
 30
0.0
 11
129.3892605
 21
104.7449999999999
 31
0.0
  0
LINE
  5
16D
330
1E
100
AcDbEntity
  8
0
100
AcDbLine
 10
127.3630391972639
 20
103.741796024659
 30
0.0
 11
128.3622604999999
 21
101.8349999999999
 31
0.0
  0
LINE
  5
16E
330
1E
100
AcDbEntity
  8
0
100
AcDbLine
 10
128.3622604999999
 20
101.8349999999999
 30
0.0
 11
129.3532605
 21
98.963
 31
0.0
  0
LINE
  5
16F
330
1E
100
AcDbEntity
  8
0
100
AcDbLine
 10
129.3532605
 20
98.963
 30
0.0
 11
129.695217946773
 21
97.02202193900802
 31
0.0
  0
LINE
  5
170
330
1E
100
AcDbEntity
  8
0
100
AcDbLine
 10
123.2922604999999
 20
133.055
 30
0.0
 11
129.3892605
 21
104.7449999999999
 31
0.0
  0
LINE
  5
171
330
1E
100
AcDbEntity
  8
0
100
AcDbLine
 10
123.0012604999999
 20
133.19
 30
0.0
 11
123.2922604999999
 21
133.055
 31
0.0
  0
LINE
  5
172
330
1E
100
AcDbEntity
  8
0
100
AcDbLine
 10
129.695217946773
 20
97.02202193900802
 30
0.0
 11
130.0032605
 21
97.07640000000001
 31
0.0
  0
LINE
  5
173
330
1E
100
AcDbEntity
  8
0
100
AcDbLine
 10
130.0032605
 20
97.07640000000001
 30
0.0
 11
130.7452604999999
 21
96.9025
 31
0.0
  0
LINE
  5
175
330
1E
100
AcDbEntity
  8
0
100
AcDbLine
 10
146.334148165139
 20
24.5968034366893
 30
0.0
 11
146.9487195254189
 21
24.9541251959956
 31
0.0
  0
LINE
  5
176
330
1E
100
AcDbEntity
  8
0
100
AcDbLine
 10
146.334148165139
 20
24.5968034366893
 30
0.0
 11
147.10768552635
 21
25.04655060790689
 31
0.0
  0
LINE
  5
177
330
1E
100
AcDbEntity
  8
0
100
AcDbLine
 10
146.334148165139
 20
24.5968034366893
 30
0.0
 11
147.10768552635
 21
25.04655060790689
 31
0.0
  0
LINE
  5
178
330
1E
100
AcDbEntity
  8
0
100
AcDbLine
 10
146.334148165139
 20
24.5968034366893
 30
0.0
 11
146.9487195254189
 21
24.9541251959956
 31
0.0
  0
LINE
  5
179
330
1E
100
AcDbEntity
  8
0
100
AcDbLine
 10
146.552228180093
 20
23.5666452033016
 30
0.0
 11
151.4882604999999
 21
0.249999999999995
 31
0.0
  0
LINE
  5
17A
330
1E
100
AcDbEntity
  8
0
100
AcDbLine
 10
146.552228180093
 20
23.5666452033016
 30
0.0
 11
147.608590365473
 21
24.1804174975451
 31
0.0
  0
LINE
  5
17B
330
1E
100
AcDbEntity
  8
0
100
AcDbLine
 10
146.9252605
 20
25.3498
 30
0.0
 11
146.9982605
 21
25.715
 31
0.0
  0
LINE
  5
17C
330
1E
100
AcDbEntity
  8
0
100
AcDbLine
 10
146.9252605
 20
25.3498
 30
0.0
 11
146.9472604999999
 21
24.9603
 31
0.0
  0
LINE
  5
17D
330
1E
100
AcDbEntity
  8
0
100
AcDbLine
 10
146.9982605
 20
25.715
 30
0.0
 11
147.1362604999999
 21
26.03839999999999
 31
0.0
  0
LINE
  5
17E
330
1E
100
AcDbEntity
  8
0
100
AcDbLine
 10
147.1362604999999
 20
26.03839999999999
 30
0.0
 11
147.3502605
 21
26.3038
 31
0.0
  0
LINE
  5
17F
330
1E
100
AcDbEntity
  8
0
100
AcDbLine
 10
147.3502605
 20
26.3038
 30
0.0
 11
147.6382604999999
 21
26.5104
 31
0.0
  0
LINE
  5
180
330
1E
100
AcDbEntity
  8
0
100
AcDbLine
 10
147.6382604999999
 20
26.5104
 30
0.0
 11
147.9602605
 21
26.6582
 31
0.0
  0
LINE
  5
181
330
1E
100
AcDbEntity
  8
0
100
AcDbLine
 10
147.4552605
 20
24.0854
 30
0.0
 11
147.7832605
 21
23.8721
 31
0.0
  0
LINE
  5
182
330
1E
100
AcDbEntity
  8
0
100
AcDbLine
 10
147.9602605
 20
26.6582
 30
0.0
 11
148.2962604999999
 21
26.7121
 31
0.0
  0
LINE
  5
183
330
1E
100
AcDbEntity
  8
0
100
AcDbLine
 10
147.7832605
 20
23.8721
 30
0.0
 11
148.1362604999999
 21
23.7548
 31
0.0
  0
LINE
  5
184
330
1E
100
AcDbEntity
  8
0
100
AcDbLine
 10
148.1362604999999
 20
23.7548
 30
0.0
 11
148.4852605
 21
23.7162
 31
0.0
  0
LINE
  5
185
330
1E
100
AcDbEntity
  8
0
100
AcDbLine
 10
146.552228180093
 20
23.5666452033016
 30
0.0
 11
151.4882604999999
 21
0.24999999999999
 31
0.0
  0
LINE
  5
186
330
1E
100
AcDbEntity
  8
0
100
AcDbLine
 10
131.1622604999999
 20
96.26519999999999
 30
0.0
 11
146.334148165139
 21
24.5968034366894
 31
0.0
  0
LINE
  5
187
330
1E
100
AcDbEntity
  8
0
100
AcDbLine
 10
131.1622604999999
 20
96.26519999999999
 30
0.0
 11
146.334148165139
 21
24.5968034366893
 31
0.0
  0
LINE
  5
188
330
1E
100
AcDbEntity
  8
0
100
AcDbLine
 10
130.7452604999999
 20
96.9025
 30
0.0
 11
131.1622604999999
 21
96.26519999999999
 31
0.0
  0
LINE
  5
189
330
1E
100
AcDbEntity
  8
0
100
AcDbLine
 10
126.9882605
 20
0.249999999999997
 30
0.0
 11
130.1882604999999
 21
0.249999999999997
 31
0.0
  0
LINE
  5
18A
330
1E
100
AcDbEntity
  8
0
100
AcDbLine
 10
148.6462605
 20
26.6738
 30
0.0
 11
148.9982604999999
 21
26.5553
 31
0.0
  0
LINE
  5
18B
330
1E
100
AcDbEntity
  8
0
100
AcDbLine
 10
148.2962604999999
 20
26.7121
 30
0.0
 11
148.6462605
 21
26.6738
 31
0.0
  0
LINE
  5
18C
330
1E
100
AcDbEntity
  8
0
100
AcDbLine
 10
148.4852605
 20
23.7162
 30
0.0
 11
148.8222604999999
 21
23.7704
 31
0.0
  0
LINE
  5
18D
330
1E
100
AcDbEntity
  8
0
100
AcDbLine
 10
150.1542605
 20
23.3787
 30
0.0
 11
150.2122604999999
 21
23.0103
 31
0.0
  0
LINE
  5
18E
330
1E
100
AcDbEntity
  8
0
100
AcDbLine
 10
150.1542605
 20
23.3787
 30
0.0
 11
150.1922605
 21
23.7678
 31
0.0
  0
LINE
  5
18F
330
1E
100
AcDbEntity
  8
0
100
AcDbLine
 10
150.2122604999999
 20
23.0103
 30
0.0
 11
150.3382604999999
 21
22.6826
 31
0.0
  0
LINE
  5
190
330
1E
100
AcDbEntity
  8
0
100
AcDbLine
 10
150.3382604999999
 20
22.6826
 30
0.0
 11
150.5412605
 21
22.40889999999999
 31
0.0
  0
LINE
  5
191
330
1E
100
AcDbEntity
  8
0
100
AcDbLine
 10
150.5412605
 20
22.40889999999999
 30
0.0
 11
150.8192604999999
 21
22.1897
 31
0.0
  0
LINE
  5
192
330
1E
100
AcDbEntity
  8
0
100
AcDbLine
 10
151.1362604999999
 20
22.0296
 30
0.0
 11
151.4702605
 21
21.96219999999999
 31
0.0
  0
LINE
  5
193
330
1E
100
AcDbEntity
  8
0
100
AcDbLine
 10
150.8192604999999
 20
22.1897
 30
0.0
 11
151.1362604999999
 21
22.0296
 31
0.0
  0
LINE
  5
194
330
1E
100
AcDbEntity
  8
0
100
AcDbLine
 10
149.411305099717
 20
24.2531848988521
 30
0.0
 11
150.348288264513
 21
23.6727038222855
 31
0.0
  0
LINE
  5
195
330
1E
100
AcDbEntity
  8
0
100
AcDbLine
 10
149.411305099717
 20
24.2531848988521
 30
0.0
 11
150.348288264513
 21
23.6727038222855
 31
0.0
  0
LINE
  5
196
330
1E
100
AcDbEntity
  8
0
100
AcDbLine
 10
149.3272605
 20
26.3432
 30
0.0
 11
149.5932604999999
 21
26.0951
 31
0.0
  0
LINE
  5
197
330
1E
100
AcDbEntity
  8
0
100
AcDbLine
 10
148.9982604999999
 20
26.5553
 30
0.0
 11
149.3272605
 21
26.3432
 31
0.0
  0
LINE
  5
198
330
1E
100
AcDbEntity
  8
0
100
AcDbLine
 10
150.7352605
 20
24.6214
 30
0.0
 11
151.0722604999999
 21
24.8202
 31
0.0
  0
LINE
  5
199
330
1E
100
AcDbEntity
  8
0
100
AcDbLine
 10
151.0722604999999
 20
24.8202
 30
0.0
 11
151.4292605
 21
24.9229
 31
0.0
  0
LINE
  5
19A
330
1E
100
AcDbEntity
  8
0
100
AcDbLine
 10
149.8524593363659
 20
25.18062339234869
 30
0.0
 11
150.731355449472
 21
24.6180340162301
 31
0.0
  0
LINE
  5
19B
330
1E
100
AcDbEntity
  8
0
100
AcDbLine
 10
149.735538355101
 20
25.2476494852743
 30
0.0
 11
150.8837609556489
 21
24.5194880209671
 31
0.0
  0
LINE
  5
19C
330
1E
100
AcDbEntity
  8
0
100
AcDbLine
 10
149.5932604999999
 20
26.0951
 30
0.0
 11
149.6882604999999
 21
25.9673
 31
0.0
  0
LINE
  5
19D
330
1E
100
AcDbEntity
  8
0
100
AcDbLine
 10
149.6882604999999
 20
25.9673
 30
0.0
 11
149.7522605
 21
25.8227
 31
0.0
  0
LINE
  5
19E
330
1E
100
AcDbEntity
  8
0
100
AcDbLine
 10
149.7522605
 20
25.8227
 30
0.0
 11
149.8362605
 21
25.46829999999999
 31
0.0
  0
LINE
  5
19F
330
1E
100
AcDbEntity
  8
0
100
AcDbLine
 10
149.8362605
 20
25.46829999999999
 30
0.0
 11
149.8528751622
 21
25.17323870357289
 31
0.0
  0
LINE
  5
1A0
330
1E
100
AcDbEntity
  8
0
100
AcDbLine
 10
149.4332604999999
 20
24.1249
 30
0.0
 11
149.4947352626859
 21
24.2014981315351
 31
0.0
  0
LINE
  5
1A1
330
1E
100
AcDbEntity
  8
0
100
AcDbLine
 10
149.1452605
 20
23.9171
 30
0.0
 11
149.4332604999999
 21
24.1249
 31
0.0
  0
LINE
  5
1A2
330
1E
100
AcDbEntity
  8
0
100
AcDbLine
 10
148.8222604999999
 20
23.7704
 30
0.0
 11
149.1452605
 21
23.9171
 31
0.0
  0
LINE
  5
1A3
330
1E
100
AcDbEntity
  8
0
100
AcDbLine
 10
149.9882604999999
 20
0.249999999999995
 30
0.0
 11
150.6882604999999
 21
0.249999999999995
 31
0.0
  0
LINE
  5
1A4
330
1E
100
AcDbEntity
  8
0
100
AcDbLine
 10
148.2882605
 20
0.249999999999995
 30
0.0
 11
149.9882604999999
 21
0.249999999999995
 31
0.0
  0
LINE
  5
1A5
330
1E
100
AcDbEntity
  8
0
100
AcDbLine
 10
150.6882604999999
 20
0.249999999999995
 30
0.0
 11
151.2882605
 21
0.249999999999995
 31
0.0
  0
LINE
  5
1A6
330
1E
100
AcDbEntity
  8
0
100
AcDbLine
 10
153.7832605
 20
10.4001
 30
0.0
 11
153.8302605
 21
9.852689999999999
 31
0.0
  0
LINE
  5
1A7
330
1E
100
AcDbEntity
  8
0
100
AcDbLine
 10
153.7052605
 20
11.2707
 30
0.0
 11
153.7832605
 21
10.4001
 31
0.0
  0
LINE
  5
1A8
330
1E
100
AcDbEntity
  8
0
100
AcDbLine
 10
153.8302605
 20
9.852689999999999
 30
0.0
 11
153.8482605
 21
9.666089999999998
 31
0.0
  0
LINE
  5
1A9
330
1E
100
AcDbEntity
  8
0
100
AcDbLine
 10
153.8482605
 20
9.666089999999998
 30
0.0
 11
153.9682604999999
 21
9.425789999999999
 31
0.0
  0
LINE
  5
1AA
330
1E
100
AcDbEntity
  8
0
100
AcDbLine
 10
153.9682604999999
 20
9.425789999999999
 30
0.0
 11
154.1322604999999
 21
9.289589999999998
 31
0.0
  0
LINE
  5
1AB
330
1E
100
AcDbEntity
  8
0
100
AcDbLine
 10
154.1322604999999
 20
9.289589999999998
 30
0.0
 11
154.3902605
 21
9.211889999999998
 31
0.0
  0
LINE
  5
1AF
330
1E
100
AcDbEntity
  8
0
100
AcDbLine
 10
153.4902605
 20
13.7268
 30
0.0
 11
153.6062604999999
 21
12.4054
 31
0.0
  0
LINE
  5
1B0
330
1E
100
AcDbEntity
  8
0
100
AcDbLine
 10
153.3652605
 20
15.1448
 30
0.0
 11
153.4902605
 21
13.7268
 31
0.0
  0
LINE
  5
1B1
330
1E
100
AcDbEntity
  8
0
100
AcDbLine
 10
153.6062604999999
 20
12.4054
 30
0.0
 11
153.7052605
 21
11.2707
 31
0.0
  0
LINE
  5
1B2
330
1E
100
AcDbEntity
  8
0
100
AcDbLine
 10
153.1232604999999
 20
17.8842
 30
0.0
 11
153.2392605
 21
16.56279999999999
 31
0.0
  0
LINE
  5
1B3
330
1E
100
AcDbEntity
  8
0
100
AcDbLine
 10
153.2392605
 20
16.56279999999999
 30
0.0
 11
153.3652605
 21
15.1448
 31
0.0
  0
LINE
  5
1B5
330
1E
100
AcDbEntity
  8
0
100
AcDbLine
 10
153.0232604999999
 20
19.0188
 30
0.0
 11
153.1232604999999
 21
17.8842
 31
0.0
  0
LINE
  5
1B6
330
1E
100
AcDbEntity
  8
0
100
AcDbLine
 10
151.9472604999999
 20
20.3493
 30
0.0
 11
152.0162604999999
 21
20.0158
 31
0.0
  0
LINE
  5
1B7
330
1E
100
AcDbEntity
  8
0
100
AcDbLine
 10
151.9472604999999
 20
20.3493
 30
0.0
 11
151.9702604999999
 21
20.6996
 31
0.0
  0
LINE
  5
1B8
330
1E
100
AcDbEntity
  8
0
100
AcDbLine
 10
152.6712604999999
 20
19.2199
 30
0.0
 11
152.9982604999999
 21
19.09499999999999
 31
0.0
  0
LINE
  5
1B9
330
1E
100
AcDbEntity
  8
0
100
AcDbLine
 10
152.3962605
 20
19.42129999999999
 30
0.0
 11
152.6712604999999
 21
19.2199
 31
0.0
  0
LINE
  5
1BA
330
1E
100
AcDbEntity
  8
0
100
AcDbLine
 10
152.1762605
 20
19.6999
 30
0.0
 11
152.3962605
 21
19.42129999999999
 31
0.0
  0
LINE
  5
1BB
330
1E
100
AcDbEntity
  8
0
100
AcDbLine
 10
152.0162604999999
 20
20.0158
 30
0.0
 11
152.1762605
 21
19.6999
 31
0.0
  0
LINE
  5
1BC
330
1E
100
AcDbEntity
  8
0
100
AcDbLine
 10
151.4292605
 20
24.9229
 30
0.0
 11
151.7812605
 21
24.9479
 31
0.0
  0
LINE
  5
1BD
330
1E
100
AcDbEntity
  8
0
100
AcDbLine
 10
152.0732605
 20
21.0584
 30
0.0
 11
152.2722605
 21
21.3951
 31
0.0
  0
LINE
  5
1BE
330
1E
100
AcDbEntity
  8
0
100
AcDbLine
 10
151.9702604999999
 20
20.6996
 30
0.0
 11
152.0732605
 21
21.0584
 31
0.0
  0
LINE
  5
1BF
330
1E
100
AcDbEntity
  8
0
100
AcDbLine
 10
151.813742014374
 20
22.09272104876949
 30
0.0
 11
152.37306116061
 21
21.2428644243939
 31
0.0
  0
LINE
  5
1C0
330
1E
100
AcDbEntity
  8
0
100
AcDbLine
 10
152.7031672644129
 20
22.5822471364822
 30
0.0
 11
153.214790789351
 21
21.7864969448651
 31
0.0
  0
LINE
  5
1C1
330
1E
100
AcDbEntity
  8
0
100
AcDbLine
 10
152.7102605
 20
24.5012
 30
0.0
 11
152.9122604999999
 21
24.228
 31
0.0
  0
LINE
  5
1C2
330
1E
100
AcDbEntity
  8
0
100
AcDbLine
 10
152.4292605
 20
24.71999999999999
 30
0.0
 11
152.7102605
 21
24.5012
 31
0.0
  0
LINE
  5
1C3
330
1E
100
AcDbEntity
  8
0
100
AcDbLine
 10
151.7812605
 20
24.9479
 30
0.0
 11
152.1152605
 21
24.8805
 31
0.0
  0
LINE
  5
1C4
330
1E
100
AcDbEntity
  8
0
100
AcDbLine
 10
152.1152605
 20
24.8805
 30
0.0
 11
152.4292605
 21
24.71999999999999
 31
0.0
  0
LINE
  5
1C5
330
1E
100
AcDbEntity
  8
0
100
AcDbLine
 10
152.760797971778
 20
22.5002644003401
 30
0.0
 11
153.118217095935
 21
21.93947462768309
 31
0.0
  0
LINE
  5
1C6
330
1E
100
AcDbEntity
  8
0
100
AcDbLine
 10
152.8902605
 20
22.6492
 30
0.0
 11
152.9602605
 21
22.7915
 31
0.0
  0
LINE
  5
1C7
330
1E
100
AcDbEntity
  8
0
100
AcDbLine
 10
152.9122604999999
 20
24.228
 30
0.0
 11
153.0372605
 21
23.89979999999999
 31
0.0
  0
LINE
  5
1C8
330
1E
100
AcDbEntity
  8
0
100
AcDbLine
 10
152.7912605
 20
22.52629999999999
 30
0.0
 11
152.8902605
 21
22.6492
 31
0.0
  0
LINE
  5
1C9
330
1E
100
AcDbEntity
  8
0
100
AcDbLine
 10
151.8192604999999
 20
21.98679999999999
 30
0.0
 11
151.873249225356
 21
22.002302907728
 31
0.0
  0
LINE
  5
1CA
330
1E
100
AcDbEntity
  8
0
100
AcDbLine
 10
151.4702605
 20
21.96219999999999
 30
0.0
 11
151.8192604999999
 21
21.98679999999999
 31
0.0
  0
LINE
  5
1CB
330
1E
100
AcDbEntity
  8
0
100
AcDbLine
 10
152.8982604999999
 20
20.4369
 30
0.0
 11
152.9462604999999
 21
19.8895
 31
0.0
  0
LINE
  5
1CC
330
1E
100
AcDbEntity
  8
0
100
AcDbLine
 10
152.9602605
 20
22.7915
 30
0.0
 11
153.0582605
 21
23.14229999999999
 31
0.0
  0
LINE
  5
1CD
330
1E
100
AcDbEntity
  8
0
100
AcDbLine
 10
153.1232604999999
 20
21.9409
 30
0.0
 11
153.5112604999999
 21
21.9802
 31
0.0
  0
LINE
  5
1CE
330
1E
100
AcDbEntity
  8
0
100
AcDbLine
 10
153.0582605
 20
23.14229999999999
 30
0.0
 11
153.0952604999999
 21
23.5311
 31
0.0
  0
LINE
  5
1CF
330
1E
100
AcDbEntity
  8
0
100
AcDbLine
 10
153.0372605
 20
23.89979999999999
 30
0.0
 11
153.0952604999999
 21
23.5311
 31
0.0
  0
LINE
  5
1D0
330
1E
100
AcDbEntity
  8
0
100
AcDbLine
 10
152.9462604999999
 20
19.8895
 30
0.0
 11
153.0232604999999
 21
19.0188
 31
0.0
  0
LINE
  5
1D1
330
1E
100
AcDbEntity
  8
0
100
AcDbLine
 10
153.01677604929
 20
19.0921248212078
 30
0.0
 11
153.0232604999999
 21
19.0188
 31
0.0
  0
LINE
  5
1D3
330
1E
100
AcDbEntity
  8
0
100
AcDbLine
 10
153.5112604999999
 20
21.9802
 30
0.0
 11
153.8802604999999
 21
21.92279999999999
 31
0.0
  0
LINE
  5
1D7
330
1E
100
AcDbEntity
  8
0
100
AcDbLine
 10
154.4852605
 20
13.8146
 30
0.0
 11
154.6022605
 21
12.4933
 31
0.0
  0
LINE
  5
1D9
330
1E
100
AcDbEntity
  8
0
100
AcDbLine
 10
154.1062605
 20
19.1762
 30
0.0
 11
154.2482605
 21
19.2459
 31
0.0
  0
LINE
  5
1DA
330
1E
100
AcDbEntity
  8
0
100
AcDbLine
 10
154.015395953596
 20
19.1503944688213
 30
0.0
 11
154.1062605
 21
19.1762
 31
0.0
  0
LINE
  5
1DB
330
1E
100
AcDbEntity
  8
0
100
AcDbLine
 10
154.0192605
 20
19.1067
 30
0.0
 11
154.1192604999999
 21
17.972
 31
0.0
  0
LINE
  5
1DC
330
1E
100
AcDbEntity
  8
0
100
AcDbLine
 10
153.9422605
 20
19.97729999999999
 30
0.0
 11
154.0192605
 21
19.1067
 31
0.0
  0
LINE
  5
1DD
330
1E
100
AcDbEntity
  8
0
100
AcDbLine
 10
153.8802604999999
 20
21.92279999999999
 30
0.0
 11
154.2092605
 21
21.7978
 31
0.0
  0
LINE
  5
1DE
330
1E
100
AcDbEntity
  8
0
100
AcDbLine
 10
153.8942605
 20
20.5247
 30
0.0
 11
153.9422605
 21
19.97729999999999
 31
0.0
  0
LINE
  5
1DF
330
1E
100
AcDbEntity
  8
0
100
AcDbLine
 10
154.2482605
 20
19.2459
 30
0.0
 11
154.3712605
 21
19.3455
 31
0.0
  0
LINE
  5
1E0
330
1E
100
AcDbEntity
  8
0
100
AcDbLine
 10
154.3712605
 20
19.3455
 30
0.0
 11
154.6082605
 21
19.62259999999999
 31
0.0
  0
LINE
  5
1E1
330
1E
100
AcDbEntity
  8
0
100
AcDbLine
 10
154.2092605
 20
21.7978
 30
0.0
 11
154.4832605
 21
21.5964
 31
0.0
  0
LINE
  5
1E2
330
1E
100
AcDbEntity
  8
0
100
AcDbLine
 10
154.4832605
 20
21.5964
 30
0.0
 11
154.7022604999999
 21
21.318
 31
0.0
  0
LINE
  5
1E3
330
1E
100
AcDbEntity
  8
0
100
AcDbLine
 10
154.2352605
 20
16.6506
 30
0.0
 11
154.3602605
 21
15.2326
 31
0.0
  0
LINE
  5
1E4
330
1E
100
AcDbEntity
  8
0
100
AcDbLine
 10
154.1192604999999
 20
17.972
 30
0.0
 11
154.2352605
 21
16.6506
 31
0.0
  0
LINE
  5
1E5
330
1E
100
AcDbEntity
  8
0
100
AcDbLine
 10
154.3602605
 20
15.2326
 30
0.0
 11
154.4852605
 21
13.8146
 31
0.0
  0
LINE
  5
1E7
330
1E
100
AcDbEntity
  8
0
100
AcDbLine
 10
154.6082605
 20
19.62259999999999
 30
0.0
 11
154.8062605
 21
19.95949999999999
 31
0.0
  0
LINE
  5
1E8
330
1E
100
AcDbEntity
  8
0
100
AcDbLine
 10
154.6022605
 20
12.4933
 30
0.0
 11
154.7022604999999
 21
11.35859999999999
 31
0.0
  0
LINE
  5
1EA
330
1E
100
AcDbEntity
  8
0
100
AcDbLine
 10
154.7022604999999
 20
21.318
 30
0.0
 11
154.8642604999999
 21
21.0019
 31
0.0
  0
LINE
  5
1EB
330
1E
100
AcDbEntity
  8
0
100
AcDbLine
 10
154.7022604999999
 20
11.35859999999999
 30
0.0
 11
154.7792604999999
 21
10.4879
 31
0.0
  0
LINE
  5
1EC
330
1E
100
AcDbEntity
  8
0
100
AcDbLine
 10
154.8062605
 20
19.95949999999999
 30
0.0
 11
154.9092605
 21
20.3181
 31
0.0
  0
LINE
  5
1ED
330
1E
100
AcDbEntity
  8
0
100
AcDbLine
 10
154.9092605
 20
20.3181
 30
0.0
 11
154.9322604999999
 21
20.6691
 31
0.0
  0
LINE
  5
1EE
330
1E
100
AcDbEntity
  8
0
100
AcDbLine
 10
154.8642604999999
 20
21.0019
 30
0.0
 11
154.9322604999999
 21
20.6691
 31
0.0
  0
LINE
  5
1EF
330
1E
100
AcDbEntity
  8
0
100
AcDbLine
 10
154.8272605
 20
9.94059
 30
0.0
 11
154.8432604999999
 21
9.75389
 31
0.0
  0
LINE
  5
1F0
330
1E
100
AcDbEntity
  8
0
100
AcDbLine
 10
154.7792604999999
 20
10.4879
 30
0.0
 11
154.8272605
 21
9.94059
 31
0.0
  0
LINE
  5
1F1
330
1E
100
AcDbEntity
  8
0
100
AcDbLine
 10
154.7662605
 20
9.496089999999989
 30
0.0
 11
154.8432604999999
 21
9.75389
 31
0.0
  0
LINE
  5
1F2
330
1E
100
AcDbEntity
  8
0
100
AcDbLine
 10
154.6302604999999
 20
9.333489999999999
 30
0.0
 11
154.7662605
 21
9.496089999999989
 31
0.0
  0
LINE
  5
1F3
330
1E
100
AcDbEntity
  8
0
100
AcDbLine
 10
154.3902605
 20
9.211889999999998
 30
0.0
 11
154.6302604999999
 21
9.333489999999999
 31
0.0
  0
LINE
  5
1F4
330
1E
100
AcDbEntity
  8
0
100
AcDbLine
 10
151.2882605
 20
0.249999999999995
 30
0.0
 11
151.4882604999999
 21
0.249999999999995
 31
0.0
  0
LINE
  5
1F9
330
1E
100
AcDbEntity
  8
0
100
AcDbLine
 10
33.658567653522
 20
52.9025877915962
 30
0.0
 11
27.0415221702293
 21
75.97254458104291
 31
0.0
  0
LINE
  5
1FA
330
1E
100
AcDbEntity
  8
0
100
AcDbLine
 10
146.334148165139
 20
24.5968034366893
 30
0.0
 11
146.552228180093
 21
23.5666452033016
 31
0.0
  0
ENDSEC
  0
SECTION
  2
OBJECTS
  0
DICTIONARY
  5
C
330
0
100
AcDbDictionary
281
     1
  3
ACAD_GROUP
350
D
  3
ACAD_LAYOUT
350
19
  3
ACAD_MLINESTYLE
350
16
  3
ACAD_PLOTSETTINGS
350
18
  3
ACAD_PLOTSTYLENAME
350
E
  3
AcDbVariableDictionary
350
1FB
  0
DICTIONARY
  5
D
102
{ACAD_REACTORS
330
C
102
}
330
C
100
AcDbDictionary
281
     1
  0
DICTIONARY
  5
19
102
{ACAD_REACTORS
330
C
102
}
330
C
100
AcDbDictionary
281
     1
  3
Layout1
350
1D
  3
Model
350
21
  0
DICTIONARY
  5
16
102
{ACAD_REACTORS
330
C
102
}
330
C
100
AcDbDictionary
281
     1
  3
Standard
350
17
  0
DICTIONARY
  5
18
102
{ACAD_REACTORS
330
C
102
}
330
C
100
AcDbDictionary
281
     1
  0
ACDBDICTIONARYWDFLT
  5
E
102
{ACAD_REACTORS
330
C
102
}
330
C
100
AcDbDictionary
281
     1
  3
Normal
350
F
100
AcDbDictionaryWithDefault
340
F
  0
DICTIONARY
  5
1FB
102
{ACAD_REACTORS
330
C
102
}
330
C
100
AcDbDictionary
281
     1
  3
DIMASSOC
350
1FC
  0
LAYOUT
  5
1D
102
{ACAD_REACTORS
330
19
102
}
330
19
100
AcDbPlotSettings
  1

  2
hp deskjet 980c series
  4

  6

 40
0.0
 41
0.0
 42
0.0
 43
0.0
 44
0.0
 45
0.0
 46
0.0
 47
0.0
 48
0.0
 49
0.0
140
0.0
141
0.0
142
1.0
143
1.0
 70
   688
 72
     0
 73
     0
 74
     5
  7

 75
    16
147
1.0
148
0.0
149
0.0
100
AcDbLayout
  1
Layout1
 70
     1
 71
     1
 10
0.0
 20
0.0
 11
12.0
 21
9.0
 12
0.0
 22
0.0
 32
0.0
 14
1.000000000000000E+20
 24
1.000000000000000E+20
 34
1.000000000000000E+20
 15
-1.000000000000000E+20
 25
-1.000000000000000E+20
 35
-1.000000000000000E+20
146
0.0
 13
0.0
 23
0.0
 33
0.0
 16
1.0
 26
0.0
 36
0.0
 17
0.0
 27
1.0
 37
0.0
 76
     0
330
1A
  0
LAYOUT
  5
21
102
{ACAD_REACTORS
330
19
102
}
330
19
100
AcDbPlotSettings
  1

  2
hp deskjet 980c series
  4

  6

 40
0.0
 41
0.0
 42
0.0
 43
0.0
 44
0.0
 45
0.0
 46
0.0
 47
0.0
 48
0.0
 49
0.0
140
0.0
141
0.0
142
1.0
143
1.0
 70
  1712
 72
     0
 73
     0
 74
     0
  7

 75
     0
147
1.0
148
0.0
149
0.0
100
AcDbLayout
  1
Model
 70
     1
 71
     0
 10
0.0
 20
0.0
 11
12.0
 21
9.0
 12
0.0
 22
0.0
 32
0.0
 14
0.0
 24
0.0
 34
0.0
 15
0.0
 25
0.0
 35
0.0
146
0.0
 13
0.0
 23
0.0
 33
0.0
 16
1.0
 26
0.0
 36
0.0
 17
0.0
 27
1.0
 37
0.0
 76
     0
330
1E
  0
MLINESTYLE
  5
17
102
{ACAD_REACTORS
330
16
102
}
330
16
100
AcDbMlineStyle
  2
STANDARD
 70
     0
  3

 62
   256
 51
90.0
 52
90.0
 71
     2
 49
0.5
 62
   256
  6
BYLAYER
 49
-0.5
 62
   256
  6
BYLAYER
  0
ACDBPLACEHOLDER
  5
F
102
{ACAD_REACTORS
330
E
102
}
330
E
  0
DICTIONARYVAR
  5
1FC
102
{ACAD_REACTORS
330
1FB
102
}
330
1FB
100
DictionaryVariables
280
     0
  1
1
  0
ENDSEC
  0
EOF
