  0
SECTION
  2
HEADER
  9
$ACADVER
  1
AC1014
  9
$ACADMAINTVER
 70
     9
  9
$DWGCODEPAGE
  3
ANSI_1252
  9
$INSBASE
 10
0.0
 20
0.0
 30
0.0
  9
$EXTMIN
 10
0.0400469999999934
 20
118.0
 30
0.0
  9
$EXTMAX
 10
375.959953
 20
368.0
 30
0.0
  9
$LIMMIN
 10
0.0
 20
0.0
  9
$LIMMAX
 10
12.0
 20
9.0
  9
$ORTHOMODE
 70
     0
  9
$REGENMODE
 70
     1
  9
$FILLMODE
 70
     1
  9
$QTEXTMODE
 70
     0
  9
$MIRRTEXT
 70
     1
  9
$DRAGMODE
 70
     2
  9
$LTSCALE
 40
1.0
  9
$OSMODE
 70
    37
  9
$ATTMODE
 70
     1
  9
$TEXTSIZE
 40
0.2
  9
$TRACEWID
 40
0.05
  9
$TEXTSTYLE
  7
STANDARD
  9
$CLAYER
  8
0
  9
$CELTYPE
  6
CONTINUOUS
  9
$CECOLOR
 62
   256
  9
$CELTSCALE
 40
1.0
  9
$DELOBJ
 70
     1
  9
$DISPSILH
 70
     0
  9
$DIMSCALE
 40
1.0
  9
$DIMASZ
 40
0.18
  9
$DIMEXO
 40
0.0625
  9
$DIMDLI
 40
0.38
  9
$DIMRND
 40
0.0
  9
$DIMDLE
 40
0.0
  9
$DIMEXE
 40
0.18
  9
$DIMTP
 40
0.0
  9
$DIMTM
 40
0.0
  9
$DIMTXT
 40
0.18
  9
$DIMCEN
 40
0.09
  9
$DIMTSZ
 40
0.0
  9
$DIMTOL
 70
     0
  9
$DIMLIM
 70
     0
  9
$DIMTIH
 70
     1
  9
$DIMTOH
 70
     1
  9
$DIMSE1
 70
     0
  9
$DIMSE2
 70
     0
  9
$DIMTAD
 70
     0
  9
$DIMZIN
 70
     0
  9
$DIMBLK
  1

  9
$DIMASO
 70
     1
  9
$DIMSHO
 70
     1
  9
$DIMPOST
  1

  9
$DIMAPOST
  1

  9
$DIMALT
 70
     0
  9
$DIMALTD
 70
     2
  9
$DIMALTF
 40
25.4
  9
$DIMLFAC
 40
1.0
  9
$DIMTOFL
 70
     0
  9
$DIMTVP
 40
0.0
  9
$DIMTIX
 70
     0
  9
$DIMSOXD
 70
     0
  9
$DIMSAH
 70
     0
  9
$DIMBLK1
  1

  9
$DIMBLK2
  1

  9
$DIMSTYLE
  2
STANDARD
  9
$DIMCLRD
 70
     0
  9
$DIMCLRE
 70
     0
  9
$DIMCLRT
 70
     0
  9
$DIMTFAC
 40
1.0
  9
$DIMGAP
 40
0.09
  9
$DIMJUST
 70
     0
  9
$DIMSD1
 70
     0
  9
$DIMSD2
 70
     0
  9
$DIMTOLJ
 70
     1
  9
$DIMTZIN
 70
     0
  9
$DIMALTZ
 70
     0
  9
$DIMALTTZ
 70
     0
  9
$DIMFIT
 70
     3
  9
$DIMUPT
 70
     0
  9
$DIMUNIT
 70
     2
  9
$DIMDEC
 70
     4
  9
$DIMTDEC
 70
     4
  9
$DIMALTU
 70
     2
  9
$DIMALTTD
 70
     2
  9
$DIMTXSTY
  7
STANDARD
  9
$DIMAUNIT
 70
     0
  9
$LUNITS
 70
     2
  9
$LUPREC
 70
     4
  9
$SKETCHINC
 40
0.1
  9
$FILLETRAD
 40
0.0
  9
$AUNITS
 70
     0
  9
$AUPREC
 70
     0
  9
$MENU
  1
.
  9
$ELEVATION
 40
0.0
  9
$PELEVATION
 40
0.0
  9
$THICKNESS
 40
0.0
  9
$LIMCHECK
 70
     0
  9
$BLIPMODE
 70
     0
  9
$CHAMFERA
 40
0.0
  9
$CHAMFERB
 40
0.0
  9
$CHAMFERC
 40
0.0
  9
$CHAMFERD
 40
0.0
  9
$SKPOLY
 70
     0
  9
$TDCREATE
 40
2455237.851512940
  9
$TDUPDATE
 40
2455237.854211331
  9
$TDINDWG
 40
0.0026983912
  9
$TDUSRTIMER
 40
0.0026983912
  9
$USRTIMER
 70
     1
  9
$ANGBASE
 50
0.0
  9
$ANGDIR
 70
     0
  9
$PDMODE
 70
     0
  9
$PDSIZE
 40
0.0
  9
$PLINEWID
 40
0.0
  9
$COORDS
 70
     1
  9
$SPLFRAME
 70
     0
  9
$SPLINETYPE
 70
     6
  9
$SPLINESEGS
 70
     8
  9
$ATTDIA
 70
     0
  9
$ATTREQ
 70
     1
  9
$HANDLING
 70
 22529
  9
$HANDSEED
  5
9B5
  9
$SURFTAB1
 70
     6
  9
$SURFTAB2
 70
     6
  9
$SURFTYPE
 70
     6
  9
$SURFU
 70
     6
  9
$SURFV
 70
     6
  9
$UCSNAME
  2

  9
$UCSORG
 10
0.0
 20
0.0
 30
0.0
  9
$UCSXDIR
 10
1.0
 20
0.0
 30
0.0
  9
$UCSYDIR
 10
0.0
 20
1.0
 30
0.0
  9
$PUCSNAME
  2

  9
$PUCSORG
 10
0.0
 20
0.0
 30
0.0
  9
$PUCSXDIR
 10
1.0
 20
0.0
 30
0.0
  9
$PUCSYDIR
 10
0.0
 20
1.0
 30
0.0
  9
$USERI1
 70
     0
  9
$USERI2
 70
     0
  9
$USERI3
 70
     0
  9
$USERI4
 70
     0
  9
$USERI5
 70
     0
  9
$USERR1
 40
0.0
  9
$USERR2
 40
0.0
  9
$USERR3
 40
0.0
  9
$USERR4
 40
0.0
  9
$USERR5
 40
0.0
  9
$WORLDVIEW
 70
     1
  9
$SHADEDGE
 70
     3
  9
$SHADEDIF
 70
    70
  9
$TILEMODE
 70
     1
  9
$MAXACTVP
 70
    64
  9
$PINSBASE
 10
0.0
 20
0.0
 30
0.0
  9
$PLIMCHECK
 70
     0
  9
$PEXTMIN
 10
1.000000000000000E+20
 20
1.000000000000000E+20
 30
1.000000000000000E+20
  9
$PEXTMAX
 10
-1.000000000000000E+20
 20
-1.000000000000000E+20
 30
-1.000000000000000E+20
  9
$PLIMMIN
 10
0.0
 20
0.0
  9
$PLIMMAX
 10
12.0
 20
9.0
  9
$UNITMODE
 70
     0
  9
$VISRETAIN
 70
     1
  9
$PLINEGEN
 70
     0
  9
$PSLTSCALE
 70
     1
  9
$TREEDEPTH
 70
  3020
  9
$PICKSTYLE
 70
     1
  9
$CMLSTYLE
  2
STANDARD
  9
$CMLJUST
 70
     0
  9
$CMLSCALE
 40
1.0
  9
$PROXYGRAPHICS
 70
     1
  9
$MEASUREMENT
 70
     0
  0
ENDSEC
  0
SECTION
  2
CLASSES
  0
CLASS
  1
ACDBDICTIONARYWDFLT
  2
AcDbDictionaryWithDefault
  3
AutoCAD 2000
 90
        0
280
     0
281
     0
  0
CLASS
  1
ACDBPLACEHOLDER
  2
AcDbPlaceHolder
  3
AutoCAD 2000
 90
        0
280
     0
281
     0
  0
CLASS
  1
LAYOUT
  2
AcDbLayout
  3
AutoCAD 2000
 90
        0
280
     0
281
     0
  0
CLASS
  1
DICTIONARYVAR
  2
AcDbDictionaryVar
  3
AutoCAD 2000
 90
        0
280
     0
281
     0
  0
CLASS
  1
LONG_TRANSACTION
  2
AcDbLongTransaction
  3
AutoCAD 2000
 90
        0
280
     0
281
     0
  0
CLASS
  1
LWPOLYLINE
  2
AcDbPolyline
  3
AutoCAD 2000
 90
        0
280
     0
281
     1
  0
CLASS
  1
HATCH
  2
AcDbHatch
  3
AutoCAD 2000
 90
        0
280
     0
281
     1
  0
CLASS
  1
XRECORD
  2
AcDbXrecord
  3
AutoCAD 2000
 90
        0
280
     0
281
     0
  0
ENDSEC
  0
SECTION
  2
TABLES
  0
TABLE
  2
VPORT
  5
8
330
0
100
AcDbSymbolTable
 70
     3
  0
VPORT
  5
990
330
8
100
AcDbSymbolTableRecord
100
AcDbViewportTableRecord
  2
*ACTIVE
 70
     0
 10
0.0
 20
0.0
 11
1.0
 21
1.0
 12
187.9999999999999
 22
243.0
 13
0.0
 23
0.0
 14
1.0
 24
1.0
 15
0.0
 25
0.0
 16
0.0
 26
0.0
 36
1.0
 17
0.0
 27
0.0
 37
0.0
 40
251.6411378555798
 41
2.041621029572836
 42
50.0
 43
0.0
 44
0.0
 50
0.0
 51
0.0
 71
     0
 72
   100
 73
     1
 74
     3
 75
     0
 76
     0
 77
     0
 78
     0
  0
ENDTAB
  0
TABLE
  2
LTYPE
  5
5
330
0
100
AcDbSymbolTable
 70
     1
  0
LTYPE
  5
13
330
5
100
AcDbSymbolTableRecord
100
AcDbLinetypeTableRecord
  2
BYBLOCK
 70
     0
  3

 72
    65
 73
     0
 40
0.0
  0
LTYPE
  5
14
330
5
100
AcDbSymbolTableRecord
100
AcDbLinetypeTableRecord
  2
BYLAYER
 70
     0
  3

 72
    65
 73
     0
 40
0.0
  0
LTYPE
  5
15
330
5
100
AcDbSymbolTableRecord
100
AcDbLinetypeTableRecord
  2
CONTINUOUS
 70
     0
  3
Solid line
 72
    65
 73
     0
 40
0.0
  0
ENDTAB
  0
TABLE
  2
LAYER
  5
2
330
0
100
AcDbSymbolTable
 70
     1
  0
LAYER
  5
10
330
2
100
AcDbSymbolTableRecord
100
AcDbLayerTableRecord
  2
0
 70
     0
 62
     7
  6
CONTINUOUS
  0
ENDTAB
  0
TABLE
  2
STYLE
  5
3
330
0
100
AcDbSymbolTable
 70
     1
  0
STYLE
  5
11
330
3
100
AcDbSymbolTableRecord
100
AcDbTextStyleTableRecord
  2
STANDARD
 70
     0
 40
0.0
 41
1.0
 50
0.0
 71
     0
 42
0.2
  3
txt
  4

  0
ENDTAB
  0
TABLE
  2
VIEW
  5
6
330
0
100
AcDbSymbolTable
 70
     0
  0
ENDTAB
  0
TABLE
  2
UCS
  5
7
330
0
100
AcDbSymbolTable
 70
     0
  0
ENDTAB
  0
TABLE
  2
APPID
  5
9
330
0
100
AcDbSymbolTable
 70
     1
  0
APPID
  5
12
330
9
100
AcDbSymbolTableRecord
100
AcDbRegAppTableRecord
  2
ACAD
 70
     0
  0
ENDTAB
  0
TABLE
  2
DIMSTYLE
  5
A
330
0
100
AcDbSymbolTable
 70
     1
  0
DIMSTYLE
105
92F
330
A
100
AcDbSymbolTableRecord
100
AcDbDimStyleTableRecord
  2
STANDARD
 70
     0
  3

  4

  5

  6

  7

 40
1.0
 41
0.18
 42
0.0625
 43
0.38
 44
0.18
 45
0.0
 46
0.0
 47
0.0
 48
0.0
140
0.18
141
0.09
142
0.0
143
25.4
144
1.0
145
0.0
146
1.0
147
0.09
 71
     0
 72
     0
 73
     1
 74
     1
 75
     0
 76
     0
 77
     0
 78
     0
170
     0
171
     2
172
     0
173
     0
174
     0
175
     0
176
     0
177
     0
178
     0
270
     2
271
     4
272
     4
273
     2
274
     2
340
11
275
     0
280
     0
281
     0
282
     0
283
     1
284
     0
285
     0
286
     0
287
     3
288
     0
  0
ENDTAB
  0
TABLE
  2
BLOCK_RECORD
  5
1
330
0
100
AcDbSymbolTable
 70
     0
  0
BLOCK_RECORD
  5
1E
102
{ACAD_XDICTIONARY
360
9B3
102
}
330
1
100
AcDbSymbolTableRecord
100
AcDbBlockTableRecord
  2
*MODEL_SPACE
  0
BLOCK_RECORD
  5
1A
102
{ACAD_XDICTIONARY
360
9B1
102
}
330
1
100
AcDbSymbolTableRecord
100
AcDbBlockTableRecord
  2
*PAPER_SPACE
  0
ENDTAB
  0
ENDSEC
  0
SECTION
  2
BLOCKS
  0
BLOCK
  5
1F
330
1E
100
AcDbEntity
  8
0
100
AcDbBlockBegin
  2
*MODEL_SPACE
 70
     0
 10
0.0
 20
0.0
 30
0.0
  3
*MODEL_SPACE
  1

  0
ENDBLK
  5
20
330
1E
100
AcDbEntity
  8
0
100
AcDbBlockEnd
  0
BLOCK
  5
1B
330
1A
100
AcDbEntity
 67
     1
  8
0
100
AcDbBlockBegin
  2
*PAPER_SPACE
 70
     0
 10
0.0
 20
0.0
 30
0.0
  3
*PAPER_SPACE
  1

  0
ENDBLK
  5
1C
330
1A
100
AcDbEntity
 67
     1
  8
0
100
AcDbBlockEnd
  0
ENDSEC
  0
SECTION
  2
ENTITIES
  0
LINE
  5
22
330
1E
100
AcDbEntity
  8
0
100
AcDbLine
 10
37.058753
 20
118.0
 30
0.0
 11
41.823453
 21
118.0
 31
0.0
  0
LINE
  5
23
330
1E
100
AcDbEntity
  8
0
100
AcDbLine
 10
34.058753
 20
118.0
 30
0.0
 11
37.058753
 21
118.0
 31
0.0
  0
LINE
  5
24
330
1E
100
AcDbEntity
  8
0
100
AcDbLine
 10
32.999953
 20
118.0
 30
0.0
 11
34.058753
 21
118.0
 31
0.0
  0
LINE
  5
25
330
1E
100
AcDbEntity
  8
0
100
AcDbLine
 10
32.999953
 20
118.0
 30
0.0
 11
32.999953
 21
125.53846
 31
0.0
  0
LINE
  5
60
330
1E
100
AcDbEntity
  8
0
100
AcDbLine
 10
42.999953
 20
118.0
 30
0.0
 11
43.719953
 21
118.0
 31
0.0
  0
LINE
  5
6C
330
1E
100
AcDbEntity
  8
0
100
AcDbLine
 10
43.719953
 20
118.0
 30
0.0
 11
45.63995300000001
 21
118.0
 31
0.0
  0
LINE
  5
6F
330
1E
100
AcDbEntity
  8
0
100
AcDbLine
 10
45.63995300000001
 20
118.0
 30
0.0
 11
48.839953
 21
118.0
 31
0.0
  0
LINE
  5
AB
330
1E
100
AcDbEntity
  8
0
100
AcDbLine
 10
48.839953
 20
118.0
 30
0.0
 11
53.079953
 21
118.0
 31
0.0
  0
LINE
  5
B9
330
1E
100
AcDbEntity
  8
0
100
AcDbLine
 10
57.879953
 20
118.0
 30
0.0
 11
62.999953
 21
118.0
 31
0.0
  0
LINE
  5
BA
330
1E
100
AcDbEntity
  8
0
100
AcDbLine
 10
53.079953
 20
118.0
 30
0.0
 11
57.879953
 21
118.0
 31
0.0
  0
LINE
  5
C1
330
1E
100
AcDbEntity
  8
0
100
AcDbLine
 10
68.11995300000001
 20
118.0
 30
0.0
 11
72.919953
 21
118.0
 31
0.0
  0
LINE
  5
DB
330
1E
100
AcDbEntity
  8
0
100
AcDbLine
 10
72.919953
 20
118.0
 30
0.0
 11
77.159953
 21
118.0
 31
0.0
  0
LINE
  5
11A
330
1E
100
AcDbEntity
  8
0
100
AcDbLine
 10
80.35995300000001
 20
118.0
 30
0.0
 11
82.27995300000001
 21
118.0
 31
0.0
  0
LINE
  5
129
330
1E
100
AcDbEntity
  8
0
100
AcDbLine
 10
82.27995300000001
 20
118.0
 30
0.0
 11
82.999953
 21
118.0
 31
0.0
  0
LINE
  5
133
330
1E
100
AcDbEntity
  8
0
100
AcDbLine
 10
77.159953
 20
118.0
 30
0.0
 11
80.35995300000001
 21
118.0
 31
0.0
  0
LINE
  5
134
330
1E
100
AcDbEntity
  8
0
100
AcDbLine
 10
77.911753
 20
118.0
 30
0.0
 11
84.17645300000001
 21
118.0
 31
0.0
  0
LINE
  5
135
330
1E
100
AcDbEntity
  8
0
100
AcDbLine
 10
70.67645300000001
 20
118.0
 30
0.0
 11
77.911753
 21
118.0
 31
0.0
  0
LINE
  5
136
330
1E
100
AcDbEntity
  8
0
100
AcDbLine
 10
62.999953
 20
118.0
 30
0.0
 11
70.67645300000001
 21
118.0
 31
0.0
  0
LINE
  5
137
330
1E
100
AcDbEntity
  8
0
100
AcDbLine
 10
62.999953
 20
118.0
 30
0.0
 11
68.11995300000001
 21
118.0
 31
0.0
  0
LINE
  5
138
330
1E
100
AcDbEntity
  8
0
100
AcDbLine
 10
48.088153
 20
118.0
 30
0.0
 11
55.323453
 21
118.0
 31
0.0
  0
LINE
  5
139
330
1E
100
AcDbEntity
  8
0
100
AcDbLine
 10
55.323453
 20
118.0
 30
0.0
 11
62.999953
 21
118.0
 31
0.0
  0
LINE
  5
13A
330
1E
100
AcDbEntity
  8
0
100
AcDbLine
 10
41.823453
 20
118.0
 30
0.0
 11
42.999953
 21
118.0
 31
0.0
  0
LINE
  5
13B
330
1E
100
AcDbEntity
  8
0
100
AcDbLine
 10
41.823453
 20
118.0
 30
0.0
 11
48.088153
 21
118.0
 31
0.0
  0
LINE
  5
13C
330
1E
100
AcDbEntity
  8
0
100
AcDbLine
 10
82.999953
 20
118.0
 30
0.0
 11
84.17645300000001
 21
118.0
 31
0.0
  0
LINE
  5
158
330
1E
100
AcDbEntity
  8
0
100
AcDbLine
 10
84.17645300000001
 20
118.0
 30
0.0
 11
88.94115300000001
 21
118.0
 31
0.0
  0
LINE
  5
159
330
1E
100
AcDbEntity
  8
0
100
AcDbLine
 10
37.058753
 20
125.53846
 30
0.0
 11
41.823453
 21
125.53846
 31
0.0
  0
LINE
  5
15A
330
1E
100
AcDbEntity
  8
0
100
AcDbLine
 10
34.058753
 20
125.53846
 30
0.0
 11
37.058753
 21
125.53846
 31
0.0
  0
LINE
  5
15B
330
1E
100
AcDbEntity
  8
0
100
AcDbLine
 10
41.823453
 20
125.53846
 30
0.0
 11
48.088153
 21
125.53846
 31
0.0
  0
LINE
  5
15C
330
1E
100
AcDbEntity
  8
0
100
AcDbLine
 10
84.17645300000001
 20
125.53846
 30
0.0
 11
88.94115300000001
 21
125.53846
 31
0.0
  0
LINE
  5
15D
330
1E
100
AcDbEntity
  8
0
100
AcDbLine
 10
88.94115300000001
 20
125.53846
 30
0.0
 11
91.94115299999999
 21
125.53846
 31
0.0
  0
LINE
  5
15E
330
1E
100
AcDbEntity
  8
0
100
AcDbLine
 10
91.94115299999999
 20
125.53846
 30
0.0
 11
92.999953
 21
125.53846
 31
0.0
  0
LINE
  5
15F
330
1E
100
AcDbEntity
  8
0
100
AcDbLine
 10
77.911753
 20
125.53846
 30
0.0
 11
84.17645300000001
 21
125.53846
 31
0.0
  0
LINE
  5
160
330
1E
100
AcDbEntity
  8
0
100
AcDbLine
 10
70.67645300000001
 20
125.53846
 30
0.0
 11
77.911753
 21
125.53846
 31
0.0
  0
LINE
  5
161
330
1E
100
AcDbEntity
  8
0
100
AcDbLine
 10
62.999953
 20
125.53846
 30
0.0
 11
70.67645300000001
 21
125.53846
 31
0.0
  0
LINE
  5
162
330
1E
100
AcDbEntity
  8
0
100
AcDbLine
 10
48.088153
 20
125.53846
 30
0.0
 11
55.323453
 21
125.53846
 31
0.0
  0
LINE
  5
163
330
1E
100
AcDbEntity
  8
0
100
AcDbLine
 10
55.323453
 20
125.53846
 30
0.0
 11
62.999953
 21
125.53846
 31
0.0
  0
LINE
  5
164
330
1E
100
AcDbEntity
  8
0
100
AcDbLine
 10
32.999953
 20
125.53846
 30
0.0
 11
33.441153
 21
125.8461499999999
 31
0.0
  0
LINE
  5
165
330
1E
100
AcDbEntity
  8
0
100
AcDbLine
 10
32.999953
 20
125.53846
 30
0.0
 11
32.999953
 21
118.0
 31
0.0
  0
LINE
  5
166
330
1E
100
AcDbEntity
  8
0
100
AcDbLine
 10
32.999953
 20
125.53846
 30
0.0
 11
34.058753
 21
125.53846
 31
0.0
  0
LINE
  5
167
330
1E
100
AcDbEntity
  8
0
100
AcDbLine
 10
88.94115300000001
 20
118.0
 30
0.0
 11
91.94115299999999
 21
118.0
 31
0.0
  0
LINE
  5
26B
330
1E
100
AcDbEntity
  8
0
100
AcDbLine
 10
92.999953
 20
118.0
 30
0.0
 11
92.999953
 21
125.53846
 31
0.0
  0
LINE
  5
26C
330
1E
100
AcDbEntity
  8
0
100
AcDbLine
 10
92.999953
 20
125.53846
 30
0.0
 11
92.999953
 21
118.0
 31
0.0
  0
LINE
  5
26D
330
1E
100
AcDbEntity
  8
0
100
AcDbLine
 10
91.94115299999999
 20
118.0
 30
0.0
 11
92.999953
 21
118.0
 31
0.0
  0
LINE
  5
26E
330
1E
100
AcDbEntity
  8
0
100
AcDbLine
 10
152.9999529999999
 20
125.53846
 30
0.0
 11
153.5149529999999
 21
125.8461499999999
 31
0.0
  0
LINE
  5
26F
330
1E
100
AcDbEntity
  8
0
100
AcDbLine
 10
152.9999529999999
 20
125.53846
 30
0.0
 11
152.9999529999999
 21
118.0
 31
0.0
  0
LINE
  5
270
330
1E
100
AcDbEntity
  8
0
100
AcDbLine
 10
152.9999529999999
 20
125.53846
 30
0.0
 11
154.2349529999999
 21
125.53846
 31
0.0
  0
LINE
  5
310
330
1E
100
AcDbEntity
  8
0
100
AcDbLine
 10
162.999953
 20
118.0
 30
0.0
 11
163.899953
 21
118.0
 31
0.0
  0
LINE
  5
362
330
1E
100
AcDbEntity
  8
0
100
AcDbLine
 10
170.299953
 20
118.0
 30
0.0
 11
175.5999529999999
 21
118.0
 31
0.0
  0
LINE
  5
363
330
1E
100
AcDbEntity
  8
0
100
AcDbLine
 10
166.299953
 20
118.0
 30
0.0
 11
170.299953
 21
118.0
 31
0.0
  0
LINE
  5
364
330
1E
100
AcDbEntity
  8
0
100
AcDbLine
 10
163.899953
 20
118.0
 30
0.0
 11
166.299953
 21
118.0
 31
0.0
  0
LINE
  5
366
330
1E
100
AcDbEntity
  8
0
100
AcDbLine
 10
163.293953
 20
118.0
 30
0.0
 11
170.602953
 21
118.0
 31
0.0
  0
LINE
  5
3F1
330
1E
100
AcDbEntity
  8
0
100
AcDbLine
 10
181.599953
 20
118.0
 30
0.0
 11
187.999953
 21
118.0
 31
0.0
  0
LINE
  5
3F2
330
1E
100
AcDbEntity
  8
0
100
AcDbLine
 10
175.5999529999999
 20
118.0
 30
0.0
 11
181.599953
 21
118.0
 31
0.0
  0
LINE
  5
3F3
330
1E
100
AcDbEntity
  8
0
100
AcDbLine
 10
170.602953
 20
118.0
 30
0.0
 11
179.043953
 21
118.0
 31
0.0
  0
LINE
  5
3F4
330
1E
100
AcDbEntity
  8
0
100
AcDbLine
 10
179.043953
 20
118.0
 30
0.0
 11
187.999953
 21
118.0
 31
0.0
  0
LINE
  5
3F5
330
1E
100
AcDbEntity
  8
0
100
AcDbLine
 10
157.734953
 20
118.0
 30
0.0
 11
162.999953
 21
118.0
 31
0.0
  0
LINE
  5
3F6
330
1E
100
AcDbEntity
  8
0
100
AcDbLine
 10
157.734953
 20
118.0
 30
0.0
 11
163.293953
 21
118.0
 31
0.0
  0
LINE
  5
3F7
330
1E
100
AcDbEntity
  8
0
100
AcDbLine
 10
163.293953
 20
125.53846
 30
0.0
 11
170.602953
 21
125.53846
 31
0.0
  0
LINE
  5
3F8
330
1E
100
AcDbEntity
  8
0
100
AcDbLine
 10
170.602953
 20
125.53846
 30
0.0
 11
179.043953
 21
125.53846
 31
0.0
  0
LINE
  5
3F9
330
1E
100
AcDbEntity
  8
0
100
AcDbLine
 10
179.043953
 20
125.53846
 30
0.0
 11
187.999953
 21
125.53846
 31
0.0
  0
LINE
  5
3FA
330
1E
100
AcDbEntity
  8
0
100
AcDbLine
 10
157.734953
 20
125.53846
 30
0.0
 11
163.293953
 21
125.53846
 31
0.0
  0
LINE
  5
3FB
330
1E
100
AcDbEntity
  8
0
100
AcDbLine
 10
154.2349529999999
 20
125.53846
 30
0.0
 11
157.734953
 21
125.53846
 31
0.0
  0
LINE
  5
3FC
330
1E
100
AcDbEntity
  8
0
100
AcDbLine
 10
154.2349529999999
 20
118.0
 30
0.0
 11
157.734953
 21
118.0
 31
0.0
  0
LINE
  5
3FD
330
1E
100
AcDbEntity
  8
0
100
AcDbLine
 10
152.9999529999999
 20
118.0
 30
0.0
 11
154.2349529999999
 21
118.0
 31
0.0
  0
LINE
  5
3FE
330
1E
100
AcDbEntity
  8
0
100
AcDbLine
 10
152.9999529999999
 20
118.0
 30
0.0
 11
152.9999529999999
 21
125.53846
 31
0.0
  0
LINE
  5
3FF
330
1E
100
AcDbEntity
  8
0
100
AcDbLine
 10
33.441153
 20
125.8461499999999
 30
0.0
 11
34.323453
 21
126.0
 31
0.0
  0
LINE
  5
400
330
1E
100
AcDbEntity
  8
0
100
AcDbLine
 10
92.55875299999999
 20
125.8461499999999
 30
0.0
 11
92.999953
 21
125.53846
 31
0.0
  0
LINE
  5
401
330
1E
100
AcDbEntity
  8
0
100
AcDbLine
 10
38.205853
 20
126.0
 30
0.0
 11
42.705853
 21
126.0
 31
0.0
  0
LINE
  5
402
330
1E
100
AcDbEntity
  8
0
100
AcDbLine
 10
35.382353
 20
126.0
 30
0.0
 11
38.205853
 21
126.0
 31
0.0
  0
LINE
  5
403
330
1E
100
AcDbEntity
  8
0
100
AcDbLine
 10
34.323453
 20
126.0
 30
0.0
 11
35.382353
 21
126.0
 31
0.0
  0
LINE
  5
404
330
1E
100
AcDbEntity
  8
0
100
AcDbLine
 10
46.999953
 20
126.0
 30
0.0
 11
46.999953
 21
178.768870379782
 31
0.0
  0
LINE
  5
405
330
1E
100
AcDbEntity
  8
0
100
AcDbLine
 10
42.705853
 20
126.0
 30
0.0
 11
48.70585300000001
 21
126.0
 31
0.0
  0
LINE
  5
406
330
1E
100
AcDbEntity
  8
0
100
AcDbLine
 10
48.70585300000001
 20
126.0
 30
0.0
 11
55.588153
 21
126.0
 31
0.0
  0
LINE
  5
407
330
1E
100
AcDbEntity
  8
0
100
AcDbLine
 10
78.999953
 20
126.0
 30
0.0
 11
78.999953
 21
183.5385
 31
0.0
  0
LINE
  5
408
330
1E
100
AcDbEntity
  8
0
100
AcDbLine
 10
83.29405300000001
 20
126.0
 30
0.0
 11
87.794053
 21
126.0
 31
0.0
  0
LINE
  5
409
330
1E
100
AcDbEntity
  8
0
100
AcDbLine
 10
87.794053
 20
126.0
 30
0.0
 11
90.61755299999999
 21
126.0
 31
0.0
  0
LINE
  5
40A
330
1E
100
AcDbEntity
  8
0
100
AcDbLine
 10
90.61755299999999
 20
126.0
 30
0.0
 11
91.67645300000001
 21
126.0
 31
0.0
  0
LINE
  5
40B
330
1E
100
AcDbEntity
  8
0
100
AcDbLine
 10
77.294053
 20
126.0
 30
0.0
 11
83.29405300000001
 21
126.0
 31
0.0
  0
LINE
  5
40C
330
1E
100
AcDbEntity
  8
0
100
AcDbLine
 10
70.411753
 20
126.0
 30
0.0
 11
77.294053
 21
126.0
 31
0.0
  0
LINE
  5
40D
330
1E
100
AcDbEntity
  8
0
100
AcDbLine
 10
62.999953
 20
126.0
 30
0.0
 11
70.411753
 21
126.0
 31
0.0
  0
LINE
  5
40E
330
1E
100
AcDbEntity
  8
0
100
AcDbLine
 10
55.588153
 20
126.0
 30
0.0
 11
62.999953
 21
126.0
 31
0.0
  0
LINE
  5
410
330
1E
100
AcDbEntity
  8
0
100
AcDbLine
 10
46.999953
 20
178.768870379782
 30
0.0
 11
46.999953
 21
126.0
 31
0.0
  0
LINE
  5
426
330
1E
100
AcDbEntity
  8
0
100
AcDbLine
 10
57.69489727863611
 20
184.0
 30
0.0
 11
78.29405300000001
 21
184.0
 31
0.0
  0
LINE
  5
42B
330
1E
100
AcDbEntity
  8
0
100
AcDbLine
 10
0.143770999999993
 20
192.3403
 30
0.0
 11
46.999953
 21
178.768870379782
 31
0.0
  0
LINE
  5
42C
330
1E
100
AcDbEntity
  8
0
100
AcDbLine
 10
0.0400469999999934
 20
192.5539999999999
 30
0.0
 11
0.0582249999999934
 21
192.4263
 31
0.0
  0
LINE
  5
42D
330
1E
100
AcDbEntity
  8
0
100
AcDbLine
 10
0.205509999999993
 20
192.9348
 30
0.0
 11
0.378979999999993
 21
193.5337
 31
0.0
  0
LINE
  5
42E
330
1E
100
AcDbEntity
  8
0
100
AcDbLine
 10
0.0975009999999935
 20
192.5619
 30
0.0
 11
0.205509999999993
 21
192.9348
 31
0.0
  0
LINE
  5
42F
330
1E
100
AcDbEntity
  8
0
100
AcDbLine
 10
0.0582249999999934
 20
192.4263
 30
0.0
 11
0.143770999999993
 21
192.3403
 31
0.0
  0
LINE
  5
430
330
1E
100
AcDbEntity
  8
0
100
AcDbLine
 10
0.0582249999999934
 20
192.4263
 30
0.0
 11
0.0975009999999935
 21
192.5619
 31
0.0
  0
LINE
  5
431
330
1E
100
AcDbEntity
  8
0
100
AcDbLine
 10
0.143770999999989
 20
192.3403
 30
0.0
 11
46.999953
 21
178.768870379782
 31
0.0
  0
LINE
  5
432
330
1E
100
AcDbEntity
  8
0
100
AcDbLine
 10
0.378979999999993
 20
193.5337
 30
0.0
 11
0.608086999999993
 21
194.3247
 31
0.0
  0
LINE
  5
433
330
1E
100
AcDbEntity
  8
0
100
AcDbLine
 10
0.608086999999993
 20
194.3247
 30
0.0
 11
0.8731999999999928
 21
195.24
 31
0.0
  0
LINE
  5
434
330
1E
100
AcDbEntity
  8
0
100
AcDbLine
 10
1.10377299999999
 20
196.2265999999999
 30
0.0
 11
1.378702999999989
 21
197.1758
 31
0.0
  0
LINE
  5
435
330
1E
100
AcDbEntity
  8
0
100
AcDbLine
 10
1.701272999999989
 20
198.099
 30
0.0
 11
1.93038299999999
 21
198.8899999999999
 31
0.0
  0
LINE
  5
436
330
1E
100
AcDbEntity
  8
0
100
AcDbLine
 10
1.436162999999989
 20
197.1836999999999
 30
0.0
 11
1.701272999999989
 21
198.099
 31
0.0
  0
LINE
  5
437
330
1E
100
AcDbEntity
  8
0
100
AcDbLine
 10
1.154682999999989
 20
196.2119
 30
0.0
 11
1.436162999999989
 21
197.1836999999999
 31
0.0
  0
LINE
  5
438
330
1E
100
AcDbEntity
  8
0
100
AcDbLine
 10
0.828840999999994
 20
195.2773999999999
 30
0.0
 11
1.10377299999999
 21
196.2265999999999
 31
0.0
  0
LINE
  5
439
330
1E
100
AcDbEntity
  8
0
100
AcDbLine
 10
0.8731999999999928
 20
195.24
 30
0.0
 11
1.154682999999989
 21
196.2119
 31
0.0
  0
LINE
  5
43A
330
1E
100
AcDbEntity
  8
0
100
AcDbLine
 10
0.350982999999993
 20
193.6275
 30
0.0
 11
0.5735459999999929
 21
194.3959999999999
 31
0.0
  0
LINE
  5
43B
330
1E
100
AcDbEntity
  8
0
100
AcDbLine
 10
1.93038299999999
 20
198.8899999999999
 30
0.0
 11
2.103852999999989
 21
199.4889
 31
0.0
  0
LINE
  5
43C
330
1E
100
AcDbEntity
  8
0
100
AcDbLine
 10
2.128212999999989
 20
199.7635999999999
 30
0.0
 11
2.167492999999989
 21
199.8992
 31
0.0
  0
LINE
  5
43D
330
1E
100
AcDbEntity
  8
0
100
AcDbLine
 10
2.103852999999989
 20
199.4889
 30
0.0
 11
2.21185299999999
 21
199.8618
 31
0.0
  0
LINE
  5
43E
330
1E
100
AcDbEntity
  8
0
100
AcDbLine
 10
1.856562999999989
 20
198.8257
 30
0.0
 11
2.023482999999989
 21
199.402
 31
0.0
  0
LINE
  5
43F
330
1E
100
AcDbEntity
  8
0
100
AcDbLine
 10
2.21185299999999
 20
199.8618
 30
0.0
 11
2.25113299999999
 21
199.9975
 31
0.0
  0
LINE
  5
440
330
1E
100
AcDbEntity
  8
0
100
AcDbLine
 10
2.167492999999989
 20
199.8992
 30
0.0
 11
2.25113299999999
 21
199.9975
 31
0.0
  0
LINE
  5
441
330
1E
100
AcDbEntity
  8
0
100
AcDbLine
 10
2.369412999999989
 20
200.0244
 30
0.0
 11
57.69489727863611
 21
184.0
 31
0.0
  0
LINE
  5
442
330
1E
100
AcDbEntity
  8
0
100
AcDbLine
 10
2.25113299999999
 20
199.9975
 30
0.0
 11
2.369412999999989
 21
200.0244
 31
0.0
  0
LINE
  5
443
330
1E
100
AcDbEntity
  8
0
100
AcDbLine
 10
2.369412999999989
 20
200.0244
 30
0.0
 11
57.69489727863611
 21
184.0
 31
0.0
  0
LINE
  5
445
330
1E
100
AcDbEntity
  8
0
100
AcDbLine
 10
78.29405300000001
 20
184.0
 30
0.0
 11
78.76465300000001
 21
183.8461999999999
 31
0.0
  0
LINE
  5
446
330
1E
100
AcDbEntity
  8
0
100
AcDbLine
 10
78.76465300000001
 20
183.8461999999999
 30
0.0
 11
78.999953
 21
183.5385
 31
0.0
  0
LINE
  5
447
330
1E
100
AcDbEntity
  8
0
100
AcDbLine
 10
78.999953
 20
183.5385
 30
0.0
 11
78.999953
 21
126.0
 31
0.0
  0
LINE
  5
448
330
1E
100
AcDbEntity
  8
0
100
AcDbLine
 10
91.67645300000001
 20
126.0
 30
0.0
 11
92.55875299999999
 21
125.8461499999999
 31
0.0
  0
LINE
  5
449
330
1E
100
AcDbEntity
  8
0
100
AcDbLine
 10
163.999953
 20
126.0
 30
0.0
 11
163.999953
 21
180.5385
 31
0.0
  0
LINE
  5
44A
330
1E
100
AcDbEntity
  8
0
100
AcDbLine
 10
164.3239529999999
 20
126.0
 30
0.0
 11
171.3239529999999
 21
126.0
 31
0.0
  0
LINE
  5
44B
330
1E
100
AcDbEntity
  8
0
100
AcDbLine
 10
171.3239529999999
 20
126.0
 30
0.0
 11
179.352953
 21
126.0
 31
0.0
  0
LINE
  5
44C
330
1E
100
AcDbEntity
  8
0
100
AcDbLine
 10
179.352953
 20
126.0
 30
0.0
 11
187.999953
 21
126.0
 31
0.0
  0
LINE
  5
44D
330
1E
100
AcDbEntity
  8
0
100
AcDbLine
 10
159.073953
 20
126.0
 30
0.0
 11
164.3239529999999
 21
126.0
 31
0.0
  0
LINE
  5
453
330
1E
100
AcDbEntity
  8
0
100
AcDbLine
 10
173.999953
 20
181.0
 30
0.0
 11
173.999953
 21
308.0
 31
0.0
  0
LINE
  5
454
330
1E
100
AcDbEntity
  8
0
100
AcDbLine
 10
171.7649529999999
 20
181.0
 30
0.0
 11
176.564953
 21
181.0
 31
0.0
  0
LINE
  5
455
330
1E
100
AcDbEntity
  8
0
100
AcDbLine
 10
176.564953
 20
181.0
 30
0.0
 11
182.070953
 21
181.0
 31
0.0
  0
LINE
  5
456
330
1E
100
AcDbEntity
  8
0
100
AcDbLine
 10
182.070953
 20
181.0
 30
0.0
 11
187.999953
 21
181.0
 31
0.0
  0
LINE
  5
457
330
1E
100
AcDbEntity
  8
0
100
AcDbLine
 10
168.164953
 20
181.0
 30
0.0
 11
171.7649529999999
 21
181.0
 31
0.0
  0
LINE
  5
458
330
1E
100
AcDbEntity
  8
0
100
AcDbLine
 10
165.0589529999999
 20
181.0
 30
0.0
 11
168.164953
 21
181.0
 31
0.0
  0
LINE
  5
459
330
1E
100
AcDbEntity
  8
0
100
AcDbLine
 10
164.352953
 20
180.8462
 30
0.0
 11
165.0589529999999
 21
181.0
 31
0.0
  0
LINE
  5
45A
330
1E
100
AcDbEntity
  8
0
100
AcDbLine
 10
163.999953
 20
180.5385
 30
0.0
 11
164.352953
 21
180.8462
 31
0.0
  0
LINE
  5
45B
330
1E
100
AcDbEntity
  8
0
100
AcDbLine
 10
163.999953
 20
180.5385
 30
0.0
 11
163.999953
 21
126.0
 31
0.0
  0
LINE
  5
45D
330
1E
100
AcDbEntity
  8
0
100
AcDbLine
 10
173.999953
 20
325.6029999999999
 30
0.0
 11
173.999953
 21
331.0
 31
0.0
  0
LINE
  5
45E
330
1E
100
AcDbEntity
  8
0
100
AcDbLine
 10
173.999953
 20
325.6029999999999
 30
0.0
 11
173.999953
 21
319.906
 31
0.0
  0
LINE
  5
45F
330
1E
100
AcDbEntity
  8
0
100
AcDbLine
 10
173.999953
 20
319.906
 30
0.0
 11
173.999953
 21
314.004
 31
0.0
  0
LINE
  5
460
330
1E
100
AcDbEntity
  8
0
100
AcDbLine
 10
173.999953
 20
319.906
 30
0.0
 11
173.999953
 21
325.6029999999999
 31
0.0
  0
LINE
  5
461
330
1E
100
AcDbEntity
  8
0
100
AcDbLine
 10
173.999953
 20
314.004
 30
0.0
 11
173.999953
 21
308.0
 31
0.0
  0
LINE
  5
462
330
1E
100
AcDbEntity
  8
0
100
AcDbLine
 10
173.999953
 20
314.004
 30
0.0
 11
173.999953
 21
319.906
 31
0.0
  0
LINE
  5
463
330
1E
100
AcDbEntity
  8
0
100
AcDbLine
 10
173.999953
 20
331.0
 30
0.0
 11
173.999953
 21
336.003
 31
0.0
  0
LINE
  5
464
330
1E
100
AcDbEntity
  8
0
100
AcDbLine
 10
173.999953
 20
331.0
 30
0.0
 11
173.999953
 21
325.6029999999999
 31
0.0
  0
LINE
  5
465
330
1E
100
AcDbEntity
  8
0
100
AcDbLine
 10
173.999953
 20
350.498
 30
0.0
 11
173.999953
 21
347.8369999999999
 31
0.0
  0
LINE
  5
466
330
1E
100
AcDbEntity
  8
0
100
AcDbLine
 10
173.999953
 20
350.498
 30
0.0
 11
173.999953
 21
352.433
 31
0.0
  0
LINE
  5
467
330
1E
100
AcDbEntity
  8
0
100
AcDbLine
 10
173.999953
 20
347.8369999999999
 30
0.0
 11
173.999953
 21
344.494
 31
0.0
  0
LINE
  5
468
330
1E
100
AcDbEntity
  8
0
100
AcDbLine
 10
173.999953
 20
347.8369999999999
 30
0.0
 11
173.999953
 21
350.498
 31
0.0
  0
LINE
  5
469
330
1E
100
AcDbEntity
  8
0
100
AcDbLine
 10
173.999953
 20
344.494
 30
0.0
 11
173.999953
 21
347.8369999999999
 31
0.0
  0
LINE
  5
46A
330
1E
100
AcDbEntity
  8
0
100
AcDbLine
 10
173.999953
 20
344.494
 30
0.0
 11
173.999953
 21
340.5269999999999
 31
0.0
  0
LINE
  5
46B
330
1E
100
AcDbEntity
  8
0
100
AcDbLine
 10
173.999953
 20
352.433
 30
0.0
 11
173.999953
 21
353.6059999999999
 31
0.0
  0
LINE
  5
46C
330
1E
100
AcDbEntity
  8
0
100
AcDbLine
 10
173.999953
 20
352.433
 30
0.0
 11
173.999953
 21
350.498
 31
0.0
  0
LINE
  5
46D
330
1E
100
AcDbEntity
  8
0
100
AcDbLine
 10
173.999953
 20
354.0
 30
0.0
 11
174.5039529999999
 21
357.5839999999999
 31
0.0
  0
LINE
  5
46E
330
1E
100
AcDbEntity
  8
0
100
AcDbLine
 10
173.999953
 20
354.0
 30
0.0
 11
173.999953
 21
353.6059999999999
 31
0.0
  0
LINE
  5
46F
330
1E
100
AcDbEntity
  8
0
100
AcDbLine
 10
173.999953
 20
354.0
 30
0.0
 11
174.027772557299
 21
353.802172036985
 31
0.0
  0
LINE
  5
470
330
1E
100
AcDbEntity
  8
0
100
AcDbLine
 10
173.999953
 20
354.0
 30
0.0
 11
174.027772557299
 21
353.802172036985
 31
0.0
  0
LINE
  5
471
330
1E
100
AcDbEntity
  8
0
100
AcDbLine
 10
173.999953
 20
353.6059999999999
 30
0.0
 11
173.999953
 21
354.0
 31
0.0
  0
LINE
  5
472
330
1E
100
AcDbEntity
  8
0
100
AcDbLine
 10
173.999953
 20
353.6059999999999
 30
0.0
 11
173.999953
 21
352.433
 31
0.0
  0
LINE
  5
473
330
1E
100
AcDbEntity
  8
0
100
AcDbLine
 10
173.999953
 20
340.5269999999999
 30
0.0
 11
173.999953
 21
336.003
 31
0.0
  0
LINE
  5
474
330
1E
100
AcDbEntity
  8
0
100
AcDbLine
 10
173.999953
 20
340.5269999999999
 30
0.0
 11
173.999953
 21
344.494
 31
0.0
  0
LINE
  5
475
330
1E
100
AcDbEntity
  8
0
100
AcDbLine
 10
173.999953
 20
336.003
 30
0.0
 11
173.999953
 21
306.5049999999999
 31
0.0
  0
LINE
  5
476
330
1E
100
AcDbEntity
  8
0
100
AcDbLine
 10
173.999953
 20
336.003
 30
0.0
 11
173.999953
 21
340.5269999999999
 31
0.0
  0
LINE
  5
477
330
1E
100
AcDbEntity
  8
0
100
AcDbLine
 10
173.999953
 20
336.003
 30
0.0
 11
173.999953
 21
331.0
 31
0.0
  0
LINE
  5
478
330
1E
100
AcDbEntity
  8
0
100
AcDbLine
 10
173.999953
 20
306.5049999999999
 30
0.0
 11
174.07267704116
 21
306.1965
 31
0.0
  0
LINE
  5
479
330
1E
100
AcDbEntity
  8
0
100
AcDbLine
 10
173.999953
 20
306.5049999999999
 30
0.0
 11
173.999953
 21
336.003
 31
0.0
  0
LINE
  5
47A
330
1E
100
AcDbEntity
  8
0
100
AcDbLine
 10
173.999953
 20
306.5049999999999
 30
0.0
 11
174.07267704116
 21
306.1965
 31
0.0
  0
LINE
  5
47B
330
1E
100
AcDbEntity
  8
0
100
AcDbLine
 10
173.999953
 20
306.5049999999999
 30
0.0
 11
174.5039529999999
 21
308.643
 31
0.0
  0
LINE
  5
47C
330
1E
100
AcDbEntity
  8
0
100
AcDbLine
 10
173.999953
 20
305.8879999999999
 30
0.0
 11
173.999953
 21
302.184
 31
0.0
  0
LINE
  5
47D
330
1E
100
AcDbEntity
  8
0
100
AcDbLine
 10
173.999953
 20
305.8879999999999
 30
0.0
 11
174.5039529999999
 21
308.0259999999999
 31
0.0
  0
LINE
  5
47E
330
1E
100
AcDbEntity
  8
0
100
AcDbLine
 10
173.999953
 20
302.184
 30
0.0
 11
173.999953
 21
298.479
 31
0.0
  0
LINE
  5
47F
330
1E
100
AcDbEntity
  8
0
100
AcDbLine
 10
173.999953
 20
302.184
 30
0.0
 11
173.999953
 21
305.8879999999999
 31
0.0
  0
LINE
  5
480
330
1E
100
AcDbEntity
  8
0
100
AcDbLine
 10
173.999953
 20
298.479
 30
0.0
 11
174.5039529999999
 21
296.341
 31
0.0
  0
LINE
  5
481
330
1E
100
AcDbEntity
  8
0
100
AcDbLine
 10
173.999953
 20
298.479
 30
0.0
 11
173.999953
 21
302.184
 31
0.0
  0
LINE
  5
482
330
1E
100
AcDbEntity
  8
0
100
AcDbLine
 10
173.999953
 20
298.479
 30
0.0
 11
174.5039529999999
 21
300.618
 31
0.0
  0
LINE
  5
483
330
1E
100
AcDbEntity
  8
0
100
AcDbLine
 10
178.367953
 20
292.424
 30
0.0
 11
181.223953
 21
291.122
 31
0.0
  0
LINE
  5
484
330
1E
100
AcDbEntity
  8
0
100
AcDbLine
 10
181.223953
 20
291.122
 30
0.0
 11
184.471953
 21
290.32
 31
0.0
  0
LINE
  5
485
330
1E
100
AcDbEntity
  8
0
100
AcDbLine
 10
187.999953
 20
290.019
 30
0.0
 11
191.527953
 21
290.32
 31
0.0
  0
LINE
  5
486
330
1E
100
AcDbEntity
  8
0
100
AcDbLine
 10
184.471953
 20
290.32
 30
0.0
 11
187.999953
 21
290.019
 31
0.0
  0
LINE
  5
487
330
1E
100
AcDbEntity
  8
0
100
AcDbLine
 10
174.839953
 20
296.0659999999999
 30
0.0
 11
176.183953
 21
294.1279999999999
 31
0.0
  0
LINE
  5
488
330
1E
100
AcDbEntity
  8
0
100
AcDbLine
 10
174.839953
 20
300.2749999999999
 30
0.0
 11
176.183953
 21
302.2129999999999
 31
0.0
  0
LINE
  5
489
330
1E
100
AcDbEntity
  8
0
100
AcDbLine
 10
174.5039529999999
 20
300.618
 30
0.0
 11
175.8479529999999
 21
302.622
 31
0.0
  0
LINE
  5
48A
330
1E
100
AcDbEntity
  8
0
100
AcDbLine
 10
175.8479529999999
 20
360.944
 30
0.0
 11
178.0879529999999
 21
363.9119999999999
 31
0.0
  0
LINE
  5
48B
330
1E
100
AcDbEntity
  8
0
100
AcDbLine
 10
174.5039529999999
 20
357.5839999999999
 30
0.0
 11
175.8479529999999
 21
360.944
 31
0.0
  0
LINE
  5
48C
330
1E
100
AcDbEntity
  8
0
100
AcDbLine
 10
174.5039529999999
 20
308.643
 30
0.0
 11
175.8479529999999
 21
310.6479999999999
 31
0.0
  0
LINE
  5
48D
330
1E
100
AcDbEntity
  8
0
100
AcDbLine
 10
175.8479529999999
 20
310.6479999999999
 30
0.0
 11
178.0879529999999
 21
312.4179999999999
 31
0.0
  0
LINE
  5
48E
330
1E
100
AcDbEntity
  8
0
100
AcDbLine
 10
174.5039529999999
 20
308.0259999999999
 30
0.0
 11
175.8479529999999
 21
310.0299999999999
 31
0.0
  0
LINE
  5
48F
330
1E
100
AcDbEntity
  8
0
100
AcDbLine
 10
175.8479529999999
 20
310.0299999999999
 30
0.0
 11
178.0879529999999
 21
311.8009999999999
 31
0.0
  0
LINE
  5
490
330
1E
100
AcDbEntity
  8
0
100
AcDbLine
 10
175.8479529999999
 20
302.622
 30
0.0
 11
178.0879529999999
 21
304.3929999999999
 31
0.0
  0
LINE
  5
491
330
1E
100
AcDbEntity
  8
0
100
AcDbLine
 10
174.335953
 20
298.1709999999999
 30
0.0
 11
174.839953
 21
296.0659999999999
 31
0.0
  0
LINE
  5
492
330
1E
100
AcDbEntity
  8
0
100
AcDbLine
 10
174.335953
 20
298.1709999999999
 30
0.0
 11
174.839953
 21
300.2749999999999
 31
0.0
  0
LINE
  5
493
330
1E
100
AcDbEntity
  8
0
100
AcDbLine
 10
174.5039529999999
 20
296.341
 30
0.0
 11
175.8479529999999
 21
294.3369999999999
 31
0.0
  0
LINE
  5
494
330
1E
100
AcDbEntity
  8
0
100
AcDbLine
 10
176.183953
 20
302.2129999999999
 30
0.0
 11
178.367953
 21
303.917
 31
0.0
  0
LINE
  5
495
330
1E
100
AcDbEntity
  8
0
100
AcDbLine
 10
178.367953
 20
303.917
 30
0.0
 11
181.223953
 21
305.22
 31
0.0
  0
LINE
  5
496
330
1E
100
AcDbEntity
  8
0
100
AcDbLine
 10
181.223953
 20
305.22
 30
0.0
 11
184.471953
 21
306.022
 31
0.0
  0
LINE
  5
497
330
1E
100
AcDbEntity
  8
0
100
AcDbLine
 10
178.0879529999999
 20
304.3929999999999
 30
0.0
 11
181.055953
 21
305.729
 31
0.0
  0
LINE
  5
498
330
1E
100
AcDbEntity
  8
0
100
AcDbLine
 10
178.0879529999999
 20
312.4179999999999
 30
0.0
 11
181.055953
 21
313.755
 31
0.0
  0
LINE
  5
499
330
1E
100
AcDbEntity
  8
0
100
AcDbLine
 10
178.3195949597989
 20
311.9052701005029
 30
0.0
 11
178.367953
 21
311.9429999999999
 31
0.0
  0
LINE
  5
49A
330
1E
100
AcDbEntity
  8
0
100
AcDbLine
 10
178.367953
 20
311.9429999999999
 30
0.0
 11
181.223953
 21
313.2449999999999
 31
0.0
  0
LINE
  5
49B
330
1E
100
AcDbEntity
  8
0
100
AcDbLine
 10
178.0879529999999
 20
311.8009999999999
 30
0.0
 11
181.055953
 21
313.1369999999999
 31
0.0
  0
LINE
  5
49C
330
1E
100
AcDbEntity
  8
0
100
AcDbLine
 10
178.0879529999999
 20
311.8009999999999
 30
0.0
 11
178.367953
 21
311.9429999999999
 31
0.0
  0
LINE
  5
49D
330
1E
100
AcDbEntity
  8
0
100
AcDbLine
 10
181.055953
 20
366.1519999999999
 30
0.0
 11
184.4159529999999
 21
367.496
 31
0.0
  0
LINE
  5
49E
330
1E
100
AcDbEntity
  8
0
100
AcDbLine
 10
178.0879529999999
 20
363.9119999999999
 30
0.0
 11
181.055953
 21
366.1519999999999
 31
0.0
  0
LINE
  5
49F
330
1E
100
AcDbEntity
  8
0
100
AcDbLine
 10
181.055953
 20
313.755
 30
0.0
 11
184.4159529999999
 21
314.5559999999999
 31
0.0
  0
LINE
  5
4A0
330
1E
100
AcDbEntity
  8
0
100
AcDbLine
 10
184.4159529999999
 20
367.496
 30
0.0
 11
187.999953
 21
368.0
 31
0.0
  0
LINE
  5
4A1
330
1E
100
AcDbEntity
  8
0
100
AcDbLine
 10
184.4159529999999
 20
314.5559999999999
 30
0.0
 11
187.999953
 21
314.857
 31
0.0
  0
LINE
  5
4A2
330
1E
100
AcDbEntity
  8
0
100
AcDbLine
 10
181.223953
 20
313.2449999999999
 30
0.0
 11
184.471953
 21
314.047
 31
0.0
  0
LINE
  5
4A3
330
1E
100
AcDbEntity
  8
0
100
AcDbLine
 10
181.223953
 20
313.2449999999999
 30
0.0
 11
181.272354881877
 21
313.194648042303
 31
0.0
  0
LINE
  5
4A4
330
1E
100
AcDbEntity
  8
0
100
AcDbLine
 10
181.055953
 20
313.1369999999999
 30
0.0
 11
184.4159529999999
 21
313.939
 31
0.0
  0
LINE
  5
4A5
330
1E
100
AcDbEntity
  8
0
100
AcDbLine
 10
184.4159529999999
 20
313.939
 30
0.0
 11
187.999953
 21
314.24
 31
0.0
  0
LINE
  5
4A6
330
1E
100
AcDbEntity
  8
0
100
AcDbLine
 10
181.055953
 20
305.729
 30
0.0
 11
184.4159529999999
 21
306.531
 31
0.0
  0
LINE
  5
4A7
330
1E
100
AcDbEntity
  8
0
100
AcDbLine
 10
187.999953
 20
306.322
 30
0.0
 11
191.527953
 21
306.022
 31
0.0
  0
LINE
  5
4A8
330
1E
100
AcDbEntity
  8
0
100
AcDbLine
 10
187.999953
 20
314.24
 30
0.0
 11
191.583953
 21
313.939
 31
0.0
  0
LINE
  5
4A9
330
1E
100
AcDbEntity
  8
0
100
AcDbLine
 10
187.999953
 20
306.8319999999999
 30
0.0
 11
191.583953
 21
306.531
 31
0.0
  0
LINE
  5
4AA
330
1E
100
AcDbEntity
  8
0
100
AcDbLine
 10
187.999953
 20
314.348
 30
0.0
 11
191.527953
 21
314.047
 31
0.0
  0
LINE
  5
4AB
330
1E
100
AcDbEntity
  8
0
100
AcDbLine
 10
187.999953
 20
368.0
 30
0.0
 11
191.583953
 21
367.496
 31
0.0
  0
LINE
  5
4AC
330
1E
100
AcDbEntity
  8
0
100
AcDbLine
 10
187.999953
 20
314.857
 30
0.0
 11
191.583953
 21
314.5559999999999
 31
0.0
  0
LINE
  5
4AD
330
1E
100
AcDbEntity
  8
0
100
AcDbLine
 10
184.471953
 20
314.047
 30
0.0
 11
187.999953
 21
314.348
 31
0.0
  0
LINE
  5
4AE
330
1E
100
AcDbEntity
  8
0
100
AcDbLine
 10
184.471953
 20
306.022
 30
0.0
 11
187.999953
 21
306.322
 31
0.0
  0
LINE
  5
4AF
330
1E
100
AcDbEntity
  8
0
100
AcDbLine
 10
184.4159529999999
 20
306.531
 30
0.0
 11
187.999953
 21
306.8319999999999
 31
0.0
  0
LINE
  5
4B0
330
1E
100
AcDbEntity
  8
0
100
AcDbLine
 10
176.183953
 20
294.1279999999999
 30
0.0
 11
178.367953
 21
292.424
 31
0.0
  0
LINE
  5
4B1
330
1E
100
AcDbEntity
  8
0
100
AcDbLine
 10
175.8479529999999
 20
294.3369999999999
 30
0.0
 11
178.0879529999999
 21
292.5659999999999
 31
0.0
  0
LINE
  5
4B2
330
1E
100
AcDbEntity
  8
0
100
AcDbLine
 10
178.0879529999999
 20
292.5659999999999
 30
0.0
 11
178.3162938854109
 21
292.463215827861
 31
0.0
  0
LINE
  5
4B3
330
1E
100
AcDbEntity
  8
0
100
AcDbLine
 10
178.0879529999999
 20
292.5659999999999
 30
0.0
 11
178.367953
 21
292.424
 31
0.0
  0
LINE
  5
4B4
330
1E
100
AcDbEntity
  8
0
100
AcDbLine
 10
173.999953
 20
308.0
 30
0.0
 11
173.999953
 21
181.0
 31
0.0
  0
LINE
  5
4B5
330
1E
100
AcDbEntity
  8
0
100
AcDbLine
 10
173.999953
 20
308.0
 30
0.0
 11
173.999953
 21
314.004
 31
0.0
  0
LINE
  5
4B6
330
1E
100
AcDbEntity
  8
0
100
AcDbLine
 10
187.999953
 20
181.0
 30
0.0
 11
193.928953
 21
181.0
 31
0.0
  0
LINE
  5
4B8
330
1E
100
AcDbEntity
  8
0
100
AcDbLine
 10
155.7789529999999
 20
126.0
 30
0.0
 11
159.073953
 21
126.0
 31
0.0
  0
LINE
  5
4B9
330
1E
100
AcDbEntity
  8
0
100
AcDbLine
 10
154.543953
 20
126.0
 30
0.0
 11
155.7789529999999
 21
126.0
 31
0.0
  0
LINE
  5
4BA
330
1E
100
AcDbEntity
  8
0
100
AcDbLine
 10
153.5149529999999
 20
125.8461499999999
 30
0.0
 11
154.543953
 21
126.0
 31
0.0
  0
LINE
  5
4BB
330
1E
100
AcDbEntity
  8
0
100
AcDbLine
 10
187.999953
 20
126.0
 30
0.0
 11
196.6469529999999
 21
126.0
 31
0.0
  0
LINE
  5
4BC
330
1E
100
AcDbEntity
  8
0
100
AcDbLine
 10
187.999953
 20
125.53846
 30
0.0
 11
196.9559529999999
 21
125.53846
 31
0.0
  0
LINE
  5
528
330
1E
100
AcDbEntity
  8
0
100
AcDbLine
 10
194.399953
 20
118.0
 30
0.0
 11
200.399953
 21
118.0
 31
0.0
  0
LINE
  5
529
330
1E
100
AcDbEntity
  8
0
100
AcDbLine
 10
200.399953
 20
118.0
 30
0.0
 11
205.699953
 21
118.0
 31
0.0
  0
LINE
  5
557
330
1E
100
AcDbEntity
  8
0
100
AcDbLine
 10
205.699953
 20
118.0
 30
0.0
 11
209.699953
 21
118.0
 31
0.0
  0
LINE
  5
598
330
1E
100
AcDbEntity
  8
0
100
AcDbLine
 10
209.699953
 20
118.0
 30
0.0
 11
212.0999529999999
 21
118.0
 31
0.0
  0
LINE
  5
599
330
1E
100
AcDbEntity
  8
0
100
AcDbLine
 10
212.0999529999999
 20
118.0
 30
0.0
 11
212.9999529999999
 21
118.0
 31
0.0
  0
LINE
  5
59E
330
1E
100
AcDbEntity
  8
0
100
AcDbLine
 10
212.9999529999999
 20
118.0
 30
0.0
 11
218.2649529999999
 21
118.0
 31
0.0
  0
LINE
  5
5A0
330
1E
100
AcDbEntity
  8
0
100
AcDbLine
 10
212.7059529999999
 20
118.0
 30
0.0
 11
218.2649529999999
 21
118.0
 31
0.0
  0
LINE
  5
870
330
1E
100
AcDbEntity
  8
0
100
AcDbLine
 10
222.9999529999999
 20
118.0
 30
0.0
 11
222.9999529999999
 21
125.53846
 31
0.0
  0
LINE
  5
871
330
1E
100
AcDbEntity
  8
0
100
AcDbLine
 10
218.2649529999999
 20
118.0
 30
0.0
 11
221.764953
 21
118.0
 31
0.0
  0
LINE
  5
872
330
1E
100
AcDbEntity
  8
0
100
AcDbLine
 10
221.764953
 20
118.0
 30
0.0
 11
222.9999529999999
 21
118.0
 31
0.0
  0
LINE
  5
873
330
1E
100
AcDbEntity
  8
0
100
AcDbLine
 10
205.3969529999999
 20
118.0
 30
0.0
 11
212.7059529999999
 21
118.0
 31
0.0
  0
LINE
  5
874
330
1E
100
AcDbEntity
  8
0
100
AcDbLine
 10
191.527953
 20
306.022
 30
0.0
 11
194.775953
 21
305.22
 31
0.0
  0
LINE
  5
875
330
1E
100
AcDbEntity
  8
0
100
AcDbLine
 10
191.583953
 20
313.939
 30
0.0
 11
194.943953
 21
313.1369999999999
 31
0.0
  0
LINE
  5
876
330
1E
100
AcDbEntity
  8
0
100
AcDbLine
 10
191.583953
 20
306.531
 30
0.0
 11
194.943953
 21
305.729
 31
0.0
  0
LINE
  5
877
330
1E
100
AcDbEntity
  8
0
100
AcDbLine
 10
191.527953
 20
290.32
 30
0.0
 11
194.775953
 21
291.122
 31
0.0
  0
LINE
  5
878
330
1E
100
AcDbEntity
  8
0
100
AcDbLine
 10
191.583953
 20
367.496
 30
0.0
 11
194.943953
 21
366.1519999999999
 31
0.0
  0
LINE
  5
879
330
1E
100
AcDbEntity
  8
0
100
AcDbLine
 10
191.527953
 20
314.047
 30
0.0
 11
194.775953
 21
313.2449999999999
 31
0.0
  0
LINE
  5
87A
330
1E
100
AcDbEntity
  8
0
100
AcDbLine
 10
191.583953
 20
314.5559999999999
 30
0.0
 11
194.943953
 21
313.755
 31
0.0
  0
LINE
  5
87B
330
1E
100
AcDbEntity
  8
0
100
AcDbLine
 10
193.928953
 20
181.0
 30
0.0
 11
199.434953
 21
181.0
 31
0.0
  0
LINE
  5
87C
330
1E
100
AcDbEntity
  8
0
100
AcDbLine
 10
194.775953
 20
305.22
 30
0.0
 11
197.6319529999999
 21
303.917
 31
0.0
  0
LINE
  5
87D
330
1E
100
AcDbEntity
  8
0
100
AcDbLine
 10
194.775953
 20
291.122
 30
0.0
 11
197.6319529999999
 21
292.424
 31
0.0
  0
LINE
  5
87E
330
1E
100
AcDbEntity
  8
0
100
AcDbLine
 10
194.727551118123
 20
313.194648042303
 30
0.0
 11
194.775953
 21
313.2449999999999
 31
0.0
  0
LINE
  5
87F
330
1E
100
AcDbEntity
  8
0
100
AcDbLine
 10
194.943953
 20
313.1369999999999
 30
0.0
 11
197.911953
 21
311.8009999999999
 31
0.0
  0
LINE
  5
880
330
1E
100
AcDbEntity
  8
0
100
AcDbLine
 10
194.943953
 20
305.729
 30
0.0
 11
197.911953
 21
304.3929999999999
 31
0.0
  0
LINE
  5
881
330
1E
100
AcDbEntity
  8
0
100
AcDbLine
 10
194.775953
 20
313.2449999999999
 30
0.0
 11
197.6319529999999
 21
311.9429999999999
 31
0.0
  0
LINE
  5
882
330
1E
100
AcDbEntity
  8
0
100
AcDbLine
 10
194.943953
 20
366.1519999999999
 30
0.0
 11
197.911953
 21
363.9119999999999
 31
0.0
  0
LINE
  5
883
330
1E
100
AcDbEntity
  8
0
100
AcDbLine
 10
194.943953
 20
313.755
 30
0.0
 11
197.911953
 21
312.4179999999999
 31
0.0
  0
LINE
  5
885
330
1E
100
AcDbEntity
  8
0
100
AcDbLine
 10
196.6469529999999
 20
126.0
 30
0.0
 11
204.675953
 21
126.0
 31
0.0
  0
LINE
  5
886
330
1E
100
AcDbEntity
  8
0
100
AcDbLine
 10
212.7059529999999
 20
125.53846
 30
0.0
 11
218.2649529999999
 21
125.53846
 31
0.0
  0
LINE
  5
887
330
1E
100
AcDbEntity
  8
0
100
AcDbLine
 10
218.2649529999999
 20
125.53846
 30
0.0
 11
221.764953
 21
125.53846
 31
0.0
  0
LINE
  5
897
330
1E
100
AcDbEntity
  8
0
100
AcDbLine
 10
222.9999529999999
 20
125.53846
 30
0.0
 11
222.9999529999999
 21
118.0
 31
0.0
  0
LINE
  5
898
330
1E
100
AcDbEntity
  8
0
100
AcDbLine
 10
221.764953
 20
125.53846
 30
0.0
 11
222.9999529999999
 21
125.53846
 31
0.0
  0
LINE
  5
899
330
1E
100
AcDbEntity
  8
0
100
AcDbLine
 10
197.6319529999999
 20
303.917
 30
0.0
 11
199.815953
 21
302.2129999999999
 31
0.0
  0
LINE
  5
89A
330
1E
100
AcDbEntity
  8
0
100
AcDbLine
 10
197.6319529999999
 20
292.424
 30
0.0
 11
197.911953
 21
292.5659999999999
 31
0.0
  0
LINE
  5
89B
330
1E
100
AcDbEntity
  8
0
100
AcDbLine
 10
197.6319529999999
 20
292.424
 30
0.0
 11
199.815953
 21
294.1279999999999
 31
0.0
  0
LINE
  5
89C
330
1E
100
AcDbEntity
  8
0
100
AcDbLine
 10
197.911953
 20
311.8009999999999
 30
0.0
 11
200.1519529999999
 21
310.0299999999999
 31
0.0
  0
LINE
  5
89D
330
1E
100
AcDbEntity
  8
0
100
AcDbLine
 10
197.911953
 20
304.3929999999999
 30
0.0
 11
200.1519529999999
 21
302.622
 31
0.0
  0
LINE
  5
89E
330
1E
100
AcDbEntity
  8
0
100
AcDbLine
 10
197.911953
 20
292.5659999999999
 30
0.0
 11
200.1519529999999
 21
294.3369999999999
 31
0.0
  0
LINE
  5
89F
330
1E
100
AcDbEntity
  8
0
100
AcDbLine
 10
197.683612114589
 20
292.463215827861
 30
0.0
 11
197.911953
 21
292.5659999999999
 31
0.0
  0
LINE
  5
8A0
330
1E
100
AcDbEntity
  8
0
100
AcDbLine
 10
197.6319529999999
 20
311.9429999999999
 30
0.0
 11
197.6803110402009
 21
311.9052701005029
 31
0.0
  0
LINE
  5
8A1
330
1E
100
AcDbEntity
  8
0
100
AcDbLine
 10
197.6319529999999
 20
311.9429999999999
 30
0.0
 11
197.911953
 21
311.8009999999999
 31
0.0
  0
LINE
  5
8A2
330
1E
100
AcDbEntity
  8
0
100
AcDbLine
 10
197.911953
 20
363.9119999999999
 30
0.0
 11
200.1519529999999
 21
360.944
 31
0.0
  0
LINE
  5
8A3
330
1E
100
AcDbEntity
  8
0
100
AcDbLine
 10
197.911953
 20
312.4179999999999
 30
0.0
 11
200.1519529999999
 21
310.6479999999999
 31
0.0
  0
LINE
  5
8A4
330
1E
100
AcDbEntity
  8
0
100
AcDbLine
 10
201.999953
 20
181.0
 30
0.0
 11
201.999953
 21
298.479
 31
0.0
  0
LINE
  5
8A5
330
1E
100
AcDbEntity
  8
0
100
AcDbLine
 10
199.815953
 20
294.1279999999999
 30
0.0
 11
201.159953
 21
296.0659999999999
 31
0.0
  0
LINE
  5
8A6
330
1E
100
AcDbEntity
  8
0
100
AcDbLine
 10
201.159953
 20
296.0659999999999
 30
0.0
 11
201.6639529999999
 21
298.1709999999999
 31
0.0
  0
LINE
  5
8A7
330
1E
100
AcDbEntity
  8
0
100
AcDbLine
 10
201.495953
 20
296.341
 30
0.0
 11
201.999953
 21
298.479
 31
0.0
  0
LINE
  5
8A8
330
1E
100
AcDbEntity
  8
0
100
AcDbLine
 10
200.1519529999999
 20
294.3369999999999
 30
0.0
 11
201.495953
 21
296.341
 31
0.0
  0
LINE
  5
8A9
330
1E
100
AcDbEntity
  8
0
100
AcDbLine
 10
199.815953
 20
302.2129999999999
 30
0.0
 11
201.159953
 21
300.2749999999999
 31
0.0
  0
LINE
  5
8AA
330
1E
100
AcDbEntity
  8
0
100
AcDbLine
 10
201.159953
 20
300.2749999999999
 30
0.0
 11
201.6639529999999
 21
298.1709999999999
 31
0.0
  0
LINE
  5
8AB
330
1E
100
AcDbEntity
  8
0
100
AcDbLine
 10
201.495953
 20
300.618
 30
0.0
 11
201.999953
 21
298.479
 31
0.0
  0
LINE
  5
8AC
330
1E
100
AcDbEntity
  8
0
100
AcDbLine
 10
200.1519529999999
 20
302.622
 30
0.0
 11
201.495953
 21
300.618
 31
0.0
  0
LINE
  5
8AD
330
1E
100
AcDbEntity
  8
0
100
AcDbLine
 10
200.1519529999999
 20
310.0299999999999
 30
0.0
 11
201.495953
 21
308.0259999999999
 31
0.0
  0
LINE
  5
8AE
330
1E
100
AcDbEntity
  8
0
100
AcDbLine
 10
201.495953
 20
308.0259999999999
 30
0.0
 11
201.999953
 21
305.8879999999999
 31
0.0
  0
LINE
  5
8AF
330
1E
100
AcDbEntity
  8
0
100
AcDbLine
 10
201.495953
 20
308.643
 30
0.0
 11
201.999953
 21
306.5049999999999
 31
0.0
  0
LINE
  5
8B0
330
1E
100
AcDbEntity
  8
0
100
AcDbLine
 10
200.1519529999999
 20
310.6479999999999
 30
0.0
 11
201.495953
 21
308.643
 31
0.0
  0
LINE
  5
8B1
330
1E
100
AcDbEntity
  8
0
100
AcDbLine
 10
201.9272289588399
 20
306.1965
 30
0.0
 11
201.999953
 21
306.5049999999999
 31
0.0
  0
LINE
  5
8B2
330
1E
100
AcDbEntity
  8
0
100
AcDbLine
 10
201.999953
 20
302.184
 30
0.0
 11
201.999953
 21
298.479
 31
0.0
  0
LINE
  5
8B3
330
1E
100
AcDbEntity
  8
0
100
AcDbLine
 10
201.999953
 20
302.184
 30
0.0
 11
201.999953
 21
305.8879999999999
 31
0.0
  0
LINE
  5
8B4
330
1E
100
AcDbEntity
  8
0
100
AcDbLine
 10
201.9272289588399
 20
306.1965
 30
0.0
 11
201.999953
 21
306.5049999999999
 31
0.0
  0
LINE
  5
8B5
330
1E
100
AcDbEntity
  8
0
100
AcDbLine
 10
201.999953
 20
350.498
 30
0.0
 11
201.999953
 21
347.8369999999999
 31
0.0
  0
LINE
  5
8B6
330
1E
100
AcDbEntity
  8
0
100
AcDbLine
 10
201.999953
 20
350.498
 30
0.0
 11
201.999953
 21
352.433
 31
0.0
  0
LINE
  5
8B7
330
1E
100
AcDbEntity
  8
0
100
AcDbLine
 10
201.999953
 20
347.8369999999999
 30
0.0
 11
201.999953
 21
344.494
 31
0.0
  0
LINE
  5
8B8
330
1E
100
AcDbEntity
  8
0
100
AcDbLine
 10
201.999953
 20
347.8369999999999
 30
0.0
 11
201.999953
 21
350.498
 31
0.0
  0
LINE
  5
8B9
330
1E
100
AcDbEntity
  8
0
100
AcDbLine
 10
200.1519529999999
 20
360.944
 30
0.0
 11
201.495953
 21
357.5839999999999
 31
0.0
  0
LINE
  5
8BA
330
1E
100
AcDbEntity
  8
0
100
AcDbLine
 10
201.972133442701
 20
353.802172036985
 30
0.0
 11
201.999953
 21
354.0
 31
0.0
  0
LINE
  5
8BB
330
1E
100
AcDbEntity
  8
0
100
AcDbLine
 10
201.999953
 20
354.0
 30
0.0
 11
201.999953
 21
353.6059999999999
 31
0.0
  0
LINE
  5
8BC
330
1E
100
AcDbEntity
  8
0
100
AcDbLine
 10
201.495953
 20
357.5839999999999
 30
0.0
 11
201.999953
 21
354.0
 31
0.0
  0
LINE
  5
8BD
330
1E
100
AcDbEntity
  8
0
100
AcDbLine
 10
201.999953
 20
353.6059999999999
 30
0.0
 11
201.999953
 21
352.433
 31
0.0
  0
LINE
  5
8BE
330
1E
100
AcDbEntity
  8
0
100
AcDbLine
 10
201.999953
 20
353.6059999999999
 30
0.0
 11
201.999953
 21
354.0
 31
0.0
  0
LINE
  5
8BF
330
1E
100
AcDbEntity
  8
0
100
AcDbLine
 10
201.999953
 20
352.433
 30
0.0
 11
201.999953
 21
353.6059999999999
 31
0.0
  0
LINE
  5
8C0
330
1E
100
AcDbEntity
  8
0
100
AcDbLine
 10
201.999953
 20
352.433
 30
0.0
 11
201.999953
 21
350.498
 31
0.0
  0
LINE
  5
8C1
330
1E
100
AcDbEntity
  8
0
100
AcDbLine
 10
201.999953
 20
344.494
 30
0.0
 11
201.999953
 21
340.5269999999999
 31
0.0
  0
LINE
  5
8C2
330
1E
100
AcDbEntity
  8
0
100
AcDbLine
 10
201.999953
 20
344.494
 30
0.0
 11
201.999953
 21
347.8369999999999
 31
0.0
  0
LINE
  5
8C3
330
1E
100
AcDbEntity
  8
0
100
AcDbLine
 10
201.999953
 20
340.5269999999999
 30
0.0
 11
201.999953
 21
336.003
 31
0.0
  0
LINE
  5
8C4
330
1E
100
AcDbEntity
  8
0
100
AcDbLine
 10
201.999953
 20
340.5269999999999
 30
0.0
 11
201.999953
 21
344.494
 31
0.0
  0
LINE
  5
8C5
330
1E
100
AcDbEntity
  8
0
100
AcDbLine
 10
201.999953
 20
336.003
 30
0.0
 11
201.999953
 21
340.5269999999999
 31
0.0
  0
LINE
  5
8C6
330
1E
100
AcDbEntity
  8
0
100
AcDbLine
 10
201.999953
 20
336.003
 30
0.0
 11
201.999953
 21
306.5049999999999
 31
0.0
  0
LINE
  5
8C7
330
1E
100
AcDbEntity
  8
0
100
AcDbLine
 10
201.999953
 20
305.8879999999999
 30
0.0
 11
201.999953
 21
306.5049999999999
 31
0.0
  0
LINE
  5
8C8
330
1E
100
AcDbEntity
  8
0
100
AcDbLine
 10
201.999953
 20
305.8879999999999
 30
0.0
 11
201.999953
 21
302.184
 31
0.0
  0
LINE
  5
8C9
330
1E
100
AcDbEntity
  8
0
100
AcDbLine
 10
201.999953
 20
298.479
 30
0.0
 11
201.999953
 21
181.0
 31
0.0
  0
LINE
  5
8CA
330
1E
100
AcDbEntity
  8
0
100
AcDbLine
 10
201.999953
 20
298.479
 30
0.0
 11
201.999953
 21
302.184
 31
0.0
  0
LINE
  5
8CB
330
1E
100
AcDbEntity
  8
0
100
AcDbLine
 10
201.999953
 20
306.5049999999999
 30
0.0
 11
201.999953
 21
305.8879999999999
 31
0.0
  0
LINE
  5
8CC
330
1E
100
AcDbEntity
  8
0
100
AcDbLine
 10
201.999953
 20
306.5049999999999
 30
0.0
 11
201.999953
 21
336.003
 31
0.0
  0
LINE
  5
8CD
330
1E
100
AcDbEntity
  8
0
100
AcDbLine
 10
204.234953
 20
181.0
 30
0.0
 11
207.834953
 21
181.0
 31
0.0
  0
LINE
  5
8CE
330
1E
100
AcDbEntity
  8
0
100
AcDbLine
 10
199.434953
 20
181.0
 30
0.0
 11
204.234953
 21
181.0
 31
0.0
  0
LINE
  5
8D2
330
1E
100
AcDbEntity
  8
0
100
AcDbLine
 10
211.9999529999999
 20
126.0
 30
0.0
 11
211.9999529999999
 21
180.5385
 31
0.0
  0
LINE
  5
8D3
330
1E
100
AcDbEntity
  8
0
100
AcDbLine
 10
211.6759529999999
 20
126.0
 30
0.0
 11
216.925953
 21
126.0
 31
0.0
  0
LINE
  5
8D5
330
1E
100
AcDbEntity
  8
0
100
AcDbLine
 10
207.834953
 20
181.0
 30
0.0
 11
210.0939529999999
 21
181.0
 31
0.0
  0
LINE
  5
8D6
330
1E
100
AcDbEntity
  8
0
100
AcDbLine
 10
210.9409529999999
 20
181.0
 30
0.0
 11
211.6469529999999
 21
180.8462
 31
0.0
  0
LINE
  5
8D7
330
1E
100
AcDbEntity
  8
0
100
AcDbLine
 10
210.0939529999999
 20
181.0
 30
0.0
 11
210.9409529999999
 21
181.0
 31
0.0
  0
LINE
  5
8D9
330
1E
100
AcDbEntity
  8
0
100
AcDbLine
 10
211.9999529999999
 20
180.5385
 30
0.0
 11
211.9999529999999
 21
126.0
 31
0.0
  0
LINE
  5
8DA
330
1E
100
AcDbEntity
  8
0
100
AcDbLine
 10
211.6469529999999
 20
180.8462
 30
0.0
 11
211.9999529999999
 21
180.5385
 31
0.0
  0
LINE
  5
8DC
330
1E
100
AcDbEntity
  8
0
100
AcDbLine
 10
216.925953
 20
126.0
 30
0.0
 11
220.2209529999999
 21
126.0
 31
0.0
  0
LINE
  5
926
330
1E
100
AcDbEntity
  8
0
100
AcDbLine
 10
221.4559529999999
 20
126.0
 30
0.0
 11
222.4849529999999
 21
125.8461499999999
 31
0.0
  0
LINE
  5
927
330
1E
100
AcDbEntity
  8
0
100
AcDbLine
 10
220.2209529999999
 20
126.0
 30
0.0
 11
221.4559529999999
 21
126.0
 31
0.0
  0
LINE
  5
928
330
1E
100
AcDbEntity
  8
0
100
AcDbLine
 10
222.4849529999999
 20
125.8461499999999
 30
0.0
 11
222.9999529999999
 21
125.53846
 31
0.0
  0
LINE
  5
929
330
1E
100
AcDbEntity
  8
0
100
AcDbLine
 10
204.675953
 20
126.0
 30
0.0
 11
211.6759529999999
 21
126.0
 31
0.0
  0
LINE
  5
92A
330
1E
100
AcDbEntity
  8
0
100
AcDbLine
 10
205.3969529999999
 20
125.53846
 30
0.0
 11
212.7059529999999
 21
125.53846
 31
0.0
  0
LINE
  5
92B
330
1E
100
AcDbEntity
  8
0
100
AcDbLine
 10
196.9559529999999
 20
125.53846
 30
0.0
 11
205.3969529999999
 21
125.53846
 31
0.0
  0
LINE
  5
92C
330
1E
100
AcDbEntity
  8
0
100
AcDbLine
 10
196.9559529999999
 20
118.0
 30
0.0
 11
205.3969529999999
 21
118.0
 31
0.0
  0
LINE
  5
92D
330
1E
100
AcDbEntity
  8
0
100
AcDbLine
 10
187.999953
 20
118.0
 30
0.0
 11
196.9559529999999
 21
118.0
 31
0.0
  0
LINE
  5
92E
330
1E
100
AcDbEntity
  8
0
100
AcDbLine
 10
187.999953
 20
118.0
 30
0.0
 11
194.399953
 21
118.0
 31
0.0
  0
LINE
  5
933
330
1E
100
AcDbEntity
  8
0
100
AcDbLine
 10
373.6305869999999
 20
200.0244
 30
0.0
 11
318.3051027213638
 21
184.0
 31
0.0
  0
LINE
  5
934
330
1E
100
AcDbEntity
  8
0
100
AcDbLine
 10
373.6305869999999
 20
200.0244
 30
0.0
 11
318.3051027213638
 21
184.0
 31
0.0
  0
LINE
  5
935
330
1E
100
AcDbEntity
  8
0
100
AcDbLine
 10
375.8562289999999
 20
192.3403
 30
0.0
 11
329.0000469999999
 21
178.768870379782
 31
0.0
  0
LINE
  5
936
330
1E
100
AcDbEntity
  8
0
100
AcDbLine
 10
375.8562289999999
 20
192.3403
 30
0.0
 11
329.0000469999999
 21
178.768870379782
 31
0.0
  0
LINE
  5
937
330
1E
100
AcDbEntity
  8
0
100
AcDbLine
 10
337.794147
 20
126.0
 30
0.0
 11
333.294147
 21
126.0
 31
0.0
  0
LINE
  5
938
330
1E
100
AcDbEntity
  8
0
100
AcDbLine
 10
338.9412469999999
 20
125.53846
 30
0.0
 11
334.176547
 21
125.53846
 31
0.0
  0
LINE
  5
939
330
1E
100
AcDbEntity
  8
0
100
AcDbLine
 10
338.9412469999999
 20
118.0
 30
0.0
 11
334.176547
 21
118.0
 31
0.0
  0
LINE
  5
93A
330
1E
100
AcDbEntity
  8
0
100
AcDbLine
 10
343.0000469999999
 20
125.53846
 30
0.0
 11
342.558847
 21
125.8461499999999
 31
0.0
  0
LINE
  5
93B
330
1E
100
AcDbEntity
  8
0
100
AcDbLine
 10
343.0000469999999
 20
125.53846
 30
0.0
 11
341.9412469999999
 21
125.53846
 31
0.0
  0
LINE
  5
93C
330
1E
100
AcDbEntity
  8
0
100
AcDbLine
 10
343.0000469999999
 20
118.0
 30
0.0
 11
341.9412469999999
 21
118.0
 31
0.0
  0
LINE
  5
93D
330
1E
100
AcDbEntity
  8
0
100
AcDbLine
 10
343.0000469999999
 20
125.53846
 30
0.0
 11
343.0000469999999
 21
118.0
 31
0.0
  0
LINE
  5
93E
330
1E
100
AcDbEntity
  8
0
100
AcDbLine
 10
343.0000469999999
 20
118.0
 30
0.0
 11
343.0000469999999
 21
125.53846
 31
0.0
  0
LINE
  5
93F
330
1E
100
AcDbEntity
  8
0
100
AcDbLine
 10
340.6176469999999
 20
126.0
 30
0.0
 11
337.794147
 21
126.0
 31
0.0
  0
LINE
  5
940
330
1E
100
AcDbEntity
  8
0
100
AcDbLine
 10
341.9412469999999
 20
118.0
 30
0.0
 11
338.9412469999999
 21
118.0
 31
0.0
  0
LINE
  5
941
330
1E
100
AcDbEntity
  8
0
100
AcDbLine
 10
341.676547
 20
126.0
 30
0.0
 11
340.6176469999999
 21
126.0
 31
0.0
  0
LINE
  5
942
330
1E
100
AcDbEntity
  8
0
100
AcDbLine
 10
341.9412469999999
 20
125.53846
 30
0.0
 11
338.9412469999999
 21
125.53846
 31
0.0
  0
LINE
  5
943
330
1E
100
AcDbEntity
  8
0
100
AcDbLine
 10
342.558847
 20
125.8461499999999
 30
0.0
 11
341.676547
 21
126.0
 31
0.0
  0
LINE
  5
944
330
1E
100
AcDbEntity
  8
0
100
AcDbLine
 10
303.0800469999999
 20
118.0
 30
0.0
 11
298.840047
 21
118.0
 31
0.0
  0
LINE
  5
945
330
1E
100
AcDbEntity
  8
0
100
AcDbLine
 10
305.3235469999999
 20
125.53846
 30
0.0
 11
298.088247
 21
125.53846
 31
0.0
  0
LINE
  5
946
330
1E
100
AcDbEntity
  8
0
100
AcDbLine
 10
305.3235469999999
 20
118.0
 30
0.0
 11
298.088247
 21
118.0
 31
0.0
  0
LINE
  5
947
330
1E
100
AcDbEntity
  8
0
100
AcDbLine
 10
318.3051027213638
 20
184.0
 30
0.0
 11
297.705947
 21
184.0
 31
0.0
  0
LINE
  5
948
330
1E
100
AcDbEntity
  8
0
100
AcDbLine
 10
305.588247
 20
126.0
 30
0.0
 11
298.7059469999999
 21
126.0
 31
0.0
  0
LINE
  5
949
330
1E
100
AcDbEntity
  8
0
100
AcDbLine
 10
329.0000469999999
 20
178.768870379782
 30
0.0
 11
329.0000469999999
 21
126.0
 31
0.0
  0
LINE
  5
94A
330
1E
100
AcDbEntity
  8
0
100
AcDbLine
 10
329.0000469999999
 20
126.0
 30
0.0
 11
329.0000469999999
 21
178.768870379782
 31
0.0
  0
LINE
  5
94B
330
1E
100
AcDbEntity
  8
0
100
AcDbLine
 10
318.120047
 20
118.0
 30
0.0
 11
313.000047
 21
118.0
 31
0.0
  0
LINE
  5
94C
330
1E
100
AcDbEntity
  8
0
100
AcDbLine
 10
320.4118469999999
 20
126.0
 30
0.0
 11
313.000047
 21
126.0
 31
0.0
  0
LINE
  5
94D
330
1E
100
AcDbEntity
  8
0
100
AcDbLine
 10
320.676547
 20
125.53846
 30
0.0
 11
313.000047
 21
125.53846
 31
0.0
  0
LINE
  5
94E
330
1E
100
AcDbEntity
  8
0
100
AcDbLine
 10
320.676547
 20
118.0
 30
0.0
 11
313.000047
 21
118.0
 31
0.0
  0
LINE
  5
94F
330
1E
100
AcDbEntity
  8
0
100
AcDbLine
 10
327.294147
 20
126.0
 30
0.0
 11
320.4118469999999
 21
126.0
 31
0.0
  0
LINE
  5
950
330
1E
100
AcDbEntity
  8
0
100
AcDbLine
 10
327.160047
 20
118.0
 30
0.0
 11
322.920047
 21
118.0
 31
0.0
  0
LINE
  5
951
330
1E
100
AcDbEntity
  8
0
100
AcDbLine
 10
327.9118469999999
 20
125.53846
 30
0.0
 11
320.676547
 21
125.53846
 31
0.0
  0
LINE
  5
952
330
1E
100
AcDbEntity
  8
0
100
AcDbLine
 10
327.9118469999999
 20
118.0
 30
0.0
 11
320.676547
 21
118.0
 31
0.0
  0
LINE
  5
953
330
1E
100
AcDbEntity
  8
0
100
AcDbLine
 10
334.176547
 20
125.53846
 30
0.0
 11
327.9118469999999
 21
125.53846
 31
0.0
  0
LINE
  5
954
330
1E
100
AcDbEntity
  8
0
100
AcDbLine
 10
334.176547
 20
118.0
 30
0.0
 11
327.9118469999999
 21
118.0
 31
0.0
  0
LINE
  5
955
330
1E
100
AcDbEntity
  8
0
100
AcDbLine
 10
333.294147
 20
126.0
 30
0.0
 11
327.294147
 21
126.0
 31
0.0
  0
LINE
  5
956
330
1E
100
AcDbEntity
  8
0
100
AcDbLine
 10
330.360047
 20
118.0
 30
0.0
 11
327.160047
 21
118.0
 31
0.0
  0
LINE
  5
957
330
1E
100
AcDbEntity
  8
0
100
AcDbLine
 10
332.2800469999999
 20
118.0
 30
0.0
 11
330.360047
 21
118.0
 31
0.0
  0
LINE
  5
958
330
1E
100
AcDbEntity
  8
0
100
AcDbLine
 10
334.176547
 20
118.0
 30
0.0
 11
333.0000469999999
 21
118.0
 31
0.0
  0
LINE
  5
959
330
1E
100
AcDbEntity
  8
0
100
AcDbLine
 10
333.0000469999999
 20
118.0
 30
0.0
 11
332.2800469999999
 21
118.0
 31
0.0
  0
LINE
  5
95A
330
1E
100
AcDbEntity
  8
0
100
AcDbLine
 10
322.920047
 20
118.0
 30
0.0
 11
318.120047
 21
118.0
 31
0.0
  0
LINE
  5
95B
330
1E
100
AcDbEntity
  8
0
100
AcDbLine
 10
313.000047
 20
126.0
 30
0.0
 11
305.588247
 21
126.0
 31
0.0
  0
LINE
  5
95C
330
1E
100
AcDbEntity
  8
0
100
AcDbLine
 10
313.000047
 20
118.0
 30
0.0
 11
307.880047
 21
118.0
 31
0.0
  0
LINE
  5
95D
330
1E
100
AcDbEntity
  8
0
100
AcDbLine
 10
313.000047
 20
125.53846
 30
0.0
 11
305.3235469999999
 21
125.53846
 31
0.0
  0
LINE
  5
95E
330
1E
100
AcDbEntity
  8
0
100
AcDbLine
 10
313.000047
 20
118.0
 30
0.0
 11
305.3235469999999
 21
118.0
 31
0.0
  0
LINE
  5
95F
330
1E
100
AcDbEntity
  8
0
100
AcDbLine
 10
307.880047
 20
118.0
 30
0.0
 11
303.0800469999999
 21
118.0
 31
0.0
  0
LINE
  5
960
330
1E
100
AcDbEntity
  8
0
100
AcDbLine
 10
297.000047
 20
183.5385
 30
0.0
 11
297.000047
 21
126.0
 31
0.0
  0
LINE
  5
961
330
1E
100
AcDbEntity
  8
0
100
AcDbLine
 10
297.000047
 20
126.0
 30
0.0
 11
297.000047
 21
183.5385
 31
0.0
  0
LINE
  5
962
330
1E
100
AcDbEntity
  8
0
100
AcDbLine
 10
292.7059469999999
 20
126.0
 30
0.0
 11
288.2059469999999
 21
126.0
 31
0.0
  0
LINE
  5
963
330
1E
100
AcDbEntity
  8
0
100
AcDbLine
 10
291.8235469999999
 20
125.53846
 30
0.0
 11
287.058847
 21
125.53846
 31
0.0
  0
LINE
  5
964
330
1E
100
AcDbEntity
  8
0
100
AcDbLine
 10
291.8235469999999
 20
118.0
 30
0.0
 11
287.058847
 21
118.0
 31
0.0
  0
LINE
  5
965
330
1E
100
AcDbEntity
  8
0
100
AcDbLine
 10
298.088247
 20
125.53846
 30
0.0
 11
291.8235469999999
 21
125.53846
 31
0.0
  0
LINE
  5
966
330
1E
100
AcDbEntity
  8
0
100
AcDbLine
 10
298.088247
 20
118.0
 30
0.0
 11
291.8235469999999
 21
118.0
 31
0.0
  0
LINE
  5
967
330
1E
100
AcDbEntity
  8
0
100
AcDbLine
 10
295.6400469999999
 20
118.0
 30
0.0
 11
293.720047
 21
118.0
 31
0.0
  0
LINE
  5
968
330
1E
100
AcDbEntity
  8
0
100
AcDbLine
 10
298.7059469999999
 20
126.0
 30
0.0
 11
292.7059469999999
 21
126.0
 31
0.0
  0
LINE
  5
969
330
1E
100
AcDbEntity
  8
0
100
AcDbLine
 10
298.840047
 20
118.0
 30
0.0
 11
295.6400469999999
 21
118.0
 31
0.0
  0
LINE
  5
96A
330
1E
100
AcDbEntity
  8
0
100
AcDbLine
 10
293.0000469999999
 20
118.0
 30
0.0
 11
291.8235469999999
 21
118.0
 31
0.0
  0
LINE
  5
96B
330
1E
100
AcDbEntity
  8
0
100
AcDbLine
 10
293.720047
 20
118.0
 30
0.0
 11
293.0000469999999
 21
118.0
 31
0.0
  0
LINE
  5
96C
330
1E
100
AcDbEntity
  8
0
100
AcDbLine
 10
287.058847
 20
125.53846
 30
0.0
 11
284.058847
 21
125.53846
 31
0.0
  0
LINE
  5
96D
330
1E
100
AcDbEntity
  8
0
100
AcDbLine
 10
288.2059469999999
 20
126.0
 30
0.0
 11
285.382447
 21
126.0
 31
0.0
  0
LINE
  5
96E
330
1E
100
AcDbEntity
  8
0
100
AcDbLine
 10
287.058847
 20
118.0
 30
0.0
 11
284.058847
 21
118.0
 31
0.0
  0
LINE
  5
96F
330
1E
100
AcDbEntity
  8
0
100
AcDbLine
 10
283.0000469999999
 20
125.53846
 30
0.0
 11
283.0000469999999
 21
118.0
 31
0.0
  0
LINE
  5
970
330
1E
100
AcDbEntity
  8
0
100
AcDbLine
 10
283.0000469999999
 20
118.0
 30
0.0
 11
283.0000469999999
 21
125.53846
 31
0.0
  0
LINE
  5
971
330
1E
100
AcDbEntity
  8
0
100
AcDbLine
 10
284.058847
 20
118.0
 30
0.0
 11
283.0000469999999
 21
118.0
 31
0.0
  0
LINE
  5
972
330
1E
100
AcDbEntity
  8
0
100
AcDbLine
 10
284.3235469999999
 20
126.0
 30
0.0
 11
283.4412469999999
 21
125.8461499999999
 31
0.0
  0
LINE
  5
973
330
1E
100
AcDbEntity
  8
0
100
AcDbLine
 10
285.382447
 20
126.0
 30
0.0
 11
284.3235469999999
 21
126.0
 31
0.0
  0
LINE
  5
974
330
1E
100
AcDbEntity
  8
0
100
AcDbLine
 10
283.4412469999999
 20
125.8461499999999
 30
0.0
 11
283.0000469999999
 21
125.53846
 31
0.0
  0
LINE
  5
975
330
1E
100
AcDbEntity
  8
0
100
AcDbLine
 10
284.058847
 20
125.53846
 30
0.0
 11
283.0000469999999
 21
125.53846
 31
0.0
  0
LINE
  5
976
330
1E
100
AcDbEntity
  8
0
100
AcDbLine
 10
297.2353469999999
 20
183.8461999999999
 30
0.0
 11
297.000047
 21
183.5385
 31
0.0
  0
LINE
  5
977
330
1E
100
AcDbEntity
  8
0
100
AcDbLine
 10
297.705947
 20
184.0
 30
0.0
 11
297.2353469999999
 21
183.8461999999999
 31
0.0
  0
LINE
  5
978
330
1E
100
AcDbEntity
  8
0
100
AcDbLine
 10
374.2987269999999
 20
198.099
 30
0.0
 11
374.069617
 21
198.8899999999999
 31
0.0
  0
LINE
  5
979
330
1E
100
AcDbEntity
  8
0
100
AcDbLine
 10
375.649017
 20
193.6275
 30
0.0
 11
375.426454
 21
194.3959999999999
 31
0.0
  0
LINE
  5
97A
330
1E
100
AcDbEntity
  8
0
100
AcDbLine
 10
375.6210199999999
 20
193.5337
 30
0.0
 11
375.3919129999999
 21
194.3247
 31
0.0
  0
LINE
  5
97B
330
1E
100
AcDbEntity
  8
0
100
AcDbLine
 10
375.941775
 20
192.4263
 30
0.0
 11
375.902499
 21
192.5619
 31
0.0
  0
LINE
  5
97C
330
1E
100
AcDbEntity
  8
0
100
AcDbLine
 10
375.941775
 20
192.4263
 30
0.0
 11
375.8562289999999
 21
192.3403
 31
0.0
  0
LINE
  5
97D
330
1E
100
AcDbEntity
  8
0
100
AcDbLine
 10
375.902499
 20
192.5619
 30
0.0
 11
375.79449
 21
192.9348
 31
0.0
  0
LINE
  5
97E
330
1E
100
AcDbEntity
  8
0
100
AcDbLine
 10
375.79449
 20
192.9348
 30
0.0
 11
375.6210199999999
 21
193.5337
 31
0.0
  0
LINE
  5
97F
330
1E
100
AcDbEntity
  8
0
100
AcDbLine
 10
375.959953
 20
192.5539999999999
 30
0.0
 11
375.941775
 21
192.4263
 31
0.0
  0
LINE
  5
980
330
1E
100
AcDbEntity
  8
0
100
AcDbLine
 10
375.1268
 20
195.24
 30
0.0
 11
374.845317
 21
196.2119
 31
0.0
  0
LINE
  5
981
330
1E
100
AcDbEntity
  8
0
100
AcDbLine
 10
375.1711589999999
 20
195.2773999999999
 30
0.0
 11
374.896227
 21
196.2265999999999
 31
0.0
  0
LINE
  5
982
330
1E
100
AcDbEntity
  8
0
100
AcDbLine
 10
374.845317
 20
196.2119
 30
0.0
 11
374.563837
 21
197.1836999999999
 31
0.0
  0
LINE
  5
983
330
1E
100
AcDbEntity
  8
0
100
AcDbLine
 10
374.563837
 20
197.1836999999999
 30
0.0
 11
374.2987269999999
 21
198.099
 31
0.0
  0
LINE
  5
984
330
1E
100
AcDbEntity
  8
0
100
AcDbLine
 10
374.896227
 20
196.2265999999999
 30
0.0
 11
374.621297
 21
197.1758
 31
0.0
  0
LINE
  5
985
330
1E
100
AcDbEntity
  8
0
100
AcDbLine
 10
375.3919129999999
 20
194.3247
 30
0.0
 11
375.1268
 21
195.24
 31
0.0
  0
LINE
  5
986
330
1E
100
AcDbEntity
  8
0
100
AcDbLine
 10
373.748867
 20
199.9975
 30
0.0
 11
373.6305869999999
 21
200.0244
 31
0.0
  0
LINE
  5
987
330
1E
100
AcDbEntity
  8
0
100
AcDbLine
 10
373.832507
 20
199.8992
 30
0.0
 11
373.748867
 21
199.9975
 31
0.0
  0
LINE
  5
988
330
1E
100
AcDbEntity
  8
0
100
AcDbLine
 10
373.788147
 20
199.8618
 30
0.0
 11
373.748867
 21
199.9975
 31
0.0
  0
LINE
  5
989
330
1E
100
AcDbEntity
  8
0
100
AcDbLine
 10
374.143437
 20
198.8257
 30
0.0
 11
373.976517
 21
199.402
 31
0.0
  0
LINE
  5
98A
330
1E
100
AcDbEntity
  8
0
100
AcDbLine
 10
373.896147
 20
199.4889
 30
0.0
 11
373.788147
 21
199.8618
 31
0.0
  0
LINE
  5
98B
330
1E
100
AcDbEntity
  8
0
100
AcDbLine
 10
373.8717869999999
 20
199.7635999999999
 30
0.0
 11
373.832507
 21
199.8992
 31
0.0
  0
LINE
  5
98C
330
1E
100
AcDbEntity
  8
0
100
AcDbLine
 10
374.069617
 20
198.8899999999999
 30
0.0
 11
373.896147
 21
199.4889
 31
0.0
  0
ENDSEC
  0
SECTION
  2
OBJECTS
  0
DICTIONARY
  5
C
330
0
100
AcDbDictionary
  3
ACAD_GROUP
350
D
  3
ACAD_LAYOUT
350
19
  3
ACAD_MLINESTYLE
350
16
  3
ACAD_PLOTSETTINGS
350
18
  3
ACAD_PLOTSTYLENAME
350
E
  3
ACDBHEADERROUNDTRIPXREC
350
991
  3
ACDBVARIABLEDICTIONARY
350
98E
  0
DICTIONARY
  5
9B3
330
1E
100
AcDbDictionary
280
     1
  3
ACAD_LAYOUTSELFREF
360
9B4
  0
DICTIONARY
  5
9B1
330
1A
100
AcDbDictionary
280
     1
  3
ACAD_LAYOUTSELFREF
360
9B2
  0
DICTIONARY
  5
D
102
{ACAD_REACTORS
330
C
102
}
330
C
100
AcDbDictionary
  0
DICTIONARY
  5
19
102
{ACAD_REACTORS
330
C
102
}
330
C
100
AcDbDictionary
  0
DICTIONARY
  5
16
102
{ACAD_REACTORS
330
C
102
}
330
C
100
AcDbDictionary
  3
STANDARD
350
17
  0
DICTIONARY
  5
18
102
{ACAD_REACTORS
330
C
102
}
330
C
100
AcDbDictionary
  0
ACDBDICTIONARYWDFLT
  5
E
102
{ACAD_REACTORS
330
C
102
}
330
C
100
AcDbDictionary
281
     1
  3
Normal
350
F
100
AcDbDictionaryWithDefault
340
F
  0
DICTIONARY
  5
991
102
{ACAD_REACTORS
330
C
102
}
330
C
100
AcDbDictionary
  3
CEPSNTYPE
350
99B
  3
FINGERPRINTGUID
350
99C
  3
HYPERLINKBASE
350
994
  3
INSUNITS
350
99A
  3
LAYOUTDICT
350
996
  3
LWETCUNION
350
999
  3
PLOTSETDICT
350
997
  3
PLOTSTYLNAMDICT
350
998
  3
PSVPSCALE
350
99E
  3
PUCSBASE
350
9A1
  3
PUCSORGBACK
350
9A7
  3
PUCSORGBOTTOM
350
9A3
  3
PUCSORGFRONT
350
9A6
  3
PUCSORGLEFT
350
9A4
  3
PUCSORGRIGHT
350
9A5
  3
PUCSORGTOP
350
9A2
  3
PUCSORTHOREF
350
99F
  3
PUCSORTHOVIEW
350
9A0
  3
STYLESHEET
350
995
  3
TSTACKALIGN
350
992
  3
TSTACKSIZE
350
993
  3
UCSBASE
350
9AA
  3
UCSORGBACK
350
9B0
  3
UCSORGBOTTOM
350
9AC
  3
UCSORGFRONT
350
9AF
  3
UCSORGLEFT
350
9AD
  3
UCSORGRIGHT
350
9AE
  3
UCSORGTOP
350
9AB
  3
UCSORTHOREF
350
9A8
  3
UCSORTHOVIEW
350
9A9
  3
VERSIONGUID
350
99D
  0
DICTIONARY
  5
98E
102
{ACAD_REACTORS
330
C
102
}
330
C
100
AcDbDictionary
  3
DIMASSOC
350
98F
  0
XRECORD
  5
9B4
102
{ACAD_REACTORS
330
9B3
102
}
330
9B3
100
AcDbXrecord
340
1E
  0
XRECORD
  5
9B2
102
{ACAD_REACTORS
330
9B1
102
}
330
9B1
100
AcDbXrecord
340
1A
  0
MLINESTYLE
  5
17
102
{ACAD_REACTORS
330
16
102
}
330
16
100
AcDbMlineStyle
  2
STANDARD
 70
     0
  3

 62
   256
 51
90.0
 52
90.0
 71
     2
 49
0.5
 62
   256
  6
BYLAYER
 49
-0.5
 62
   256
  6
BYLAYER
  0
ACDBPLACEHOLDER
  5
F
102
{ACAD_REACTORS
330
E
102
}
330
E
100
AcDbPlaceHolder
280
     0
  0
XRECORD
  5
99B
102
{ACAD_REACTORS
330
991
102
}
330
991
100
AcDbXrecord
 90
        0
  0
XRECORD
  5
99C
102
{ACAD_REACTORS
330
991
102
}
330
991
100
AcDbXrecord
  1
{050FFABB-0755-43CB-B364-360945E12B6F}
  0
XRECORD
  5
994
102
{ACAD_REACTORS
330
991
102
}
330
991
100
AcDbXrecord
  1

  0
XRECORD
  5
99A
102
{ACAD_REACTORS
330
991
102
}
330
991
100
AcDbXrecord
 90
        0
  0
XRECORD
  5
996
102
{ACAD_REACTORS
330
991
102
}
330
991
100
AcDbXrecord
340
19
  0
XRECORD
  5
999
102
{ACAD_REACTORS
330
991
102
}
330
991
100
AcDbXrecord
 90
    10781
  0
XRECORD
  5
997
102
{ACAD_REACTORS
330
991
102
}
330
991
100
AcDbXrecord
340
18
  0
XRECORD
  5
998
102
{ACAD_REACTORS
330
991
102
}
330
991
100
AcDbXrecord
340
E
  0
XRECORD
  5
99E
102
{ACAD_REACTORS
330
991
102
}
330
991
100
AcDbXrecord
 40
0.0
  0
XRECORD
  5
9A1
102
{ACAD_REACTORS
330
991
102
}
330
991
100
AcDbXrecord
340
0
  0
XRECORD
  5
9A7
102
{ACAD_REACTORS
330
991
102
}
330
991
100
AcDbXrecord
 10
0.0
 20
0.0
 30
0.0
  0
XRECORD
  5
9A3
102
{ACAD_REACTORS
330
991
102
}
330
991
100
AcDbXrecord
 10
0.0
 20
0.0
 30
0.0
  0
XRECORD
  5
9A6
102
{ACAD_REACTORS
330
991
102
}
330
991
100
AcDbXrecord
 10
0.0
 20
0.0
 30
0.0
  0
XRECORD
  5
9A4
102
{ACAD_REACTORS
330
991
102
}
330
991
100
AcDbXrecord
 10
0.0
 20
0.0
 30
0.0
  0
XRECORD
  5
9A5
102
{ACAD_REACTORS
330
991
102
}
330
991
100
AcDbXrecord
 10
0.0
 20
0.0
 30
0.0
  0
XRECORD
  5
9A2
102
{ACAD_REACTORS
330
991
102
}
330
991
100
AcDbXrecord
 10
0.0
 20
0.0
 30
0.0
  0
XRECORD
  5
99F
102
{ACAD_REACTORS
330
991
102
}
330
991
100
AcDbXrecord
340
0
  0
XRECORD
  5
9A0
102
{ACAD_REACTORS
330
991
102
}
330
991
100
AcDbXrecord
 70
     0
  0
XRECORD
  5
995
102
{ACAD_REACTORS
330
991
102
}
330
991
100
AcDbXrecord
  1

  0
XRECORD
  5
992
102
{ACAD_REACTORS
330
991
102
}
330
991
100
AcDbXrecord
 90
        1
  0
XRECORD
  5
993
102
{ACAD_REACTORS
330
991
102
}
330
991
100
AcDbXrecord
 90
       70
  0
XRECORD
  5
9AA
102
{ACAD_REACTORS
330
991
102
}
330
991
100
AcDbXrecord
340
0
  0
XRECORD
  5
9B0
102
{ACAD_REACTORS
330
991
102
}
330
991
100
AcDbXrecord
 10
0.0
 20
0.0
 30
0.0
  0
XRECORD
  5
9AC
102
{ACAD_REACTORS
330
991
102
}
330
991
100
AcDbXrecord
 10
0.0
 20
0.0
 30
0.0
  0
XRECORD
  5
9AF
102
{ACAD_REACTORS
330
991
102
}
330
991
100
AcDbXrecord
 10
0.0
 20
0.0
 30
0.0
  0
XRECORD
  5
9AD
102
{ACAD_REACTORS
330
991
102
}
330
991
100
AcDbXrecord
 10
0.0
 20
0.0
 30
0.0
  0
XRECORD
  5
9AE
102
{ACAD_REACTORS
330
991
102
}
330
991
100
AcDbXrecord
 10
0.0
 20
0.0
 30
0.0
  0
XRECORD
  5
9AB
102
{ACAD_REACTORS
330
991
102
}
330
991
100
AcDbXrecord
 10
0.0
 20
0.0
 30
0.0
  0
XRECORD
  5
9A8
102
{ACAD_REACTORS
330
991
102
}
330
991
100
AcDbXrecord
340
0
  0
XRECORD
  5
9A9
102
{ACAD_REACTORS
330
991
102
}
330
991
100
AcDbXrecord
 70
     1
  0
XRECORD
  5
99D
102
{ACAD_REACTORS
330
991
102
}
330
991
100
AcDbXrecord
  1
{3F1AA098-7431-4BEE-A2DE-0DE2545A9E8B}
  0
DICTIONARYVAR
  5
98F
102
{ACAD_REACTORS
330
98E
102
}
330
98E
100
DictionaryVariables
280
     0
  1
1
  0
ENDSEC
  0
EOF
