  0
SECTION
  2
HEADER
  9
$ACADVER
  1
AC1014
  9
$ACADMAINTVER
 70
     9
  9
$DWGCODEPAGE
  3
ANSI_1252
  9
$INSBASE
 10
0.0
 20
0.0
 30
0.0
  9
$EXTMIN
 10
0.0000000000000017
 20
-0.238000000000015
 30
0.0
  9
$EXTMAX
 10
48.0
 20
169.2379999999999
 30
0.0
  9
$LIMMIN
 10
0.0
 20
0.0
  9
$LIMMAX
 10
12.0
 20
9.0
  9
$ORTHOMODE
 70
     0
  9
$REGENMODE
 70
     1
  9
$FILLMODE
 70
     1
  9
$QTEXTMODE
 70
     0
  9
$MIRRTEXT
 70
     1
  9
$DRAGMODE
 70
     2
  9
$LTSCALE
 40
1.0
  9
$OSMODE
 70
    37
  9
$ATTMODE
 70
     1
  9
$TEXTSIZE
 40
0.2
  9
$TRACEWID
 40
0.05
  9
$TEXTSTYLE
  7
STANDARD
  9
$CLAYER
  8
0
  9
$CELTYPE
  6
CONTINUOUS
  9
$CECOLOR
 62
   256
  9
$CELTSCALE
 40
1.0
  9
$DELOBJ
 70
     1
  9
$DISPSILH
 70
     0
  9
$DIMSCALE
 40
1.0
  9
$DIMASZ
 40
0.18
  9
$DIMEXO
 40
0.0625
  9
$DIMDLI
 40
0.38
  9
$DIMRND
 40
0.0
  9
$DIMDLE
 40
0.0
  9
$DIMEXE
 40
0.18
  9
$DIMTP
 40
0.0
  9
$DIMTM
 40
0.0
  9
$DIMTXT
 40
0.18
  9
$DIMCEN
 40
0.09
  9
$DIMTSZ
 40
0.0
  9
$DIMTOL
 70
     0
  9
$DIMLIM
 70
     0
  9
$DIMTIH
 70
     1
  9
$DIMTOH
 70
     1
  9
$DIMSE1
 70
     0
  9
$DIMSE2
 70
     0
  9
$DIMTAD
 70
     0
  9
$DIMZIN
 70
     0
  9
$DIMBLK
  1

  9
$DIMASO
 70
     1
  9
$DIMSHO
 70
     1
  9
$DIMPOST
  1

  9
$DIMAPOST
  1

  9
$DIMALT
 70
     0
  9
$DIMALTD
 70
     2
  9
$DIMALTF
 40
25.4
  9
$DIMLFAC
 40
1.0
  9
$DIMTOFL
 70
     0
  9
$DIMTVP
 40
0.0
  9
$DIMTIX
 70
     0
  9
$DIMSOXD
 70
     0
  9
$DIMSAH
 70
     0
  9
$DIMBLK1
  1

  9
$DIMBLK2
  1

  9
$DIMSTYLE
  2
STANDARD
  9
$DIMCLRD
 70
     0
  9
$DIMCLRE
 70
     0
  9
$DIMCLRT
 70
     0
  9
$DIMTFAC
 40
1.0
  9
$DIMGAP
 40
0.09
  9
$DIMJUST
 70
     0
  9
$DIMSD1
 70
     0
  9
$DIMSD2
 70
     0
  9
$DIMTOLJ
 70
     1
  9
$DIMTZIN
 70
     0
  9
$DIMALTZ
 70
     0
  9
$DIMALTTZ
 70
     0
  9
$DIMFIT
 70
     3
  9
$DIMUPT
 70
     0
  9
$DIMUNIT
 70
     2
  9
$DIMDEC
 70
     4
  9
$DIMTDEC
 70
     4
  9
$DIMALTU
 70
     2
  9
$DIMALTTD
 70
     2
  9
$DIMTXSTY
  7
STANDARD
  9
$DIMAUNIT
 70
     0
  9
$LUNITS
 70
     2
  9
$LUPREC
 70
     4
  9
$SKETCHINC
 40
0.1
  9
$FILLETRAD
 40
0.0
  9
$AUNITS
 70
     0
  9
$AUPREC
 70
     0
  9
$MENU
  1
.
  9
$ELEVATION
 40
0.0
  9
$PELEVATION
 40
0.0
  9
$THICKNESS
 40
0.0
  9
$LIMCHECK
 70
     0
  9
$BLIPMODE
 70
     0
  9
$CHAMFERA
 40
0.0
  9
$CHAMFERB
 40
0.0
  9
$CHAMFERC
 40
0.0
  9
$CHAMFERD
 40
0.0
  9
$SKPOLY
 70
     0
  9
$TDCREATE
 40
2455233.509908854
  9
$TDUPDATE
 40
2455233.515523182
  9
$TDINDWG
 40
0.0056145023
  9
$TDUSRTIMER
 40
0.0056145023
  9
$USRTIMER
 70
     1
  9
$ANGBASE
 50
0.0
  9
$ANGDIR
 70
     0
  9
$PDMODE
 70
     0
  9
$PDSIZE
 40
0.0
  9
$PLINEWID
 40
0.0
  9
$COORDS
 70
     1
  9
$SPLFRAME
 70
     0
  9
$SPLINETYPE
 70
     6
  9
$SPLINESEGS
 70
     8
  9
$ATTDIA
 70
     0
  9
$ATTREQ
 70
     1
  9
$HANDLING
 70
 22529
  9
$HANDSEED
  5
28D
  9
$SURFTAB1
 70
     6
  9
$SURFTAB2
 70
     6
  9
$SURFTYPE
 70
     6
  9
$SURFU
 70
     6
  9
$SURFV
 70
     6
  9
$UCSNAME
  2

  9
$UCSORG
 10
0.0
 20
0.0
 30
0.0
  9
$UCSXDIR
 10
1.0
 20
0.0
 30
0.0
  9
$UCSYDIR
 10
0.0
 20
1.0
 30
0.0
  9
$PUCSNAME
  2

  9
$PUCSORG
 10
0.0
 20
0.0
 30
0.0
  9
$PUCSXDIR
 10
1.0
 20
0.0
 30
0.0
  9
$PUCSYDIR
 10
0.0
 20
1.0
 30
0.0
  9
$USERI1
 70
     0
  9
$USERI2
 70
     0
  9
$USERI3
 70
     0
  9
$USERI4
 70
     0
  9
$USERI5
 70
     0
  9
$USERR1
 40
0.0
  9
$USERR2
 40
0.0
  9
$USERR3
 40
0.0
  9
$USERR4
 40
0.0
  9
$USERR5
 40
0.0
  9
$WORLDVIEW
 70
     1
  9
$SHADEDGE
 70
     3
  9
$SHADEDIF
 70
    70
  9
$TILEMODE
 70
     1
  9
$MAXACTVP
 70
    64
  9
$PINSBASE
 10
0.0
 20
0.0
 30
0.0
  9
$PLIMCHECK
 70
     0
  9
$PEXTMIN
 10
1.000000000000000E+20
 20
1.000000000000000E+20
 30
1.000000000000000E+20
  9
$PEXTMAX
 10
-1.000000000000000E+20
 20
-1.000000000000000E+20
 30
-1.000000000000000E+20
  9
$PLIMMIN
 10
0.0
 20
0.0
  9
$PLIMMAX
 10
12.0
 20
9.0
  9
$UNITMODE
 70
     0
  9
$VISRETAIN
 70
     1
  9
$PLINEGEN
 70
     0
  9
$PSLTSCALE
 70
     1
  9
$TREEDEPTH
 70
  3020
  9
$PICKSTYLE
 70
     1
  9
$CMLSTYLE
  2
STANDARD
  9
$CMLJUST
 70
     0
  9
$CMLSCALE
 40
1.0
  9
$PROXYGRAPHICS
 70
     1
  9
$MEASUREMENT
 70
     0
  0
ENDSEC
  0
SECTION
  2
CLASSES
  0
CLASS
  1
ACDBDICTIONARYWDFLT
  2
AcDbDictionaryWithDefault
  3
AutoCAD 2000
 90
        0
280
     0
281
     0
  0
CLASS
  1
ACDBPLACEHOLDER
  2
AcDbPlaceHolder
  3
AutoCAD 2000
 90
        0
280
     0
281
     0
  0
CLASS
  1
LAYOUT
  2
AcDbLayout
  3
AutoCAD 2000
 90
        0
280
     0
281
     0
  0
CLASS
  1
DICTIONARYVAR
  2
AcDbDictionaryVar
  3
AutoCAD 2000
 90
        0
280
     0
281
     0
  0
CLASS
  1
LONG_TRANSACTION
  2
AcDbLongTransaction
  3
AutoCAD 2000
 90
        0
280
     0
281
     0
  0
CLASS
  1
LWPOLYLINE
  2
AcDbPolyline
  3
AutoCAD 2000
 90
        0
280
     0
281
     1
  0
CLASS
  1
HATCH
  2
AcDbHatch
  3
AutoCAD 2000
 90
        0
280
     0
281
     1
  0
CLASS
  1
XRECORD
  2
AcDbXrecord
  3
AutoCAD 2000
 90
        0
280
     0
281
     0
  0
ENDSEC
  0
SECTION
  2
TABLES
  0
TABLE
  2
VPORT
  5
8
330
0
100
AcDbSymbolTable
 70
     5
  0
VPORT
  5
268
330
8
100
AcDbSymbolTableRecord
100
AcDbViewportTableRecord
  2
*ACTIVE
 70
     0
 10
0.0
 20
0.0
 11
1.0
 21
1.0
 12
24.0
 22
84.50000000000001
 13
0.0
 23
0.0
 14
1.0
 24
1.0
 15
0.0
 25
0.0
 16
0.0
 26
0.0
 36
1.0
 17
0.0
 27
0.0
 37
0.0
 40
170.588533916849
 41
2.041621029572836
 42
50.0
 43
0.0
 44
0.0
 50
0.0
 51
0.0
 71
     0
 72
   100
 73
     1
 74
     3
 75
     0
 76
     0
 77
     0
 78
     0
  0
ENDTAB
  0
TABLE
  2
LTYPE
  5
5
330
0
100
AcDbSymbolTable
 70
     1
  0
LTYPE
  5
13
330
5
100
AcDbSymbolTableRecord
100
AcDbLinetypeTableRecord
  2
BYBLOCK
 70
     0
  3

 72
    65
 73
     0
 40
0.0
  0
LTYPE
  5
14
330
5
100
AcDbSymbolTableRecord
100
AcDbLinetypeTableRecord
  2
BYLAYER
 70
     0
  3

 72
    65
 73
     0
 40
0.0
  0
LTYPE
  5
15
330
5
100
AcDbSymbolTableRecord
100
AcDbLinetypeTableRecord
  2
CONTINUOUS
 70
     0
  3
Solid line
 72
    65
 73
     0
 40
0.0
  0
ENDTAB
  0
TABLE
  2
LAYER
  5
2
330
0
100
AcDbSymbolTable
 70
     1
  0
LAYER
  5
10
330
2
100
AcDbSymbolTableRecord
100
AcDbLayerTableRecord
  2
0
 70
     0
 62
     7
  6
CONTINUOUS
  0
ENDTAB
  0
TABLE
  2
STYLE
  5
3
330
0
100
AcDbSymbolTable
 70
     1
  0
STYLE
  5
11
330
3
100
AcDbSymbolTableRecord
100
AcDbTextStyleTableRecord
  2
STANDARD
 70
     0
 40
0.0
 41
1.0
 50
0.0
 71
     0
 42
0.2
  3
txt
  4

  0
ENDTAB
  0
TABLE
  2
VIEW
  5
6
330
0
100
AcDbSymbolTable
 70
     0
  0
ENDTAB
  0
TABLE
  2
UCS
  5
7
330
0
100
AcDbSymbolTable
 70
     0
  0
ENDTAB
  0
TABLE
  2
APPID
  5
9
330
0
100
AcDbSymbolTable
 70
     1
  0
APPID
  5
12
330
9
100
AcDbSymbolTableRecord
100
AcDbRegAppTableRecord
  2
ACAD
 70
     0
  0
ENDTAB
  0
TABLE
  2
DIMSTYLE
  5
A
330
0
100
AcDbSymbolTable
 70
     1
  0
DIMSTYLE
105
1FD
330
A
100
AcDbSymbolTableRecord
100
AcDbDimStyleTableRecord
  2
STANDARD
 70
     0
  3

  4

  5

  6

  7

 40
1.0
 41
0.18
 42
0.0625
 43
0.38
 44
0.18
 45
0.0
 46
0.0
 47
0.0
 48
0.0
140
0.18
141
0.09
142
0.0
143
25.4
144
1.0
145
0.0
146
1.0
147
0.09
 71
     0
 72
     0
 73
     1
 74
     1
 75
     0
 76
     0
 77
     0
 78
     0
170
     0
171
     2
172
     0
173
     0
174
     0
175
     0
176
     0
177
     0
178
     0
270
     2
271
     4
272
     4
273
     2
274
     2
340
11
275
     0
280
     0
281
     0
282
     0
283
     1
284
     0
285
     0
286
     0
287
     3
288
     0
  0
ENDTAB
  0
TABLE
  2
BLOCK_RECORD
  5
1
330
0
100
AcDbSymbolTable
 70
     0
  0
BLOCK_RECORD
  5
1E
102
{ACAD_XDICTIONARY
360
28B
102
}
330
1
100
AcDbSymbolTableRecord
100
AcDbBlockTableRecord
  2
*MODEL_SPACE
  0
BLOCK_RECORD
  5
1A
102
{ACAD_XDICTIONARY
360
289
102
}
330
1
100
AcDbSymbolTableRecord
100
AcDbBlockTableRecord
  2
*PAPER_SPACE
  0
ENDTAB
  0
ENDSEC
  0
SECTION
  2
BLOCKS
  0
BLOCK
  5
1F
330
1E
100
AcDbEntity
  8
0
100
AcDbBlockBegin
  2
*MODEL_SPACE
 70
     0
 10
0.0
 20
0.0
 30
0.0
  3
*MODEL_SPACE
  1

  0
ENDBLK
  5
20
330
1E
100
AcDbEntity
  8
0
100
AcDbBlockEnd
  0
BLOCK
  5
1B
330
1A
100
AcDbEntity
 67
     1
  8
0
100
AcDbBlockBegin
  2
*PAPER_SPACE
 70
     0
 10
0.0
 20
0.0
 30
0.0
  3
*PAPER_SPACE
  1

  0
ENDBLK
  5
1C
330
1A
100
AcDbEntity
 67
     1
  8
0
100
AcDbBlockEnd
  0
ENDSEC
  0
SECTION
  2
ENTITIES
  0
LINE
  5
22
330
1E
100
AcDbEntity
  8
0
100
AcDbLine
 10
0.0000000000000017
 20
-0.238000000000013
 30
0.0
 11
0.6942900000000022
 21
59.762
 31
0.0
  0
LINE
  5
23
330
1E
100
AcDbEntity
  8
0
100
AcDbLine
 10
1.919999999999999
 20
-0.238000000000014
 30
0.0
 11
3.168
 21
-0.238000000000014
 31
0.0
  0
LINE
  5
24
330
1E
100
AcDbEntity
  8
0
100
AcDbLine
 10
0.8640000000000021
 20
-0.238000000000014
 30
0.0
 11
1.919999999999999
 21
-0.238000000000014
 31
0.0
  0
LINE
  5
25
330
1E
100
AcDbEntity
  8
0
100
AcDbLine
 10
0.288000000000002
 20
-0.238000000000014
 30
0.0
 11
0.8640000000000021
 21
-0.238000000000014
 31
0.0
  0
LINE
  5
27
330
1E
100
AcDbEntity
  8
0
100
AcDbLine
 10
1.919999999999999
 20
-0.238000000000013
 30
0.0
 11
3.168
 21
-0.238000000000013
 31
0.0
  0
LINE
  5
28
330
1E
100
AcDbEntity
  8
0
100
AcDbLine
 10
0.8640000000000021
 20
-0.238000000000013
 30
0.0
 11
1.919999999999999
 21
-0.238000000000013
 31
0.0
  0
LINE
  5
29
330
1E
100
AcDbEntity
  8
0
100
AcDbLine
 10
0.288000000000002
 20
-0.238000000000013
 30
0.0
 11
0.8640000000000021
 21
-0.238000000000013
 31
0.0
  0
LINE
  5
2A
330
1E
100
AcDbEntity
  8
0
100
AcDbLine
 10
0.0000000000000017
 20
-0.238000000000013
 30
0.0
 11
0.288000000000002
 21
-0.238000000000013
 31
0.0
  0
LINE
  5
2B
330
1E
100
AcDbEntity
  8
0
100
AcDbLine
 10
0.0000000000000017
 20
-0.238000000000013
 30
0.0
 11
0.288000000000002
 21
-0.238000000000014
 31
0.0
  0
LINE
  5
2C
330
1E
100
AcDbEntity
  8
0
100
AcDbLine
 10
0.0000000000000017
 20
-0.238000000000013
 30
0.0
 11
0.6942900000000022
 21
59.762
 31
0.0
  0
LINE
  5
2D
330
1E
100
AcDbEntity
  8
0
100
AcDbLine
 10
2.0
 20
106.862
 30
0.0
 11
2.0
 21
114.8479999999999
 31
0.0
  0
LINE
  5
2E
330
1E
100
AcDbEntity
  8
0
100
AcDbLine
 10
2.0
 20
117.282
 30
0.0
 11
2.264
 21
117.282
 31
0.0
  0
LINE
  5
2F
330
1E
100
AcDbEntity
  8
0
100
AcDbLine
 10
1.443599999999999
 20
156.16
 30
0.0
 11
1.611069999999999
 21
149.4089999999999
 31
0.0
  0
LINE
  5
30
330
1E
100
AcDbEntity
  8
0
100
AcDbLine
 10
1.443599999999999
 20
156.16
 30
0.0
 11
1.52951
 21
152.7289999999999
 31
0.0
  0
LINE
  5
31
330
1E
100
AcDbEntity
  8
0
100
AcDbLine
 10
1.443599999999999
 20
156.16
 30
0.0
 11
2.455099999999999
 21
159.785
 31
0.0
  0
LINE
  5
33
330
1E
100
AcDbEntity
  8
0
100
AcDbLine
 10
1.611069999999999
 20
149.4089999999999
 30
0.0
 11
1.627379999999999
 21
147.2529999999999
 31
0.0
  0
LINE
  5
34
330
1E
100
AcDbEntity
  8
0
100
AcDbLine
 10
1.627379999999999
 20
147.2529999999999
 30
0.0
 11
2.0
 21
117.282
 31
0.0
  0
LINE
  5
36
330
1E
100
AcDbEntity
  8
0
100
AcDbLine
 10
0.6942900000000022
 20
59.762
 30
0.0
 11
2.0
 21
106.862
 31
0.0
  0
LINE
  5
37
330
1E
100
AcDbEntity
  8
0
100
AcDbLine
 10
3.168
 20
-0.238000000000014
 30
0.0
 11
4.991999999999999
 21
-0.238000000000014
 31
0.0
  0
LINE
  5
38
330
1E
100
AcDbEntity
  8
0
100
AcDbLine
 10
4.991999999999999
 20
-0.238000000000014
 30
0.0
 11
7.104
 21
-0.238000000000014
 31
0.0
  0
LINE
  5
39
330
1E
100
AcDbEntity
  8
0
100
AcDbLine
 10
4.991999999999999
 20
-0.238000000000012
 30
0.0
 11
7.104
 21
-0.238000000000012
 31
0.0
  0
LINE
  5
3A
330
1E
100
AcDbEntity
  8
0
100
AcDbLine
 10
3.168
 20
-0.238000000000013
 30
0.0
 11
4.991999999999999
 21
-0.238000000000012
 31
0.0
  0
LINE
  5
3C
330
1E
100
AcDbEntity
  8
0
100
AcDbLine
 10
7.104
 20
-0.238000000000014
 30
0.0
 11
9.407999999999999
 21
-0.238000000000015
 31
0.0
  0
LINE
  5
3D
330
1E
100
AcDbEntity
  8
0
100
AcDbLine
 10
7.104
 20
-0.238000000000012
 30
0.0
 11
9.407999999999999
 21
-0.238000000000012
 31
0.0
  0
LINE
  5
3E
330
1E
100
AcDbEntity
  8
0
100
AcDbLine
 10
9.407999999999999
 20
-0.238000000000015
 30
0.0
 11
12.096
 21
-0.238000000000015
 31
0.0
  0
LINE
  5
42
330
1E
100
AcDbEntity
  8
0
100
AcDbLine
 10
9.407999999999999
 20
-0.238000000000012
 30
0.0
 11
12.096
 21
-0.238000000000012
 31
0.0
  0
LINE
  5
4A
330
1E
100
AcDbEntity
  8
0
100
AcDbLine
 10
12.096
 20
-0.238000000000015
 30
0.0
 11
14.88
 21
-0.238000000000015
 31
0.0
  0
LINE
  5
4B
330
1E
100
AcDbEntity
  8
0
100
AcDbLine
 10
12.096
 20
-0.238000000000012
 30
0.0
 11
14.88
 21
-0.238000000000012
 31
0.0
  0
LINE
  5
4C
330
1E
100
AcDbEntity
  8
0
100
AcDbLine
 10
11.77999999999999
 20
80.87059999999999
 30
0.0
 11
12.716
 21
79.5427
 31
0.0
  0
LINE
  5
4D
330
1E
100
AcDbEntity
  8
0
100
AcDbLine
 10
11.77999999999999
 20
84.6287
 30
0.0
 11
13.02799999999999
 21
86.35859999999999
 31
0.0
  0
LINE
  5
4E
330
1E
100
AcDbEntity
  8
0
100
AcDbLine
 10
11.312
 20
82.74970000000001
 30
0.0
 11
11.77999999999999
 21
84.6287
 31
0.0
  0
LINE
  5
4F
330
1E
100
AcDbEntity
  8
0
100
AcDbLine
 10
11.312
 20
82.74970000000001
 30
0.0
 11
11.77999999999999
 21
80.87059999999999
 31
0.0
  0
LINE
  5
59
330
1E
100
AcDbEntity
  8
0
100
AcDbLine
 10
14.88
 20
-0.238000000000015
 30
0.0
 11
17.85599999999999
 21
-0.238000000000015
 31
0.0
  0
LINE
  5
66
330
1E
100
AcDbEntity
  8
0
100
AcDbLine
 10
14.88
 20
-0.238000000000012
 30
0.0
 11
17.85599999999999
 21
-0.238000000000012
 31
0.0
  0
LINE
  5
71
330
1E
100
AcDbEntity
  8
0
100
AcDbLine
 10
15.056
 20
77.61960000000001
 30
0.0
 11
17.70799999999999
 21
76.4564
 31
0.0
  0
LINE
  5
72
330
1E
100
AcDbEntity
  8
0
100
AcDbLine
 10
13.02799999999999
 20
79.14069999999999
 30
0.0
 11
15.056
 21
77.61960000000001
 31
0.0
  0
LINE
  5
73
330
1E
100
AcDbEntity
  8
0
100
AcDbLine
 10
12.716
 20
79.5427
 30
0.0
 11
13.02799999999999
 21
79.14069999999999
 31
0.0
  0
LINE
  5
74
330
1E
100
AcDbEntity
  8
0
100
AcDbLine
 10
15.056
 20
87.87969999999999
 30
0.0
 11
17.70799999999999
 21
89.04290000000001
 31
0.0
  0
LINE
  5
75
330
1E
100
AcDbEntity
  8
0
100
AcDbLine
 10
13.02799999999999
 20
86.35859999999999
 30
0.0
 11
15.056
 21
87.87969999999999
 31
0.0
  0
LINE
  5
7D
330
1E
100
AcDbEntity
  8
0
100
AcDbLine
 10
17.85599999999999
 20
-0.238000000000015
 30
0.0
 11
20.83199999999999
 21
-0.238000000000015
 31
0.0
  0
LINE
  5
7E
330
1E
100
AcDbEntity
  8
0
100
AcDbLine
 10
20.83199999999999
 20
-0.238000000000015
 30
0.0
 11
24.0
 21
-0.238000000000015
 31
0.0
  0
LINE
  5
8A
330
1E
100
AcDbEntity
  8
0
100
AcDbLine
 10
17.85599999999999
 20
-0.238000000000012
 30
0.0
 11
20.83199999999999
 21
-0.238000000000012
 31
0.0
  0
LINE
  5
8D
330
1E
100
AcDbEntity
  8
0
100
AcDbLine
 10
20.83199999999999
 20
-0.238000000000012
 30
0.0
 11
24.0
 21
-0.238000000000012
 31
0.0
  0
LINE
  5
8E
330
1E
100
AcDbEntity
  8
0
100
AcDbLine
 10
20.724
 20
75.7406
 30
0.0
 11
24.0
 21
75.47209999999999
 31
0.0
  0
LINE
  5
8F
330
1E
100
AcDbEntity
  8
0
100
AcDbLine
 10
17.70799999999999
 20
76.4564
 30
0.0
 11
20.724
 21
75.7406
 31
0.0
  0
LINE
  5
90
330
1E
100
AcDbEntity
  8
0
100
AcDbLine
 10
20.724
 20
89.7588
 30
0.0
 11
24.0
 21
90.0272
 31
0.0
  0
LINE
  5
91
330
1E
100
AcDbEntity
  8
0
100
AcDbLine
 10
17.70799999999999
 20
89.04290000000001
 30
0.0
 11
20.724
 21
89.7588
 31
0.0
  0
LINE
  5
93
330
1E
100
AcDbEntity
  8
0
100
AcDbLine
 10
2.0
 20
107.844137370568
 30
0.0
 11
6.0
 21
107.862
 31
0.0
  0
LINE
  5
94
330
1E
100
AcDbEntity
  8
0
100
AcDbLine
 10
9.8
 20
107.862
 30
0.0
 11
11.3
 21
107.862
 31
0.0
  0
LINE
  5
96
330
1E
100
AcDbEntity
  8
0
100
AcDbLine
 10
6.0
 20
107.862
 30
0.0
 11
9.8
 21
107.862
 31
0.0
  0
LINE
  5
97
330
1E
100
AcDbEntity
  8
0
100
AcDbLine
 10
11.3
 20
107.862
 30
0.0
 11
13.1
 21
107.862
 31
0.0
  0
LINE
  5
98
330
1E
100
AcDbEntity
  8
0
100
AcDbLine
 10
13.1
 20
107.862
 30
0.0
 11
15.09999999999999
 21
107.862
 31
0.0
  0
LINE
  5
9A
330
1E
100
AcDbEntity
  8
0
100
AcDbLine
 10
15.09999999999999
 20
107.862
 30
0.0
 11
17.19999999999999
 21
107.862
 31
0.0
  0
LINE
  5
A2
330
1E
100
AcDbEntity
  8
0
100
AcDbLine
 10
3.0
 20
115.5479999999999
 30
0.0
 11
3.9
 21
115.5479999999999
 31
0.0
  0
LINE
  5
A3
330
1E
100
AcDbEntity
  8
0
100
AcDbLine
 10
2.5
 20
115.5479999999999
 30
0.0
 11
3.0
 21
115.5479999999999
 31
0.0
  0
LINE
  5
A4
330
1E
100
AcDbEntity
  8
0
100
AcDbLine
 10
17.19999999999999
 20
107.862
 30
0.0
 11
19.39999999999999
 21
107.862
 31
0.0
  0
LINE
  5
A6
330
1E
100
AcDbEntity
  8
0
100
AcDbLine
 10
19.39999999999999
 20
107.862
 30
0.0
 11
21.69999999999999
 21
107.862
 31
0.0
  0
LINE
  5
A8
330
1E
100
AcDbEntity
  8
0
100
AcDbLine
 10
24.0
 20
-0.238000000000015
 30
0.0
 11
27.168
 21
-0.238000000000015
 31
0.0
  0
LINE
  5
B2
330
1E
100
AcDbEntity
  8
0
100
AcDbLine
 10
24.0
 20
-0.238000000000012
 30
0.0
 11
27.168
 21
-0.238000000000012
 31
0.0
  0
LINE
  5
B3
330
1E
100
AcDbEntity
  8
0
100
AcDbLine
 10
30.144
 20
-0.238000000000015
 30
0.0
 11
33.11999999999999
 21
-0.238000000000015
 31
0.0
  0
LINE
  5
B4
330
1E
100
AcDbEntity
  8
0
100
AcDbLine
 10
27.168
 20
-0.238000000000015
 30
0.0
 11
30.144
 21
-0.238000000000015
 31
0.0
  0
LINE
  5
B5
330
1E
100
AcDbEntity
  8
0
100
AcDbLine
 10
30.144
 20
-0.238000000000012
 30
0.0
 11
33.11999999999999
 21
-0.238000000000012
 31
0.0
  0
LINE
  5
C3
330
1E
100
AcDbEntity
  8
0
100
AcDbLine
 10
27.168
 20
-0.238000000000012
 30
0.0
 11
30.144
 21
-0.238000000000012
 31
0.0
  0
LINE
  5
C4
330
1E
100
AcDbEntity
  8
0
100
AcDbLine
 10
24.0
 20
75.47209999999999
 30
0.0
 11
27.276
 21
75.7406
 31
0.0
  0
LINE
  5
C5
330
1E
100
AcDbEntity
  8
0
100
AcDbLine
 10
27.276
 20
75.7406
 30
0.0
 11
30.29199999999999
 21
76.4564
 31
0.0
  0
LINE
  5
C6
330
1E
100
AcDbEntity
  8
0
100
AcDbLine
 10
33.11999999999999
 20
-0.238000000000015
 30
0.0
 11
35.904
 21
-0.238000000000015
 31
0.0
  0
LINE
  5
DD
330
1E
100
AcDbEntity
  8
0
100
AcDbLine
 10
33.11999999999999
 20
-0.238000000000012
 30
0.0
 11
35.904
 21
-0.238000000000012
 31
0.0
  0
LINE
  5
DE
330
1E
100
AcDbEntity
  8
0
100
AcDbLine
 10
30.29199999999999
 20
76.4564
 30
0.0
 11
32.944
 21
77.61960000000001
 31
0.0
  0
LINE
  5
DF
330
1E
100
AcDbEntity
  8
0
100
AcDbLine
 10
32.944
 20
77.61960000000001
 30
0.0
 11
34.972
 21
79.14069999999999
 31
0.0
  0
LINE
  5
E0
330
1E
100
AcDbEntity
  8
0
100
AcDbLine
 10
35.904
 20
-0.238000000000015
 30
0.0
 11
38.59199999999999
 21
-0.238000000000015
 31
0.0
  0
LINE
  5
E5
330
1E
100
AcDbEntity
  8
0
100
AcDbLine
 10
35.904
 20
-0.238000000000012
 30
0.0
 11
38.59199999999999
 21
-0.238000000000012
 31
0.0
  0
LINE
  5
E7
330
1E
100
AcDbEntity
  8
0
100
AcDbLine
 10
34.972
 20
79.14069999999999
 30
0.0
 11
35.28399999999999
 21
79.5427
 31
0.0
  0
LINE
  5
E8
330
1E
100
AcDbEntity
  8
0
100
AcDbLine
 10
36.21999999999999
 20
80.87059999999999
 30
0.0
 11
36.688
 21
82.74970000000001
 31
0.0
  0
LINE
  5
E9
330
1E
100
AcDbEntity
  8
0
100
AcDbLine
 10
35.28399999999999
 20
79.5427
 30
0.0
 11
35.9210653266331
 21
80.45623534338341
 31
0.0
  0
LINE
  5
EA
330
1E
100
AcDbEntity
  8
0
100
AcDbLine
 10
35.28399999999999
 20
79.5427
 30
0.0
 11
36.21999999999999
 21
80.87059999999999
 31
0.0
  0
LINE
  5
F1
330
1E
100
AcDbEntity
  8
0
100
AcDbLine
 10
24.0
 20
107.862
 30
0.0
 11
26.3
 21
107.862
 31
0.0
  0
LINE
  5
F5
330
1E
100
AcDbEntity
  8
0
100
AcDbLine
 10
26.3
 20
107.862
 30
0.0
 11
28.6
 21
107.862
 31
0.0
  0
LINE
  5
F6
330
1E
100
AcDbEntity
  8
0
100
AcDbLine
 10
28.6
 20
107.862
 30
0.0
 11
30.8
 21
107.862
 31
0.0
  0
LINE
  5
F7
330
1E
100
AcDbEntity
  8
0
100
AcDbLine
 10
24.0
 20
90.0272
 30
0.0
 11
27.276
 21
89.7588
 31
0.0
  0
LINE
  5
F8
330
1E
100
AcDbEntity
  8
0
100
AcDbLine
 10
27.276
 20
89.7588
 30
0.0
 11
30.29199999999999
 21
89.04290000000001
 31
0.0
  0
LINE
  5
FB
330
1E
100
AcDbEntity
  8
0
100
AcDbLine
 10
30.8
 20
107.862
 30
0.0
 11
32.9
 21
107.862
 31
0.0
  0
LINE
  5
FC
330
1E
100
AcDbEntity
  8
0
100
AcDbLine
 10
32.9
 20
107.862
 30
0.0
 11
34.9
 21
107.862
 31
0.0
  0
LINE
  5
FD
330
1E
100
AcDbEntity
  8
0
100
AcDbLine
 10
30.29199999999999
 20
89.04290000000001
 30
0.0
 11
32.944
 21
87.87969999999999
 31
0.0
  0
LINE
  5
FE
330
1E
100
AcDbEntity
  8
0
100
AcDbLine
 10
32.944
 20
87.87969999999999
 30
0.0
 11
34.972
 21
86.35859999999999
 31
0.0
  0
LINE
  5
100
330
1E
100
AcDbEntity
  8
0
100
AcDbLine
 10
34.9
 20
107.862
 30
0.0
 11
38.2
 21
107.862
 31
0.0
  0
LINE
  5
101
330
1E
100
AcDbEntity
  8
0
100
AcDbLine
 10
34.972
 20
86.35859999999999
 30
0.0
 11
36.21999999999999
 21
84.6287
 31
0.0
  0
LINE
  5
102
330
1E
100
AcDbEntity
  8
0
100
AcDbLine
 10
36.21999999999999
 20
84.6287
 30
0.0
 11
36.688
 21
82.74970000000001
 31
0.0
  0
LINE
  5
103
330
1E
100
AcDbEntity
  8
0
100
AcDbLine
 10
38.59199999999999
 20
-0.238000000000015
 30
0.0
 11
40.89599999999999
 21
-0.238000000000014
 31
0.0
  0
LINE
  5
104
330
1E
100
AcDbEntity
  8
0
100
AcDbLine
 10
40.89599999999999
 20
-0.238000000000014
 30
0.0
 11
43.008
 21
-0.238000000000014
 31
0.0
  0
LINE
  5
105
330
1E
100
AcDbEntity
  8
0
100
AcDbLine
 10
43.008
 20
-0.238000000000014
 30
0.0
 11
44.832
 21
-0.238000000000014
 31
0.0
  0
LINE
  5
106
330
1E
100
AcDbEntity
  8
0
100
AcDbLine
 10
44.832
 20
-0.238000000000014
 30
0.0
 11
46.07999999999999
 21
-0.238000000000014
 31
0.0
  0
LINE
  5
107
330
1E
100
AcDbEntity
  8
0
100
AcDbLine
 10
46.07999999999999
 20
-0.238000000000014
 30
0.0
 11
47.136
 21
-0.238000000000014
 31
0.0
  0
LINE
  5
108
330
1E
100
AcDbEntity
  8
0
100
AcDbLine
 10
47.136
 20
-0.238000000000014
 30
0.0
 11
47.71199999999999
 21
-0.238000000000014
 31
0.0
  0
LINE
  5
109
330
1E
100
AcDbEntity
  8
0
100
AcDbLine
 10
47.71199999999999
 20
-0.238000000000014
 30
0.0
 11
48.0
 21
-0.238000000000013
 31
0.0
  0
LINE
  5
10A
330
1E
100
AcDbEntity
  8
0
100
AcDbLine
 10
38.59199999999999
 20
-0.238000000000012
 30
0.0
 11
40.89599999999999
 21
-0.238000000000012
 31
0.0
  0
LINE
  5
10B
330
1E
100
AcDbEntity
  8
0
100
AcDbLine
 10
40.89599999999999
 20
-0.238000000000012
 30
0.0
 11
43.008
 21
-0.238000000000012
 31
0.0
  0
LINE
  5
10C
330
1E
100
AcDbEntity
  8
0
100
AcDbLine
 10
43.008
 20
-0.238000000000012
 30
0.0
 11
44.832
 21
-0.238000000000013
 31
0.0
  0
LINE
  5
10D
330
1E
100
AcDbEntity
  8
0
100
AcDbLine
 10
44.832
 20
-0.238000000000013
 30
0.0
 11
46.07999999999999
 21
-0.238000000000013
 31
0.0
  0
LINE
  5
10E
330
1E
100
AcDbEntity
  8
0
100
AcDbLine
 10
46.07999999999999
 20
-0.238000000000013
 30
0.0
 11
47.136
 21
-0.238000000000013
 31
0.0
  0
LINE
  5
10F
330
1E
100
AcDbEntity
  8
0
100
AcDbLine
 10
47.136
 20
-0.238000000000013
 30
0.0
 11
47.71199999999999
 21
-0.238000000000013
 31
0.0
  0
LINE
  5
110
330
1E
100
AcDbEntity
  8
0
100
AcDbLine
 10
47.71199999999999
 20
-0.238000000000013
 30
0.0
 11
48.0
 21
-0.238000000000013
 31
0.0
  0
LINE
  5
118
330
1E
100
AcDbEntity
  8
0
100
AcDbLine
 10
38.2
 20
107.862
 30
0.0
 11
39.6
 21
107.862
 31
0.0
  0
LINE
  5
119
330
1E
100
AcDbEntity
  8
0
100
AcDbLine
 10
39.6
 20
107.862
 30
0.0
 11
40.6
 21
107.862
 31
0.0
  0
LINE
  5
11A
330
1E
100
AcDbEntity
  8
0
100
AcDbLine
 10
40.6
 20
107.862
 30
0.0
 11
41.29999999999999
 21
107.862
 31
0.0
  0
LINE
  5
11B
330
1E
100
AcDbEntity
  8
0
100
AcDbLine
 10
41.29999999999999
 20
107.862
 30
0.0
 11
41.79999999999999
 21
107.862
 31
0.0
  0
LINE
  5
11C
330
1E
100
AcDbEntity
  8
0
100
AcDbLine
 10
41.79999999999999
 20
107.862
 30
0.0
 11
42.0
 21
107.862
 31
0.0
  0
LINE
  5
11D
330
1E
100
AcDbEntity
  8
0
100
AcDbLine
 10
42.0
 20
107.862
 30
0.0
 11
46.0
 21
107.84413717879
 31
0.0
  0
LINE
  5
120
330
1E
100
AcDbEntity
  8
0
100
AcDbLine
 10
46.0
 20
106.862
 30
0.0
 11
46.0
 21
114.8479999999999
 31
0.0
  0
LINE
  5
121
330
1E
100
AcDbEntity
  8
0
100
AcDbLine
 10
46.0
 20
106.862
 30
0.0
 11
47.3057
 21
59.762
 31
0.0
  0
LINE
  5
122
330
1E
100
AcDbEntity
  8
0
100
AcDbLine
 10
47.3057
 20
59.762
 30
0.0
 11
48.0
 21
-0.238000000000013
 31
0.0
  0
LINE
  5
123
330
1E
100
AcDbEntity
  8
0
100
AcDbLine
 10
47.3057
 20
59.762
 30
0.0
 11
48.0
 21
-0.238000000000013
 31
0.0
  0
LINE
  5
12F
330
1E
100
AcDbEntity
  8
0
100
AcDbLine
 10
45.0
 20
115.5479999999999
 30
0.0
 11
45.49999999999999
 21
115.5479999999999
 31
0.0
  0
LINE
  5
130
330
1E
100
AcDbEntity
  8
0
100
AcDbLine
 10
46.0
 20
114.8479999999999
 30
0.0
 11
46.0
 21
106.862
 31
0.0
  0
LINE
  5
131
330
1E
100
AcDbEntity
  8
0
100
AcDbLine
 10
45.7
 20
115.5479999999999
 30
0.0
 11
46.0
 21
114.8479999999999
 31
0.0
  0
LINE
  5
132
330
1E
100
AcDbEntity
  8
0
100
AcDbLine
 10
45.49999999999999
 20
115.5479999999999
 30
0.0
 11
45.7
 21
115.5479999999999
 31
0.0
  0
LINE
  5
133
330
1E
100
AcDbEntity
  8
0
100
AcDbLine
 10
21.69999999999999
 20
107.862
 30
0.0
 11
24.0
 21
107.862
 31
0.0
  0
LINE
  5
135
330
1E
100
AcDbEntity
  8
0
100
AcDbLine
 10
3.9
 20
115.5479999999999
 30
0.0
 11
5.2
 21
115.5479999999999
 31
0.0
  0
LINE
  5
136
330
1E
100
AcDbEntity
  8
0
100
AcDbLine
 10
3.763599999999999
 20
115.819
 30
0.0
 11
4.6227
 21
115.819
 31
0.0
  0
LINE
  5
137
330
1E
100
AcDbEntity
  8
0
100
AcDbLine
 10
3.1909
 20
115.819
 30
0.0
 11
3.763599999999999
 21
115.819
 31
0.0
  0
LINE
  5
138
330
1E
100
AcDbEntity
  8
0
100
AcDbLine
 10
3.113000000000039
 20
115.819
 30
0.0
 11
3.1909
 21
115.819
 31
0.0
  0
LINE
  5
139
330
1E
100
AcDbEntity
  8
0
100
AcDbLine
 10
3.0
 20
117.282
 30
0.0
 11
3.0
 21
115.819
 31
0.0
  0
LINE
  5
13A
330
1E
100
AcDbEntity
  8
0
100
AcDbLine
 10
3.0
 20
115.819
 30
0.0
 11
3.0
 21
117.282
 31
0.0
  0
LINE
  5
13B
330
1E
100
AcDbEntity
  8
0
100
AcDbLine
 10
2.791999999999999
 20
117.282
 30
0.0
 11
3.759999999999999
 21
117.282
 31
0.0
  0
LINE
  5
13E
330
1E
100
AcDbEntity
  8
0
100
AcDbLine
 10
2.6419
 20
160.864
 30
0.0
 11
4.519499999999999
 21
165.9479999999999
 31
0.0
  0
LINE
  5
13F
330
1E
100
AcDbEntity
  8
0
100
AcDbLine
 10
2.455099999999999
 20
159.785
 30
0.0
 11
2.6419
 21
160.864
 31
0.0
  0
LINE
  5
140
330
1E
100
AcDbEntity
  8
0
100
AcDbLine
 10
3.759999999999999
 20
117.282
 30
0.0
 11
4.903999999999999
 21
117.282
 31
0.0
  0
LINE
  5
141
330
1E
100
AcDbEntity
  8
0
100
AcDbLine
 10
2.264
 20
117.282
 30
0.0
 11
2.791999999999999
 21
117.282
 31
0.0
  0
LINE
  5
142
330
1E
100
AcDbEntity
  8
0
100
AcDbLine
 10
4.6227
 20
115.819
 30
0.0
 11
5.7682
 21
115.819
 31
0.0
  0
LINE
  5
143
330
1E
100
AcDbEntity
  8
0
100
AcDbLine
 10
6.799999999999999
 20
115.5479999999999
 30
0.0
 11
8.699999999999999
 21
115.5479999999999
 31
0.0
  0
LINE
  5
144
330
1E
100
AcDbEntity
  8
0
100
AcDbLine
 10
5.2
 20
115.5479999999999
 30
0.0
 11
6.799999999999999
 21
115.5479999999999
 31
0.0
  0
LINE
  5
145
330
1E
100
AcDbEntity
  8
0
100
AcDbLine
 10
7.3909
 20
115.819
 30
0.0
 11
9.204499999999999
 21
115.819
 31
0.0
  0
LINE
  5
146
330
1E
100
AcDbEntity
  8
0
100
AcDbLine
 10
5.7682
 20
115.819
 30
0.0
 11
7.3909
 21
115.819
 31
0.0
  0
LINE
  5
147
330
1E
100
AcDbEntity
  8
0
100
AcDbLine
 10
8.699999999999999
 20
115.5479999999999
 30
0.0
 11
10.8
 21
115.5479999999999
 31
0.0
  0
LINE
  5
148
330
1E
100
AcDbEntity
  8
0
100
AcDbLine
 10
10.8
 20
115.5479999999999
 30
0.0
 11
13.2
 21
115.5479999999999
 31
0.0
  0
LINE
  5
149
330
1E
100
AcDbEntity
  8
0
100
AcDbLine
 10
9.204499999999999
 20
115.819
 30
0.0
 11
11.2091
 21
115.819
 31
0.0
  0
LINE
  5
14A
330
1E
100
AcDbEntity
  8
0
100
AcDbLine
 10
11.2091
 20
115.819
 30
0.0
 11
13.5
 21
115.819
 31
0.0
  0
LINE
  5
14B
330
1E
100
AcDbEntity
  8
0
100
AcDbLine
 10
10.624
 20
117.282
 30
0.0
 11
13.08799999999999
 21
117.282
 31
0.0
  0
LINE
  5
14C
330
1E
100
AcDbEntity
  8
0
100
AcDbLine
 10
8.512
 20
117.282
 30
0.0
 11
10.624
 21
117.282
 31
0.0
  0
LINE
  5
14D
330
1E
100
AcDbEntity
  8
0
100
AcDbLine
 10
6.576
 20
117.282
 30
0.0
 11
8.512
 21
117.282
 31
0.0
  0
LINE
  5
14E
330
1E
100
AcDbEntity
  8
0
100
AcDbLine
 10
4.903999999999999
 20
117.282
 30
0.0
 11
6.576
 21
117.282
 31
0.0
  0
LINE
  5
14F
330
1E
100
AcDbEntity
  8
0
100
AcDbLine
 10
8.825699999999999
 20
167.9879999999999
 30
0.0
 11
10.4662
 21
168.309
 31
0.0
  0
LINE
  5
151
330
1E
100
AcDbEntity
  8
0
100
AcDbLine
 10
7.390299999999999
 20
167.65
 30
0.0
 11
8.825699999999999
 21
167.9879999999999
 31
0.0
  0
LINE
  5
152
330
1E
100
AcDbEntity
  8
0
100
AcDbLine
 10
7.082699999999999
 20
167.552
 30
0.0
 11
7.390299999999999
 21
167.65
 31
0.0
  0
LINE
  5
154
330
1E
100
AcDbEntity
  8
0
100
AcDbLine
 10
6.0574
 20
167.1809999999999
 30
0.0
 11
7.082699999999999
 21
167.552
 31
0.0
  0
LINE
  5
155
330
1E
100
AcDbEntity
  8
0
100
AcDbLine
 10
5.237199999999999
 20
166.775
 30
0.0
 11
6.0574
 21
167.1809999999999
 31
0.0
  0
LINE
  5
156
330
1E
100
AcDbEntity
  8
0
100
AcDbLine
 10
4.724599999999999
 20
166.37
 30
0.0
 11
5.237199999999999
 21
166.775
 31
0.0
  0
LINE
  5
157
330
1E
100
AcDbEntity
  8
0
100
AcDbLine
 10
4.519499999999999
 20
165.9479999999999
 30
0.0
 11
4.724599999999999
 21
166.37
 31
0.0
  0
LINE
  5
158
330
1E
100
AcDbEntity
  8
0
100
AcDbLine
 10
10.4662
 20
168.309
 30
0.0
 11
12.41419999999999
 21
168.579
 31
0.0
  0
LINE
  5
15A
330
1E
100
AcDbEntity
  8
0
100
AcDbLine
 10
13.2
 20
115.5479999999999
 30
0.0
 11
15.7
 21
115.5479999999999
 31
0.0
  0
LINE
  5
15B
330
1E
100
AcDbEntity
  8
0
100
AcDbLine
 10
15.7
 20
115.5479999999999
 30
0.0
 11
32.0
 21
115.5479999999999
 31
0.0
  0
LINE
  5
15C
330
1E
100
AcDbEntity
  8
0
100
AcDbLine
 10
13.5
 20
115.819
 30
0.0
 11
32.0182
 21
115.819
 31
0.0
  0
LINE
  5
16D
330
1E
100
AcDbEntity
  8
0
100
AcDbLine
 10
14.2598
 20
163.7809999999999
 30
0.0
 11
16.51539999999999
 21
163.6879999999999
 31
0.0
  0
LINE
  5
16E
330
1E
100
AcDbEntity
  8
0
100
AcDbLine
 10
16.51539999999999
 20
163.6879999999999
 30
0.0
 11
18.9761
 21
163.614
 31
0.0
  0
LINE
  5
16F
330
1E
100
AcDbEntity
  8
0
100
AcDbLine
 10
15.64
 20
117.282
 30
0.0
 11
32.0
 21
117.282
 31
0.0
  0
LINE
  5
170
330
1E
100
AcDbEntity
  8
0
100
AcDbLine
 10
13.08799999999999
 20
117.282
 30
0.0
 11
15.64
 21
117.282
 31
0.0
  0
LINE
  5
173
330
1E
100
AcDbEntity
  8
0
100
AcDbLine
 10
12.41419999999999
 20
168.579
 30
0.0
 11
14.4648
 21
168.815
 31
0.0
  0
LINE
  5
175
330
1E
100
AcDbEntity
  8
0
100
AcDbLine
 10
14.4648
 20
168.815
 30
0.0
 11
16.7204
 21
168.984
 31
0.0
  0
LINE
  5
183
330
1E
100
AcDbEntity
  8
0
100
AcDbLine
 10
16.7204
 20
168.984
 30
0.0
 11
19.0786
 21
169.119
 31
0.0
  0
LINE
  5
185
330
1E
100
AcDbEntity
  8
0
100
AcDbLine
 10
19.0786
 20
169.119
 30
0.0
 11
21.5393
 21
169.204
 31
0.0
  0
LINE
  5
18F
330
1E
100
AcDbEntity
  8
0
100
AcDbLine
 10
37.2
 20
115.5479999999999
 30
0.0
 11
39.29999999999999
 21
115.5479999999999
 31
0.0
  0
LINE
  5
190
330
1E
100
AcDbEntity
  8
0
100
AcDbLine
 10
34.79999999999999
 20
115.5479999999999
 30
0.0
 11
37.2
 21
115.5479999999999
 31
0.0
  0
LINE
  5
191
330
1E
100
AcDbEntity
  8
0
100
AcDbLine
 10
32.29999999999999
 20
115.5479999999999
 30
0.0
 11
34.79999999999999
 21
115.5479999999999
 31
0.0
  0
LINE
  5
192
330
1E
100
AcDbEntity
  8
0
100
AcDbLine
 10
32.0
 20
115.5479999999999
 30
0.0
 11
32.29999999999999
 21
115.5479999999999
 31
0.0
  0
LINE
  5
193
330
1E
100
AcDbEntity
  8
0
100
AcDbLine
 10
39.29999999999999
 20
115.5479999999999
 30
0.0
 11
41.2
 21
115.5479999999999
 31
0.0
  0
LINE
  5
194
330
1E
100
AcDbEntity
  8
0
100
AcDbLine
 10
41.2
 20
115.5479999999999
 30
0.0
 11
42.8
 21
115.5479999999999
 31
0.0
  0
LINE
  5
195
330
1E
100
AcDbEntity
  8
0
100
AcDbLine
 10
42.8
 20
115.5479999999999
 30
0.0
 11
44.1
 21
115.5479999999999
 31
0.0
  0
LINE
  5
196
330
1E
100
AcDbEntity
  8
0
100
AcDbLine
 10
44.1
 20
115.5479999999999
 30
0.0
 11
45.0
 21
115.5479999999999
 31
0.0
  0
LINE
  5
197
330
1E
100
AcDbEntity
  8
0
100
AcDbLine
 10
36.7909
 20
115.819
 30
0.0
 11
38.7955
 21
115.819
 31
0.0
  0
LINE
  5
198
330
1E
100
AcDbEntity
  8
0
100
AcDbLine
 10
34.5
 20
115.819
 30
0.0
 11
36.7909
 21
115.819
 31
0.0
  0
LINE
  5
199
330
1E
100
AcDbEntity
  8
0
100
AcDbLine
 10
32.0182
 20
115.819
 30
0.0
 11
34.5
 21
115.819
 31
0.0
  0
LINE
  5
19A
330
1E
100
AcDbEntity
  8
0
100
AcDbLine
 10
38.7955
 20
115.819
 30
0.0
 11
40.60909999999999
 21
115.819
 31
0.0
  0
LINE
  5
19B
330
1E
100
AcDbEntity
  8
0
100
AcDbLine
 10
40.60909999999999
 20
115.819
 30
0.0
 11
42.2318
 21
115.819
 31
0.0
  0
LINE
  5
19C
330
1E
100
AcDbEntity
  8
0
100
AcDbLine
 10
42.2318
 20
115.819
 30
0.0
 11
43.37729999999999
 21
115.819
 31
0.0
  0
LINE
  5
19D
330
1E
100
AcDbEntity
  8
0
100
AcDbLine
 10
43.37729999999999
 20
115.819
 30
0.0
 11
44.2364
 21
115.819
 31
0.0
  0
LINE
  5
19E
330
1E
100
AcDbEntity
  8
0
100
AcDbLine
 10
44.2364
 20
115.819
 30
0.0
 11
44.8091
 21
115.819
 31
0.0
  0
LINE
  5
19F
330
1E
100
AcDbEntity
  8
0
100
AcDbLine
 10
45.0
 20
115.8479999999999
 30
0.0
 11
45.7
 21
115.5479999999999
 31
0.0
  0
LINE
  5
1A0
330
1E
100
AcDbEntity
  8
0
100
AcDbLine
 10
45.0
 20
115.819
 30
0.0
 11
45.0
 21
117.282
 31
0.0
  0
LINE
  5
1A1
330
1E
100
AcDbEntity
  8
0
100
AcDbLine
 10
45.0
 20
117.282
 30
0.0
 11
45.0
 21
115.819
 31
0.0
  0
LINE
  5
1A2
330
1E
100
AcDbEntity
  8
0
100
AcDbLine
 10
44.8091
 20
115.819
 30
0.0
 11
44.887
 21
115.819
 31
0.0
  0
LINE
  5
1A3
330
1E
100
AcDbEntity
  8
0
100
AcDbLine
 10
45.208
 20
117.282
 30
0.0
 11
45.736
 21
117.282
 31
0.0
  0
LINE
  5
1A4
330
1E
100
AcDbEntity
  8
0
100
AcDbLine
 10
46.0
 20
117.282
 30
0.0
 11
46.3726
 21
147.2529999999999
 31
0.0
  0
LINE
  5
1A5
330
1E
100
AcDbEntity
  8
0
100
AcDbLine
 10
32.0
 20
117.282
 30
0.0
 11
32.36
 21
117.282
 31
0.0
  0
LINE
  5
1A6
330
1E
100
AcDbEntity
  8
0
100
AcDbLine
 10
32.36
 20
117.282
 30
0.0
 11
34.912
 21
117.282
 31
0.0
  0
LINE
  5
1A7
330
1E
100
AcDbEntity
  8
0
100
AcDbLine
 10
34.912
 20
117.282
 30
0.0
 11
37.376
 21
117.282
 31
0.0
  0
LINE
  5
1A8
330
1E
100
AcDbEntity
  8
0
100
AcDbLine
 10
37.376
 20
117.282
 30
0.0
 11
39.488
 21
117.282
 31
0.0
  0
LINE
  5
1A9
330
1E
100
AcDbEntity
  8
0
100
AcDbLine
 10
39.488
 20
117.282
 30
0.0
 11
41.424
 21
117.282
 31
0.0
  0
LINE
  5
1AA
330
1E
100
AcDbEntity
  8
0
100
AcDbLine
 10
41.424
 20
117.282
 30
0.0
 11
43.096
 21
117.282
 31
0.0
  0
LINE
  5
1C4
330
1E
100
AcDbEntity
  8
0
100
AcDbLine
 10
43.096
 20
117.282
 30
0.0
 11
44.24
 21
117.282
 31
0.0
  0
LINE
  5
1C5
330
1E
100
AcDbEntity
  8
0
100
AcDbLine
 10
44.24
 20
117.282
 30
0.0
 11
45.208
 21
117.282
 31
0.0
  0
LINE
  5
1C6
330
1E
100
AcDbEntity
  8
0
100
AcDbLine
 10
45.736
 20
117.282
 30
0.0
 11
46.0
 21
117.282
 31
0.0
  0
LINE
  5
1CE
330
1E
100
AcDbEntity
  8
0
100
AcDbLine
 10
29.0239
 20
163.614
 30
0.0
 11
31.4846
 21
163.6879999999999
 31
0.0
  0
LINE
  5
1D1
330
1E
100
AcDbEntity
  8
0
100
AcDbLine
 10
28.92139999999999
 20
169.119
 30
0.0
 11
31.27959999999999
 21
168.984
 31
0.0
  0
LINE
  5
1D2
330
1E
100
AcDbEntity
  8
0
100
AcDbLine
 10
31.4846
 20
163.6879999999999
 30
0.0
 11
33.7402
 21
163.7809999999999
 31
0.0
  0
LINE
  5
1D4
330
1E
100
AcDbEntity
  8
0
100
AcDbLine
 10
33.5352
 20
168.815
 30
0.0
 11
35.5858
 21
168.579
 31
0.0
  0
LINE
  5
1D5
330
1E
100
AcDbEntity
  8
0
100
AcDbLine
 10
40.9173
 20
167.552
 30
0.0
 11
41.94259999999999
 21
167.1809999999999
 31
0.0
  0
LINE
  5
1D6
330
1E
100
AcDbEntity
  8
0
100
AcDbLine
 10
37.53379999999999
 20
168.309
 30
0.0
 11
39.1743
 21
167.9879999999999
 31
0.0
  0
LINE
  5
1D8
330
1E
100
AcDbEntity
  8
0
100
AcDbLine
 10
39.1743
 20
167.9879999999999
 30
0.0
 11
40.6097
 21
167.65
 31
0.0
  0
LINE
  5
1DA
330
1E
100
AcDbEntity
  8
0
100
AcDbLine
 10
40.6097
 20
167.65
 30
0.0
 11
40.9173
 21
167.552
 31
0.0
  0
LINE
  5
1DB
330
1E
100
AcDbEntity
  8
0
100
AcDbLine
 10
41.94259999999999
 20
167.1809999999999
 30
0.0
 11
42.76279999999999
 21
166.775
 31
0.0
  0
LINE
  5
1DC
330
1E
100
AcDbEntity
  8
0
100
AcDbLine
 10
42.76279999999999
 20
166.775
 30
0.0
 11
43.27539999999999
 21
166.37
 31
0.0
  0
LINE
  5
1DF
330
1E
100
AcDbEntity
  8
0
100
AcDbLine
 10
45.5449
 20
159.785
 30
0.0
 11
46.5564
 21
156.16
 31
0.0
  0
LINE
  5
1E0
330
1E
100
AcDbEntity
  8
0
100
AcDbLine
 10
45.3581
 20
160.864
 30
0.0
 11
45.5449
 21
159.785
 31
0.0
  0
LINE
  5
1E2
330
1E
100
AcDbEntity
  8
0
100
AcDbLine
 10
46.4705
 20
152.7289999999999
 30
0.0
 11
46.5564
 21
156.16
 31
0.0
  0
LINE
  5
1E3
330
1E
100
AcDbEntity
  8
0
100
AcDbLine
 10
46.38889999999999
 20
149.4089999999999
 30
0.0
 11
46.5564
 21
156.16
 31
0.0
  0
LINE
  5
1E4
330
1E
100
AcDbEntity
  8
0
100
AcDbLine
 10
46.3726
 20
147.2529999999999
 30
0.0
 11
46.38889999999999
 21
149.4089999999999
 31
0.0
  0
LINE
  5
1E5
330
1E
100
AcDbEntity
  8
0
100
AcDbLine
 10
43.48049999999999
 20
165.9479999999999
 30
0.0
 11
45.3581
 21
160.864
 31
0.0
  0
LINE
  5
1E6
330
1E
100
AcDbEntity
  8
0
100
AcDbLine
 10
43.27539999999999
 20
166.37
 30
0.0
 11
43.48049999999999
 21
165.9479999999999
 31
0.0
  0
LINE
  5
1E7
330
1E
100
AcDbEntity
  8
0
100
AcDbLine
 10
35.5858
 20
168.579
 30
0.0
 11
37.53379999999999
 21
168.309
 31
0.0
  0
LINE
  5
1EA
330
1E
100
AcDbEntity
  8
0
100
AcDbLine
 10
31.27959999999999
 20
168.984
 30
0.0
 11
33.5352
 21
168.815
 31
0.0
  0
LINE
  5
1ED
330
1E
100
AcDbEntity
  8
0
100
AcDbLine
 10
26.46069999999999
 20
169.204
 30
0.0
 11
28.92139999999999
 21
169.119
 31
0.0
  0
LINE
  5
1F6
330
1E
100
AcDbEntity
  8
0
100
AcDbLine
 10
24.0
 20
169.2379999999999
 30
0.0
 11
26.46069999999999
 21
169.204
 31
0.0
  0
LINE
  5
1F7
330
1E
100
AcDbEntity
  8
0
100
AcDbLine
 10
21.5393
 20
169.204
 30
0.0
 11
24.0
 21
169.2379999999999
 31
0.0
  0
LINE
  5
1F9
330
1E
100
AcDbEntity
  8
0
100
AcDbLine
 10
2.299999999999999
 20
115.5479999999999
 30
0.0
 11
3.0
 21
115.8479999999999
 31
0.0
  0
LINE
  5
1FA
330
1E
100
AcDbEntity
  8
0
100
AcDbLine
 10
2.299999999999999
 20
115.5479999999999
 30
0.0
 11
2.5
 21
115.5479999999999
 31
0.0
  0
LINE
  5
1FB
330
1E
100
AcDbEntity
  8
0
100
AcDbLine
 10
2.0
 20
114.8479999999999
 30
0.0
 11
2.299999999999999
 21
115.5479999999999
 31
0.0
  0
LINE
  5
1FC
330
1E
100
AcDbEntity
  8
0
100
AcDbLine
 10
2.0
 20
114.8479999999999
 30
0.0
 11
2.0
 21
106.862
 31
0.0
  0
LINE
  5
201
330
1E
100
AcDbEntity
  8
0
100
AcDbLine
 10
18.9761
 20
163.614
 30
0.0
 11
29.0239
 21
163.614
 31
0.0
  0
LINE
  5
202
330
1E
100
AcDbEntity
  8
0
100
AcDbLine
 10
14.2598
 20
163.7809999999999
 30
0.0
 11
9.631027169396475
 21
164.5674873756209
 31
0.0
  0
LINE
  5
203
330
1E
100
AcDbEntity
  8
0
100
AcDbLine
 10
9.631027169396475
 20
164.5674873756209
 30
0.0
 11
5.792279209249272
 21
165.7504406860886
 31
0.0
  0
LINE
  5
204
330
1E
100
AcDbEntity
  8
0
100
AcDbLine
 10
33.7402
 20
163.7809999999999
 30
0.0
 11
38.70954586646428
 21
164.6953741448532
 31
0.0
  0
LINE
  5
205
330
1E
100
AcDbEntity
  8
0
100
AcDbLine
 10
38.70954586646428
 20
164.6953741448532
 30
0.0
 11
41.97248151095505
 21
165.8463558623084
 31
0.0
  0
LINE
  5
207
330
1E
100
AcDbEntity
  8
0
100
AcDbLine
 10
23.93286146822686
 20
90.15967835207391
 30
0.0
 11
10.90017088951526
 21
90.24537164251341
 31
0.0
  0
LINE
  5
208
330
1E
100
AcDbEntity
  8
0
100
AcDbLine
 10
10.90017088951526
 20
90.24537164251341
 30
0.0
 11
5.584204942218661
 21
90.50245230819678
 31
0.0
  0
LINE
  5
209
330
1E
100
AcDbEntity
  8
0
100
AcDbLine
 10
5.584204942218661
 20
90.50245230819678
 30
0.0
 11
3.612153137017912
 21
90.93091995194152
 31
0.0
  0
LINE
  5
20A
330
1E
100
AcDbEntity
  8
0
100
AcDbLine
 10
3.612153137017912
 20
90.93091995194152
 30
0.0
 11
2.326032500264773
 21
92.30201617361542
 31
0.0
  0
LINE
  5
20B
330
1E
100
AcDbEntity
  8
0
100
AcDbLine
 10
2.326032500264773
 20
92.30201617361542
 30
0.0
 11
1.55435963167531
 21
93.84449977053305
 31
0.0
  0
LINE
  5
20C
330
1E
100
AcDbEntity
  8
0
100
AcDbLine
 10
24.06713853177314
 20
90.15967835207391
 30
0.0
 11
37.09982911048473
 21
90.24537164251341
 31
0.0
  0
LINE
  5
20D
330
1E
100
AcDbEntity
  8
0
100
AcDbLine
 10
42.41579505778133
 20
90.50245230819678
 30
0.0
 11
44.38784686298208
 21
90.93091995194152
 31
0.0
  0
LINE
  5
20E
330
1E
100
AcDbEntity
  8
0
100
AcDbLine
 10
44.38784686298208
 20
90.93091995194152
 30
0.0
 11
45.67396749973522
 21
92.30201617361542
 31
0.0
  0
LINE
  5
20F
330
1E
100
AcDbEntity
  8
0
100
AcDbLine
 10
37.09982911048473
 20
90.24537164251341
 30
0.0
 11
42.41579505778133
 21
90.50245230819678
 31
0.0
  0
LINE
  5
210
330
1E
100
AcDbEntity
  8
0
100
AcDbLine
 10
45.67396749973522
 20
92.30201617361542
 30
0.0
 11
46.44564036832469
 21
93.84449977053305
 31
0.0
  0
LINE
  5
239
330
1E
100
AcDbEntity
  8
0
100
AcDbLine
 10
24.0
 20
71.0
 30
0.0
 11
12.98211692934182
 21
71.15527350127365
 31
0.0
  0
LINE
  5
23A
330
1E
100
AcDbEntity
  8
0
100
AcDbLine
 10
12.98211692934182
 20
71.15527350127365
 30
0.0
 11
9.247241490841474
 21
70.03543604592943
 31
0.0
  0
LINE
  5
23B
330
1E
100
AcDbEntity
  8
0
100
AcDbLine
 10
9.247241490841474
 20
70.03543604592943
 30
0.0
 11
6.819572415271522
 21
67.79576153242334
 31
0.0
  0
LINE
  5
23C
330
1E
100
AcDbEntity
  8
0
100
AcDbLine
 10
6.819572415271522
 20
67.79576153242334
 30
0.0
 11
4.39190333970157
 21
62.00993626854103
 31
0.0
  0
LINE
  5
23D
330
1E
100
AcDbEntity
  8
0
100
AcDbLine
 10
4.39190333970157
 20
62.00993626854103
 30
0.0
 11
1.404003313259636
 21
48.38525000879622
 31
0.0
  0
LINE
  5
23E
330
1E
100
AcDbEntity
  8
0
100
AcDbLine
 10
38.75275850915852
 20
70.03543604592943
 30
0.0
 11
41.18042758472848
 21
67.79576153242334
 31
0.0
  0
LINE
  5
23F
330
1E
100
AcDbEntity
  8
0
100
AcDbLine
 10
43.60809666029843
 20
62.00993626854103
 30
0.0
 11
46.59599668674036
 21
48.38525000879622
 31
0.0
  0
LINE
  5
240
330
1E
100
AcDbEntity
  8
0
100
AcDbLine
 10
41.18042758472848
 20
67.79576153242334
 30
0.0
 11
43.60809666029843
 21
62.00993626854103
 31
0.0
  0
LINE
  5
241
330
1E
100
AcDbEntity
  8
0
100
AcDbLine
 10
24.0
 20
71.0
 30
0.0
 11
35.01788307065817
 21
71.15527350127365
 31
0.0
  0
LINE
  5
242
330
1E
100
AcDbEntity
  8
0
100
AcDbLine
 10
35.01788307065817
 20
71.15527350127365
 30
0.0
 11
38.75275850915852
 21
70.03543604592943
 31
0.0
  0
ENDSEC
  0
SECTION
  2
OBJECTS
  0
DICTIONARY
  5
C
330
0
100
AcDbDictionary
  3
ACAD_GROUP
350
D
  3
ACAD_LAYOUT
350
19
  3
ACAD_MLINESTYLE
350
16
  3
ACAD_PLOTSETTINGS
350
18
  3
ACAD_PLOTSTYLENAME
350
E
  3
ACDBHEADERROUNDTRIPXREC
350
269
  3
ACDBVARIABLEDICTIONARY
350
212
  0
DICTIONARY
  5
28B
330
1E
100
AcDbDictionary
280
     1
  3
ACAD_LAYOUTSELFREF
360
28C
  0
DICTIONARY
  5
289
330
1A
100
AcDbDictionary
280
     1
  3
ACAD_LAYOUTSELFREF
360
28A
  0
DICTIONARY
  5
D
102
{ACAD_REACTORS
330
C
102
}
330
C
100
AcDbDictionary
  0
DICTIONARY
  5
19
102
{ACAD_REACTORS
330
C
102
}
330
C
100
AcDbDictionary
  0
DICTIONARY
  5
16
102
{ACAD_REACTORS
330
C
102
}
330
C
100
AcDbDictionary
  3
STANDARD
350
17
  0
DICTIONARY
  5
18
102
{ACAD_REACTORS
330
C
102
}
330
C
100
AcDbDictionary
  0
ACDBDICTIONARYWDFLT
  5
E
102
{ACAD_REACTORS
330
C
102
}
330
C
100
AcDbDictionary
281
     1
  3
Normal
350
F
100
AcDbDictionaryWithDefault
340
F
  0
DICTIONARY
  5
269
102
{ACAD_REACTORS
330
C
102
}
330
C
100
AcDbDictionary
  3
CEPSNTYPE
350
273
  3
FINGERPRINTGUID
350
274
  3
HYPERLINKBASE
350
26C
  3
INSUNITS
350
272
  3
LAYOUTDICT
350
26E
  3
LWETCUNION
350
271
  3
PLOTSETDICT
350
26F
  3
PLOTSTYLNAMDICT
350
270
  3
PSVPSCALE
350
276
  3
PUCSBASE
350
279
  3
PUCSORGBACK
350
27F
  3
PUCSORGBOTTOM
350
27B
  3
PUCSORGFRONT
350
27E
  3
PUCSORGLEFT
350
27C
  3
PUCSORGRIGHT
350
27D
  3
PUCSORGTOP
350
27A
  3
PUCSORTHOREF
350
277
  3
PUCSORTHOVIEW
350
278
  3
STYLESHEET
350
26D
  3
TSTACKALIGN
350
26A
  3
TSTACKSIZE
350
26B
  3
UCSBASE
350
282
  3
UCSORGBACK
350
288
  3
UCSORGBOTTOM
350
284
  3
UCSORGFRONT
350
287
  3
UCSORGLEFT
350
285
  3
UCSORGRIGHT
350
286
  3
UCSORGTOP
350
283
  3
UCSORTHOREF
350
280
  3
UCSORTHOVIEW
350
281
  3
VERSIONGUID
350
275
  0
DICTIONARY
  5
212
102
{ACAD_REACTORS
330
C
102
}
330
C
100
AcDbDictionary
  3
DIMASSOC
350
213
  0
XRECORD
  5
28C
102
{ACAD_REACTORS
330
28B
102
}
330
28B
100
AcDbXrecord
340
1E
  0
XRECORD
  5
28A
102
{ACAD_REACTORS
330
289
102
}
330
289
100
AcDbXrecord
340
1A
  0
MLINESTYLE
  5
17
102
{ACAD_REACTORS
330
16
102
}
330
16
100
AcDbMlineStyle
  2
STANDARD
 70
     0
  3

 62
   256
 51
90.0
 52
90.0
 71
     2
 49
0.5
 62
   256
  6
BYLAYER
 49
-0.5
 62
   256
  6
BYLAYER
  0
ACDBPLACEHOLDER
  5
F
102
{ACAD_REACTORS
330
E
102
}
330
E
100
AcDbPlaceHolder
280
     0
  0
XRECORD
  5
273
102
{ACAD_REACTORS
330
269
102
}
330
269
100
AcDbXrecord
 90
        0
  0
XRECORD
  5
274
102
{ACAD_REACTORS
330
269
102
}
330
269
100
AcDbXrecord
  1
{FD81A1A7-FCC1-4AC5-8587-EC6B46443364}
  0
XRECORD
  5
26C
102
{ACAD_REACTORS
330
269
102
}
330
269
100
AcDbXrecord
  1

  0
XRECORD
  5
272
102
{ACAD_REACTORS
330
269
102
}
330
269
100
AcDbXrecord
 90
        0
  0
XRECORD
  5
26E
102
{ACAD_REACTORS
330
269
102
}
330
269
100
AcDbXrecord
340
19
  0
XRECORD
  5
271
102
{ACAD_REACTORS
330
269
102
}
330
269
100
AcDbXrecord
 90
    10781
  0
XRECORD
  5
26F
102
{ACAD_REACTORS
330
269
102
}
330
269
100
AcDbXrecord
340
18
  0
XRECORD
  5
270
102
{ACAD_REACTORS
330
269
102
}
330
269
100
AcDbXrecord
340
E
  0
XRECORD
  5
276
102
{ACAD_REACTORS
330
269
102
}
330
269
100
AcDbXrecord
 40
0.0
  0
XRECORD
  5
279
102
{ACAD_REACTORS
330
269
102
}
330
269
100
AcDbXrecord
340
0
  0
XRECORD
  5
27F
102
{ACAD_REACTORS
330
269
102
}
330
269
100
AcDbXrecord
 10
0.0
 20
0.0
 30
0.0
  0
XRECORD
  5
27B
102
{ACAD_REACTORS
330
269
102
}
330
269
100
AcDbXrecord
 10
0.0
 20
0.0
 30
0.0
  0
XRECORD
  5
27E
102
{ACAD_REACTORS
330
269
102
}
330
269
100
AcDbXrecord
 10
0.0
 20
0.0
 30
0.0
  0
XRECORD
  5
27C
102
{ACAD_REACTORS
330
269
102
}
330
269
100
AcDbXrecord
 10
0.0
 20
0.0
 30
0.0
  0
XRECORD
  5
27D
102
{ACAD_REACTORS
330
269
102
}
330
269
100
AcDbXrecord
 10
0.0
 20
0.0
 30
0.0
  0
XRECORD
  5
27A
102
{ACAD_REACTORS
330
269
102
}
330
269
100
AcDbXrecord
 10
0.0
 20
0.0
 30
0.0
  0
XRECORD
  5
277
102
{ACAD_REACTORS
330
269
102
}
330
269
100
AcDbXrecord
340
0
  0
XRECORD
  5
278
102
{ACAD_REACTORS
330
269
102
}
330
269
100
AcDbXrecord
 70
     0
  0
XRECORD
  5
26D
102
{ACAD_REACTORS
330
269
102
}
330
269
100
AcDbXrecord
  1

  0
XRECORD
  5
26A
102
{ACAD_REACTORS
330
269
102
}
330
269
100
AcDbXrecord
 90
        1
  0
XRECORD
  5
26B
102
{ACAD_REACTORS
330
269
102
}
330
269
100
AcDbXrecord
 90
       70
  0
XRECORD
  5
282
102
{ACAD_REACTORS
330
269
102
}
330
269
100
AcDbXrecord
340
0
  0
XRECORD
  5
288
102
{ACAD_REACTORS
330
269
102
}
330
269
100
AcDbXrecord
 10
0.0
 20
0.0
 30
0.0
  0
XRECORD
  5
284
102
{ACAD_REACTORS
330
269
102
}
330
269
100
AcDbXrecord
 10
0.0
 20
0.0
 30
0.0
  0
XRECORD
  5
287
102
{ACAD_REACTORS
330
269
102
}
330
269
100
AcDbXrecord
 10
0.0
 20
0.0
 30
0.0
  0
XRECORD
  5
285
102
{ACAD_REACTORS
330
269
102
}
330
269
100
AcDbXrecord
 10
0.0
 20
0.0
 30
0.0
  0
XRECORD
  5
286
102
{ACAD_REACTORS
330
269
102
}
330
269
100
AcDbXrecord
 10
0.0
 20
0.0
 30
0.0
  0
XRECORD
  5
283
102
{ACAD_REACTORS
330
269
102
}
330
269
100
AcDbXrecord
 10
0.0
 20
0.0
 30
0.0
  0
XRECORD
  5
280
102
{ACAD_REACTORS
330
269
102
}
330
269
100
AcDbXrecord
340
0
  0
XRECORD
  5
281
102
{ACAD_REACTORS
330
269
102
}
330
269
100
AcDbXrecord
 70
     1
  0
XRECORD
  5
275
102
{ACAD_REACTORS
330
269
102
}
330
269
100
AcDbXrecord
  1
{04952082-104C-4DC1-976B-418C900118D5}
  0
DICTIONARYVAR
  5
213
102
{ACAD_REACTORS
330
212
102
}
330
212
100
DictionaryVariables
280
     0
  1
1
  0
ENDSEC
  0
EOF
