  0
SECTION
  2
HEADER
  9
$ACADVER
  1
AC1015
  9
$ACADMAINTVER
 70
     6
  9
$DWGCODEPAGE
  3
ANSI_1252
  9
$INSBASE
 10
0.0
 20
0.0
 30
0.0
  9
$EXTMIN
 10
0.2
 20
0.0
 30
0.0
  9
$EXTMAX
 10
366.8
 20
151.0
 30
0.0
  9
$LIMMIN
 10
0.0
 20
0.0
  9
$LIMMAX
 10
12.0
 20
9.0
  9
$ORTHOMODE
 70
     0
  9
$REGENMODE
 70
     1
  9
$FILLMODE
 70
     1
  9
$QTEXTMODE
 70
     0
  9
$MIRRTEXT
 70
     1
  9
$LTSCALE
 40
1.0
  9
$ATTMODE
 70
     1
  9
$TEXTSIZE
 40
0.2
  9
$TRACEWID
 40
0.05
  9
$TEXTSTYLE
  7
Standard
  9
$CLAYER
  8
0
  9
$CELTYPE
  6
ByBlock
  9
$CECOLOR
 62
   256
  9
$CELTSCALE
 40
1.0
  9
$DISPSILH
 70
     0
  9
$DIMSCALE
 40
1.0
  9
$DIMASZ
 40
0.18
  9
$DIMEXO
 40
0.0625
  9
$DIMDLI
 40
0.38
  9
$DIMRND
 40
0.0
  9
$DIMDLE
 40
0.0
  9
$DIMEXE
 40
0.18
  9
$DIMTP
 40
0.0
  9
$DIMTM
 40
0.0
  9
$DIMTXT
 40
0.18
  9
$DIMCEN
 40
0.09
  9
$DIMTSZ
 40
0.0
  9
$DIMTOL
 70
     0
  9
$DIMLIM
 70
     0
  9
$DIMTIH
 70
     1
  9
$DIMTOH
 70
     1
  9
$DIMSE1
 70
     0
  9
$DIMSE2
 70
     0
  9
$DIMTAD
 70
     0
  9
$DIMZIN
 70
     0
  9
$DIMBLK
  1

  9
$DIMASO
 70
     1
  9
$DIMSHO
 70
     1
  9
$DIMPOST
  1

  9
$DIMAPOST
  1

  9
$DIMALT
 70
     0
  9
$DIMALTD
 70
     2
  9
$DIMALTF
 40
25.4
  9
$DIMLFAC
 40
1.0
  9
$DIMTOFL
 70
     0
  9
$DIMTVP
 40
0.0
  9
$DIMTIX
 70
     0
  9
$DIMSOXD
 70
     0
  9
$DIMSAH
 70
     0
  9
$DIMBLK1
  1

  9
$DIMBLK2
  1

  9
$DIMSTYLE
  2
Standard
  9
$DIMCLRD
 70
     0
  9
$DIMCLRE
 70
     0
  9
$DIMCLRT
 70
     0
  9
$DIMTFAC
 40
1.0
  9
$DIMGAP
 40
0.09
  9
$DIMJUST
 70
     0
  9
$DIMSD1
 70
     0
  9
$DIMSD2
 70
     0
  9
$DIMTOLJ
 70
     1
  9
$DIMTZIN
 70
     0
  9
$DIMALTZ
 70
     0
  9
$DIMALTTZ
 70
     0
  9
$DIMUPT
 70
     0
  9
$DIMDEC
 70
     4
  9
$DIMTDEC
 70
     4
  9
$DIMALTU
 70
     2
  9
$DIMALTTD
 70
     2
  9
$DIMTXSTY
  7
Standard
  9
$DIMAUNIT
 70
     0
  9
$DIMADEC
 70
     0
  9
$DIMALTRND
 40
0.0
  9
$DIMAZIN
 70
     0
  9
$DIMDSEP
 70
    46
  9
$DIMATFIT
 70
     3
  9
$DIMFRAC
 70
     0
  9
$DIMLDRBLK
  1

  9
$DIMLUNIT
 70
     2
  9
$DIMLWD
 70
    -2
  9
$DIMLWE
 70
    -2
  9
$DIMTMOVE
 70
     2
  9
$LUNITS
 70
     2
  9
$LUPREC
 70
     4
  9
$SKETCHINC
 40
0.1
  9
$FILLETRAD
 40
0.5
  9
$AUNITS
 70
     0
  9
$AUPREC
 70
     0
  9
$MENU
  1
.
  9
$ELEVATION
 40
0.0
  9
$PELEVATION
 40
0.0
  9
$THICKNESS
 40
0.0
  9
$LIMCHECK
 70
     0
  9
$CHAMFERA
 40
0.5
  9
$CHAMFERB
 40
0.5
  9
$CHAMFERC
 40
1.0
  9
$CHAMFERD
 40
0.0
  9
$SKPOLY
 70
     0
  9
$TDCREATE
 40
2455873.347817373
  9
$TDUCREATE
 40
2455873.306150706
  9
$TDUPDATE
 40
2455873.361468276
  9
$TDUUPDATE
 40
2455873.319801609
  9
$TDINDWG
 40
0.013650544
  9
$TDUSRTIMER
 40
0.013650544
  9
$USRTIMER
 70
     1
  9
$ANGBASE
 50
0.0
  9
$ANGDIR
 70
     0
  9
$PDMODE
 70
     0
  9
$PDSIZE
 40
0.0
  9
$PLINEWID
 40
0.0
  9
$SPLFRAME
 70
     0
  9
$SPLINETYPE
 70
     6
  9
$SPLINESEGS
 70
     8
  9
$HANDSEED
  5
A14
  9
$SURFTAB1
 70
     6
  9
$SURFTAB2
 70
     6
  9
$SURFTYPE
 70
     6
  9
$SURFU
 70
     6
  9
$SURFV
 70
     6
  9
$UCSBASE
  2

  9
$UCSNAME
  2

  9
$UCSORG
 10
0.0
 20
0.0
 30
0.0
  9
$UCSXDIR
 10
1.0
 20
0.0
 30
0.0
  9
$UCSYDIR
 10
0.0
 20
1.0
 30
0.0
  9
$UCSORTHOREF
  2

  9
$UCSORTHOVIEW
 70
     0
  9
$UCSORGTOP
 10
0.0
 20
0.0
 30
0.0
  9
$UCSORGBOTTOM
 10
0.0
 20
0.0
 30
0.0
  9
$UCSORGLEFT
 10
0.0
 20
0.0
 30
0.0
  9
$UCSORGRIGHT
 10
0.0
 20
0.0
 30
0.0
  9
$UCSORGFRONT
 10
0.0
 20
0.0
 30
0.0
  9
$UCSORGBACK
 10
0.0
 20
0.0
 30
0.0
  9
$PUCSBASE
  2

  9
$PUCSNAME
  2

  9
$PUCSORG
 10
0.0
 20
0.0
 30
0.0
  9
$PUCSXDIR
 10
1.0
 20
0.0
 30
0.0
  9
$PUCSYDIR
 10
0.0
 20
1.0
 30
0.0
  9
$PUCSORTHOREF
  2

  9
$PUCSORTHOVIEW
 70
     0
  9
$PUCSORGTOP
 10
0.0
 20
0.0
 30
0.0
  9
$PUCSORGBOTTOM
 10
0.0
 20
0.0
 30
0.0
  9
$PUCSORGLEFT
 10
0.0
 20
0.0
 30
0.0
  9
$PUCSORGRIGHT
 10
0.0
 20
0.0
 30
0.0
  9
$PUCSORGFRONT
 10
0.0
 20
0.0
 30
0.0
  9
$PUCSORGBACK
 10
0.0
 20
0.0
 30
0.0
  9
$USERI1
 70
     0
  9
$USERI2
 70
     0
  9
$USERI3
 70
     0
  9
$USERI4
 70
     0
  9
$USERI5
 70
     0
  9
$USERR1
 40
0.0
  9
$USERR2
 40
0.0
  9
$USERR3
 40
0.0
  9
$USERR4
 40
0.0
  9
$USERR5
 40
0.0
  9
$WORLDVIEW
 70
     1
  9
$SHADEDGE
 70
     3
  9
$SHADEDIF
 70
    70
  9
$TILEMODE
 70
     1
  9
$MAXACTVP
 70
    64
  9
$PINSBASE
 10
0.0
 20
0.0
 30
0.0
  9
$PLIMCHECK
 70
     0
  9
$PEXTMIN
 10
1.000000000000E+20
 20
1.000000000000E+20
 30
1.000000000000E+20
  9
$PEXTMAX
 10
-1.000000000000E+20
 20
-1.000000000000E+20
 30
-1.000000000000E+20
  9
$PLIMMIN
 10
0.0
 20
0.0
  9
$PLIMMAX
 10
12.0
 20
9.0
  9
$UNITMODE
 70
     0
  9
$VISRETAIN
 70
     1
  9
$PLINEGEN
 70
     0
  9
$PSLTSCALE
 70
     1
  9
$TREEDEPTH
 70
  3020
  9
$CMLSTYLE
  2
Standard
  9
$CMLJUST
 70
     0
  9
$CMLSCALE
 40
1.0
  9
$PROXYGRAPHICS
 70
     1
  9
$MEASUREMENT
 70
     0
  9
$CELWEIGHT
370
    -1
  9
$ENDCAPS
280
     0
  9
$JOINSTYLE
280
     0
  9
$LWDISPLAY
290
     0
  9
$INSUNITS
 70
     0
  9
$HYPERLINKBASE
  1

  9
$STYLESHEET
  1

  9
$XEDIT
290
     1
  9
$CEPSNTYPE
380
     0
  9
$PSTYLEMODE
290
     1
  9
$FINGERPRINTGUID
  2
{F4B69B75-CFBF-4DBB-83AC-0558602B79DC}
  9
$VERSIONGUID
  2
{FAEB1C32-E019-11D5-929B-00C0DF256EC4}
  9
$EXTNAMES
290
     1
  9
$PSVPSCALE
 40
0.0
  9
$OLESTARTUP
290
     0
  0
ENDSEC
  0
SECTION
  2
CLASSES
  0
CLASS
  1
ACDBDICTIONARYWDFLT
  2
AcDbDictionaryWithDefault
  3
ObjectDBX Classes
 90
        0
280
     0
281
     0
  0
CLASS
  1
SCALE
  2
AcDbScale
  3
ObjectDBX Classes
 90
     1153
280
     0
281
     0
  0
CLASS
  1
DICTIONARYVAR
  2
AcDbDictionaryVar
  3
ObjectDBX Classes
 90
        0
280
     0
281
     0
  0
CLASS
  1
ACDBPLACEHOLDER
  2
AcDbPlaceHolder
  3
ObjectDBX Classes
 90
        0
280
     0
281
     0
  0
CLASS
  1
LAYOUT
  2
AcDbLayout
  3
ObjectDBX Classes
 90
        0
280
     0
281
     0
  0
ENDSEC
  0
SECTION
  2
TABLES
  0
TABLE
  2
VPORT
  5
8
330
0
100
AcDbSymbolTable
 70
     1
  0
VPORT
  5
793
330
8
100
AcDbSymbolTableRecord
100
AcDbViewportTableRecord
  2
*Active
 70
     0
 10
0.0
 20
0.0
 11
1.0
 21
1.0
 12
183.4
 22
75.5
 13
0.0
 23
0.0
 14
0.5
 24
0.5
 15
0.5
 25
0.5
 16
0.0
 26
0.0
 36
1.0
 17
0.0
 27
0.0
 37
0.0
 40
164.692531876138
 41
2.271724137931
 42
50.0
 43
0.0
 44
0.0
 50
0.0
 51
0.0
 71
    16
 72
   100
 73
     1
 74
     3
 75
     0
 76
     0
 77
     0
 78
     0
281
     0
 65
     1
110
0.0
120
0.0
130
0.0
111
1.0
121
0.0
131
0.0
112
0.0
122
1.0
132
0.0
 79
     0
146
0.0
  0
ENDTAB
  0
TABLE
  2
LTYPE
  5
5
330
0
100
AcDbSymbolTable
 70
     1
  0
LTYPE
  5
14
330
5
100
AcDbSymbolTableRecord
100
AcDbLinetypeTableRecord
  2
ByBlock
 70
     0
  3

 72
    65
 73
     0
 40
0.0
  0
LTYPE
  5
15
330
5
100
AcDbSymbolTableRecord
100
AcDbLinetypeTableRecord
  2
ByLayer
 70
     0
  3

 72
    65
 73
     0
 40
0.0
  0
LTYPE
  5
16
330
5
100
AcDbSymbolTableRecord
100
AcDbLinetypeTableRecord
  2
Continuous
 70
     0
  3
Solid line
 72
    65
 73
     0
 40
0.0
  0
ENDTAB
  0
TABLE
  2
LAYER
  5
2
330
0
100
AcDbSymbolTable
 70
     1
  0
LAYER
  5
10
330
2
100
AcDbSymbolTableRecord
100
AcDbLayerTableRecord
  2
0
 70
     0
 62
     7
  6
Continuous
370
    -3
390
F
  0
ENDTAB
  0
TABLE
  2
STYLE
  5
3
330
0
100
AcDbSymbolTable
 70
     1
  0
STYLE
  5
11
330
3
100
AcDbSymbolTableRecord
100
AcDbTextStyleTableRecord
  2
Standard
 70
     0
 40
0.0
 41
1.0
 50
0.0
 71
     0
 42
0.2
  3
txt
  4

  0
ENDTAB
  0
TABLE
  2
VIEW
  5
6
330
0
100
AcDbSymbolTable
 70
     0
  0
ENDTAB
  0
TABLE
  2
UCS
  5
7
330
0
100
AcDbSymbolTable
 70
     0
  0
ENDTAB
  0
TABLE
  2
APPID
  5
9
330
0
100
AcDbSymbolTable
 70
     1
  0
APPID
  5
12
330
9
100
AcDbSymbolTableRecord
100
AcDbRegAppTableRecord
  2
ACAD
 70
     0
  0
ENDTAB
  0
TABLE
  2
DIMSTYLE
  5
A
330
0
100
AcDbSymbolTable
 70
     1
100
AcDbDimStyleTable
  0
DIMSTYLE
105
20
330
A
100
AcDbSymbolTableRecord
100
AcDbDimStyleTableRecord
  2
Standard
 70
     0
340
11
  0
ENDTAB
  0
TABLE
  2
BLOCK_RECORD
  5
1
330
0
100
AcDbSymbolTable
 70
     0
  0
BLOCK_RECORD
  5
1D
330
1
100
AcDbSymbolTableRecord
100
AcDbBlockTableRecord
  2
*Model_Space
340
1E
  0
BLOCK_RECORD
  5
1B
330
1
100
AcDbSymbolTableRecord
100
AcDbBlockTableRecord
  2
*Paper_Space
340
1C
  0
ENDTAB
  0
ENDSEC
  0
SECTION
  2
BLOCKS
  0
BLOCK
  5
796
330
1D
100
AcDbEntity
  8
0
100
AcDbBlockBegin
  2
*Model_Space
 70
     0
 10
0.0
 20
0.0
 30
0.0
  3
*Model_Space
  1
*Model_Space
  0
ENDBLK
  5
797
330
1D
100
AcDbEntity
  8
0
100
AcDbBlockEnd
  0
BLOCK
  5
794
330
1B
100
AcDbEntity
 67
     1
  8
0
100
AcDbBlockBegin
  2
*Paper_Space
 70
     0
 10
0.0
 20
0.0
 30
0.0
  3
*Paper_Space
  1
*Paper_Space
  0
ENDBLK
  5
795
330
1B
100
AcDbEntity
 67
     1
  8
0
100
AcDbBlockEnd
  0
ENDSEC
  0
SECTION
  2
ENTITIES
  0
LINE
  5
21
330
1D
100
AcDbEntity
  8
0
100
AcDbLine
 10
182.674
 20
0.0
 30
0.0
 11
183.5
 21
0.0
 31
0.0
  0
LINE
  5
22
330
1D
100
AcDbEntity
  8
0
100
AcDbLine
 10
76.3212
 20
0.0
 30
0.0
 11
79.1597
 21
0.0
 31
0.0
  0
LINE
  5
23
330
1D
100
AcDbEntity
  8
0
100
AcDbLine
 10
73.4638
 20
0.0
 30
0.0
 11
76.3212
 21
0.0
 31
0.0
  0
LINE
  5
24
330
1D
100
AcDbEntity
  8
0
100
AcDbLine
 10
81.952
 20
0.0
 30
0.0
 11
84.6753
 21
0.0
 31
0.0
  0
LINE
  5
25
330
1D
100
AcDbEntity
  8
0
100
AcDbLine
 10
79.1597
 20
0.0
 30
0.0
 11
81.952
 21
0.0
 31
0.0
  0
LINE
  5
26
330
1D
100
AcDbEntity
  8
0
100
AcDbLine
 10
70.6133
 20
0.0
 30
0.0
 11
73.4638
 21
0.0
 31
0.0
  0
LINE
  5
27
330
1D
100
AcDbEntity
  8
0
100
AcDbLine
 10
67.7939
 20
0.0
 30
0.0
 11
70.6133
 21
0.0
 31
0.0
  0
LINE
  5
28
330
1D
100
AcDbEntity
  8
0
100
AcDbLine
 10
74.4239
 20
0.0
 30
0.0
 11
77.1212
 21
0.0
 31
0.0
  0
LINE
  5
29
330
1D
100
AcDbEntity
  8
0
100
AcDbLine
 10
79.7904
 20
0.0
 30
0.0
 11
82.4046
 21
0.0
 31
0.0
  0
LINE
  5
2A
330
1D
100
AcDbEntity
  8
0
100
AcDbLine
 10
77.1212
 20
0.0
 30
0.0
 11
79.7904
 21
0.0
 31
0.0
  0
LINE
  5
2B
330
1D
100
AcDbEntity
  8
0
100
AcDbLine
 10
71.7247
 20
0.0
 30
0.0
 11
74.4239
 21
0.0
 31
0.0
  0
LINE
  5
2C
330
1D
100
AcDbEntity
  8
0
100
AcDbLine
 10
69.0474
 20
0.0
 30
0.0
 11
71.7247
 21
0.0
 31
0.0
  0
LINE
  5
2D
330
1D
100
AcDbEntity
  8
0
100
AcDbLine
 10
66.4212
 20
0.0
 30
0.0
 11
69.0474
 21
0.0
 31
0.0
  0
LINE
  5
2E
330
1D
100
AcDbEntity
  8
0
100
AcDbLine
 10
87.3025
 20
0.0
 30
0.0
 11
89.8106
 21
0.0
 31
0.0
  0
LINE
  5
2F
330
1D
100
AcDbEntity
  8
0
100
AcDbLine
 10
84.6753
 20
0.0
 30
0.0
 11
87.3025
 21
0.0
 31
0.0
  0
LINE
  5
30
330
1D
100
AcDbEntity
  8
0
100
AcDbLine
 10
65.0325
 20
0.0
 30
0.0
 11
67.7939
 21
0.0
 31
0.0
  0
LINE
  5
31
330
1D
100
AcDbEntity
  8
0
100
AcDbLine
 10
62.3543
 20
0.0
 30
0.0
 11
65.0325
 21
0.0
 31
0.0
  0
LINE
  5
32
330
1D
100
AcDbEntity
  8
0
100
AcDbLine
 10
63.8681
 20
0.0
 30
0.0
 11
66.4212
 21
0.0
 31
0.0
  0
LINE
  5
33
330
1D
100
AcDbEntity
  8
0
100
AcDbLine
 10
61.4152
 20
0.0
 30
0.0
 11
63.8681
 21
0.0
 31
0.0
  0
LINE
  5
34
330
1D
100
AcDbEntity
  8
0
100
AcDbLine
 10
87.3726
 20
0.0
 30
0.0
 11
89.6774
 21
0.0
 31
0.0
  0
LINE
  5
35
330
1D
100
AcDbEntity
  8
0
100
AcDbLine
 10
84.9407
 20
0.0
 30
0.0
 11
87.3726
 21
0.0
 31
0.0
  0
LINE
  5
36
330
1D
100
AcDbEntity
  8
0
100
AcDbLine
 10
82.4046
 20
0.0
 30
0.0
 11
84.9407
 21
0.0
 31
0.0
  0
LINE
  5
37
330
1D
100
AcDbEntity
  8
0
100
AcDbLine
 10
92.1774
 20
0.0
 30
0.0
 11
94.3811
 21
0.0
 31
0.0
  0
LINE
  5
38
330
1D
100
AcDbEntity
  8
0
100
AcDbLine
 10
89.8106
 20
0.0
 30
0.0
 11
92.1774
 21
0.0
 31
0.0
  0
LINE
  5
39
330
1D
100
AcDbEntity
  8
0
100
AcDbLine
 10
59.7832
 20
0.0
 30
0.0
 11
62.3543
 21
0.0
 31
0.0
  0
LINE
  5
3A
330
1D
100
AcDbEntity
  8
0
100
AcDbLine
 10
57.3422
 20
0.0
 30
0.0
 11
59.7832
 21
0.0
 31
0.0
  0
LINE
  5
3B
330
1D
100
AcDbEntity
  8
0
100
AcDbLine
 10
59.0853
 20
0.0
 30
0.0
 11
61.4152
 21
0.0
 31
0.0
  0
LINE
  5
3C
330
1D
100
AcDbEntity
  8
0
100
AcDbLine
 10
56.9007
 20
0.0
 30
0.0
 11
59.0853
 21
0.0
 31
0.0
  0
LINE
  5
3D
330
1D
100
AcDbEntity
  8
0
100
AcDbLine
 10
54.8823
 20
0.0
 30
0.0
 11
56.9007
 21
0.0
 31
0.0
  0
LINE
  5
3E
330
1D
100
AcDbEntity
  8
0
100
AcDbLine
 10
93.8184
 20
0.0
 30
0.0
 11
95.6146
 21
0.0
 31
0.0
  0
LINE
  5
3F
330
1D
100
AcDbEntity
  8
0
100
AcDbLine
 10
91.833
 20
0.0
 30
0.0
 11
93.8184
 21
0.0
 31
0.0
  0
LINE
  5
40
330
1D
100
AcDbEntity
  8
0
100
AcDbLine
 10
89.6774
 20
0.0
 30
0.0
 11
91.833
 21
0.0
 31
0.0
  0
LINE
  5
41
330
1D
100
AcDbEntity
  8
0
100
AcDbLine
 10
96.4016
 20
0.0
 30
0.0
 11
98.2218
 21
0.0
 31
0.0
  0
LINE
  5
42
330
1D
100
AcDbEntity
  8
0
100
AcDbLine
 10
94.3811
 20
0.0
 30
0.0
 11
96.4016
 21
0.0
 31
0.0
  0
LINE
  5
43
330
1D
100
AcDbEntity
  8
0
100
AcDbLine
 10
55.0535
 20
0.0
 30
0.0
 11
57.3422
 21
0.0
 31
0.0
  0
LINE
  5
44
330
1D
100
AcDbEntity
  8
0
100
AcDbLine
 10
52.9379
 20
0.0
 30
0.0
 11
55.0535
 21
0.0
 31
0.0
  0
LINE
  5
45
330
1D
100
AcDbEntity
  8
0
100
AcDbLine
 10
53.049
 20
0.0
 30
0.0
 11
54.8823
 21
0.0
 31
0.0
  0
LINE
  5
46
330
1D
100
AcDbEntity
  8
0
100
AcDbLine
 10
95.6146
 20
0.0
 30
0.0
 11
97.2045
 21
0.0
 31
0.0
  0
LINE
  5
47
330
1D
100
AcDbEntity
  8
0
100
AcDbLine
 10
98.2218
 20
0.0
 30
0.0
 11
99.8237
 21
0.0
 31
0.0
  0
LINE
  5
48
330
1D
100
AcDbEntity
  8
0
100
AcDbLine
 10
51.0146
 20
0.0
 30
0.0
 11
52.9379
 21
0.0
 31
0.0
  0
LINE
  5
49
330
1D
100
AcDbEntity
  8
0
100
AcDbLine
 10
49.3015
 20
0.0
 30
0.0
 11
51.0146
 21
0.0
 31
0.0
  0
LINE
  5
4A
330
1D
100
AcDbEntity
  8
0
100
AcDbLine
 10
51.4201
 20
0.0
 30
0.0
 11
53.049
 21
0.0
 31
0.0
  0
LINE
  5
4B
330
1D
100
AcDbEntity
  8
0
100
AcDbLine
 10
97.2045
 20
0.0
 30
0.0
 11
98.5722
 21
0.0
 31
0.0
  0
LINE
  5
4C
330
1D
100
AcDbEntity
  8
0
100
AcDbLine
 10
99.8237
 20
0.0
 30
0.0
 11
101.1924
 21
0.0
 31
0.0
  0
LINE
  5
4D
330
1D
100
AcDbEntity
  8
0
100
AcDbLine
 10
50.0093
 20
0.0
 30
0.0
 11
51.4201
 21
0.0
 31
0.0
  0
LINE
  5
4E
330
1D
100
AcDbEntity
  8
0
100
AcDbLine
 10
48.8329
 20
0.0
 30
0.0
 11
50.0093
 21
0.0
 31
0.0
  0
LINE
  5
4F
330
1D
100
AcDbEntity
  8
0
100
AcDbLine
 10
98.5722
 20
0.0
 30
0.0
 11
99.7056
 21
0.0
 31
0.0
  0
LINE
  5
50
330
1D
100
AcDbEntity
  8
0
100
AcDbLine
 10
99.7056
 20
0.0
 30
0.0
 11
100.5926
 21
0.0
 31
0.0
  0
LINE
  5
51
330
1D
100
AcDbEntity
  8
0
100
AcDbLine
 10
102.3167
 20
0.0
 30
0.0
 11
103.1868
 21
0.0
 31
0.0
  0
LINE
  5
52
330
1D
100
AcDbEntity
  8
0
100
AcDbLine
 10
101.1924
 20
0.0
 30
0.0
 11
102.3167
 21
0.0
 31
0.0
  0
LINE
  5
53
330
1D
100
AcDbEntity
  8
0
100
AcDbLine
 10
47.8137
 20
0.0
 30
0.0
 11
49.3015
 21
0.0
 31
0.0
  0
LINE
  5
54
330
1D
100
AcDbEntity
  8
0
100
AcDbLine
 10
46.5642
 20
0.0
 30
0.0
 11
47.8137
 21
0.0
 31
0.0
  0
LINE
  5
55
330
1D
100
AcDbEntity
  8
0
100
AcDbLine
 10
47.8998
 20
0.0
 30
0.0
 11
48.8329
 21
0.0
 31
0.0
  0
LINE
  5
56
330
1D
100
AcDbEntity
  8
0
100
AcDbLine
 10
100.5926
 20
0.0
 30
0.0
 11
101.2244
 21
0.0
 31
0.0
  0
LINE
  5
57
330
1D
100
AcDbEntity
  8
0
100
AcDbLine
 10
103.1868
 20
0.0
 30
0.0
 11
103.7945
 21
0.0
 31
0.0
  0
LINE
  5
58
330
1D
100
AcDbEntity
  8
0
100
AcDbLine
 10
45.564
 20
0.0
 30
0.0
 11
46.5642
 21
0.0
 31
0.0
  0
LINE
  5
59
330
1D
100
AcDbEntity
  8
0
100
AcDbLine
 10
150.1545
 20
0.0
 30
0.0
 11
151.3198
 21
0.0
 31
0.0
  0
LINE
  5
5A
330
1D
100
AcDbEntity
  8
0
100
AcDbLine
 10
149.2912
 20
0.0
 30
0.0
 11
150.1545
 21
0.0
 31
0.0
  0
LINE
  5
5B
330
1D
100
AcDbEntity
  8
0
100
AcDbLine
 10
44.1452
 20
0.0
 30
0.0
 11
44.3495
 21
0.0
 31
0.0
  0
LINE
  5
5C
330
1D
100
AcDbEntity
  8
0
100
AcDbLine
 10
47.218
 20
0.0
 30
0.0
 11
47.8998
 21
0.0
 31
0.0
  0
LINE
  5
5D
330
1D
100
AcDbEntity
  8
0
100
AcDbLine
 10
101.2244
 20
0.0
 30
0.0
 11
101.5968
 21
0.0
 31
0.0
  0
LINE
  5
5E
330
1D
100
AcDbEntity
  8
0
100
AcDbLine
 10
103.7945
 20
0.0
 30
0.0
 11
104.1329
 21
0.0
 31
0.0
  0
LINE
  5
5F
330
1D
100
AcDbEntity
  8
0
100
AcDbLine
 10
44.8241
 20
0.0
 30
0.0
 11
45.564
 21
0.0
 31
0.0
  0
LINE
  5
60
330
1D
100
AcDbEntity
  8
0
100
AcDbLine
 10
46.7975
 20
0.0
 30
0.0
 11
47.218
 21
0.0
 31
0.0
  0
LINE
  5
61
330
1D
100
AcDbEntity
  8
0
100
AcDbLine
 10
101.5968
 20
0.0
 30
0.0
 11
103.7945
 21
0.0
 31
0.0
  0
LINE
  5
62
330
1D
100
AcDbEntity
  8
0
100
AcDbLine
 10
101.5968
 20
0.0
 30
0.0
 11
101.6949
 21
0.0
 31
0.0
  0
LINE
  5
63
330
1D
100
AcDbEntity
  8
0
100
AcDbLine
 10
101.5968
 20
0.0
 30
0.0
 11
104.1329
 21
0.0
 31
0.0
  0
LINE
  5
64
330
1D
100
AcDbEntity
  8
0
100
AcDbLine
 10
104.1329
 20
0.0
 30
0.0
 11
104.1831
 21
0.0
 31
0.0
  0
LINE
  5
65
330
1D
100
AcDbEntity
  8
0
100
AcDbLine
 10
44.3495
 20
0.0
 30
0.0
 11
44.8241
 21
0.0
 31
0.0
  0
LINE
  5
66
330
1D
100
AcDbEntity
  8
0
100
AcDbLine
 10
44.1452
 20
0.0
 30
0.0
 11
44.1452
 21
7.78613
 31
0.0
  0
LINE
  5
67
330
1D
100
AcDbEntity
  8
0
100
AcDbLine
 10
44.1452
 20
0.0
 30
0.0
 11
44.3495
 21
0.0
 31
0.0
  0
LINE
  5
68
330
1D
100
AcDbEntity
  8
0
100
AcDbLine
 10
44.1452
 20
0.0
 30
0.0
 11
46.3847
 21
0.0
 31
0.0
  0
LINE
  5
69
330
1D
100
AcDbEntity
  8
0
100
AcDbLine
 10
148.5
 20
0.0
 30
0.0
 11
148.7381
 21
0.0
 31
0.0
  0
LINE
  5
6A
330
1D
100
AcDbEntity
  8
0
100
AcDbLine
 10
148.5
 20
0.0
 30
0.0
 11
148.579
 21
0.0
 31
0.0
  0
LINE
  5
6B
330
1D
100
AcDbEntity
  8
0
100
AcDbLine
 10
148.5
 20
0.0
 30
0.0
 11
148.579
 21
0.0
 31
0.0
  0
LINE
  5
6C
330
1D
100
AcDbEntity
  8
0
100
AcDbLine
 10
148.5
 20
0.0
 30
0.0
 11
148.5
 21
7.69236
 31
0.0
  0
LINE
  5
6D
330
1D
100
AcDbEntity
  8
0
100
AcDbLine
 10
148.5
 20
0.0
 30
0.0
 11
148.7381
 21
0.0
 31
0.0
  0
LINE
  5
6E
330
1D
100
AcDbEntity
  8
0
100
AcDbLine
 10
148.7381
 20
0.0
 30
0.0
 11
149.2912
 21
0.0
 31
0.0
  0
LINE
  5
6F
330
1D
100
AcDbEntity
  8
0
100
AcDbLine
 10
44.1452
 20
0.0
 30
0.0
 11
44.3495
 21
0.0
 31
0.0
  0
LINE
  5
70
330
1D
100
AcDbEntity
  8
0
100
AcDbLine
 10
44.1452
 20
0.0
 30
0.0
 11
46.3847
 21
0.0
 31
0.0
  0
LINE
  5
71
330
1D
100
AcDbEntity
  8
0
100
AcDbLine
 10
44.1452
 20
0.0
 30
0.0
 11
44.3495
 21
0.0
 31
0.0
  0
LINE
  5
72
330
1D
100
AcDbEntity
  8
0
100
AcDbLine
 10
44.1452
 20
0.0
 30
0.0
 11
44.1452
 21
7.78613
 31
0.0
  0
LINE
  5
73
330
1D
100
AcDbEntity
  8
0
100
AcDbLine
 10
46.6403
 20
0.0
 30
0.0
 11
46.7975
 21
0.0
 31
0.0
  0
LINE
  5
74
330
1D
100
AcDbEntity
  8
0
100
AcDbLine
 10
44.1622
 20
0.0
 30
0.0
 11
46.3847
 21
0.0
 31
0.0
  0
LINE
  5
75
330
1D
100
AcDbEntity
  8
0
100
AcDbLine
 10
104.1831
 20
0.0
 30
0.0
 11
104.1831
 21
7.78613
 31
0.0
  0
LINE
  5
76
330
1D
100
AcDbEntity
  8
0
100
AcDbLine
 10
104.1329
 20
0.0
 30
0.0
 11
104.1831
 21
0.0
 31
0.0
  0
LINE
  5
77
330
1D
100
AcDbEntity
  8
0
100
AcDbLine
 10
101.5968
 20
0.0
 30
0.0
 11
103.7945
 21
0.0
 31
0.0
  0
LINE
  5
78
330
1D
100
AcDbEntity
  8
0
100
AcDbLine
 10
101.5968
 20
0.0
 30
0.0
 11
101.6949
 21
0.0
 31
0.0
  0
LINE
  5
79
330
1D
100
AcDbEntity
  8
0
100
AcDbLine
 10
101.5968
 20
0.0
 30
0.0
 11
104.1329
 21
0.0
 31
0.0
  0
LINE
  5
7A
330
1D
100
AcDbEntity
  8
0
100
AcDbLine
 10
46.6403
 20
0.0
 30
0.0
 11
46.7975
 21
0.0
 31
0.0
  0
LINE
  5
7B
330
1D
100
AcDbEntity
  8
0
100
AcDbLine
 10
150.0004
 20
0.0
 30
0.0
 11
150.2285
 21
0.0
 31
0.0
  0
LINE
  5
7C
330
1D
100
AcDbEntity
  8
0
100
AcDbLine
 10
150.0004
 20
0.0
 30
0.0
 11
150.0744
 21
0.0
 31
0.0
  0
LINE
  5
7D
330
1D
100
AcDbEntity
  8
0
100
AcDbLine
 10
150.2285
 20
0.0
 30
0.0
 11
150.7576
 21
0.0
 31
0.0
  0
LINE
  5
7E
330
1D
100
AcDbEntity
  8
0
100
AcDbLine
 10
150.0744
 20
0.0
 30
0.0
 11
150.4536
 21
0.0
 31
0.0
  0
LINE
  5
7F
330
1D
100
AcDbEntity
  8
0
100
AcDbLine
 10
103.7945
 20
0.0
 30
0.0
 11
104.1329
 21
0.0
 31
0.0
  0
LINE
  5
80
330
1D
100
AcDbEntity
  8
0
100
AcDbLine
 10
101.2244
 20
0.0
 30
0.0
 11
101.5968
 21
0.0
 31
0.0
  0
LINE
  5
81
330
1D
100
AcDbEntity
  8
0
100
AcDbLine
 10
46.7975
 20
0.0
 30
0.0
 11
47.218
 21
0.0
 31
0.0
  0
LINE
  5
82
330
1D
100
AcDbEntity
  8
0
100
AcDbLine
 10
47.218
 20
0.0
 30
0.0
 11
47.8998
 21
0.0
 31
0.0
  0
LINE
  5
83
330
1D
100
AcDbEntity
  8
0
100
AcDbLine
 10
44.3495
 20
0.0
 30
0.0
 11
44.8241
 21
0.0
 31
0.0
  0
LINE
  5
84
330
1D
100
AcDbEntity
  8
0
100
AcDbLine
 10
45.564
 20
0.0
 30
0.0
 11
46.5642
 21
0.0
 31
0.0
  0
LINE
  5
85
330
1D
100
AcDbEntity
  8
0
100
AcDbLine
 10
47.8998
 20
0.0
 30
0.0
 11
48.8329
 21
0.0
 31
0.0
  0
LINE
  5
86
330
1D
100
AcDbEntity
  8
0
100
AcDbLine
 10
46.5642
 20
0.0
 30
0.0
 11
47.8137
 21
0.0
 31
0.0
  0
LINE
  5
87
330
1D
100
AcDbEntity
  8
0
100
AcDbLine
 10
44.8241
 20
0.0
 30
0.0
 11
45.564
 21
0.0
 31
0.0
  0
LINE
  5
88
330
1D
100
AcDbEntity
  8
0
100
AcDbLine
 10
100.5926
 20
0.0
 30
0.0
 11
101.2244
 21
0.0
 31
0.0
  0
LINE
  5
89
330
1D
100
AcDbEntity
  8
0
100
AcDbLine
 10
103.1868
 20
0.0
 30
0.0
 11
103.7945
 21
0.0
 31
0.0
  0
LINE
  5
8A
330
1D
100
AcDbEntity
  8
0
100
AcDbLine
 10
102.3167
 20
0.0
 30
0.0
 11
103.1868
 21
0.0
 31
0.0
  0
LINE
  5
8B
330
1D
100
AcDbEntity
  8
0
100
AcDbLine
 10
99.7056
 20
0.0
 30
0.0
 11
100.5926
 21
0.0
 31
0.0
  0
LINE
  5
8C
330
1D
100
AcDbEntity
  8
0
100
AcDbLine
 10
48.8329
 20
0.0
 30
0.0
 11
50.0093
 21
0.0
 31
0.0
  0
LINE
  5
8D
330
1D
100
AcDbEntity
  8
0
100
AcDbLine
 10
148.9731
 20
0.0
 30
0.0
 11
149.6813
 21
0.0
 31
0.0
  0
LINE
  5
8E
330
1D
100
AcDbEntity
  8
0
100
AcDbLine
 10
149.6813
 20
0.0
 30
0.0
 11
150.6946
 21
0.0
 31
0.0
  0
LINE
  5
8F
330
1D
100
AcDbEntity
  8
0
100
AcDbLine
 10
148.579
 20
0.0
 30
0.0
 11
148.9731
 21
0.0
 31
0.0
  0
LINE
  5
90
330
1D
100
AcDbEntity
  8
0
100
AcDbLine
 10
150.4536
 20
0.0
 30
0.0
 11
151.1308
 21
0.0
 31
0.0
  0
LINE
  5
91
330
1D
100
AcDbEntity
  8
0
100
AcDbLine
 10
98.5722
 20
0.0
 30
0.0
 11
99.7056
 21
0.0
 31
0.0
  0
LINE
  5
92
330
1D
100
AcDbEntity
  8
0
100
AcDbLine
 10
50.0093
 20
0.0
 30
0.0
 11
51.4201
 21
0.0
 31
0.0
  0
LINE
  5
93
330
1D
100
AcDbEntity
  8
0
100
AcDbLine
 10
51.4201
 20
0.0
 30
0.0
 11
53.049
 21
0.0
 31
0.0
  0
LINE
  5
94
330
1D
100
AcDbEntity
  8
0
100
AcDbLine
 10
53.049
 20
0.0
 30
0.0
 11
54.8823
 21
0.0
 31
0.0
  0
LINE
  5
95
330
1D
100
AcDbEntity
  8
0
100
AcDbLine
 10
54.8823
 20
0.0
 30
0.0
 11
56.9007
 21
0.0
 31
0.0
  0
LINE
  5
96
330
1D
100
AcDbEntity
  8
0
100
AcDbLine
 10
51.0146
 20
0.0
 30
0.0
 11
52.9379
 21
0.0
 31
0.0
  0
LINE
  5
97
330
1D
100
AcDbEntity
  8
0
100
AcDbLine
 10
93.8184
 20
0.0
 30
0.0
 11
95.6146
 21
0.0
 31
0.0
  0
LINE
  5
98
330
1D
100
AcDbEntity
  8
0
100
AcDbLine
 10
95.6146
 20
0.0
 30
0.0
 11
97.2045
 21
0.0
 31
0.0
  0
LINE
  5
99
330
1D
100
AcDbEntity
  8
0
100
AcDbLine
 10
98.2218
 20
0.0
 30
0.0
 11
99.8237
 21
0.0
 31
0.0
  0
LINE
  5
9A
330
1D
100
AcDbEntity
  8
0
100
AcDbLine
 10
97.2045
 20
0.0
 30
0.0
 11
98.5722
 21
0.0
 31
0.0
  0
LINE
  5
9B
330
1D
100
AcDbEntity
  8
0
100
AcDbLine
 10
96.4016
 20
0.0
 30
0.0
 11
98.2218
 21
0.0
 31
0.0
  0
LINE
  5
9C
330
1D
100
AcDbEntity
  8
0
100
AcDbLine
 10
49.3015
 20
0.0
 30
0.0
 11
51.0146
 21
0.0
 31
0.0
  0
LINE
  5
9D
330
1D
100
AcDbEntity
  8
0
100
AcDbLine
 10
47.8137
 20
0.0
 30
0.0
 11
49.3015
 21
0.0
 31
0.0
  0
LINE
  5
9E
330
1D
100
AcDbEntity
  8
0
100
AcDbLine
 10
101.1924
 20
0.0
 30
0.0
 11
102.3167
 21
0.0
 31
0.0
  0
LINE
  5
9F
330
1D
100
AcDbEntity
  8
0
100
AcDbLine
 10
99.8237
 20
0.0
 30
0.0
 11
101.1924
 21
0.0
 31
0.0
  0
LINE
  5
A0
330
1D
100
AcDbEntity
  8
0
100
AcDbLine
 10
150.6946
 20
0.0
 30
0.0
 11
152.006
 21
0.0
 31
0.0
  0
LINE
  5
A1
330
1D
100
AcDbEntity
  8
0
100
AcDbLine
 10
151.1308
 20
0.0
 30
0.0
 11
152.101
 21
0.0
 31
0.0
  0
LINE
  5
A2
330
1D
100
AcDbEntity
  8
0
100
AcDbLine
 10
150.7576
 20
0.0
 30
0.0
 11
151.5839
 21
0.0
 31
0.0
  0
LINE
  5
A3
330
1D
100
AcDbEntity
  8
0
100
AcDbLine
 10
153.3564
 20
0.0
 30
0.0
 11
154.8828
 21
0.0
 31
0.0
  0
LINE
  5
A4
330
1D
100
AcDbEntity
  8
0
100
AcDbLine
 10
152.101
 20
0.0
 30
0.0
 11
153.3564
 21
0.0
 31
0.0
  0
LINE
  5
A5
330
1D
100
AcDbEntity
  8
0
100
AcDbLine
 10
153.6015
 20
0.0
 30
0.0
 11
155.469
 21
0.0
 31
0.0
  0
LINE
  5
A6
330
1D
100
AcDbEntity
  8
0
100
AcDbLine
 10
152.006
 20
0.0
 30
0.0
 11
153.6015
 21
0.0
 31
0.0
  0
LINE
  5
A7
330
1D
100
AcDbEntity
  8
0
100
AcDbLine
 10
151.5839
 20
0.0
 30
0.0
 11
152.6992
 21
0.0
 31
0.0
  0
LINE
  5
A8
330
1D
100
AcDbEntity
  8
0
100
AcDbLine
 10
152.6992
 20
0.0
 30
0.0
 11
154.0926
 21
0.0
 31
0.0
  0
LINE
  5
A9
330
1D
100
AcDbEntity
  8
0
100
AcDbLine
 10
151.3198
 20
0.0
 30
0.0
 11
152.7762
 21
0.0
 31
0.0
  0
LINE
  5
AA
330
1D
100
AcDbEntity
  8
0
100
AcDbLine
 10
152.7762
 20
0.0
 30
0.0
 11
154.5107
 21
0.0
 31
0.0
  0
LINE
  5
AB
330
1D
100
AcDbEntity
  8
0
100
AcDbLine
 10
157.6646
 20
0.0
 30
0.0
 11
159.8092
 21
0.0
 31
0.0
  0
LINE
  5
AC
330
1D
100
AcDbEntity
  8
0
100
AcDbLine
 10
155.7531
 20
0.0
 30
0.0
 11
157.6646
 21
0.0
 31
0.0
  0
LINE
  5
AD
330
1D
100
AcDbEntity
  8
0
100
AcDbLine
 10
156.5083
 20
0.0
 30
0.0
 11
158.7489
 21
0.0
 31
0.0
  0
LINE
  5
AE
330
1D
100
AcDbEntity
  8
0
100
AcDbLine
 10
154.5107
 20
0.0
 30
0.0
 11
156.5083
 21
0.0
 31
0.0
  0
LINE
  5
AF
330
1D
100
AcDbEntity
  8
0
100
AcDbLine
 10
154.8828
 20
0.0
 30
0.0
 11
156.6703
 21
0.0
 31
0.0
  0
LINE
  5
B0
330
1D
100
AcDbEntity
  8
0
100
AcDbLine
 10
154.0926
 20
0.0
 30
0.0
 11
155.7531
 21
0.0
 31
0.0
  0
LINE
  5
B1
330
1D
100
AcDbEntity
  8
0
100
AcDbLine
 10
52.9379
 20
0.0
 30
0.0
 11
55.0535
 21
0.0
 31
0.0
  0
LINE
  5
B2
330
1D
100
AcDbEntity
  8
0
100
AcDbLine
 10
94.3811
 20
0.0
 30
0.0
 11
96.4016
 21
0.0
 31
0.0
  0
LINE
  5
B3
330
1D
100
AcDbEntity
  8
0
100
AcDbLine
 10
89.6774
 20
0.0
 30
0.0
 11
91.833
 21
0.0
 31
0.0
  0
LINE
  5
B4
330
1D
100
AcDbEntity
  8
0
100
AcDbLine
 10
59.0853
 20
0.0
 30
0.0
 11
61.4152
 21
0.0
 31
0.0
  0
LINE
  5
B5
330
1D
100
AcDbEntity
  8
0
100
AcDbLine
 10
56.9007
 20
0.0
 30
0.0
 11
59.0853
 21
0.0
 31
0.0
  0
LINE
  5
B6
330
1D
100
AcDbEntity
  8
0
100
AcDbLine
 10
55.0535
 20
0.0
 30
0.0
 11
57.3422
 21
0.0
 31
0.0
  0
LINE
  5
B7
330
1D
100
AcDbEntity
  8
0
100
AcDbLine
 10
91.833
 20
0.0
 30
0.0
 11
93.8184
 21
0.0
 31
0.0
  0
LINE
  5
B8
330
1D
100
AcDbEntity
  8
0
100
AcDbLine
 10
155.469
 20
0.0
 30
0.0
 11
157.5896
 21
0.0
 31
0.0
  0
LINE
  5
B9
330
1D
100
AcDbEntity
  8
0
100
AcDbLine
 10
156.6703
 20
0.0
 30
0.0
 11
158.6999
 21
0.0
 31
0.0
  0
LINE
  5
BA
330
1D
100
AcDbEntity
  8
0
100
AcDbLine
 10
162.1699
 20
0.0
 30
0.0
 11
164.7236
 21
0.0
 31
0.0
  0
LINE
  5
BB
330
1D
100
AcDbEntity
  8
0
100
AcDbLine
 10
161.2146
 20
0.0
 30
0.0
 11
163.8824
 21
0.0
 31
0.0
  0
LINE
  5
BC
330
1D
100
AcDbEntity
  8
0
100
AcDbLine
 10
163.8824
 20
0.0
 30
0.0
 11
166.7272
 21
0.0
 31
0.0
  0
LINE
  5
BD
330
1D
100
AcDbEntity
  8
0
100
AcDbLine
 10
164.7236
 20
0.0
 30
0.0
 11
167.4464
 21
0.0
 31
0.0
  0
LINE
  5
BE
330
1D
100
AcDbEntity
  8
0
100
AcDbLine
 10
159.8092
 20
0.0
 30
0.0
 11
162.1699
 21
0.0
 31
0.0
  0
LINE
  5
BF
330
1D
100
AcDbEntity
  8
0
100
AcDbLine
 10
158.7489
 20
0.0
 30
0.0
 11
161.2146
 21
0.0
 31
0.0
  0
LINE
  5
C0
330
1D
100
AcDbEntity
  8
0
100
AcDbLine
 10
158.6999
 20
0.0
 30
0.0
 11
160.9546
 21
0.0
 31
0.0
  0
LINE
  5
C1
330
1D
100
AcDbEntity
  8
0
100
AcDbLine
 10
61.4152
 20
0.0
 30
0.0
 11
63.8681
 21
0.0
 31
0.0
  0
LINE
  5
C2
330
1D
100
AcDbEntity
  8
0
100
AcDbLine
 10
92.1774
 20
0.0
 30
0.0
 11
94.3811
 21
0.0
 31
0.0
  0
LINE
  5
C3
330
1D
100
AcDbEntity
  8
0
100
AcDbLine
 10
87.3726
 20
0.0
 30
0.0
 11
89.6774
 21
0.0
 31
0.0
  0
LINE
  5
C4
330
1D
100
AcDbEntity
  8
0
100
AcDbLine
 10
63.8681
 20
0.0
 30
0.0
 11
66.4212
 21
0.0
 31
0.0
  0
LINE
  5
C5
330
1D
100
AcDbEntity
  8
0
100
AcDbLine
 10
84.9407
 20
0.0
 30
0.0
 11
87.3726
 21
0.0
 31
0.0
  0
LINE
  5
C6
330
1D
100
AcDbEntity
  8
0
100
AcDbLine
 10
57.3422
 20
0.0
 30
0.0
 11
59.7832
 21
0.0
 31
0.0
  0
LINE
  5
C7
330
1D
100
AcDbEntity
  8
0
100
AcDbLine
 10
59.7832
 20
0.0
 30
0.0
 11
62.3543
 21
0.0
 31
0.0
  0
LINE
  5
C8
330
1D
100
AcDbEntity
  8
0
100
AcDbLine
 10
66.4212
 20
0.0
 30
0.0
 11
69.0474
 21
0.0
 31
0.0
  0
LINE
  5
C9
330
1D
100
AcDbEntity
  8
0
100
AcDbLine
 10
62.3543
 20
0.0
 30
0.0
 11
65.0325
 21
0.0
 31
0.0
  0
LINE
  5
CA
330
1D
100
AcDbEntity
  8
0
100
AcDbLine
 10
65.0325
 20
0.0
 30
0.0
 11
67.7939
 21
0.0
 31
0.0
  0
LINE
  5
CB
330
1D
100
AcDbEntity
  8
0
100
AcDbLine
 10
69.0474
 20
0.0
 30
0.0
 11
71.7247
 21
0.0
 31
0.0
  0
LINE
  5
CC
330
1D
100
AcDbEntity
  8
0
100
AcDbLine
 10
71.7247
 20
0.0
 30
0.0
 11
74.4239
 21
0.0
 31
0.0
  0
LINE
  5
CD
330
1D
100
AcDbEntity
  8
0
100
AcDbLine
 10
67.7939
 20
0.0
 30
0.0
 11
70.6133
 21
0.0
 31
0.0
  0
LINE
  5
CE
330
1D
100
AcDbEntity
  8
0
100
AcDbLine
 10
79.7904
 20
0.0
 30
0.0
 11
82.4046
 21
0.0
 31
0.0
  0
LINE
  5
CF
330
1D
100
AcDbEntity
  8
0
100
AcDbLine
 10
77.1212
 20
0.0
 30
0.0
 11
79.7904
 21
0.0
 31
0.0
  0
LINE
  5
D0
330
1D
100
AcDbEntity
  8
0
100
AcDbLine
 10
74.4239
 20
0.0
 30
0.0
 11
77.1212
 21
0.0
 31
0.0
  0
LINE
  5
D1
330
1D
100
AcDbEntity
  8
0
100
AcDbLine
 10
76.3212
 20
0.0
 30
0.0
 11
79.1597
 21
0.0
 31
0.0
  0
LINE
  5
D2
330
1D
100
AcDbEntity
  8
0
100
AcDbLine
 10
73.4638
 20
0.0
 30
0.0
 11
76.3212
 21
0.0
 31
0.0
  0
LINE
  5
D3
330
1D
100
AcDbEntity
  8
0
100
AcDbLine
 10
70.6133
 20
0.0
 30
0.0
 11
73.4638
 21
0.0
 31
0.0
  0
LINE
  5
D4
330
1D
100
AcDbEntity
  8
0
100
AcDbLine
 10
79.1597
 20
0.0
 30
0.0
 11
81.952
 21
0.0
 31
0.0
  0
LINE
  5
D5
330
1D
100
AcDbEntity
  8
0
100
AcDbLine
 10
82.4046
 20
0.0
 30
0.0
 11
84.9407
 21
0.0
 31
0.0
  0
LINE
  5
D6
330
1D
100
AcDbEntity
  8
0
100
AcDbLine
 10
87.3025
 20
0.0
 30
0.0
 11
89.8106
 21
0.0
 31
0.0
  0
LINE
  5
D7
330
1D
100
AcDbEntity
  8
0
100
AcDbLine
 10
84.6753
 20
0.0
 30
0.0
 11
87.3025
 21
0.0
 31
0.0
  0
LINE
  5
D8
330
1D
100
AcDbEntity
  8
0
100
AcDbLine
 10
81.952
 20
0.0
 30
0.0
 11
84.6753
 21
0.0
 31
0.0
  0
LINE
  5
D9
330
1D
100
AcDbEntity
  8
0
100
AcDbLine
 10
89.8106
 20
0.0
 30
0.0
 11
92.1774
 21
0.0
 31
0.0
  0
LINE
  5
DA
330
1D
100
AcDbEntity
  8
0
100
AcDbLine
 10
163.4133
 20
0.0
 30
0.0
 11
166.054
 21
0.0
 31
0.0
  0
LINE
  5
DB
330
1D
100
AcDbEntity
  8
0
100
AcDbLine
 10
162.514
 20
0.0
 30
0.0
 11
165.2728
 21
0.0
 31
0.0
  0
LINE
  5
DC
330
1D
100
AcDbEntity
  8
0
100
AcDbLine
 10
166.054
 20
0.0
 30
0.0
 11
168.8518
 21
0.0
 31
0.0
  0
LINE
  5
DD
330
1D
100
AcDbEntity
  8
0
100
AcDbLine
 10
165.2728
 20
0.0
 30
0.0
 11
168.1966
 21
0.0
 31
0.0
  0
LINE
  5
DE
330
1D
100
AcDbEntity
  8
0
100
AcDbLine
 10
160.9546
 20
0.0
 30
0.0
 11
163.4133
 21
0.0
 31
0.0
  0
LINE
  5
DF
330
1D
100
AcDbEntity
  8
0
100
AcDbLine
 10
159.9453
 20
0.0
 30
0.0
 11
162.514
 21
0.0
 31
0.0
  0
LINE
  5
E0
330
1D
100
AcDbEntity
  8
0
100
AcDbLine
 10
157.5896
 20
0.0
 30
0.0
 11
159.9453
 21
0.0
 31
0.0
  0
LINE
  5
E1
330
1D
100
AcDbEntity
  8
0
100
AcDbLine
 10
172.847
 20
0.0
 30
0.0
 11
176.065
 21
0.0
 31
0.0
  0
LINE
  5
E2
330
1D
100
AcDbEntity
  8
0
100
AcDbLine
 10
170.3152
 20
0.0
 30
0.0
 11
173.3031
 21
0.0
 31
0.0
  0
LINE
  5
E3
330
1D
100
AcDbEntity
  8
0
100
AcDbLine
 10
173.3031
 20
0.0
 30
0.0
 11
176.384
 21
0.0
 31
0.0
  0
LINE
  5
E4
330
1D
100
AcDbEntity
  8
0
100
AcDbLine
 10
169.7251
 20
0.0
 30
0.0
 11
172.847
 21
0.0
 31
0.0
  0
LINE
  5
E5
330
1D
100
AcDbEntity
  8
0
100
AcDbLine
 10
182.709
 20
0.0
 30
0.0
 11
183.5
 21
0.0
 31
0.0
  0
LINE
  5
E6
330
1D
100
AcDbEntity
  8
0
100
AcDbLine
 10
179.528
 20
0.0
 30
0.0
 11
182.709
 21
0.0
 31
0.0
  0
LINE
  5
E7
330
1D
100
AcDbEntity
  8
0
100
AcDbLine
 10
179.351
 20
0.0
 30
0.0
 11
182.674
 21
0.0
 31
0.0
  0
LINE
  5
E8
330
1D
100
AcDbEntity
  8
0
100
AcDbLine
 10
176.384
 20
0.0
 30
0.0
 11
179.528
 21
0.0
 31
0.0
  0
LINE
  5
E9
330
1D
100
AcDbEntity
  8
0
100
AcDbLine
 10
176.065
 20
0.0
 30
0.0
 11
179.351
 21
0.0
 31
0.0
  0
LINE
  5
EA
330
1D
100
AcDbEntity
  8
0
100
AcDbLine
 10
174.821
 20
0.0
 30
0.0
 11
177.936
 21
0.0
 31
0.0
  0
LINE
  5
EB
330
1D
100
AcDbEntity
  8
0
100
AcDbLine
 10
171.7837
 20
0.0
 30
0.0
 11
174.821
 21
0.0
 31
0.0
  0
LINE
  5
EC
330
1D
100
AcDbEntity
  8
0
100
AcDbLine
 10
168.8518
 20
0.0
 30
0.0
 11
171.7837
 21
0.0
 31
0.0
  0
LINE
  5
ED
330
1D
100
AcDbEntity
  8
0
100
AcDbLine
 10
168.1966
 20
0.0
 30
0.0
 11
171.2585
 21
0.0
 31
0.0
  0
LINE
  5
EE
330
1D
100
AcDbEntity
  8
0
100
AcDbLine
 10
167.4464
 20
0.0
 30
0.0
 11
170.3152
 21
0.0
 31
0.0
  0
LINE
  5
EF
330
1D
100
AcDbEntity
  8
0
100
AcDbLine
 10
166.7272
 20
0.0
 30
0.0
 11
169.7251
 21
0.0
 31
0.0
  0
LINE
  5
F0
330
1D
100
AcDbEntity
  8
0
100
AcDbLine
 10
183.5
 20
0.0
 30
0.0
 11
184.326
 21
0.0
 31
0.0
  0
LINE
  5
F1
330
1D
100
AcDbEntity
  8
0
100
AcDbLine
 10
190.935
 20
0.0
 30
0.0
 11
194.153
 21
0.0
 31
0.0
  0
LINE
  5
F2
330
1D
100
AcDbEntity
  8
0
100
AcDbLine
 10
187.649
 20
0.0
 30
0.0
 11
190.935
 21
0.0
 31
0.0
  0
LINE
  5
F3
330
1D
100
AcDbEntity
  8
0
100
AcDbLine
 10
184.326
 20
0.0
 30
0.0
 11
187.649
 21
0.0
 31
0.0
  0
LINE
  5
F4
330
1D
100
AcDbEntity
  8
0
100
AcDbLine
 10
194.153
 20
0.0
 30
0.0
 11
197.275
 21
0.0
 31
0.0
  0
LINE
  5
F5
330
1D
100
AcDbEntity
  8
0
100
AcDbLine
 10
193.697
 20
0.0
 30
0.0
 11
196.685
 21
0.0
 31
0.0
  0
LINE
  5
F6
330
1D
100
AcDbEntity
  8
0
100
AcDbLine
 10
190.616
 20
0.0
 30
0.0
 11
193.697
 21
0.0
 31
0.0
  0
LINE
  5
F7
330
1D
100
AcDbEntity
  8
0
100
AcDbLine
 10
187.472
 20
0.0
 30
0.0
 11
190.616
 21
0.0
 31
0.0
  0
LINE
  5
F8
330
1D
100
AcDbEntity
  8
0
100
AcDbLine
 10
184.291
 20
0.0
 30
0.0
 11
187.472
 21
0.0
 31
0.0
  0
LINE
  5
F9
330
1D
100
AcDbEntity
  8
0
100
AcDbLine
 10
183.5
 20
0.0
 30
0.0
 11
184.291
 21
0.0
 31
0.0
  0
LINE
  5
FA
330
1D
100
AcDbEntity
  8
0
100
AcDbLine
 10
171.2585
 20
0.0
 30
0.0
 11
174.431
 21
0.0
 31
0.0
  0
LINE
  5
FB
330
1D
100
AcDbEntity
  8
0
100
AcDbLine
 10
192.179
 20
0.0
 30
0.0
 11
195.216
 21
0.0
 31
0.0
  0
LINE
  5
FC
330
1D
100
AcDbEntity
  8
0
100
AcDbLine
 10
196.685
 20
0.0
 30
0.0
 11
199.554
 21
0.0
 31
0.0
  0
LINE
  5
FD
330
1D
100
AcDbEntity
  8
0
100
AcDbLine
 10
195.216
 20
0.0
 30
0.0
 11
198.148
 21
0.0
 31
0.0
  0
LINE
  5
FE
330
1D
100
AcDbEntity
  8
0
100
AcDbLine
 10
181.103
 20
0.0
 30
0.0
 11
183.5
 21
0.0
 31
0.0
  0
LINE
  5
FF
330
1D
100
AcDbEntity
  8
0
100
AcDbLine
 10
177.936
 20
0.0
 30
0.0
 11
181.103
 21
0.0
 31
0.0
  0
LINE
  5
100
330
1D
100
AcDbEntity
  8
0
100
AcDbLine
 10
174.431
 20
0.0
 30
0.0
 11
177.687
 21
0.0
 31
0.0
  0
LINE
  5
101
330
1D
100
AcDbEntity
  8
0
100
AcDbLine
 10
177.687
 20
0.0
 30
0.0
 11
180.995
 21
0.0
 31
0.0
  0
LINE
  5
102
330
1D
100
AcDbEntity
  8
0
100
AcDbLine
 10
183.5
 20
0.0
 30
0.0
 11
185.897
 21
0.0
 31
0.0
  0
LINE
  5
103
330
1D
100
AcDbEntity
  8
0
100
AcDbLine
 10
185.897
 20
0.0
 30
0.0
 11
189.064
 21
0.0
 31
0.0
  0
LINE
  5
104
330
1D
100
AcDbEntity
  8
0
100
AcDbLine
 10
189.064
 20
0.0
 30
0.0
 11
192.179
 21
0.0
 31
0.0
  0
LINE
  5
105
330
1D
100
AcDbEntity
  8
0
100
AcDbLine
 10
180.995
 20
0.0
 30
0.0
 11
183.5
 21
0.0
 31
0.0
  0
LINE
  5
106
330
1D
100
AcDbEntity
  8
0
100
AcDbLine
 10
104.1831
 20
7.78613
 30
0.0
 11
104.1831
 21
0.0
 31
0.0
  0
LINE
  5
107
330
1D
100
AcDbEntity
  8
0
100
AcDbLine
 10
104.085
 20
8.40303
 30
0.0
 11
104.1831
 21
7.78613
 31
0.0
  0
LINE
  5
108
330
1D
100
AcDbEntity
  8
0
100
AcDbLine
 10
103.8016
 20
8.96003
 30
0.0
 11
104.085
 21
8.40303
 31
0.0
  0
LINE
  5
109
330
1D
100
AcDbEntity
  8
0
100
AcDbLine
 10
44.5267
 20
8.96003
 30
0.0
 11
44.9702
 21
9.40125
 31
0.0
  0
LINE
  5
10A
330
1D
100
AcDbEntity
  8
0
100
AcDbLine
 10
103.3586
 20
9.40125
 30
0.0
 11
103.8016
 21
8.96003
 31
0.0
  0
LINE
  5
10B
330
1D
100
AcDbEntity
  8
0
100
AcDbLine
 10
44.9702
 20
9.40125
 30
0.0
 11
45.5289
 21
9.68474
 31
0.0
  0
LINE
  5
10C
330
1D
100
AcDbEntity
  8
0
100
AcDbLine
 10
44.2434
 20
8.40303
 30
0.0
 11
44.5267
 21
8.96003
 31
0.0
  0
LINE
  5
10D
330
1D
100
AcDbEntity
  8
0
100
AcDbLine
 10
44.1452
 20
7.78613
 30
0.0
 11
44.1452
 21
0.0
 31
0.0
  0
LINE
  5
10E
330
1D
100
AcDbEntity
  8
0
100
AcDbLine
 10
44.1452
 20
7.78613
 30
0.0
 11
44.2434
 21
8.40303
 31
0.0
  0
LINE
  5
10F
330
1D
100
AcDbEntity
  8
0
100
AcDbLine
 10
149.7344
 20
9.53852
 30
0.0
 11
149.8104
 21
9.53852
 31
0.0
  0
LINE
  5
110
330
1D
100
AcDbEntity
  8
0
100
AcDbLine
 10
149.0862
 20
9.10495
 30
0.0
 11
149.7344
 21
9.53852
 31
0.0
  0
LINE
  5
111
330
1D
100
AcDbEntity
  8
0
100
AcDbLine
 10
148.652
 20
8.4566
 30
0.0
 11
149.0862
 21
9.10495
 31
0.0
  0
LINE
  5
112
330
1D
100
AcDbEntity
  8
0
100
AcDbLine
 10
45.5289
 20
9.68474
 30
0.0
 11
46.1397
 21
9.78257
 31
0.0
  0
LINE
  5
113
330
1D
100
AcDbEntity
  8
0
100
AcDbLine
 10
45.5448
 20
9.68474
 30
0.0
 11
46.1499
 21
9.78257
 31
0.0
  0
LINE
  5
114
330
1D
100
AcDbEntity
  8
0
100
AcDbLine
 10
102.8012
 20
9.68474
 30
0.0
 11
103.3586
 21
9.40125
 31
0.0
  0
LINE
  5
115
330
1D
100
AcDbEntity
  8
0
100
AcDbLine
 10
149.8104
 20
9.53852
 30
0.0
 11
150.4916
 21
9.69037
 31
0.0
  0
LINE
  5
116
330
1D
100
AcDbEntity
  8
0
100
AcDbLine
 10
150.4916
 20
9.69037
 30
0.0
 11
152.8893
 21
9.69037
 31
0.0
  0
LINE
  5
117
330
1D
100
AcDbEntity
  8
0
100
AcDbLine
 10
152.8893
 20
9.69037
 30
0.0
 11
154.2476
 21
9.69037
 31
0.0
  0
LINE
  5
118
330
1D
100
AcDbEntity
  8
0
100
AcDbLine
 10
154.2476
 20
9.69037
 30
0.0
 11
155.8871
 21
9.69037
 31
0.0
  0
LINE
  5
119
330
1D
100
AcDbEntity
  8
0
100
AcDbLine
 10
155.8871
 20
9.69037
 30
0.0
 11
157.7926
 21
9.69037
 31
0.0
  0
LINE
  5
11A
330
1D
100
AcDbEntity
  8
0
100
AcDbLine
 10
150.4916
 20
9.69037
 30
0.0
 11
150.6206
 21
9.69037
 31
0.0
  0
LINE
  5
11B
330
1D
100
AcDbEntity
  8
0
100
AcDbLine
 10
148.5
 20
7.69236
 30
0.0
 11
148.652
 21
8.4566
 31
0.0
  0
LINE
  5
11C
330
1D
100
AcDbEntity
  8
0
100
AcDbLine
 10
148.5
 20
7.69236
 30
0.0
 11
148.5
 21
0.0
 31
0.0
  0
LINE
  5
11D
330
1D
100
AcDbEntity
  8
0
100
AcDbLine
 10
162.327
 20
9.69037
 30
0.0
 11
164.9107
 21
9.69037
 31
0.0
  0
LINE
  5
11E
330
1D
100
AcDbEntity
  8
0
100
AcDbLine
 10
164.9107
 20
9.69037
 30
0.0
 11
167.6745
 21
9.69037
 31
0.0
  0
LINE
  5
11F
330
1D
100
AcDbEntity
  8
0
100
AcDbLine
 10
157.7926
 20
9.69037
 30
0.0
 11
159.9473
 21
9.69037
 31
0.0
  0
LINE
  5
120
330
1D
100
AcDbEntity
  8
0
100
AcDbLine
 10
159.9473
 20
9.69037
 30
0.0
 11
162.327
 21
9.69037
 31
0.0
  0
LINE
  5
121
330
1D
100
AcDbEntity
  8
0
100
AcDbLine
 10
173.629
 20
9.69037
 30
0.0
 11
176.765
 21
9.69037
 31
0.0
  0
LINE
  5
122
330
1D
100
AcDbEntity
  8
0
100
AcDbLine
 10
170.5903
 20
9.69037
 30
0.0
 11
173.629
 21
9.69037
 31
0.0
  0
LINE
  5
128
330
1D
100
AcDbEntity
  8
0
100
AcDbLine
 10
179.965
 20
9.69037
 30
0.0
 11
183.199
 21
9.69037
 31
0.0
  0
LINE
  5
12A
330
1D
100
AcDbEntity
  8
0
100
AcDbLine
 10
183.199
 20
9.69037
 30
0.0
 11
183.5
 21
9.69037
 31
0.0
  0
LINE
  5
12C
330
1D
100
AcDbEntity
  8
0
100
AcDbLine
 10
176.765
 20
9.69037
 30
0.0
 11
179.965
 21
9.69037
 31
0.0
  0
LINE
  5
12D
330
1D
100
AcDbEntity
  8
0
100
AcDbLine
 10
46.2999
 20
9.78257
 30
0.0
 11
46.7284
 21
9.78257
 31
0.0
  0
LINE
  5
12F
330
1D
100
AcDbEntity
  8
0
100
AcDbLine
 10
101.717
 20
9.78257
 30
0.0
 11
102.0954
 21
9.78257
 31
0.0
  0
LINE
  5
133
330
1D
100
AcDbEntity
  8
0
100
AcDbLine
 10
102.1953
 20
9.78257
 30
0.0
 11
102.8012
 21
9.68474
 31
0.0
  0
LINE
  5
134
330
1D
100
AcDbEntity
  8
0
100
AcDbLine
 10
46.1397
 20
9.78257
 30
0.0
 11
46.2999
 21
9.78257
 31
0.0
  0
LINE
  5
136
330
1D
100
AcDbEntity
  8
0
100
AcDbLine
 10
58.811
 20
9.78257
 30
0.0
 11
61.1839
 21
9.78257
 31
0.0
  0
LINE
  5
137
330
1D
100
AcDbEntity
  8
0
100
AcDbLine
 10
56.5873
 20
9.78257
 30
0.0
 11
58.811
 21
9.78257
 31
0.0
  0
LINE
  5
139
330
1D
100
AcDbEntity
  8
0
100
AcDbLine
 10
61.1839
 20
9.78257
 30
0.0
 11
63.6809
 21
9.78257
 31
0.0
  0
LINE
  5
13C
330
1D
100
AcDbEntity
  8
0
100
AcDbLine
 10
89.1878
 20
9.78257
 30
0.0
 11
89.1878
 21
10.4813
 31
0.0
  0
LINE
  5
148
330
1D
100
AcDbEntity
  8
0
100
AcDbLine
 10
59.1657
 20
9.78257
 30
0.0
 11
59.1657
 21
10.4813
 31
0.0
  0
LINE
  5
149
330
1D
100
AcDbEntity
  8
0
100
AcDbLine
 10
102.0954
 20
9.78257
 30
0.0
 11
102.1953
 21
9.78257
 31
0.0
  0
LINE
  5
14A
330
1D
100
AcDbEntity
  8
0
100
AcDbLine
 10
160.6265
 20
9.94512
 30
0.0
 11
160.8095
 21
9.75931
 31
0.0
  0
LINE
  5
14B
330
1D
100
AcDbEntity
  8
0
100
AcDbLine
 10
160.8095
 20
9.75931
 30
0.0
 11
161.0616
 21
9.69037
 31
0.0
  0
LINE
  5
14F
330
1D
100
AcDbEntity
  8
0
100
AcDbLine
 10
167.6745
 20
9.69037
 30
0.0
 11
170.5903
 21
9.69037
 31
0.0
  0
LINE
  5
152
330
1D
100
AcDbEntity
  8
0
100
AcDbLine
 10
59.1657
 20
10.4813
 30
0.0
 11
59.2058
 21
10.6311
 31
0.0
  0
LINE
  5
153
330
1D
100
AcDbEntity
  8
0
100
AcDbLine
 10
59.1657
 20
10.4813
 30
0.0
 11
59.1657
 21
9.78257
 31
0.0
  0
LINE
  5
154
330
1D
100
AcDbEntity
  8
0
100
AcDbLine
 10
59.2058
 20
10.6311
 30
0.0
 11
59.3157
 21
10.7409
 31
0.0
  0
LINE
  5
156
330
1D
100
AcDbEntity
  8
0
100
AcDbLine
 10
59.9724
 20
10.7808
 30
0.0
 11
60.4039
 21
10.7808
 31
0.0
  0
LINE
  5
157
330
1D
100
AcDbEntity
  8
0
100
AcDbLine
 10
59.669
 20
10.7808
 30
0.0
 11
59.9724
 21
10.7808
 31
0.0
  0
LINE
  5
158
330
1D
100
AcDbEntity
  8
0
100
AcDbLine
 10
59.4968
 20
10.7808
 30
0.0
 11
59.669
 21
10.7808
 31
0.0
  0
LINE
  5
159
330
1D
100
AcDbEntity
  8
0
100
AcDbLine
 10
61.6374
 20
10.7808
 30
0.0
 11
62.4274
 21
10.7808
 31
0.0
  0
LINE
  5
167
330
1D
100
AcDbEntity
  8
0
100
AcDbLine
 10
63.3235
 20
10.7808
 30
0.0
 11
64.3177
 21
10.7808
 31
0.0
  0
LINE
  5
168
330
1D
100
AcDbEntity
  8
0
100
AcDbLine
 10
62.4274
 20
10.7808
 30
0.0
 11
63.3235
 21
10.7808
 31
0.0
  0
LINE
  5
169
330
1D
100
AcDbEntity
  8
0
100
AcDbLine
 10
60.9606
 20
10.7808
 30
0.0
 11
61.6374
 21
10.7808
 31
0.0
  0
LINE
  5
16A
330
1D
100
AcDbEntity
  8
0
100
AcDbLine
 10
60.4039
 20
10.7808
 30
0.0
 11
60.9606
 21
10.7808
 31
0.0
  0
LINE
  5
16B
330
1D
100
AcDbEntity
  8
0
100
AcDbLine
 10
86.3954
 20
10.7808
 30
0.0
 11
87.1193
 21
10.7808
 31
0.0
  0
LINE
  5
16C
330
1D
100
AcDbEntity
  8
0
100
AcDbLine
 10
88.5671
 20
10.7808
 30
0.0
 11
88.7933
 21
10.7808
 31
0.0
  0
LINE
  5
16D
330
1D
100
AcDbEntity
  8
0
100
AcDbLine
 10
87.1193
 20
10.7808
 30
0.0
 11
87.726
 21
10.7808
 31
0.0
  0
LINE
  5
16E
330
1D
100
AcDbEntity
  8
0
100
AcDbLine
 10
87.726
 20
10.7808
 30
0.0
 11
88.2096
 21
10.7808
 31
0.0
  0
LINE
  5
16F
330
1D
100
AcDbEntity
  8
0
100
AcDbLine
 10
88.7933
 20
10.7808
 30
0.0
 11
88.8874
 21
10.7808
 31
0.0
  0
LINE
  5
170
330
1D
100
AcDbEntity
  8
0
100
AcDbLine
 10
88.7293
 20
10.7808
 30
0.0
 11
88.9796
 21
10.8487
 31
0.0
  0
LINE
  5
172
330
1D
100
AcDbEntity
  8
0
100
AcDbLine
 10
59.4936
 20
10.7808
 30
0.0
 11
59.669
 21
10.7808
 31
0.0
  0
LINE
  5
177
330
1D
100
AcDbEntity
  8
0
100
AcDbLine
 10
88.8874
 20
10.7808
 30
0.0
 11
89.0376
 21
10.7409
 31
0.0
  0
LINE
  5
178
330
1D
100
AcDbEntity
  8
0
100
AcDbLine
 10
59.3157
 20
10.7409
 30
0.0
 11
59.4659
 21
10.7808
 31
0.0
  0
LINE
  5
179
330
1D
100
AcDbEntity
  8
0
100
AcDbLine
 10
89.1478
 20
10.6311
 30
0.0
 11
89.1878
 21
10.4813
 31
0.0
  0
LINE
  5
17A
330
1D
100
AcDbEntity
  8
0
100
AcDbLine
 10
89.1878
 20
10.4813
 30
0.0
 11
89.1878
 21
9.78257
 31
0.0
  0
LINE
  5
17D
330
1D
100
AcDbEntity
  8
0
100
AcDbLine
 10
89.0376
 20
10.7409
 30
0.0
 11
89.1478
 21
10.6311
 31
0.0
  0
LINE
  5
17F
330
1D
100
AcDbEntity
  8
0
100
AcDbLine
 10
88.9796
 20
10.8487
 30
0.0
 11
89.1628
 21
11.0313
 31
0.0
  0
LINE
  5
180
330
1D
100
AcDbEntity
  8
0
100
AcDbLine
 10
89.1628
 20
11.0313
 30
0.0
 11
89.2299
 21
11.2809
 31
0.0
  0
LINE
  5
183
330
1D
100
AcDbEntity
  8
0
100
AcDbLine
 10
59.4428
 20
10.8487
 30
0.0
 11
59.6931
 21
10.7808
 31
0.0
  0
LINE
  5
184
330
1D
100
AcDbEntity
  8
0
100
AcDbLine
 10
59.2596
 20
11.0313
 30
0.0
 11
59.4428
 21
10.8487
 31
0.0
  0
LINE
  5
187
330
1D
100
AcDbEntity
  8
0
100
AcDbLine
 10
59.1925
 20
11.2809
 30
0.0
 11
59.2596
 21
11.0313
 31
0.0
  0
LINE
  5
188
330
1D
100
AcDbEntity
  8
0
100
AcDbLine
 10
59.1925
 20
11.2809
 30
0.0
 11
59.2335
 21
32.6778
 31
0.0
  0
LINE
  5
189
330
1D
100
AcDbEntity
  8
0
100
AcDbLine
 10
59.1975
 20
37.2915
 30
0.0
 11
59.2335
 21
32.6778
 31
0.0
  0
LINE
  5
18B
330
1D
100
AcDbEntity
  8
0
100
AcDbLine
 10
59.0954
 20
39.6214
 30
0.0
 11
59.1975
 21
37.2915
 31
0.0
  0
LINE
  5
18C
330
1D
100
AcDbEntity
  8
0
100
AcDbLine
 10
58.9532
 20
41.3663
 30
0.0
 11
59.0954
 21
39.6214
 31
0.0
  0
LINE
  5
191
330
1D
100
AcDbEntity
  8
0
100
AcDbLine
 10
160.5044
 20
10.1989
 30
0.0
 11
162.2529
 21
102.176
 31
0.0
  0
LINE
  5
192
330
1D
100
AcDbEntity
  8
0
100
AcDbLine
 10
160.5044
 20
10.1989
 30
0.0
 11
160.6265
 21
9.94512
 31
0.0
  0
LINE
  5
198
330
1D
100
AcDbEntity
  8
0
100
AcDbLine
 10
58.4396
 20
44.8211
 30
0.0
 11
58.7399
 21
43.1022
 31
0.0
  0
LINE
  5
199
330
1D
100
AcDbEntity
  8
0
100
AcDbLine
 10
58.7399
 20
43.1022
 30
0.0
 11
58.9532
 21
41.3663
 31
0.0
  0
LINE
  5
19F
330
1D
100
AcDbEntity
  8
0
100
AcDbLine
 10
58.0381
 20
46.5181
 30
0.0
 11
58.4396
 21
44.8211
 31
0.0
  0
LINE
  5
1A0
330
1D
100
AcDbEntity
  8
0
100
AcDbLine
 10
57.3182
 20
48.7322
 30
0.0
 11
58.0381
 21
46.5181
 31
0.0
  0
LINE
  5
1B8
330
1D
100
AcDbEntity
  8
0
100
AcDbLine
 10
55.1205
 20
52.9267
 30
0.0
 11
55.7753
 21
51.9135
 31
0.0
  0
LINE
  5
1B9
330
1D
100
AcDbEntity
  8
0
100
AcDbLine
 10
56.357
 20
50.8743
 30
0.0
 11
57.3182
 21
48.7322
 31
0.0
  0
LINE
  5
1BA
330
1D
100
AcDbEntity
  8
0
100
AcDbLine
 10
55.7753
 20
51.9135
 30
0.0
 11
56.357
 21
50.8743
 31
0.0
  0
LINE
  5
1C9
330
1D
100
AcDbEntity
  8
0
100
AcDbLine
 10
53.825
 20
54.6007
 30
0.0
 11
55.1205
 21
52.9267
 31
0.0
  0
LINE
  5
1CA
330
1D
100
AcDbEntity
  8
0
100
AcDbLine
 10
52.8501
 20
55.6181
 30
0.0
 11
53.825
 21
54.6007
 31
0.0
  0
LINE
  5
1CE
330
1D
100
AcDbEntity
  8
0
100
AcDbLine
 10
52.4133
 20
56.0741
 30
0.0
 11
52.8501
 21
55.6181
 31
0.0
  0
LINE
  5
1D3
330
1D
100
AcDbEntity
  8
0
100
AcDbLine
 10
51.9445
 20
56.4722
 30
0.0
 11
52.4133
 21
56.0741
 31
0.0
  0
LINE
  5
1D8
330
1D
100
AcDbEntity
  8
0
100
AcDbLine
 10
50.0743
 20
57.9502
 30
0.0
 11
50.8984
 21
57.3608
 31
0.0
  0
LINE
  5
1DF
330
1D
100
AcDbEntity
  8
0
100
AcDbLine
 10
89.0196
 20
58.1643
 30
0.0
 11
89.0897
 21
58.0675
 31
0.0
  0
LINE
  5
1E2
330
1D
100
AcDbEntity
  8
0
100
AcDbLine
 10
88.7483
 20
58.337
 30
0.0
 11
88.9495
 21
58.2412
 31
0.0
  0
LINE
  5
1E4
330
1D
100
AcDbEntity
  8
0
100
AcDbLine
 10
88.9495
 20
58.2412
 30
0.0
 11
89.0196
 21
58.1643
 31
0.0
  0
LINE
  5
1E6
330
1D
100
AcDbEntity
  8
0
100
AcDbLine
 10
88.676678442072
 20
58.353092052417
 30
0.0
 11
88.7482
 21
58.3371
 31
0.0
  0
LINE
  5
1EA
330
1D
100
AcDbEntity
  8
0
100
AcDbLine
 10
88.676678442071
 20
58.353092052417
 30
0.0
 11
88.7482
 21
58.3371
 31
0.0
  0
LINE
  5
1EB
330
1D
100
AcDbEntity
  8
0
100
AcDbLine
 10
88.526
 20
58.387
 30
0.0
 11
88.689642752034
 21
58.35019326315
 31
0.0
  0
LINE
  5
1EC
330
1D
100
AcDbEntity
  8
0
100
AcDbLine
 10
88.526
 20
58.387
 30
0.0
 11
88.689642752034
 21
58.35019326315
 31
0.0
  0
LINE
  5
1F0
330
1D
100
AcDbEntity
  8
0
100
AcDbLine
 10
89.0897
 20
58.0675
 30
0.0
 11
89.1398
 21
57.8509
 31
0.0
  0
LINE
  5
1F6
330
1D
100
AcDbEntity
  8
0
100
AcDbLine
 10
89.1398
 20
57.8509
 30
0.0
 11
89.2299
 21
11.2809
 31
0.0
  0
LINE
  5
1FA
330
1D
100
AcDbEntity
  8
0
100
AcDbLine
 10
50.8984
 20
57.3608
 30
0.0
 11
51.9445
 21
56.4722
 31
0.0
  0
LINE
  5
1FB
330
1D
100
AcDbEntity
  8
0
100
AcDbLine
 10
49.705
 20
58.2143
 30
0.0
 11
50.0743
 21
57.9502
 31
0.0
  0
LINE
  5
1FC
330
1D
100
AcDbEntity
  8
0
100
AcDbLine
 10
49.3217
 20
58.4515
 30
0.0
 11
49.705
 21
58.2143
 31
0.0
  0
LINE
  5
20E
330
1D
100
AcDbEntity
  8
0
100
AcDbLine
 10
88.0394
 20
58.4948
 30
0.0
 11
88.526
 21
58.387
 31
0.0
  0
LINE
  5
228
330
1D
100
AcDbEntity
  8
0
100
AcDbLine
 10
7.982
 20
69.7555
 30
0.0
 11
10.6789
 21
69.1027
 31
0.0
  0
LINE
  5
22C
330
1D
100
AcDbEntity
  8
0
100
AcDbLine
 10
0.819
 20
74.3296
 30
0.0
 11
0.884
 21
74.2028
 31
0.0
  0
LINE
  5
22D
330
1D
100
AcDbEntity
  8
0
100
AcDbLine
 10
0.884
 20
74.2028
 30
0.0
 11
1.111
 21
73.7616
 31
0.0
  0
LINE
  5
22E
330
1D
100
AcDbEntity
  8
0
100
AcDbLine
 10
0.417
 20
75.5423
 30
0.0
 11
0.819
 21
74.3296
 31
0.0
  0
LINE
  5
22F
330
1D
100
AcDbEntity
  8
0
100
AcDbLine
 10
1.911
 20
72.7074
 30
0.0
 11
2.316
 21
72.3298
 31
0.0
  0
LINE
  5
230
330
1D
100
AcDbEntity
  8
0
100
AcDbLine
 10
2.577
 20
72.1189
 30
0.0
 11
3.387
 21
71.5435
 31
0.0
  0
LINE
  5
232
330
1D
100
AcDbEntity
  8
0
100
AcDbLine
 10
5.24092146784
 20
70.669019468519
 30
0.0
 11
6.4816
 21
70.1969
 31
0.0
  0
LINE
  5
233
330
1D
100
AcDbEntity
  8
0
100
AcDbLine
 10
5.239334500719
 20
70.669598745157
 30
0.0
 11
6.4816
 21
70.1969
 31
0.0
  0
LINE
  5
234
330
1D
100
AcDbEntity
  8
0
100
AcDbLine
 10
5.24092146784
 20
70.669019468519
 30
0.0
 11
6.4816
 21
70.1969
 31
0.0
  0
LINE
  5
235
330
1D
100
AcDbEntity
  8
0
100
AcDbLine
 10
6.4819
 20
70.1968
 30
0.0
 11
7.9814
 21
69.7557
 31
0.0
  0
LINE
  5
23B
330
1D
100
AcDbEntity
  8
0
100
AcDbLine
 10
3.387
 20
71.5435
 30
0.0
 11
4.5612
 21
70.9276
 31
0.0
  0
LINE
  5
23C
330
1D
100
AcDbEntity
  8
0
100
AcDbLine
 10
5.239334500719
 20
70.669598745157
 30
0.0
 11
6.4816
 21
70.1969
 31
0.0
  0
LINE
  5
23E
330
1D
100
AcDbEntity
  8
0
100
AcDbLine
 10
2.433
 20
72.2213
 30
0.0
 11
2.577
 21
72.1189
 31
0.0
  0
LINE
  5
240
330
1D
100
AcDbEntity
  8
0
100
AcDbLine
 10
2.316
 20
72.3298
 30
0.0
 11
2.433
 21
72.2213
 31
0.0
  0
LINE
  5
242
330
1D
100
AcDbEntity
  8
0
100
AcDbLine
 10
1.474
 20
73.2205
 30
0.0
 11
1.911
 21
72.7074
 31
0.0
  0
LINE
  5
243
330
1D
100
AcDbEntity
  8
0
100
AcDbLine
 10
1.111
 20
73.7616
 30
0.0
 11
1.474
 21
73.2205
 31
0.0
  0
LINE
  5
24B
330
1D
100
AcDbEntity
  8
0
100
AcDbLine
 10
0.257
 20
76.5087
 30
0.0
 11
0.417
 21
75.5423
 31
0.0
  0
LINE
  5
269
330
1D
100
AcDbEntity
  8
0
100
AcDbLine
 10
10.6789
 20
69.1027
 30
0.0
 11
11.4536
 21
68.9152
 31
0.0
  0
LINE
  5
26B
330
1D
100
AcDbEntity
  8
0
100
AcDbLine
 10
11.4536
 20
68.9152
 30
0.0
 11
34.9056
 21
63.5359
 31
0.0
  0
LINE
  5
277
330
1D
100
AcDbEntity
  8
0
100
AcDbLine
 10
34.9061
 20
63.5358
 30
0.0
 11
38.185
 21
62.7642
 31
0.0
  0
LINE
  5
2C2
330
1D
100
AcDbEntity
  8
0
100
AcDbLine
 10
47.5863
 20
59.4545
 30
0.0
 11
48.4665
 21
58.9809
 31
0.0
  0
LINE
  5
2C3
330
1D
100
AcDbEntity
  8
0
100
AcDbLine
 10
46.7876
 20
59.8566
 30
0.0
 11
47.1919
 21
59.6667
 31
0.0
  0
LINE
  5
2E8
330
1D
100
AcDbEntity
  8
0
100
AcDbLine
 10
47.1919
 20
59.6667
 30
0.0
 11
47.5863
 21
59.4545
 31
0.0
  0
LINE
  5
2E9
330
1D
100
AcDbEntity
  8
0
100
AcDbLine
 10
45.8853
 20
60.2806
 30
0.0
 11
46.7876
 21
59.8566
 31
0.0
  0
LINE
  5
31E
330
1D
100
AcDbEntity
  8
0
100
AcDbLine
 10
44.1032
 20
61.0013
 30
0.0
 11
45.8853
 21
60.2806
 31
0.0
  0
LINE
  5
321
330
1D
100
AcDbEntity
  8
0
100
AcDbLine
 10
42.969181170941
 20
61.391481899724
 30
0.0
 11
44.1032
 21
61.0013
 31
0.0
  0
LINE
  5
336
330
1D
100
AcDbEntity
  8
0
100
AcDbLine
 10
38.185
 20
62.7642
 30
0.0
 11
39.788053022788
 21
62.352918534919
 31
0.0
  0
LINE
  5
337
330
1D
100
AcDbEntity
  8
0
100
AcDbLine
 10
48.4665
 20
58.9809
 30
0.0
 11
49.3217
 21
58.4515
 31
0.0
  0
LINE
  5
34B
330
1D
100
AcDbEntity
  8
0
100
AcDbLine
 10
0.514
 20
77.976
 30
0.0
 11
0.81
 21
78.0
 31
0.0
  0
LINE
  5
350
330
1D
100
AcDbEntity
  8
0
100
AcDbLine
 10
0.284
 20
77.7904
 30
0.0
 11
0.514
 21
77.976
 31
0.0
  0
LINE
  5
351
330
1D
100
AcDbEntity
  8
0
100
AcDbLine
 10
0.2
 20
77.5069
 30
0.0
 11
0.284
 21
77.7904
 31
0.0
  0
LINE
  5
352
330
1D
100
AcDbEntity
  8
0
100
AcDbLine
 10
0.2
 20
77.5069
 30
0.0
 11
0.257
 21
76.5087
 31
0.0
  0
LINE
  5
354
330
1D
100
AcDbEntity
  8
0
100
AcDbLine
 10
162.639
 20
109.891
 30
0.0
 11
162.6871
 21
110.808
 31
0.0
  0
LINE
  5
355
330
1D
100
AcDbEntity
  8
0
100
AcDbLine
 10
162.6871
 20
110.808
 30
0.0
 11
162.7121
 21
111.264
 31
0.0
  0
LINE
  5
356
330
1D
100
AcDbEntity
  8
0
100
AcDbLine
 10
162.2539
 20
102.201
 30
0.0
 11
162.639
 21
109.891
 31
0.0
  0
LINE
  5
35E
330
1D
100
AcDbEntity
  8
0
100
AcDbLine
 10
183.22
 20
121.595
 30
0.0
 11
183.5
 21
121.598
 31
0.0
  0
LINE
  5
35F
330
1D
100
AcDbEntity
  8
0
100
AcDbLine
 10
162.7671
 20
112.305
 30
0.0
 11
163.8434
 21
130.108
 31
0.0
  0
LINE
  5
360
330
1D
100
AcDbEntity
  8
0
100
AcDbLine
 10
162.7121
 20
111.264
 30
0.0
 11
162.7671
 21
112.305
 31
0.0
  0
LINE
  5
364
330
1D
100
AcDbEntity
  8
0
100
AcDbLine
 10
163.8434
 20
130.108
 30
0.0
 11
164.9167
 21
144.554
 31
0.0
  0
LINE
  5
365
330
1D
100
AcDbEntity
  8
0
100
AcDbLine
 10
163.8434
 20
130.108
 30
0.0
 11
164.9167
 21
144.555
 31
0.0
  0
LINE
  5
366
330
1D
100
AcDbEntity
  8
0
100
AcDbLine
 10
168.6718
 20
129.906
 30
0.0
 11
169.7991
 21
128.398
 31
0.0
  0
LINE
  5
367
330
1D
100
AcDbEntity
  8
0
100
AcDbLine
 10
177.844
 20
122.234
 30
0.0
 11
178.854
 21
122.016
 31
0.0
  0
LINE
  5
368
330
1D
100
AcDbEntity
  8
0
100
AcDbLine
 10
178.854
 20
122.016
 30
0.0
 11
179.907
 21
121.843
 31
0.0
  0
LINE
  5
369
330
1D
100
AcDbEntity
  8
0
100
AcDbLine
 10
179.907
 20
121.843
 30
0.0
 11
180.992
 21
121.714
 31
0.0
  0
LINE
  5
36A
330
1D
100
AcDbEntity
  8
0
100
AcDbLine
 10
182.536
 20
122.258
 30
0.0
 11
183.5
 21
122.239
 31
0.0
  0
LINE
  5
36C
330
1D
100
AcDbEntity
  8
0
100
AcDbLine
 10
180.992
 20
121.714
 30
0.0
 11
182.1
 21
121.631
 31
0.0
  0
LINE
  5
36D
330
1D
100
AcDbEntity
  8
0
100
AcDbLine
 10
182.1
 20
121.631
 30
0.0
 11
183.22
 21
121.595
 31
0.0
  0
LINE
  5
370
330
1D
100
AcDbEntity
  8
0
100
AcDbLine
 10
173.1415
 20
124.317
 30
0.0
 11
173.726
 21
123.892
 31
0.0
  0
LINE
  5
371
330
1D
100
AcDbEntity
  8
0
100
AcDbLine
 10
173.726
 20
123.892
 30
0.0
 11
174.399
 21
123.494
 31
0.0
  0
LINE
  5
372
330
1D
100
AcDbEntity
  8
0
100
AcDbLine
 10
175.322
 20
124.091
 30
0.0
 11
176.022
 21
123.721
 31
0.0
  0
LINE
  5
373
330
1D
100
AcDbEntity
  8
0
100
AcDbLine
 10
175.448
 20
123.972
 30
0.0
 11
176.128
 21
123.625
 31
0.0
  0
LINE
  5
374
330
1D
100
AcDbEntity
  8
0
100
AcDbLine
 10
174.399
 20
123.494
 30
0.0
 11
175.154
 21
123.126
 31
0.0
  0
LINE
  5
375
330
1D
100
AcDbEntity
  8
0
100
AcDbLine
 10
175.154
 20
123.126
 30
0.0
 11
175.986
 21
122.791
 31
0.0
  0
LINE
  5
376
330
1D
100
AcDbEntity
  8
0
100
AcDbLine
 10
180.536
 20
122.477
 30
0.0
 11
181.559
 21
122.366
 31
0.0
  0
LINE
  5
377
330
1D
100
AcDbEntity
  8
0
100
AcDbLine
 10
180.504
 20
122.437
 30
0.0
 11
181.509
 21
122.324
 31
0.0
  0
LINE
  5
378
330
1D
100
AcDbEntity
  8
0
100
AcDbLine
 10
182.604
 20
122.301
 30
0.0
 11
183.5
 21
122.286
 31
0.0
  0
LINE
  5
379
330
1D
100
AcDbEntity
  8
0
100
AcDbLine
 10
181.559
 20
122.366
 30
0.0
 11
182.604
 21
122.301
 31
0.0
  0
LINE
  5
37A
330
1D
100
AcDbEntity
  8
0
100
AcDbLine
 10
181.509
 20
122.324
 30
0.0
 11
182.536
 21
122.258
 31
0.0
  0
LINE
  5
37B
330
1D
100
AcDbEntity
  8
0
100
AcDbLine
 10
177.668
 20
123.092
 30
0.0
 11
178.594
 21
122.839
 31
0.0
  0
LINE
  5
37C
330
1D
100
AcDbEntity
  8
0
100
AcDbLine
 10
176.022
 20
123.721
 30
0.0
 11
176.807
 21
123.387
 31
0.0
  0
LINE
  5
37D
330
1D
100
AcDbEntity
  8
0
100
AcDbLine
 10
177.09
 20
124.131
 30
0.0
 11
177.757
 21
123.849
 31
0.0
  0
LINE
  5
37E
330
1D
100
AcDbEntity
  8
0
100
AcDbLine
 10
176.807
 20
123.387
 30
0.0
 11
177.668
 21
123.092
 31
0.0
  0
LINE
  5
37F
330
1D
100
AcDbEntity
  8
0
100
AcDbLine
 10
176.128
 20
123.625
 30
0.0
 11
176.885
 21
123.311
 31
0.0
  0
LINE
  5
380
330
1D
100
AcDbEntity
  8
0
100
AcDbLine
 10
176.885
 20
123.311
 30
0.0
 11
177.71
 21
123.033
 31
0.0
  0
LINE
  5
381
330
1D
100
AcDbEntity
  8
0
100
AcDbLine
 10
177.757
 20
123.849
 30
0.0
 11
178.487
 21
123.601
 31
0.0
  0
LINE
  5
382
330
1D
100
AcDbEntity
  8
0
100
AcDbLine
 10
178.487
 20
123.601
 30
0.0
 11
179.271
 21
123.387
 31
0.0
  0
LINE
  5
383
330
1D
100
AcDbEntity
  8
0
100
AcDbLine
 10
178.594
 20
122.839
 30
0.0
 11
179.544
 21
122.636
 31
0.0
  0
LINE
  5
384
330
1D
100
AcDbEntity
  8
0
100
AcDbLine
 10
179.271
 20
123.387
 30
0.0
 11
180.18
 21
123.196
 31
0.0
  0
LINE
  5
385
330
1D
100
AcDbEntity
  8
0
100
AcDbLine
 10
180.18
 20
123.196
 30
0.0
 11
181.132
 21
123.053
 31
0.0
  0
LINE
  5
386
330
1D
100
AcDbEntity
  8
0
100
AcDbLine
 10
181.132
 20
123.053
 30
0.0
 11
182.116
 21
122.957
 31
0.0
  0
LINE
  5
387
330
1D
100
AcDbEntity
  8
0
100
AcDbLine
 10
182.116
 20
122.957
 30
0.0
 11
183.117
 21
122.912
 31
0.0
  0
LINE
  5
389
330
1D
100
AcDbEntity
  8
0
100
AcDbLine
 10
183.117
 20
122.912
 30
0.0
 11
183.5
 21
122.915
 31
0.0
  0
LINE
  5
38B
330
1D
100
AcDbEntity
  8
0
100
AcDbLine
 10
179.544
 20
122.636
 30
0.0
 11
180.536
 21
122.477
 31
0.0
  0
LINE
  5
38C
330
1D
100
AcDbEntity
  8
0
100
AcDbLine
 10
178.594
 20
122.792
 30
0.0
 11
179.528
 21
122.593
 31
0.0
  0
LINE
  5
38D
330
1D
100
AcDbEntity
  8
0
100
AcDbLine
 10
179.528
 20
122.593
 30
0.0
 11
180.504
 21
122.437
 31
0.0
  0
LINE
  5
38E
330
1D
100
AcDbEntity
  8
0
100
AcDbLine
 10
177.71
 20
123.033
 30
0.0
 11
178.594
 21
122.792
 31
0.0
  0
LINE
  5
38F
330
1D
100
AcDbEntity
  8
0
100
AcDbLine
 10
176.885
 20
122.493
 30
0.0
 11
177.844
 21
122.234
 31
0.0
  0
LINE
  5
390
330
1D
100
AcDbEntity
  8
0
100
AcDbLine
 10
175.986
 20
122.791
 30
0.0
 11
176.885
 21
122.493
 31
0.0
  0
LINE
  5
391
330
1D
100
AcDbEntity
  8
0
100
AcDbLine
 10
172.1175
 20
125.344
 30
0.0
 11
172.515
 21
124.872
 31
0.0
  0
LINE
  5
392
330
1D
100
AcDbEntity
  8
0
100
AcDbLine
 10
174.206
 20
124.916
 30
0.0
 11
174.715
 21
124.49
 31
0.0
  0
LINE
  5
393
330
1D
100
AcDbEntity
  8
0
100
AcDbLine
 10
173.802
 20
125.364
 30
0.0
 11
174.206
 21
124.916
 31
0.0
  0
LINE
  5
394
330
1D
100
AcDbEntity
  8
0
100
AcDbLine
 10
173.924
 20
125.169
 30
0.0
 11
174.339
 21
124.747
 31
0.0
  0
LINE
  5
395
330
1D
100
AcDbEntity
  8
0
100
AcDbLine
 10
172.515
 20
124.872
 30
0.0
 11
173.0114
 21
124.419
 31
0.0
  0
LINE
  5
396
330
1D
100
AcDbEntity
  8
0
100
AcDbLine
 10
173.0114
 20
124.419
 30
0.0
 11
173.1415
 21
124.317
 31
0.0
  0
LINE
  5
397
330
1D
100
AcDbEntity
  8
0
100
AcDbLine
 10
175.974
 20
124.777
 30
0.0
 11
176.494
 21
124.441
 31
0.0
  0
LINE
  5
398
330
1D
100
AcDbEntity
  8
0
100
AcDbLine
 10
175.534
 20
125.136
 30
0.0
 11
175.974
 21
124.777
 31
0.0
  0
LINE
  5
399
330
1D
100
AcDbEntity
  8
0
100
AcDbLine
 10
175.182
 20
125.512
 30
0.0
 11
175.534
 21
125.136
 31
0.0
  0
LINE
  5
39A
330
1D
100
AcDbEntity
  8
0
100
AcDbLine
 10
176.494
 20
124.441
 30
0.0
 11
177.09
 21
124.131
 31
0.0
  0
LINE
  5
39B
330
1D
100
AcDbEntity
  8
0
100
AcDbLine
 10
174.715
 20
124.49
 30
0.0
 11
175.322
 21
124.091
 31
0.0
  0
LINE
  5
39C
330
1D
100
AcDbEntity
  8
0
100
AcDbLine
 10
183.051
 20
125.565
 30
0.0
 11
183.5
 21
125.565
 31
0.0
  0
LINE
  5
39D
330
1D
100
AcDbEntity
  8
0
100
AcDbLine
 10
174.339
 20
124.747
 30
0.0
 11
174.849
 21
124.348
 31
0.0
  0
LINE
  5
39E
330
1D
100
AcDbEntity
  8
0
100
AcDbLine
 10
174.849
 20
124.348
 30
0.0
 11
175.448
 21
123.972
 31
0.0
  0
LINE
  5
3A1
330
1D
100
AcDbEntity
  8
0
100
AcDbLine
 10
171.5
 20
127.263
 30
0.0
 11
171.5068
 21
127.137
 31
0.0
  0
LINE
  5
3A2
330
1D
100
AcDbEntity
  8
0
100
AcDbLine
 10
171.5
 20
127.263
 30
0.0
 11
171.5
 21
131.922105495476
 31
0.0
  0
LINE
  5
3A4
330
1D
100
AcDbEntity
  8
0
100
AcDbLine
 10
171.5817
 20
126.507
 30
0.0
 11
171.6352
 21
126.327
 31
0.0
  0
LINE
  5
3A5
330
1D
100
AcDbEntity
  8
0
100
AcDbLine
 10
171.6352
 20
126.327
 30
0.0
 11
171.8239
 21
125.83
 31
0.0
  0
LINE
  5
3A6
330
1D
100
AcDbEntity
  8
0
100
AcDbLine
 10
173.3282
 20
126.314510714286
 30
0.0
 11
173.3282
 21
127.229489285714
 31
0.0
  0
LINE
  5
3A8
330
1D
100
AcDbEntity
  8
0
100
AcDbLine
 10
173.335388802375
 20
126.285177833164
 30
0.0
 11
173.51
 21
125.828
 31
0.0
  0
LINE
  5
3A9
330
1D
100
AcDbEntity
  8
0
100
AcDbLine
 10
173.330775929978
 20
126.304
 30
0.0
 11
174.752
 21
126.304
 31
0.0
  0
LINE
  5
3AA
330
1D
100
AcDbEntity
  8
0
100
AcDbLine
 10
173.2798
 20
126.512
 30
0.0
 11
173.3918
 21
126.055
 31
0.0
  0
LINE
  5
3AB
330
1D
100
AcDbEntity
  8
0
100
AcDbLine
 10
173.51
 20
125.828
 30
0.0
 11
173.802
 21
125.364
 31
0.0
  0
LINE
  5
3AC
330
1D
100
AcDbEntity
  8
0
100
AcDbLine
 10
174.92
 20
125.903
 30
0.0
 11
175.182
 21
125.512
 31
0.0
  0
LINE
  5
3AD
330
1D
100
AcDbEntity
  8
0
100
AcDbLine
 10
178.43
 20
126.269
 30
0.0
 11
179.271
 21
126.038
 31
0.0
  0
LINE
  5
3AE
330
1D
100
AcDbEntity
  8
0
100
AcDbLine
 10
177.652
 20
126.541
 30
0.0
 11
178.43
 21
126.269
 31
0.0
  0
LINE
  5
3AF
330
1D
100
AcDbEntity
  8
0
100
AcDbLine
 10
174.752
 20
126.304
 30
0.0
 11
174.752
 21
127.332
 31
0.0
  0
LINE
  5
3B0
330
1D
100
AcDbEntity
  8
0
100
AcDbLine
 10
174.752
 20
126.304
 30
0.0
 11
174.92
 21
125.903
 31
0.0
  0
LINE
  5
3B1
330
1D
100
AcDbEntity
  8
0
100
AcDbLine
 10
179.271
 20
126.038
 30
0.0
 11
180.165
 21
125.85
 31
0.0
  0
LINE
  5
3B2
330
1D
100
AcDbEntity
  8
0
100
AcDbLine
 10
180.165
 20
125.85
 30
0.0
 11
181.101
 21
125.707
 31
0.0
  0
LINE
  5
3B3
330
1D
100
AcDbEntity
  8
0
100
AcDbLine
 10
181.101
 20
125.707
 30
0.0
 11
182.068
 21
125.611
 31
0.0
  0
LINE
  5
3B4
330
1D
100
AcDbEntity
  8
0
100
AcDbLine
 10
182.068
 20
125.611
 30
0.0
 11
183.051
 21
125.565
 31
0.0
  0
LINE
  5
3B5
330
1D
100
AcDbEntity
  8
0
100
AcDbLine
 10
173.3918
 20
126.055
 30
0.0
 11
173.607
 21
125.606
 31
0.0
  0
LINE
  5
3B6
330
1D
100
AcDbEntity
  8
0
100
AcDbLine
 10
173.607
 20
125.606
 30
0.0
 11
173.924
 21
125.169
 31
0.0
  0
LINE
  5
3B7
330
1D
100
AcDbEntity
  8
0
100
AcDbLine
 10
171.8239
 20
125.83
 30
0.0
 11
172.1175
 21
125.344
 31
0.0
  0
LINE
  5
3BB
330
1D
100
AcDbEntity
  8
0
100
AcDbLine
 10
173.2798
 20
127.032
 30
0.0
 11
173.3918
 21
127.489
 31
0.0
  0
LINE
  5
3BC
330
1D
100
AcDbEntity
  8
0
100
AcDbLine
 10
176.949
 20
126.85
 30
0.0
 11
177.652
 21
126.541
 31
0.0
  0
LINE
  5
3BD
330
1D
100
AcDbEntity
  8
0
100
AcDbLine
 10
173.2758
 20
126.772
 30
0.0
 11
173.2798
 21
126.512
 31
0.0
  0
LINE
  5
3BE
330
1D
100
AcDbEntity
  8
0
100
AcDbLine
 10
173.2758
 20
126.772
 30
0.0
 11
173.2798
 21
127.032
 31
0.0
  0
LINE
  5
3C3
330
1D
100
AcDbEntity
  8
0
100
AcDbLine
 10
171.5068
 20
127.240042201835
 30
0.0
 11
171.5068
 21
127.137
 31
0.0
  0
LINE
  5
3C5
330
1D
100
AcDbEntity
  8
0
100
AcDbLine
 10
173.35332297593
 20
127.332
 30
0.0
 11
174.752
 21
127.332
 31
0.0
  0
LINE
  5
3C6
330
1D
100
AcDbEntity
  8
0
100
AcDbLine
 10
173.3918
 20
127.489
 30
0.0
 11
173.607
 21
127.937
 31
0.0
  0
LINE
  5
3C7
330
1D
100
AcDbEntity
  8
0
100
AcDbLine
 10
174.752
 20
127.332
 30
0.0
 11
174.752
 21
126.304
 31
0.0
  0
LINE
  5
3C8
330
1D
100
AcDbEntity
  8
0
100
AcDbLine
 10
174.752
 20
127.332
 30
0.0
 11
174.92
 21
127.733
 31
0.0
  0
LINE
  5
3C9
330
1D
100
AcDbEntity
  8
0
100
AcDbLine
 10
175.182
 20
128.123
 30
0.0
 11
175.534
 21
128.5
 31
0.0
  0
LINE
  5
3CA
330
1D
100
AcDbEntity
  8
0
100
AcDbLine
 10
174.92
 20
127.733
 30
0.0
 11
175.182
 21
128.123
 31
0.0
  0
LINE
  5
3CB
330
1D
100
AcDbEntity
  8
0
100
AcDbLine
 10
173.607
 20
127.937
 30
0.0
 11
173.924
 21
128.376
 31
0.0
  0
LINE
  5
3CC
330
1D
100
AcDbEntity
  8
0
100
AcDbLine
 10
173.924
 20
128.376
 30
0.0
 11
174.339
 21
128.796
 31
0.0
  0
LINE
  5
3CD
330
1D
100
AcDbEntity
  8
0
100
AcDbLine
 10
174.339
 20
128.796
 30
0.0
 11
174.849
 21
129.196
 31
0.0
  0
LINE
  5
3CE
330
1D
100
AcDbEntity
  8
0
100
AcDbLine
 10
175.207228358099
 20
128.150020144895
 30
0.0
 11
175.364
 21
127.955
 31
0.0
  0
LINE
  5
3CF
330
1D
100
AcDbEntity
  8
0
100
AcDbLine
 10
175.974
 20
128.858
 30
0.0
 11
176.494
 21
129.194
 31
0.0
  0
LINE
  5
3D0
330
1D
100
AcDbEntity
  8
0
100
AcDbLine
 10
175.534
 20
128.5
 30
0.0
 11
175.974
 21
128.858
 31
0.0
  0
LINE
  5
3D1
330
1D
100
AcDbEntity
  8
0
100
AcDbLine
 10
175.364
 20
127.955
 30
0.0
 11
175.798
 21
127.561
 31
0.0
  0
LINE
  5
3D2
330
1D
100
AcDbEntity
  8
0
100
AcDbLine
 10
175.798
 20
127.561
 30
0.0
 11
176.329
 21
127.191
 31
0.0
  0
LINE
  5
3D3
330
1D
100
AcDbEntity
  8
0
100
AcDbLine
 10
176.329
 20
127.191
 30
0.0
 11
176.949
 21
126.85
 31
0.0
  0
LINE
  5
3D4
330
1D
100
AcDbEntity
  8
0
100
AcDbLine
 10
173.3282
 20
127.229489285714
 30
0.0
 11
173.3282
 21
126.314510714286
 31
0.0
  0
LINE
  5
3D5
330
1D
100
AcDbEntity
  8
0
100
AcDbLine
 10
176.494
 20
129.194
 30
0.0
 11
177.09
 21
129.505
 31
0.0
  0
LINE
  5
3D6
330
1D
100
AcDbEntity
  8
0
100
AcDbLine
 10
174.849
 20
129.196
 30
0.0
 11
175.448
 21
129.571
 31
0.0
  0
LINE
  5
3D7
330
1D
100
AcDbEntity
  8
0
100
AcDbLine
 10
171.5068
 20
127.304948592411
 30
0.0
 11
171.5068
 21
131.929429265063
 31
0.0
  0
LINE
  5
3D8
330
1D
100
AcDbEntity
  8
0
100
AcDbLine
 10
171.5068
 20
127.137
 30
0.0
 11
171.5068
 21
127.240042201835
 31
0.0
  0
LINE
  5
3D9
330
1D
100
AcDbEntity
  8
0
100
AcDbLine
 10
171.5
 20
127.012
 30
0.0
 11
171.5817
 21
126.507
 31
0.0
  0
LINE
  5
3DA
330
1D
100
AcDbEntity
  8
0
100
AcDbLine
 10
171.5
 20
127.012
 30
0.0
 11
171.5
 21
131.922105495476
 31
0.0
  0
LINE
  5
3E0
330
1D
100
AcDbEntity
  8
0
100
AcDbLine
 10
175.448
 20
129.571
 30
0.0
 11
176.128
 21
129.917
 31
0.0
  0
LINE
  5
3E1
330
1D
100
AcDbEntity
  8
0
100
AcDbLine
 10
177.09
 20
129.505
 30
0.0
 11
177.757
 21
129.785
 31
0.0
  0
LINE
  5
3E2
330
1D
100
AcDbEntity
  8
0
100
AcDbLine
 10
176.128
 20
129.917
 30
0.0
 11
176.885
 21
130.232
 31
0.0
  0
LINE
  5
3E3
330
1D
100
AcDbEntity
  8
0
100
AcDbLine
 10
176.885
 20
130.232
 30
0.0
 11
177.71
 21
130.51
 31
0.0
  0
LINE
  5
3E4
330
1D
100
AcDbEntity
  8
0
100
AcDbLine
 10
177.757
 20
129.785
 30
0.0
 11
178.487
 21
130.034
 31
0.0
  0
LINE
  5
3E5
330
1D
100
AcDbEntity
  8
0
100
AcDbLine
 10
178.487
 20
130.034
 30
0.0
 11
179.271
 21
130.248
 31
0.0
  0
LINE
  5
3E6
330
1D
100
AcDbEntity
  8
0
100
AcDbLine
 10
179.271
 20
130.248
 30
0.0
 11
180.18
 21
130.439
 31
0.0
  0
LINE
  5
3E7
330
1D
100
AcDbEntity
  8
0
100
AcDbLine
 10
180.18
 20
130.439
 30
0.0
 11
181.132
 21
130.583
 31
0.0
  0
LINE
  5
3E8
330
1D
100
AcDbEntity
  8
0
100
AcDbLine
 10
181.132
 20
130.583
 30
0.0
 11
182.116
 21
130.678
 31
0.0
  0
LINE
  5
3EA
330
1D
100
AcDbEntity
  8
0
100
AcDbLine
 10
182.116
 20
130.678
 30
0.0
 11
183.117
 21
130.723
 31
0.0
  0
LINE
  5
3EC
330
1D
100
AcDbEntity
  8
0
100
AcDbLine
 10
183.117
 20
130.723
 30
0.0
 11
183.5
 21
130.721
 31
0.0
  0
LINE
  5
3EE
330
1D
100
AcDbEntity
  8
0
100
AcDbLine
 10
178.594
 20
130.751
 30
0.0
 11
179.528
 21
130.951
 31
0.0
  0
LINE
  5
3EF
330
1D
100
AcDbEntity
  8
0
100
AcDbLine
 10
179.528
 20
130.951
 30
0.0
 11
180.504
 21
131.107
 31
0.0
  0
LINE
  5
3F0
330
1D
100
AcDbEntity
  8
0
100
AcDbLine
 10
177.71
 20
130.51
 30
0.0
 11
178.594
 21
130.751
 31
0.0
  0
LINE
  5
3F1
330
1D
100
AcDbEntity
  8
0
100
AcDbLine
 10
171.2815
 20
129.461
 30
0.0
 11
171.5
 21
129.075362954524
 31
0.0
  0
LINE
  5
3F2
330
1D
100
AcDbEntity
  8
0
100
AcDbLine
 10
171.0404
 20
130.287
 30
0.0
 11
171.2815
 21
129.461
 31
0.0
  0
LINE
  5
3F3
330
1D
100
AcDbEntity
  8
0
100
AcDbLine
 10
171.3495
 20
131.115
 30
0.0
 11
171.5
 21
130.938475029727
 31
0.0
  0
LINE
  5
3F4
330
1D
100
AcDbEntity
  8
0
100
AcDbLine
 10
171.5068
 20
131.929429265063
 30
0.0
 11
171.5068
 21
127.304948592411
 31
0.0
  0
LINE
  5
3F5
330
1D
100
AcDbEntity
  8
0
100
AcDbLine
 10
171.5
 20
131.922105495476
 30
0.0
 11
171.5
 21
127.012
 31
0.0
  0
LINE
  5
3F6
330
1D
100
AcDbEntity
  8
0
100
AcDbLine
 10
171.5
 20
131.922105495476
 30
0.0
 11
171.5
 21
127.263
 31
0.0
  0
LINE
  5
3F7
330
1D
100
AcDbEntity
  8
0
100
AcDbLine
 10
171.22730789032
 20
131.628409292598
 30
0.0
 11
171.3495
 21
131.115
 31
0.0
  0
LINE
  5
3F8
330
1D
100
AcDbEntity
  8
0
100
AcDbLine
 10
171.2195
 20
131.62
 30
0.0
 11
171.6726
 21
132.108
 31
0.0
  0
LINE
  5
3F9
330
1D
100
AcDbEntity
  8
0
100
AcDbLine
 10
180.504
 20
131.107
 30
0.0
 11
181.509
 21
131.219
 31
0.0
  0
LINE
  5
3FC
330
1D
100
AcDbEntity
  8
0
100
AcDbLine
 10
181.509
 20
131.219
 30
0.0
 11
182.536
 21
131.286
 31
0.0
  0
LINE
  5
401
330
1D
100
AcDbEntity
  8
0
100
AcDbLine
 10
182.536
 20
131.286
 30
0.0
 11
183.5
 21
131.304
 31
0.0
  0
LINE
  5
403
330
1D
100
AcDbEntity
  8
0
100
AcDbLine
 10
173.073
 20
132.71
 30
0.0
 11
175.12
 21
133.072
 31
0.0
  0
LINE
  5
404
330
1D
100
AcDbEntity
  8
0
100
AcDbLine
 10
181.005
 20
133.424
 30
0.0
 11
183.5
 21
133.448
 31
0.0
  0
LINE
  5
405
330
1D
100
AcDbEntity
  8
0
100
AcDbLine
 10
179.212
 20
133.371
 30
0.0
 11
181.005
 21
133.424
 31
0.0
  0
LINE
  5
406
330
1D
100
AcDbEntity
  8
0
100
AcDbLine
 10
177.505
 20
133.283
 30
0.0
 11
179.212
 21
133.371
 31
0.0
  0
LINE
  5
407
330
1D
100
AcDbEntity
  8
0
100
AcDbLine
 10
175.12
 20
133.072
 30
0.0
 11
177.505
 21
133.283
 31
0.0
  0
LINE
  5
408
330
1D
100
AcDbEntity
  8
0
100
AcDbLine
 10
171.6726
 20
132.108
 30
0.0
 11
173.073
 21
132.71
 31
0.0
  0
LINE
  5
409
330
1D
100
AcDbEntity
  8
0
100
AcDbLine
 10
171.0084
 20
130.977
 30
0.0
 11
171.2195
 21
131.62
 31
0.0
  0
LINE
  5
40A
330
1D
100
AcDbEntity
  8
0
100
AcDbLine
 10
171.0084
 20
130.977
 30
0.0
 11
171.0404
 21
130.287
 31
0.0
  0
LINE
  5
40B
330
1D
100
AcDbEntity
  8
0
100
AcDbLine
 10
169.7991
 20
128.398
 30
0.0
 11
171.0504
 21
127.016
 31
0.0
  0
LINE
  5
41C
330
1D
100
AcDbEntity
  8
0
100
AcDbLine
 10
164.9167
 20
144.555
 30
0.0
 11
165.0557
 21
145.661
 31
0.0
  0
LINE
  5
41D
330
1D
100
AcDbEntity
  8
0
100
AcDbLine
 10
164.9167
 20
144.555
 30
0.0
 11
165.0197
 21
141.122
 31
0.0
  0
LINE
  5
41E
330
1D
100
AcDbEntity
  8
0
100
AcDbLine
 10
165.0557
 20
145.661
 30
0.0
 11
165.1187
 21
145.903
 31
0.0
  0
LINE
  5
41F
330
1D
100
AcDbEntity
  8
0
100
AcDbLine
 10
164.9187
 20
144.58
 30
0.0
 11
165.0557
 21
145.661
 31
0.0
  0
LINE
  5
420
330
1D
100
AcDbEntity
  8
0
100
AcDbLine
 10
164.9167
 20
144.554
 30
0.0
 11
165.0197
 21
141.122
 31
0.0
  0
LINE
  5
443
330
1D
100
AcDbEntity
  8
0
100
AcDbLine
 10
183.5
 20
0.0
 30
0.0
 11
186.005
 21
0.0
 31
0.0
  0
LINE
  5
490
330
1D
100
AcDbEntity
  8
0
100
AcDbLine
 10
186.005
 20
0.0
 30
0.0
 11
189.313
 21
0.0
 31
0.0
  0
LINE
  5
491
330
1D
100
AcDbEntity
  8
0
100
AcDbLine
 10
189.313
 20
0.0
 30
0.0
 11
192.569
 21
0.0
 31
0.0
  0
LINE
  5
4C8
330
1D
100
AcDbEntity
  8
0
100
AcDbLine
 10
192.569
 20
0.0
 30
0.0
 11
195.742
 21
0.0
 31
0.0
  0
LINE
  5
4C9
330
1D
100
AcDbEntity
  8
0
100
AcDbLine
 10
195.742
 20
0.0
 30
0.0
 11
198.803
 21
0.0
 31
0.0
  0
LINE
  5
4CA
330
1D
100
AcDbEntity
  8
0
100
AcDbLine
 10
200.273
 20
0.0
 30
0.0
 11
203.118
 21
0.0
 31
0.0
  0
LINE
  5
4CB
330
1D
100
AcDbEntity
  8
0
100
AcDbLine
 10
199.554
 20
0.0
 30
0.0
 11
202.276
 21
0.0
 31
0.0
  0
LINE
  5
4CC
330
1D
100
AcDbEntity
  8
0
100
AcDbLine
 10
197.275
 20
0.0
 30
0.0
 11
200.273
 21
0.0
 31
0.0
  0
LINE
  5
4CD
330
1D
100
AcDbEntity
  8
0
100
AcDbLine
 10
200.946
 20
0.0
 30
0.0
 11
203.587
 21
0.0
 31
0.0
  0
LINE
  5
4CE
330
1D
100
AcDbEntity
  8
0
100
AcDbLine
 10
198.148
 20
0.0
 30
0.0
 11
200.946
 21
0.0
 31
0.0
  0
LINE
  5
4D0
330
1D
100
AcDbEntity
  8
0
100
AcDbLine
 10
198.803
 20
0.0
 30
0.0
 11
201.727
 21
0.0
 31
0.0
  0
LINE
  5
4D1
330
1D
100
AcDbEntity
  8
0
100
AcDbLine
 10
201.727
 20
0.0
 30
0.0
 11
204.486
 21
0.0
 31
0.0
  0
LINE
  5
4D3
330
1D
100
AcDbEntity
  8
0
100
AcDbLine
 10
165.1187
 20
145.903
 30
0.0
 11
165.2748
 21
146.424
 31
0.0
  0
LINE
  5
4D4
330
1D
100
AcDbEntity
  8
0
100
AcDbLine
 10
167.0323
 20
148.341
 30
0.0
 11
168.3267
 21
148.986
 31
0.0
  0
LINE
  5
4D5
330
1D
100
AcDbEntity
  8
0
100
AcDbLine
 10
166.005
 20
147.5
 30
0.0
 11
167.0323
 21
148.341
 31
0.0
  0
LINE
  5
4D6
330
1D
100
AcDbEntity
  8
0
100
AcDbLine
 10
165.83
 20
147.325
 30
0.0
 11
166.005
 21
147.5
 31
0.0
  0
LINE
  5
4D7
330
1D
100
AcDbEntity
  8
0
100
AcDbLine
 10
165.2748
 20
146.424
 30
0.0
 11
165.83
 21
147.325
 31
0.0
  0
LINE
  5
4D8
330
1D
100
AcDbEntity
  8
0
100
AcDbLine
 10
172.0027
 20
150.031
 30
0.0
 11
172.1708
 21
150.062
 31
0.0
  0
LINE
  5
4D9
330
1D
100
AcDbEntity
  8
0
100
AcDbLine
 10
170.0352
 20
149.563
 30
0.0
 11
172.0027
 21
150.031
 31
0.0
  0
LINE
  5
4DA
330
1D
100
AcDbEntity
  8
0
100
AcDbLine
 10
172.1708
 20
150.062
 30
0.0
 11
174.418
 21
150.438
 31
0.0
  0
LINE
  5
4DB
330
1D
100
AcDbEntity
  8
0
100
AcDbLine
 10
174.418
 20
150.438
 30
0.0
 11
177.709
 21
150.787
 31
0.0
  0
LINE
  5
4DC
330
1D
100
AcDbEntity
  8
0
100
AcDbLine
 10
179.846
 20
150.917
 30
0.0
 11
183.5
 21
151.0
 31
0.0
  0
LINE
  5
4DD
330
1D
100
AcDbEntity
  8
0
100
AcDbLine
 10
177.709
 20
150.787
 30
0.0
 11
179.846
 21
150.917
 31
0.0
  0
LINE
  5
4DE
330
1D
100
AcDbEntity
  8
0
100
AcDbLine
 10
168.3267
 20
148.986
 30
0.0
 11
170.0352
 21
149.563
 31
0.0
  0
LINE
  5
4EE
330
1D
100
AcDbEntity
  8
0
100
AcDbLine
 10
203.118
 20
0.0
 30
0.0
 11
205.785
 21
0.0
 31
0.0
  0
LINE
  5
4EF
330
1D
100
AcDbEntity
  8
0
100
AcDbLine
 10
202.276
 20
0.0
 30
0.0
 11
204.83
 21
0.0
 31
0.0
  0
LINE
  5
4F0
330
1D
100
AcDbEntity
  8
0
100
AcDbLine
 10
205.785
 20
0.0
 30
0.0
 11
208.251
 21
0.0
 31
0.0
  0
LINE
  5
4F1
330
1D
100
AcDbEntity
  8
0
100
AcDbLine
 10
208.251
 20
0.0
 30
0.0
 11
210.492
 21
0.0
 31
0.0
  0
LINE
  5
4F2
330
1D
100
AcDbEntity
  8
0
100
AcDbLine
 10
207.191
 20
0.0
 30
0.0
 11
209.335
 21
0.0
 31
0.0
  0
LINE
  5
4F3
330
1D
100
AcDbEntity
  8
0
100
AcDbLine
 10
204.83
 20
0.0
 30
0.0
 11
207.191
 21
0.0
 31
0.0
  0
LINE
  5
4F4
330
1D
100
AcDbEntity
  8
0
100
AcDbLine
 10
215.416
 20
0.0
 30
0.0
 11
216.242
 21
0.0
 31
0.0
  0
LINE
  5
4F5
330
1D
100
AcDbEntity
  8
0
100
AcDbLine
 10
214.301
 20
0.0
 30
0.0
 11
215.416
 21
0.0
 31
0.0
  0
LINE
  5
4F6
330
1D
100
AcDbEntity
  8
0
100
AcDbLine
 10
215.68
 20
0.0
 30
0.0
 11
216.846
 21
0.0
 31
0.0
  0
LINE
  5
4F7
330
1D
100
AcDbEntity
  8
0
100
AcDbLine
 10
216.846
 20
0.0
 30
0.0
 11
217.709
 21
0.0
 31
0.0
  0
LINE
  5
4F8
330
1D
100
AcDbEntity
  8
0
100
AcDbLine
 10
216.772
 20
0.0
 30
0.0
 11
217.0
 21
0.0
 31
0.0
  0
LINE
  5
4F9
330
1D
100
AcDbEntity
  8
0
100
AcDbLine
 10
216.242
 20
0.0
 30
0.0
 11
216.772
 21
0.0
 31
0.0
  0
LINE
  5
4FA
330
1D
100
AcDbEntity
  8
0
100
AcDbLine
 10
217.709
 20
0.0
 30
0.0
 11
218.262
 21
0.0
 31
0.0
  0
LINE
  5
4FB
330
1D
100
AcDbEntity
  8
0
100
AcDbLine
 10
218.262
 20
0.0
 30
0.0
 11
218.5
 21
0.0
 31
0.0
  0
LINE
  5
4FC
330
1D
100
AcDbEntity
  8
0
100
AcDbLine
 10
218.262
 20
0.0
 30
0.0
 11
218.5
 21
0.0
 31
0.0
  0
LINE
  5
4FD
330
1D
100
AcDbEntity
  8
0
100
AcDbLine
 10
214.224
 20
0.0
 30
0.0
 11
215.68
 21
0.0
 31
0.0
  0
LINE
  5
4FE
330
1D
100
AcDbEntity
  8
0
100
AcDbLine
 10
212.907
 20
0.0
 30
0.0
 11
214.301
 21
0.0
 31
0.0
  0
LINE
  5
4FF
330
1D
100
AcDbEntity
  8
0
100
AcDbLine
 10
212.489
 20
0.0
 30
0.0
 11
214.224
 21
0.0
 31
0.0
  0
LINE
  5
500
330
1D
100
AcDbEntity
  8
0
100
AcDbLine
 10
211.247
 20
0.0
 30
0.0
 11
212.907
 21
0.0
 31
0.0
  0
LINE
  5
501
330
1D
100
AcDbEntity
  8
0
100
AcDbLine
 10
210.492
 20
0.0
 30
0.0
 11
212.489
 21
0.0
 31
0.0
  0
LINE
  5
502
330
1D
100
AcDbEntity
  8
0
100
AcDbLine
 10
209.335
 20
0.0
 30
0.0
 11
211.247
 21
0.0
 31
0.0
  0
LINE
  5
503
330
1D
100
AcDbEntity
  8
0
100
AcDbLine
 10
216.546
 20
0.0
 30
0.0
 11
216.926
 21
0.0
 31
0.0
  0
LINE
  5
504
330
1D
100
AcDbEntity
  8
0
100
AcDbLine
 10
218.027
 20
0.0
 30
0.0
 11
218.421
 21
0.0
 31
0.0
  0
LINE
  5
505
330
1D
100
AcDbEntity
  8
0
100
AcDbLine
 10
216.926
 20
0.0
 30
0.0
 11
217.0
 21
0.0
 31
0.0
  0
LINE
  5
560
330
1D
100
AcDbEntity
  8
0
100
AcDbLine
 10
218.421
 20
0.0
 30
0.0
 11
218.5
 21
0.0
 31
0.0
  0
LINE
  5
561
330
1D
100
AcDbEntity
  8
0
100
AcDbLine
 10
218.421
 20
0.0
 30
0.0
 11
218.5
 21
0.0
 31
0.0
  0
LINE
  5
562
330
1D
100
AcDbEntity
  8
0
100
AcDbLine
 10
206.045
 20
0.0
 30
0.0
 11
208.3
 21
0.0
 31
0.0
  0
LINE
  5
563
330
1D
100
AcDbEntity
  8
0
100
AcDbLine
 10
208.3
 20
0.0
 30
0.0
 11
210.33
 21
0.0
 31
0.0
  0
LINE
  5
564
330
1D
100
AcDbEntity
  8
0
100
AcDbLine
 10
210.33
 20
0.0
 30
0.0
 11
212.117
 21
0.0
 31
0.0
  0
LINE
  5
565
330
1D
100
AcDbEntity
  8
0
100
AcDbLine
 10
212.117
 20
0.0
 30
0.0
 11
213.644
 21
0.0
 31
0.0
  0
LINE
  5
566
330
1D
100
AcDbEntity
  8
0
100
AcDbLine
 10
213.644
 20
0.0
 30
0.0
 11
214.899
 21
0.0
 31
0.0
  0
LINE
  5
567
330
1D
100
AcDbEntity
  8
0
100
AcDbLine
 10
213.399
 20
0.0
 30
0.0
 11
214.994
 21
0.0
 31
0.0
  0
LINE
  5
568
330
1D
100
AcDbEntity
  8
0
100
AcDbLine
 10
211.531
 20
0.0
 30
0.0
 11
213.399
 21
0.0
 31
0.0
  0
LINE
  5
569
330
1D
100
AcDbEntity
  8
0
100
AcDbLine
 10
209.41
 20
0.0
 30
0.0
 11
211.531
 21
0.0
 31
0.0
  0
LINE
  5
56A
330
1D
100
AcDbEntity
  8
0
100
AcDbLine
 10
207.055
 20
0.0
 30
0.0
 11
209.41
 21
0.0
 31
0.0
  0
LINE
  5
570
330
1D
100
AcDbEntity
  8
0
100
AcDbLine
 10
217.319
 20
0.0
 30
0.0
 11
218.027
 21
0.0
 31
0.0
  0
LINE
  5
599
330
1D
100
AcDbEntity
  8
0
100
AcDbLine
 10
214.994
 20
0.0
 30
0.0
 11
216.305
 21
0.0
 31
0.0
  0
LINE
  5
59A
330
1D
100
AcDbEntity
  8
0
100
AcDbLine
 10
216.305
 20
0.0
 30
0.0
 11
217.319
 21
0.0
 31
0.0
  0
LINE
  5
59B
330
1D
100
AcDbEntity
  8
0
100
AcDbLine
 10
214.899
 20
0.0
 30
0.0
 11
215.869
 21
0.0
 31
0.0
  0
LINE
  5
59C
330
1D
100
AcDbEntity
  8
0
100
AcDbLine
 10
215.869
 20
0.0
 30
0.0
 11
216.546
 21
0.0
 31
0.0
  0
LINE
  5
59D
330
1D
100
AcDbEntity
  8
0
100
AcDbLine
 10
203.587
 20
0.0
 30
0.0
 11
206.045
 21
0.0
 31
0.0
  0
LINE
  5
790
330
1D
100
AcDbEntity
  8
0
100
AcDbLine
 10
204.486
 20
0.0
 30
0.0
 11
207.055
 21
0.0
 31
0.0
  0
LINE
  5
7BA
330
1D
100
AcDbEntity
  8
0
100
AcDbLine
 10
165.0197
 20
141.122000000001
 30
0.0
 11
165.501465455518
 21
138.101966351111
 31
0.0
  0
LINE
  5
7BB
330
1D
100
AcDbEntity
  8
0
100
AcDbLine
 10
165.501465455518
 20
138.101966351111
 30
0.0
 11
166.317563700713
 21
134.71515863355
 31
0.0
  0
LINE
  5
7BC
330
1D
100
AcDbEntity
  8
0
100
AcDbLine
 10
166.317563700713
 20
134.71515863355
 30
0.0
 11
167.541711068506
 21
131.736400038587
 31
0.0
  0
LINE
  5
7BD
330
1D
100
AcDbEntity
  8
0
100
AcDbLine
 10
167.541711068506
 20
131.736400038587
 30
0.0
 11
168.6718
 21
129.906
 31
0.0
  0
LINE
  5
7BE
330
1D
100
AcDbEntity
  8
0
100
AcDbLine
 10
46.7284
 20
9.78257
 30
0.0
 11
101.717
 21
9.78257
 31
0.0
  0
LINE
  5
7BF
330
1D
100
AcDbEntity
  8
0
100
AcDbLine
 10
88.5671
 20
10.7808
 30
0.0
 11
59.4659
 21
10.7808
 31
0.0
  0
LINE
  5
7C0
330
1D
100
AcDbEntity
  8
0
100
AcDbLine
 10
0.81
 20
78.0
 30
0.0
 11
88.0394
 21
58.4948
 31
0.0
  0
LINE
  5
7C1
330
1D
100
AcDbEntity
  8
0
100
AcDbLine
 10
42.969181170941
 20
61.391481899724
 30
0.0
 11
39.788053022788
 21
62.352918534919
 31
0.0
  0
LINE
  5
7C2
330
1D
100
AcDbEntity
  8
0
100
AcDbLine
 10
4.5612
 20
70.9276
 30
0.0
 11
5.239334500719
 21
70.669598745157
 31
0.0
  0
LINE
  5
7C3
330
1D
100
AcDbEntity
  8
0
100
AcDbLine
 10
184.326
 20
0.0
 30
0.0
 11
183.5
 21
0.0
 31
0.0
  0
LINE
  5
7C4
330
1D
100
AcDbEntity
  8
0
100
AcDbLine
 10
184.291
 20
0.0
 30
0.0
 11
183.5
 21
0.0
 31
0.0
  0
LINE
  5
7C5
330
1D
100
AcDbEntity
  8
0
100
AcDbLine
 10
183.5
 20
0.0
 30
0.0
 11
182.674
 21
0.0
 31
0.0
  0
LINE
  5
7C6
330
1D
100
AcDbEntity
  8
0
100
AcDbLine
 10
183.5
 20
0.0
 30
0.0
 11
182.709
 21
0.0
 31
0.0
  0
LINE
  5
7C7
330
1D
100
AcDbEntity
  8
0
100
AcDbLine
 10
185.897
 20
0.0
 30
0.0
 11
183.5
 21
0.0
 31
0.0
  0
LINE
  5
7C8
330
1D
100
AcDbEntity
  8
0
100
AcDbLine
 10
183.5
 20
0.0
 30
0.0
 11
181.103
 21
0.0
 31
0.0
  0
LINE
  5
7C9
330
1D
100
AcDbEntity
  8
0
100
AcDbLine
 10
186.005
 20
0.0
 30
0.0
 11
183.5
 21
0.0
 31
0.0
  0
LINE
  5
7CA
330
1D
100
AcDbEntity
  8
0
100
AcDbLine
 10
183.801
 20
9.69037
 30
0.0
 11
183.5
 21
9.69037
 31
0.0
  0
LINE
  5
7CB
330
1D
100
AcDbEntity
  8
0
100
AcDbLine
 10
183.78
 20
121.595
 30
0.0
 11
183.5
 21
121.598
 31
0.0
  0
LINE
  5
7CC
330
1D
100
AcDbEntity
  8
0
100
AcDbLine
 10
184.464
 20
122.258
 30
0.0
 11
183.5
 21
122.239
 31
0.0
  0
LINE
  5
7CD
330
1D
100
AcDbEntity
  8
0
100
AcDbLine
 10
184.396
 20
122.301
 30
0.0
 11
183.5
 21
122.286
 31
0.0
  0
LINE
  5
7CE
330
1D
100
AcDbEntity
  8
0
100
AcDbLine
 10
183.883
 20
122.912
 30
0.0
 11
183.5
 21
122.915
 31
0.0
  0
LINE
  5
7CF
330
1D
100
AcDbEntity
  8
0
100
AcDbLine
 10
183.949
 20
125.565
 30
0.0
 11
183.5
 21
125.565
 31
0.0
  0
LINE
  5
7D0
330
1D
100
AcDbEntity
  8
0
100
AcDbLine
 10
183.883
 20
130.723
 30
0.0
 11
183.5
 21
130.721
 31
0.0
  0
LINE
  5
7D1
330
1D
100
AcDbEntity
  8
0
100
AcDbLine
 10
184.464
 20
131.286
 30
0.0
 11
183.5
 21
131.304
 31
0.0
  0
LINE
  5
7D2
330
1D
100
AcDbEntity
  8
0
100
AcDbLine
 10
185.995
 20
133.424
 30
0.0
 11
183.5
 21
133.448
 31
0.0
  0
LINE
  5
7D3
330
1D
100
AcDbEntity
  8
0
100
AcDbLine
 10
183.5
 20
0.0
 30
0.0
 11
180.995
 21
0.0
 31
0.0
  0
LINE
  5
7D4
330
1D
100
AcDbEntity
  8
0
100
AcDbLine
 10
187.154
 20
150.917
 30
0.0
 11
183.5
 21
151.0
 31
0.0
  0
LINE
  5
7D5
330
1D
100
AcDbEntity
  8
0
100
AcDbLine
 10
277.1894
 20
0.0
 30
0.0
 11
274.8226
 21
0.0
 31
0.0
  0
LINE
  5
7D6
330
1D
100
AcDbEntity
  8
0
100
AcDbLine
 10
275.167
 20
0.0
 30
0.0
 11
273.1816
 21
0.0
 31
0.0
  0
LINE
  5
7D7
330
1D
100
AcDbEntity
  8
0
100
AcDbLine
 10
275.167
 20
0.0
 30
0.0
 11
273.1816
 21
0.0
 31
0.0
  0
LINE
  5
7D8
330
1D
100
AcDbEntity
  8
0
100
AcDbLine
 10
277.1894
 20
0.0
 30
0.0
 11
274.8226
 21
0.0
 31
0.0
  0
LINE
  5
7D9
330
1D
100
AcDbEntity
  8
0
100
AcDbLine
 10
320.2716
 20
9.78257
 30
0.0
 11
265.283
 21
9.78257
 31
0.0
  0
LINE
  5
7DA
330
1D
100
AcDbEntity
  8
0
100
AcDbLine
 10
321.436
 20
0.0
 30
0.0
 11
320.4358
 21
0.0
 31
0.0
  0
LINE
  5
7DB
330
1D
100
AcDbEntity
  8
0
100
AcDbLine
 10
322.8548
 20
0.0
 30
0.0
 11
320.6153
 21
0.0
 31
0.0
  0
LINE
  5
7DC
330
1D
100
AcDbEntity
  8
0
100
AcDbLine
 10
322.8548
 20
0.0
 30
0.0
 11
320.6153
 21
0.0
 31
0.0
  0
LINE
  5
7DD
330
1D
100
AcDbEntity
  8
0
100
AcDbLine
 10
322.8378
 20
0.0
 30
0.0
 11
320.6153
 21
0.0
 31
0.0
  0
LINE
  5
7DE
330
1D
100
AcDbEntity
  8
0
100
AcDbLine
 10
321.436
 20
0.0
 30
0.0
 11
320.4358
 21
0.0
 31
0.0
  0
LINE
  5
7DF
330
1D
100
AcDbEntity
  8
0
100
AcDbLine
 10
321.4711
 20
9.68474
 30
0.0
 11
320.8603
 21
9.78257
 31
0.0
  0
LINE
  5
7E0
330
1D
100
AcDbEntity
  8
0
100
AcDbLine
 10
321.4552
 20
9.68474
 30
0.0
 11
320.8501
 21
9.78257
 31
0.0
  0
LINE
  5
7E1
330
1D
100
AcDbEntity
  8
0
100
AcDbLine
 10
321.1147
 20
60.2806
 30
0.0
 11
320.2124
 21
59.8566
 31
0.0
  0
LINE
  5
7E2
330
1D
100
AcDbEntity
  8
0
100
AcDbLine
 10
366.19
 20
78.0
 30
0.0
 11
278.9606
 21
58.4948
 31
0.0
  0
LINE
  5
7E3
330
1D
100
AcDbEntity
  8
0
100
AcDbLine
 10
322.8548
 20
0.0
 30
0.0
 11
322.6505
 21
0.0
 31
0.0
  0
LINE
  5
7E4
330
1D
100
AcDbEntity
  8
0
100
AcDbLine
 10
322.1759
 20
0.0
 30
0.0
 11
321.436
 21
0.0
 31
0.0
  0
LINE
  5
7E5
330
1D
100
AcDbEntity
  8
0
100
AcDbLine
 10
322.6505
 20
0.0
 30
0.0
 11
322.1759
 21
0.0
 31
0.0
  0
LINE
  5
7E6
330
1D
100
AcDbEntity
  8
0
100
AcDbLine
 10
322.8548
 20
0.0
 30
0.0
 11
322.8548
 21
7.78613
 31
0.0
  0
LINE
  5
7E7
330
1D
100
AcDbEntity
  8
0
100
AcDbLine
 10
322.8548
 20
0.0
 30
0.0
 11
322.6505
 21
0.0
 31
0.0
  0
LINE
  5
7E8
330
1D
100
AcDbEntity
  8
0
100
AcDbLine
 10
322.8548
 20
0.0
 30
0.0
 11
322.6505
 21
0.0
 31
0.0
  0
LINE
  5
7E9
330
1D
100
AcDbEntity
  8
0
100
AcDbLine
 10
322.8548
 20
0.0
 30
0.0
 11
322.6505
 21
0.0
 31
0.0
  0
LINE
  5
7EA
330
1D
100
AcDbEntity
  8
0
100
AcDbLine
 10
322.8548
 20
0.0
 30
0.0
 11
322.8548
 21
7.78613
 31
0.0
  0
LINE
  5
7EB
330
1D
100
AcDbEntity
  8
0
100
AcDbLine
 10
322.6505
 20
0.0
 30
0.0
 11
322.1759
 21
0.0
 31
0.0
  0
LINE
  5
7EC
330
1D
100
AcDbEntity
  8
0
100
AcDbLine
 10
322.1759
 20
0.0
 30
0.0
 11
321.436
 21
0.0
 31
0.0
  0
LINE
  5
7ED
330
1D
100
AcDbEntity
  8
0
100
AcDbLine
 10
322.4733
 20
8.96003
 30
0.0
 11
322.0298
 21
9.40125
 31
0.0
  0
LINE
  5
7EE
330
1D
100
AcDbEntity
  8
0
100
AcDbLine
 10
322.0298
 20
9.40125
 30
0.0
 11
321.4711
 21
9.68474
 31
0.0
  0
LINE
  5
7EF
330
1D
100
AcDbEntity
  8
0
100
AcDbLine
 10
322.7566
 20
8.40303
 30
0.0
 11
322.4733
 21
8.96003
 31
0.0
  0
LINE
  5
7F0
330
1D
100
AcDbEntity
  8
0
100
AcDbLine
 10
322.8548
 20
7.78613
 30
0.0
 11
322.8548
 21
0.0
 31
0.0
  0
LINE
  5
7F1
330
1D
100
AcDbEntity
  8
0
100
AcDbLine
 10
322.8548
 20
7.78613
 30
0.0
 11
322.7566
 21
8.40303
 31
0.0
  0
LINE
  5
7F2
330
1D
100
AcDbEntity
  8
0
100
AcDbLine
 10
355.5464
 20
68.9152
 30
0.0
 11
332.0944
 21
63.5359
 31
0.0
  0
LINE
  5
7F3
330
1D
100
AcDbEntity
  8
0
100
AcDbLine
 10
361.75907853216
 20
70.669019468519
 30
0.0
 11
360.5184
 21
70.1969
 31
0.0
  0
LINE
  5
7F4
330
1D
100
AcDbEntity
  8
0
100
AcDbLine
 10
361.760665499281
 20
70.669598745157
 30
0.0
 11
360.5184
 21
70.1969
 31
0.0
  0
LINE
  5
7F5
330
1D
100
AcDbEntity
  8
0
100
AcDbLine
 10
361.75907853216
 20
70.669019468519
 30
0.0
 11
360.5184
 21
70.1969
 31
0.0
  0
LINE
  5
7F6
330
1D
100
AcDbEntity
  8
0
100
AcDbLine
 10
361.760665499281
 20
70.669598745157
 30
0.0
 11
360.5184
 21
70.1969
 31
0.0
  0
LINE
  5
7F7
330
1D
100
AcDbEntity
  8
0
100
AcDbLine
 10
366.583
 20
75.5423
 30
0.0
 11
366.181
 21
74.3296
 31
0.0
  0
LINE
  5
7F8
330
1D
100
AcDbEntity
  8
0
100
AcDbLine
 10
366.181
 20
74.3296
 30
0.0
 11
366.116
 21
74.2028
 31
0.0
  0
LINE
  5
7F9
330
1D
100
AcDbEntity
  8
0
100
AcDbLine
 10
366.116
 20
74.2028
 30
0.0
 11
365.889
 21
73.7616
 31
0.0
  0
LINE
  5
7FA
330
1D
100
AcDbEntity
  8
0
100
AcDbLine
 10
365.089
 20
72.7074
 30
0.0
 11
364.684
 21
72.3298
 31
0.0
  0
LINE
  5
7FB
330
1D
100
AcDbEntity
  8
0
100
AcDbLine
 10
364.423
 20
72.1189
 30
0.0
 11
363.613
 21
71.5435
 31
0.0
  0
LINE
  5
7FC
330
1D
100
AcDbEntity
  8
0
100
AcDbLine
 10
363.613
 20
71.5435
 30
0.0
 11
362.4388
 21
70.9276
 31
0.0
  0
LINE
  5
7FD
330
1D
100
AcDbEntity
  8
0
100
AcDbLine
 10
364.567
 20
72.2213
 30
0.0
 11
364.423
 21
72.1189
 31
0.0
  0
LINE
  5
7FE
330
1D
100
AcDbEntity
  8
0
100
AcDbLine
 10
364.684
 20
72.3298
 30
0.0
 11
364.567
 21
72.2213
 31
0.0
  0
LINE
  5
7FF
330
1D
100
AcDbEntity
  8
0
100
AcDbLine
 10
365.526
 20
73.2205
 30
0.0
 11
365.089
 21
72.7074
 31
0.0
  0
LINE
  5
800
330
1D
100
AcDbEntity
  8
0
100
AcDbLine
 10
365.889
 20
73.7616
 30
0.0
 11
365.526
 21
73.2205
 31
0.0
  0
LINE
  5
801
330
1D
100
AcDbEntity
  8
0
100
AcDbLine
 10
362.4388
 20
70.9276
 30
0.0
 11
361.760665499281
 21
70.669598745157
 31
0.0
  0
LINE
  5
802
330
1D
100
AcDbEntity
  8
0
100
AcDbLine
 10
366.8
 20
77.5069
 30
0.0
 11
366.743
 21
76.5087
 31
0.0
  0
LINE
  5
803
330
1D
100
AcDbEntity
  8
0
100
AcDbLine
 10
366.743
 20
76.5087
 30
0.0
 11
366.583
 21
75.5423
 31
0.0
  0
LINE
  5
804
330
1D
100
AcDbEntity
  8
0
100
AcDbLine
 10
366.486
 20
77.976
 30
0.0
 11
366.19
 21
78.0
 31
0.0
  0
LINE
  5
805
330
1D
100
AcDbEntity
  8
0
100
AcDbLine
 10
366.716
 20
77.7904
 30
0.0
 11
366.486
 21
77.976
 31
0.0
  0
LINE
  5
806
330
1D
100
AcDbEntity
  8
0
100
AcDbLine
 10
366.8
 20
77.5069
 30
0.0
 11
366.716
 21
77.7904
 31
0.0
  0
LINE
  5
807
330
1D
100
AcDbEntity
  8
0
100
AcDbLine
 10
359.018
 20
69.7555
 30
0.0
 11
356.3211
 21
69.1027
 31
0.0
  0
LINE
  5
808
330
1D
100
AcDbEntity
  8
0
100
AcDbLine
 10
360.5181
 20
70.1968
 30
0.0
 11
359.0186
 21
69.7557
 31
0.0
  0
LINE
  5
809
330
1D
100
AcDbEntity
  8
0
100
AcDbLine
 10
356.3211
 20
69.1027
 30
0.0
 11
355.5464
 21
68.9152
 31
0.0
  0
LINE
  5
80A
330
1D
100
AcDbEntity
  8
0
100
AcDbLine
 10
332.0939
 20
63.5358
 30
0.0
 11
328.815
 21
62.7642
 31
0.0
  0
LINE
  5
80B
330
1D
100
AcDbEntity
  8
0
100
AcDbLine
 10
322.8968
 20
61.0013
 30
0.0
 11
321.1147
 21
60.2806
 31
0.0
  0
LINE
  5
80C
330
1D
100
AcDbEntity
  8
0
100
AcDbLine
 10
324.030818829059
 20
61.391481899724
 30
0.0
 11
322.8968
 21
61.0013
 31
0.0
  0
LINE
  5
80D
330
1D
100
AcDbEntity
  8
0
100
AcDbLine
 10
328.815
 20
62.7642
 30
0.0
 11
327.211946977212
 21
62.352918534919
 31
0.0
  0
LINE
  5
80E
330
1D
100
AcDbEntity
  8
0
100
AcDbLine
 10
324.030818829059
 20
61.391481899724
 30
0.0
 11
327.211946977212
 21
62.352918534919
 31
0.0
  0
LINE
  5
80F
330
1D
100
AcDbEntity
  8
0
100
AcDbLine
 10
308.9619
 20
46.5181
 30
0.0
 11
308.5604
 21
44.8211
 31
0.0
  0
LINE
  5
810
330
1D
100
AcDbEntity
  8
0
100
AcDbLine
 10
277.8602
 20
57.8509
 30
0.0
 11
277.7701
 21
11.2809
 31
0.0
  0
LINE
  5
811
330
1D
100
AcDbEntity
  8
0
100
AcDbLine
 10
299.2061
 20
0.0
 30
0.0
 11
296.3867
 21
0.0
 31
0.0
  0
LINE
  5
812
330
1D
100
AcDbEntity
  8
0
100
AcDbLine
 10
300.5788
 20
0.0
 30
0.0
 11
297.9526
 21
0.0
 31
0.0
  0
LINE
  5
813
330
1D
100
AcDbEntity
  8
0
100
AcDbLine
 10
300.5788
 20
0.0
 30
0.0
 11
297.9526
 21
0.0
 31
0.0
  0
LINE
  5
814
330
1D
100
AcDbEntity
  8
0
100
AcDbLine
 10
299.2061
 20
0.0
 30
0.0
 11
296.3867
 21
0.0
 31
0.0
  0
LINE
  5
815
330
1D
100
AcDbEntity
  8
0
100
AcDbLine
 10
278.4329
 20
10.7808
 30
0.0
 11
307.5341
 21
10.7808
 31
0.0
  0
LINE
  5
816
330
1D
100
AcDbEntity
  8
0
100
AcDbLine
 10
307.8075
 20
11.2809
 30
0.0
 11
307.7665
 21
32.6778
 31
0.0
  0
LINE
  5
817
330
1D
100
AcDbEntity
  8
0
100
AcDbLine
 10
309.6578
 20
0.0
 30
0.0
 11
307.2168
 21
0.0
 31
0.0
  0
LINE
  5
818
330
1D
100
AcDbEntity
  8
0
100
AcDbLine
 10
310.0993
 20
0.0
 30
0.0
 11
307.9147
 21
0.0
 31
0.0
  0
LINE
  5
819
330
1D
100
AcDbEntity
  8
0
100
AcDbLine
 10
310.0993
 20
0.0
 30
0.0
 11
307.9147
 21
0.0
 31
0.0
  0
LINE
  5
81A
330
1D
100
AcDbEntity
  8
0
100
AcDbLine
 10
309.6578
 20
0.0
 30
0.0
 11
307.2168
 21
0.0
 31
0.0
  0
LINE
  5
81B
330
1D
100
AcDbEntity
  8
0
100
AcDbLine
 10
310.4127
 20
9.78257
 30
0.0
 11
308.189
 21
9.78257
 31
0.0
  0
LINE
  5
81C
330
1D
100
AcDbEntity
  8
0
100
AcDbLine
 10
315.9854
 20
0.0
 30
0.0
 11
314.0621
 21
0.0
 31
0.0
  0
LINE
  5
81D
330
1D
100
AcDbEntity
  8
0
100
AcDbLine
 10
315.5799
 20
0.0
 30
0.0
 11
313.951
 21
0.0
 31
0.0
  0
LINE
  5
81E
330
1D
100
AcDbEntity
  8
0
100
AcDbLine
 10
315.5799
 20
0.0
 30
0.0
 11
313.951
 21
0.0
 31
0.0
  0
LINE
  5
81F
330
1D
100
AcDbEntity
  8
0
100
AcDbLine
 10
315.9854
 20
0.0
 30
0.0
 11
314.0621
 21
0.0
 31
0.0
  0
LINE
  5
820
330
1D
100
AcDbEntity
  8
0
100
AcDbLine
 10
317.6985
 20
0.0
 30
0.0
 11
315.9854
 21
0.0
 31
0.0
  0
LINE
  5
821
330
1D
100
AcDbEntity
  8
0
100
AcDbLine
 10
316.9907
 20
0.0
 30
0.0
 11
315.5799
 21
0.0
 31
0.0
  0
LINE
  5
822
330
1D
100
AcDbEntity
  8
0
100
AcDbLine
 10
318.1671
 20
0.0
 30
0.0
 11
316.9907
 21
0.0
 31
0.0
  0
LINE
  5
823
330
1D
100
AcDbEntity
  8
0
100
AcDbLine
 10
319.1863
 20
0.0
 30
0.0
 11
317.6985
 21
0.0
 31
0.0
  0
LINE
  5
824
330
1D
100
AcDbEntity
  8
0
100
AcDbLine
 10
320.4358
 20
0.0
 30
0.0
 11
319.1863
 21
0.0
 31
0.0
  0
LINE
  5
825
330
1D
100
AcDbEntity
  8
0
100
AcDbLine
 10
319.1002
 20
0.0
 30
0.0
 11
318.1671
 21
0.0
 31
0.0
  0
LINE
  5
826
330
1D
100
AcDbEntity
  8
0
100
AcDbLine
 10
319.782
 20
0.0
 30
0.0
 11
319.1002
 21
0.0
 31
0.0
  0
LINE
  5
827
330
1D
100
AcDbEntity
  8
0
100
AcDbLine
 10
320.2025
 20
0.0
 30
0.0
 11
319.782
 21
0.0
 31
0.0
  0
LINE
  5
828
330
1D
100
AcDbEntity
  8
0
100
AcDbLine
 10
320.3597
 20
0.0
 30
0.0
 11
320.2025
 21
0.0
 31
0.0
  0
LINE
  5
829
330
1D
100
AcDbEntity
  8
0
100
AcDbLine
 10
320.3597
 20
0.0
 30
0.0
 11
320.2025
 21
0.0
 31
0.0
  0
LINE
  5
82A
330
1D
100
AcDbEntity
  8
0
100
AcDbLine
 10
320.2025
 20
0.0
 30
0.0
 11
319.782
 21
0.0
 31
0.0
  0
LINE
  5
82B
330
1D
100
AcDbEntity
  8
0
100
AcDbLine
 10
319.782
 20
0.0
 30
0.0
 11
319.1002
 21
0.0
 31
0.0
  0
LINE
  5
82C
330
1D
100
AcDbEntity
  8
0
100
AcDbLine
 10
319.1002
 20
0.0
 30
0.0
 11
318.1671
 21
0.0
 31
0.0
  0
LINE
  5
82D
330
1D
100
AcDbEntity
  8
0
100
AcDbLine
 10
320.4358
 20
0.0
 30
0.0
 11
319.1863
 21
0.0
 31
0.0
  0
LINE
  5
82E
330
1D
100
AcDbEntity
  8
0
100
AcDbLine
 10
318.1671
 20
0.0
 30
0.0
 11
316.9907
 21
0.0
 31
0.0
  0
LINE
  5
82F
330
1D
100
AcDbEntity
  8
0
100
AcDbLine
 10
316.9907
 20
0.0
 30
0.0
 11
315.5799
 21
0.0
 31
0.0
  0
LINE
  5
830
330
1D
100
AcDbEntity
  8
0
100
AcDbLine
 10
317.6985
 20
0.0
 30
0.0
 11
315.9854
 21
0.0
 31
0.0
  0
LINE
  5
831
330
1D
100
AcDbEntity
  8
0
100
AcDbLine
 10
319.1863
 20
0.0
 30
0.0
 11
317.6985
 21
0.0
 31
0.0
  0
LINE
  5
832
330
1D
100
AcDbEntity
  8
0
100
AcDbLine
 10
320.7001
 20
9.78257
 30
0.0
 11
320.2716
 21
9.78257
 31
0.0
  0
LINE
  5
833
330
1D
100
AcDbEntity
  8
0
100
AcDbLine
 10
320.8603
 20
9.78257
 30
0.0
 11
320.7001
 21
9.78257
 31
0.0
  0
LINE
  5
834
330
1D
100
AcDbEntity
  8
0
100
AcDbLine
 10
312.1177
 20
0.0
 30
0.0
 11
310.0993
 21
0.0
 31
0.0
  0
LINE
  5
835
330
1D
100
AcDbEntity
  8
0
100
AcDbLine
 10
311.9465
 20
0.0
 30
0.0
 11
309.6578
 21
0.0
 31
0.0
  0
LINE
  5
836
330
1D
100
AcDbEntity
  8
0
100
AcDbLine
 10
314.0621
 20
0.0
 30
0.0
 11
311.9465
 21
0.0
 31
0.0
  0
LINE
  5
837
330
1D
100
AcDbEntity
  8
0
100
AcDbLine
 10
313.951
 20
0.0
 30
0.0
 11
312.1177
 21
0.0
 31
0.0
  0
LINE
  5
838
330
1D
100
AcDbEntity
  8
0
100
AcDbLine
 10
313.951
 20
0.0
 30
0.0
 11
312.1177
 21
0.0
 31
0.0
  0
LINE
  5
839
330
1D
100
AcDbEntity
  8
0
100
AcDbLine
 10
312.1177
 20
0.0
 30
0.0
 11
310.0993
 21
0.0
 31
0.0
  0
LINE
  5
83A
330
1D
100
AcDbEntity
  8
0
100
AcDbLine
 10
314.0621
 20
0.0
 30
0.0
 11
311.9465
 21
0.0
 31
0.0
  0
LINE
  5
83B
330
1D
100
AcDbEntity
  8
0
100
AcDbLine
 10
311.9465
 20
0.0
 30
0.0
 11
309.6578
 21
0.0
 31
0.0
  0
LINE
  5
83C
330
1D
100
AcDbEntity
  8
0
100
AcDbLine
 10
304.6457
 20
0.0
 30
0.0
 11
301.9675
 21
0.0
 31
0.0
  0
LINE
  5
83D
330
1D
100
AcDbEntity
  8
0
100
AcDbLine
 10
305.5848
 20
0.0
 30
0.0
 11
303.1319
 21
0.0
 31
0.0
  0
LINE
  5
83E
330
1D
100
AcDbEntity
  8
0
100
AcDbLine
 10
305.5848
 20
0.0
 30
0.0
 11
303.1319
 21
0.0
 31
0.0
  0
LINE
  5
83F
330
1D
100
AcDbEntity
  8
0
100
AcDbLine
 10
304.6457
 20
0.0
 30
0.0
 11
301.9675
 21
0.0
 31
0.0
  0
LINE
  5
840
330
1D
100
AcDbEntity
  8
0
100
AcDbLine
 10
305.8161
 20
9.78257
 30
0.0
 11
303.3191
 21
9.78257
 31
0.0
  0
LINE
  5
841
330
1D
100
AcDbEntity
  8
0
100
AcDbLine
 10
304.5726
 20
10.7808
 30
0.0
 11
303.6765
 21
10.7808
 31
0.0
  0
LINE
  5
842
330
1D
100
AcDbEntity
  8
0
100
AcDbLine
 10
307.2168
 20
0.0
 30
0.0
 11
304.6457
 21
0.0
 31
0.0
  0
LINE
  5
843
330
1D
100
AcDbEntity
  8
0
100
AcDbLine
 10
307.9147
 20
0.0
 30
0.0
 11
305.5848
 21
0.0
 31
0.0
  0
LINE
  5
844
330
1D
100
AcDbEntity
  8
0
100
AcDbLine
 10
307.9147
 20
0.0
 30
0.0
 11
305.5848
 21
0.0
 31
0.0
  0
LINE
  5
845
330
1D
100
AcDbEntity
  8
0
100
AcDbLine
 10
307.2168
 20
0.0
 30
0.0
 11
304.6457
 21
0.0
 31
0.0
  0
LINE
  5
846
330
1D
100
AcDbEntity
  8
0
100
AcDbLine
 10
308.189
 20
9.78257
 30
0.0
 11
305.8161
 21
9.78257
 31
0.0
  0
LINE
  5
847
330
1D
100
AcDbEntity
  8
0
100
AcDbLine
 10
307.0276
 20
10.7808
 30
0.0
 11
306.5961
 21
10.7808
 31
0.0
  0
LINE
  5
848
330
1D
100
AcDbEntity
  8
0
100
AcDbLine
 10
307.8343
 20
9.78257
 30
0.0
 11
307.8343
 21
10.4813
 31
0.0
  0
LINE
  5
849
330
1D
100
AcDbEntity
  8
0
100
AcDbLine
 10
307.8343
 20
10.4813
 30
0.0
 11
307.7942
 21
10.6311
 31
0.0
  0
LINE
  5
84A
330
1D
100
AcDbEntity
  8
0
100
AcDbLine
 10
307.8343
 20
10.4813
 30
0.0
 11
307.8343
 21
9.78257
 31
0.0
  0
LINE
  5
84B
330
1D
100
AcDbEntity
  8
0
100
AcDbLine
 10
307.7942
 20
10.6311
 30
0.0
 11
307.6843
 21
10.7409
 31
0.0
  0
LINE
  5
84C
330
1D
100
AcDbEntity
  8
0
100
AcDbLine
 10
307.331
 20
10.7808
 30
0.0
 11
307.0276
 21
10.7808
 31
0.0
  0
LINE
  5
84D
330
1D
100
AcDbEntity
  8
0
100
AcDbLine
 10
307.5032
 20
10.7808
 30
0.0
 11
307.331
 21
10.7808
 31
0.0
  0
LINE
  5
84E
330
1D
100
AcDbEntity
  8
0
100
AcDbLine
 10
307.5064
 20
10.7808
 30
0.0
 11
307.331
 21
10.7808
 31
0.0
  0
LINE
  5
84F
330
1D
100
AcDbEntity
  8
0
100
AcDbLine
 10
307.6843
 20
10.7409
 30
0.0
 11
307.5341
 21
10.7808
 31
0.0
  0
LINE
  5
850
330
1D
100
AcDbEntity
  8
0
100
AcDbLine
 10
307.5572
 20
10.8487
 30
0.0
 11
307.3069
 21
10.7808
 31
0.0
  0
LINE
  5
851
330
1D
100
AcDbEntity
  8
0
100
AcDbLine
 10
307.7404
 20
11.0313
 30
0.0
 11
307.5572
 21
10.8487
 31
0.0
  0
LINE
  5
852
330
1D
100
AcDbEntity
  8
0
100
AcDbLine
 10
307.8075
 20
11.2809
 30
0.0
 11
307.7404
 21
11.0313
 31
0.0
  0
LINE
  5
853
330
1D
100
AcDbEntity
  8
0
100
AcDbLine
 10
305.3626
 20
10.7808
 30
0.0
 11
304.5726
 21
10.7808
 31
0.0
  0
LINE
  5
854
330
1D
100
AcDbEntity
  8
0
100
AcDbLine
 10
306.0394
 20
10.7808
 30
0.0
 11
305.3626
 21
10.7808
 31
0.0
  0
LINE
  5
855
330
1D
100
AcDbEntity
  8
0
100
AcDbLine
 10
306.5961
 20
10.7808
 30
0.0
 11
306.0394
 21
10.7808
 31
0.0
  0
LINE
  5
856
330
1D
100
AcDbEntity
  8
0
100
AcDbLine
 10
301.9675
 20
0.0
 30
0.0
 11
299.2061
 21
0.0
 31
0.0
  0
LINE
  5
857
330
1D
100
AcDbEntity
  8
0
100
AcDbLine
 10
303.1319
 20
0.0
 30
0.0
 11
300.5788
 21
0.0
 31
0.0
  0
LINE
  5
858
330
1D
100
AcDbEntity
  8
0
100
AcDbLine
 10
303.1319
 20
0.0
 30
0.0
 11
300.5788
 21
0.0
 31
0.0
  0
LINE
  5
859
330
1D
100
AcDbEntity
  8
0
100
AcDbLine
 10
301.9675
 20
0.0
 30
0.0
 11
299.2061
 21
0.0
 31
0.0
  0
LINE
  5
85A
330
1D
100
AcDbEntity
  8
0
100
AcDbLine
 10
303.6765
 20
10.7808
 30
0.0
 11
302.6823
 21
10.7808
 31
0.0
  0
LINE
  5
85B
330
1D
100
AcDbEntity
  8
0
100
AcDbLine
 10
307.8025
 20
37.2915
 30
0.0
 11
307.7665
 21
32.6778
 31
0.0
  0
LINE
  5
85C
330
1D
100
AcDbEntity
  8
0
100
AcDbLine
 10
307.9046
 20
39.6214
 30
0.0
 11
307.8025
 21
37.2915
 31
0.0
  0
LINE
  5
85D
330
1D
100
AcDbEntity
  8
0
100
AcDbLine
 10
308.0468
 20
41.3663
 30
0.0
 11
307.9046
 21
39.6214
 31
0.0
  0
LINE
  5
85E
330
1D
100
AcDbEntity
  8
0
100
AcDbLine
 10
308.5604
 20
44.8211
 30
0.0
 11
308.2601
 21
43.1022
 31
0.0
  0
LINE
  5
85F
330
1D
100
AcDbEntity
  8
0
100
AcDbLine
 10
308.2601
 20
43.1022
 30
0.0
 11
308.0468
 21
41.3663
 31
0.0
  0
LINE
  5
860
330
1D
100
AcDbEntity
  8
0
100
AcDbLine
 10
287.8403
 20
0.0
 30
0.0
 11
285.048
 21
0.0
 31
0.0
  0
LINE
  5
861
330
1D
100
AcDbEntity
  8
0
100
AcDbLine
 10
287.2096
 20
0.0
 30
0.0
 11
284.5954
 21
0.0
 31
0.0
  0
LINE
  5
862
330
1D
100
AcDbEntity
  8
0
100
AcDbLine
 10
287.2096
 20
0.0
 30
0.0
 11
284.5954
 21
0.0
 31
0.0
  0
LINE
  5
863
330
1D
100
AcDbEntity
  8
0
100
AcDbLine
 10
287.8403
 20
0.0
 30
0.0
 11
285.048
 21
0.0
 31
0.0
  0
LINE
  5
864
330
1D
100
AcDbEntity
  8
0
100
AcDbLine
 10
293.5362
 20
0.0
 30
0.0
 11
290.6788
 21
0.0
 31
0.0
  0
LINE
  5
865
330
1D
100
AcDbEntity
  8
0
100
AcDbLine
 10
292.5761
 20
0.0
 30
0.0
 11
289.8788
 21
0.0
 31
0.0
  0
LINE
  5
866
330
1D
100
AcDbEntity
  8
0
100
AcDbLine
 10
292.5761
 20
0.0
 30
0.0
 11
289.8788
 21
0.0
 31
0.0
  0
LINE
  5
867
330
1D
100
AcDbEntity
  8
0
100
AcDbLine
 10
293.5362
 20
0.0
 30
0.0
 11
290.6788
 21
0.0
 31
0.0
  0
LINE
  5
868
330
1D
100
AcDbEntity
  8
0
100
AcDbLine
 10
296.3867
 20
0.0
 30
0.0
 11
293.5362
 21
0.0
 31
0.0
  0
LINE
  5
869
330
1D
100
AcDbEntity
  8
0
100
AcDbLine
 10
295.2753
 20
0.0
 30
0.0
 11
292.5761
 21
0.0
 31
0.0
  0
LINE
  5
86A
330
1D
100
AcDbEntity
  8
0
100
AcDbLine
 10
297.9526
 20
0.0
 30
0.0
 11
295.2753
 21
0.0
 31
0.0
  0
LINE
  5
86B
330
1D
100
AcDbEntity
  8
0
100
AcDbLine
 10
297.9526
 20
0.0
 30
0.0
 11
295.2753
 21
0.0
 31
0.0
  0
LINE
  5
86C
330
1D
100
AcDbEntity
  8
0
100
AcDbLine
 10
295.2753
 20
0.0
 30
0.0
 11
292.5761
 21
0.0
 31
0.0
  0
LINE
  5
86D
330
1D
100
AcDbEntity
  8
0
100
AcDbLine
 10
296.3867
 20
0.0
 30
0.0
 11
293.5362
 21
0.0
 31
0.0
  0
LINE
  5
86E
330
1D
100
AcDbEntity
  8
0
100
AcDbLine
 10
290.6788
 20
0.0
 30
0.0
 11
287.8403
 21
0.0
 31
0.0
  0
LINE
  5
86F
330
1D
100
AcDbEntity
  8
0
100
AcDbLine
 10
289.8788
 20
0.0
 30
0.0
 11
287.2096
 21
0.0
 31
0.0
  0
LINE
  5
870
330
1D
100
AcDbEntity
  8
0
100
AcDbLine
 10
289.8788
 20
0.0
 30
0.0
 11
287.2096
 21
0.0
 31
0.0
  0
LINE
  5
871
330
1D
100
AcDbEntity
  8
0
100
AcDbLine
 10
290.6788
 20
0.0
 30
0.0
 11
287.8403
 21
0.0
 31
0.0
  0
LINE
  5
872
330
1D
100
AcDbEntity
  8
0
100
AcDbLine
 10
282.3247
 20
0.0
 30
0.0
 11
279.6975
 21
0.0
 31
0.0
  0
LINE
  5
873
330
1D
100
AcDbEntity
  8
0
100
AcDbLine
 10
282.0593
 20
0.0
 30
0.0
 11
279.6274
 21
0.0
 31
0.0
  0
LINE
  5
874
330
1D
100
AcDbEntity
  8
0
100
AcDbLine
 10
282.0593
 20
0.0
 30
0.0
 11
279.6274
 21
0.0
 31
0.0
  0
LINE
  5
875
330
1D
100
AcDbEntity
  8
0
100
AcDbLine
 10
282.3247
 20
0.0
 30
0.0
 11
279.6975
 21
0.0
 31
0.0
  0
LINE
  5
876
330
1D
100
AcDbEntity
  8
0
100
AcDbLine
 10
285.048
 20
0.0
 30
0.0
 11
282.3247
 21
0.0
 31
0.0
  0
LINE
  5
877
330
1D
100
AcDbEntity
  8
0
100
AcDbLine
 10
284.5954
 20
0.0
 30
0.0
 11
282.0593
 21
0.0
 31
0.0
  0
LINE
  5
878
330
1D
100
AcDbEntity
  8
0
100
AcDbLine
 10
284.5954
 20
0.0
 30
0.0
 11
282.0593
 21
0.0
 31
0.0
  0
LINE
  5
879
330
1D
100
AcDbEntity
  8
0
100
AcDbLine
 10
285.048
 20
0.0
 30
0.0
 11
282.3247
 21
0.0
 31
0.0
  0
LINE
  5
87A
330
1D
100
AcDbEntity
  8
0
100
AcDbLine
 10
279.6975
 20
0.0
 30
0.0
 11
277.1894
 21
0.0
 31
0.0
  0
LINE
  5
87B
330
1D
100
AcDbEntity
  8
0
100
AcDbLine
 10
279.6274
 20
0.0
 30
0.0
 11
277.3226
 21
0.0
 31
0.0
  0
LINE
  5
87C
330
1D
100
AcDbEntity
  8
0
100
AcDbLine
 10
277.3226
 20
0.0
 30
0.0
 11
275.167
 21
0.0
 31
0.0
  0
LINE
  5
87D
330
1D
100
AcDbEntity
  8
0
100
AcDbLine
 10
277.3226
 20
0.0
 30
0.0
 11
275.167
 21
0.0
 31
0.0
  0
LINE
  5
87E
330
1D
100
AcDbEntity
  8
0
100
AcDbLine
 10
279.6274
 20
0.0
 30
0.0
 11
277.3226
 21
0.0
 31
0.0
  0
LINE
  5
87F
330
1D
100
AcDbEntity
  8
0
100
AcDbLine
 10
279.6975
 20
0.0
 30
0.0
 11
277.1894
 21
0.0
 31
0.0
  0
LINE
  5
880
330
1D
100
AcDbEntity
  8
0
100
AcDbLine
 10
278.1126
 20
10.7808
 30
0.0
 11
277.9624
 21
10.7409
 31
0.0
  0
LINE
  5
881
330
1D
100
AcDbEntity
  8
0
100
AcDbLine
 10
278.0204
 20
10.8487
 30
0.0
 11
277.8372
 21
11.0313
 31
0.0
  0
LINE
  5
882
330
1D
100
AcDbEntity
  8
0
100
AcDbLine
 10
280.6046
 20
10.7808
 30
0.0
 11
279.8807
 21
10.7808
 31
0.0
  0
LINE
  5
883
330
1D
100
AcDbEntity
  8
0
100
AcDbLine
 10
278.4329
 20
10.7808
 30
0.0
 11
278.2067
 21
10.7808
 31
0.0
  0
LINE
  5
884
330
1D
100
AcDbEntity
  8
0
100
AcDbLine
 10
279.8807
 20
10.7808
 30
0.0
 11
279.274
 21
10.7808
 31
0.0
  0
LINE
  5
885
330
1D
100
AcDbEntity
  8
0
100
AcDbLine
 10
279.274
 20
10.7808
 30
0.0
 11
278.7904
 21
10.7808
 31
0.0
  0
LINE
  5
886
330
1D
100
AcDbEntity
  8
0
100
AcDbLine
 10
278.2067
 20
10.7808
 30
0.0
 11
278.1126
 21
10.7808
 31
0.0
  0
LINE
  5
887
330
1D
100
AcDbEntity
  8
0
100
AcDbLine
 10
278.2707
 20
10.7808
 30
0.0
 11
278.0204
 21
10.8487
 31
0.0
  0
LINE
  5
888
330
1D
100
AcDbEntity
  8
0
100
AcDbLine
 10
277.8122
 20
9.78257
 30
0.0
 11
277.8122
 21
10.4813
 31
0.0
  0
LINE
  5
889
330
1D
100
AcDbEntity
  8
0
100
AcDbLine
 10
277.8522
 20
10.6311
 30
0.0
 11
277.8122
 21
10.4813
 31
0.0
  0
LINE
  5
88A
330
1D
100
AcDbEntity
  8
0
100
AcDbLine
 10
277.8122
 20
10.4813
 30
0.0
 11
277.8122
 21
9.78257
 31
0.0
  0
LINE
  5
88B
330
1D
100
AcDbEntity
  8
0
100
AcDbLine
 10
277.9624
 20
10.7409
 30
0.0
 11
277.8522
 21
10.6311
 31
0.0
  0
LINE
  5
88C
330
1D
100
AcDbEntity
  8
0
100
AcDbLine
 10
277.8372
 20
11.0313
 30
0.0
 11
277.7701
 21
11.2809
 31
0.0
  0
LINE
  5
88D
330
1D
100
AcDbEntity
  8
0
100
AcDbLine
 10
309.6818
 20
48.7322
 30
0.0
 11
308.9619
 21
46.5181
 31
0.0
  0
LINE
  5
88E
330
1D
100
AcDbEntity
  8
0
100
AcDbLine
 10
316.1016
 20
57.3608
 30
0.0
 11
315.0555
 21
56.4722
 31
0.0
  0
LINE
  5
88F
330
1D
100
AcDbEntity
  8
0
100
AcDbLine
 10
311.8795
 20
52.9267
 30
0.0
 11
311.2247
 21
51.9135
 31
0.0
  0
LINE
  5
890
330
1D
100
AcDbEntity
  8
0
100
AcDbLine
 10
310.643
 20
50.8743
 30
0.0
 11
309.6818
 21
48.7322
 31
0.0
  0
LINE
  5
891
330
1D
100
AcDbEntity
  8
0
100
AcDbLine
 10
311.2247
 20
51.9135
 30
0.0
 11
310.643
 21
50.8743
 31
0.0
  0
LINE
  5
892
330
1D
100
AcDbEntity
  8
0
100
AcDbLine
 10
313.175
 20
54.6007
 30
0.0
 11
311.8795
 21
52.9267
 31
0.0
  0
LINE
  5
893
330
1D
100
AcDbEntity
  8
0
100
AcDbLine
 10
314.1499
 20
55.6181
 30
0.0
 11
313.175
 21
54.6007
 31
0.0
  0
LINE
  5
894
330
1D
100
AcDbEntity
  8
0
100
AcDbLine
 10
314.5867
 20
56.0741
 30
0.0
 11
314.1499
 21
55.6181
 31
0.0
  0
LINE
  5
895
330
1D
100
AcDbEntity
  8
0
100
AcDbLine
 10
315.0555
 20
56.4722
 30
0.0
 11
314.5867
 21
56.0741
 31
0.0
  0
LINE
  5
896
330
1D
100
AcDbEntity
  8
0
100
AcDbLine
 10
316.9257
 20
57.9502
 30
0.0
 11
316.1016
 21
57.3608
 31
0.0
  0
LINE
  5
897
330
1D
100
AcDbEntity
  8
0
100
AcDbLine
 10
317.295
 20
58.2143
 30
0.0
 11
316.9257
 21
57.9502
 31
0.0
  0
LINE
  5
898
330
1D
100
AcDbEntity
  8
0
100
AcDbLine
 10
317.6783
 20
58.4515
 30
0.0
 11
317.295
 21
58.2143
 31
0.0
  0
LINE
  5
899
330
1D
100
AcDbEntity
  8
0
100
AcDbLine
 10
319.4137
 20
59.4545
 30
0.0
 11
318.5335
 21
58.9809
 31
0.0
  0
LINE
  5
89A
330
1D
100
AcDbEntity
  8
0
100
AcDbLine
 10
320.2124
 20
59.8566
 30
0.0
 11
319.8081
 21
59.6667
 31
0.0
  0
LINE
  5
89B
330
1D
100
AcDbEntity
  8
0
100
AcDbLine
 10
319.8081
 20
59.6667
 30
0.0
 11
319.4137
 21
59.4545
 31
0.0
  0
LINE
  5
89C
330
1D
100
AcDbEntity
  8
0
100
AcDbLine
 10
318.5335
 20
58.9809
 30
0.0
 11
317.6783
 21
58.4515
 31
0.0
  0
LINE
  5
89D
330
1D
100
AcDbEntity
  8
0
100
AcDbLine
 10
278.0505
 20
58.2412
 30
0.0
 11
277.9804
 21
58.1643
 31
0.0
  0
LINE
  5
89E
330
1D
100
AcDbEntity
  8
0
100
AcDbLine
 10
278.2517
 20
58.337
 30
0.0
 11
278.0505
 21
58.2412
 31
0.0
  0
LINE
  5
89F
330
1D
100
AcDbEntity
  8
0
100
AcDbLine
 10
278.323321557928
 20
58.353092052417
 30
0.0
 11
278.2518
 21
58.3371
 31
0.0
  0
LINE
  5
8A0
330
1D
100
AcDbEntity
  8
0
100
AcDbLine
 10
278.323321557929
 20
58.353092052417
 30
0.0
 11
278.2518
 21
58.3371
 31
0.0
  0
LINE
  5
8A1
330
1D
100
AcDbEntity
  8
0
100
AcDbLine
 10
278.474
 20
58.387
 30
0.0
 11
278.310357247966
 21
58.35019326315
 31
0.0
  0
LINE
  5
8A2
330
1D
100
AcDbEntity
  8
0
100
AcDbLine
 10
278.474
 20
58.387
 30
0.0
 11
278.310357247966
 21
58.35019326315
 31
0.0
  0
LINE
  5
8A3
330
1D
100
AcDbEntity
  8
0
100
AcDbLine
 10
278.9606
 20
58.4948
 30
0.0
 11
278.474
 21
58.387
 31
0.0
  0
LINE
  5
8A4
330
1D
100
AcDbEntity
  8
0
100
AcDbLine
 10
277.9804
 20
58.1643
 30
0.0
 11
277.9103
 21
58.0675
 31
0.0
  0
LINE
  5
8A5
330
1D
100
AcDbEntity
  8
0
100
AcDbLine
 10
277.9103
 20
58.0675
 30
0.0
 11
277.8602
 21
57.8509
 31
0.0
  0
LINE
  5
8A6
330
1D
100
AcDbEntity
  8
0
100
AcDbLine
 10
206.4956
 20
10.1989
 30
0.0
 11
204.7471
 21
102.176
 31
0.0
  0
LINE
  5
8A7
330
1D
100
AcDbEntity
  8
0
100
AcDbLine
 10
263.8132
 20
0.0
 30
0.0
 11
263.2055
 21
0.0
 31
0.0
  0
LINE
  5
8A8
330
1D
100
AcDbEntity
  8
0
100
AcDbLine
 10
265.4032
 20
0.0
 30
0.0
 11
263.2055
 21
0.0
 31
0.0
  0
LINE
  5
8A9
330
1D
100
AcDbEntity
  8
0
100
AcDbLine
 10
265.4032
 20
0.0
 30
0.0
 11
262.8671
 21
0.0
 31
0.0
  0
LINE
  5
8AA
330
1D
100
AcDbEntity
  8
0
100
AcDbLine
 10
265.4032
 20
0.0
 30
0.0
 11
263.2055
 21
0.0
 31
0.0
  0
LINE
  5
8AB
330
1D
100
AcDbEntity
  8
0
100
AcDbLine
 10
265.4032
 20
0.0
 30
0.0
 11
262.8671
 21
0.0
 31
0.0
  0
LINE
  5
8AC
330
1D
100
AcDbEntity
  8
0
100
AcDbLine
 10
263.8132
 20
0.0
 30
0.0
 11
263.2055
 21
0.0
 31
0.0
  0
LINE
  5
8AD
330
1D
100
AcDbEntity
  8
0
100
AcDbLine
 10
264.1988
 20
9.68474
 30
0.0
 11
263.6414
 21
9.40125
 31
0.0
  0
LINE
  5
8AE
330
1D
100
AcDbEntity
  8
0
100
AcDbLine
 10
270.5984
 20
0.0
 30
0.0
 11
268.7782
 21
0.0
 31
0.0
  0
LINE
  5
8AF
330
1D
100
AcDbEntity
  8
0
100
AcDbLine
 10
269.7955
 20
0.0
 30
0.0
 11
268.4278
 21
0.0
 31
0.0
  0
LINE
  5
8B0
330
1D
100
AcDbEntity
  8
0
100
AcDbLine
 10
269.7955
 20
0.0
 30
0.0
 11
268.4278
 21
0.0
 31
0.0
  0
LINE
  5
8B1
330
1D
100
AcDbEntity
  8
0
100
AcDbLine
 10
270.5984
 20
0.0
 30
0.0
 11
268.7782
 21
0.0
 31
0.0
  0
LINE
  5
8B2
330
1D
100
AcDbEntity
  8
0
100
AcDbLine
 10
274.8226
 20
0.0
 30
0.0
 11
272.6189
 21
0.0
 31
0.0
  0
LINE
  5
8B3
330
1D
100
AcDbEntity
  8
0
100
AcDbLine
 10
273.1816
 20
0.0
 30
0.0
 11
271.3854
 21
0.0
 31
0.0
  0
LINE
  5
8B4
330
1D
100
AcDbEntity
  8
0
100
AcDbLine
 10
272.6189
 20
0.0
 30
0.0
 11
270.5984
 21
0.0
 31
0.0
  0
LINE
  5
8B5
330
1D
100
AcDbEntity
  8
0
100
AcDbLine
 10
271.3854
 20
0.0
 30
0.0
 11
269.7955
 21
0.0
 31
0.0
  0
LINE
  5
8B6
330
1D
100
AcDbEntity
  8
0
100
AcDbLine
 10
273.1816
 20
0.0
 30
0.0
 11
271.3854
 21
0.0
 31
0.0
  0
LINE
  5
8B7
330
1D
100
AcDbEntity
  8
0
100
AcDbLine
 10
271.3854
 20
0.0
 30
0.0
 11
269.7955
 21
0.0
 31
0.0
  0
LINE
  5
8B8
330
1D
100
AcDbEntity
  8
0
100
AcDbLine
 10
272.6189
 20
0.0
 30
0.0
 11
270.5984
 21
0.0
 31
0.0
  0
LINE
  5
8B9
330
1D
100
AcDbEntity
  8
0
100
AcDbLine
 10
274.8226
 20
0.0
 30
0.0
 11
272.6189
 21
0.0
 31
0.0
  0
LINE
  5
8BA
330
1D
100
AcDbEntity
  8
0
100
AcDbLine
 10
268.7782
 20
0.0
 30
0.0
 11
267.1763
 21
0.0
 31
0.0
  0
LINE
  5
8BB
330
1D
100
AcDbEntity
  8
0
100
AcDbLine
 10
267.1763
 20
0.0
 30
0.0
 11
265.8076
 21
0.0
 31
0.0
  0
LINE
  5
8BC
330
1D
100
AcDbEntity
  8
0
100
AcDbLine
 10
268.4278
 20
0.0
 30
0.0
 11
267.2944
 21
0.0
 31
0.0
  0
LINE
  5
8BD
330
1D
100
AcDbEntity
  8
0
100
AcDbLine
 10
267.2944
 20
0.0
 30
0.0
 11
266.4074
 21
0.0
 31
0.0
  0
LINE
  5
8BE
330
1D
100
AcDbEntity
  8
0
100
AcDbLine
 10
264.6833
 20
0.0
 30
0.0
 11
263.8132
 21
0.0
 31
0.0
  0
LINE
  5
8BF
330
1D
100
AcDbEntity
  8
0
100
AcDbLine
 10
265.8076
 20
0.0
 30
0.0
 11
264.6833
 21
0.0
 31
0.0
  0
LINE
  5
8C0
330
1D
100
AcDbEntity
  8
0
100
AcDbLine
 10
266.4074
 20
0.0
 30
0.0
 11
265.7756
 21
0.0
 31
0.0
  0
LINE
  5
8C1
330
1D
100
AcDbEntity
  8
0
100
AcDbLine
 10
265.7756
 20
0.0
 30
0.0
 11
265.4032
 21
0.0
 31
0.0
  0
LINE
  5
8C2
330
1D
100
AcDbEntity
  8
0
100
AcDbLine
 10
265.4032
 20
0.0
 30
0.0
 11
265.3051
 21
0.0
 31
0.0
  0
LINE
  5
8C3
330
1D
100
AcDbEntity
  8
0
100
AcDbLine
 10
265.4032
 20
0.0
 30
0.0
 11
265.3051
 21
0.0
 31
0.0
  0
LINE
  5
8C4
330
1D
100
AcDbEntity
  8
0
100
AcDbLine
 10
265.7756
 20
0.0
 30
0.0
 11
265.4032
 21
0.0
 31
0.0
  0
LINE
  5
8C5
330
1D
100
AcDbEntity
  8
0
100
AcDbLine
 10
266.4074
 20
0.0
 30
0.0
 11
265.7756
 21
0.0
 31
0.0
  0
LINE
  5
8C6
330
1D
100
AcDbEntity
  8
0
100
AcDbLine
 10
264.6833
 20
0.0
 30
0.0
 11
263.8132
 21
0.0
 31
0.0
  0
LINE
  5
8C7
330
1D
100
AcDbEntity
  8
0
100
AcDbLine
 10
267.2944
 20
0.0
 30
0.0
 11
266.4074
 21
0.0
 31
0.0
  0
LINE
  5
8C8
330
1D
100
AcDbEntity
  8
0
100
AcDbLine
 10
268.4278
 20
0.0
 30
0.0
 11
267.2944
 21
0.0
 31
0.0
  0
LINE
  5
8C9
330
1D
100
AcDbEntity
  8
0
100
AcDbLine
 10
268.7782
 20
0.0
 30
0.0
 11
267.1763
 21
0.0
 31
0.0
  0
LINE
  5
8CA
330
1D
100
AcDbEntity
  8
0
100
AcDbLine
 10
265.8076
 20
0.0
 30
0.0
 11
264.6833
 21
0.0
 31
0.0
  0
LINE
  5
8CB
330
1D
100
AcDbEntity
  8
0
100
AcDbLine
 10
267.1763
 20
0.0
 30
0.0
 11
265.8076
 21
0.0
 31
0.0
  0
LINE
  5
8CC
330
1D
100
AcDbEntity
  8
0
100
AcDbLine
 10
265.283
 20
9.78257
 30
0.0
 11
264.9046
 21
9.78257
 31
0.0
  0
LINE
  5
8CD
330
1D
100
AcDbEntity
  8
0
100
AcDbLine
 10
264.8047
 20
9.78257
 30
0.0
 11
264.1988
 21
9.68474
 31
0.0
  0
LINE
  5
8CE
330
1D
100
AcDbEntity
  8
0
100
AcDbLine
 10
264.9046
 20
9.78257
 30
0.0
 11
264.8047
 21
9.78257
 31
0.0
  0
LINE
  5
8CF
330
1D
100
AcDbEntity
  8
0
100
AcDbLine
 10
263.2055
 20
0.0
 30
0.0
 11
262.8671
 21
0.0
 31
0.0
  0
LINE
  5
8D0
330
1D
100
AcDbEntity
  8
0
100
AcDbLine
 10
262.8671
 20
0.0
 30
0.0
 11
262.8169
 21
0.0
 31
0.0
  0
LINE
  5
8D1
330
1D
100
AcDbEntity
  8
0
100
AcDbLine
 10
262.8169
 20
0.0
 30
0.0
 11
262.8169
 21
7.78613
 31
0.0
  0
LINE
  5
8D2
330
1D
100
AcDbEntity
  8
0
100
AcDbLine
 10
262.8671
 20
0.0
 30
0.0
 11
262.8169
 21
0.0
 31
0.0
  0
LINE
  5
8D3
330
1D
100
AcDbEntity
  8
0
100
AcDbLine
 10
263.2055
 20
0.0
 30
0.0
 11
262.8671
 21
0.0
 31
0.0
  0
LINE
  5
8D4
330
1D
100
AcDbEntity
  8
0
100
AcDbLine
 10
262.8169
 20
7.78613
 30
0.0
 11
262.8169
 21
0.0
 31
0.0
  0
LINE
  5
8D5
330
1D
100
AcDbEntity
  8
0
100
AcDbLine
 10
262.915
 20
8.40303
 30
0.0
 11
262.8169
 21
7.78613
 31
0.0
  0
LINE
  5
8D6
330
1D
100
AcDbEntity
  8
0
100
AcDbLine
 10
263.1984
 20
8.96003
 30
0.0
 11
262.915
 21
8.40303
 31
0.0
  0
LINE
  5
8D7
330
1D
100
AcDbEntity
  8
0
100
AcDbLine
 10
263.6414
 20
9.40125
 30
0.0
 11
263.1984
 21
8.96003
 31
0.0
  0
LINE
  5
8D8
330
1D
100
AcDbEntity
  8
0
100
AcDbLine
 10
207.1908
 20
0.0
 30
0.0
 11
204.8301
 21
0.0
 31
0.0
  0
LINE
  5
8D9
330
1D
100
AcDbEntity
  8
0
100
AcDbLine
 10
208.2511
 20
0.0
 30
0.0
 11
205.7854
 21
0.0
 31
0.0
  0
LINE
  5
8DA
330
1D
100
AcDbEntity
  8
0
100
AcDbLine
 10
208.3001
 20
0.0
 30
0.0
 11
206.0454
 21
0.0
 31
0.0
  0
LINE
  5
8DB
330
1D
100
AcDbEntity
  8
0
100
AcDbLine
 10
207.0547
 20
0.0
 30
0.0
 11
204.486
 21
0.0
 31
0.0
  0
LINE
  5
8DC
330
1D
100
AcDbEntity
  8
0
100
AcDbLine
 10
207.0527
 20
9.69037
 30
0.0
 11
204.673
 21
9.69037
 31
0.0
  0
LINE
  5
8DD
330
1D
100
AcDbEntity
  8
0
100
AcDbLine
 10
206.4956
 20
10.1989
 30
0.0
 11
206.3735
 21
9.94512
 31
0.0
  0
LINE
  5
8DE
330
1D
100
AcDbEntity
  8
0
100
AcDbLine
 10
218.2619
 20
0.0
 30
0.0
 11
217.7088
 21
0.0
 31
0.0
  0
LINE
  5
8DF
330
1D
100
AcDbEntity
  8
0
100
AcDbLine
 10
218.0269
 20
0.0
 30
0.0
 11
217.3187
 21
0.0
 31
0.0
  0
LINE
  5
8E0
330
1D
100
AcDbEntity
  8
0
100
AcDbLine
 10
217.9138
 20
9.10495
 30
0.0
 11
217.2656
 21
9.53852
 31
0.0
  0
LINE
  5
8E1
330
1D
100
AcDbEntity
  8
0
100
AcDbLine
 10
218.5
 20
0.0
 30
0.0
 11
218.2619
 21
0.0
 31
0.0
  0
LINE
  5
8E2
330
1D
100
AcDbEntity
  8
0
100
AcDbLine
 10
218.5
 20
0.0
 30
0.0
 11
218.421
 21
0.0
 31
0.0
  0
LINE
  5
8E3
330
1D
100
AcDbEntity
  8
0
100
AcDbLine
 10
218.5
 20
0.0
 30
0.0
 11
218.421
 21
0.0
 31
0.0
  0
LINE
  5
8E4
330
1D
100
AcDbEntity
  8
0
100
AcDbLine
 10
218.5
 20
0.0
 30
0.0
 11
218.5
 21
7.69236
 31
0.0
  0
LINE
  5
8E5
330
1D
100
AcDbEntity
  8
0
100
AcDbLine
 10
218.5
 20
0.0
 30
0.0
 11
218.2619
 21
0.0
 31
0.0
  0
LINE
  5
8E6
330
1D
100
AcDbEntity
  8
0
100
AcDbLine
 10
218.421
 20
0.0
 30
0.0
 11
218.0269
 21
0.0
 31
0.0
  0
LINE
  5
8E7
330
1D
100
AcDbEntity
  8
0
100
AcDbLine
 10
218.348
 20
8.4566
 30
0.0
 11
217.9138
 21
9.10495
 31
0.0
  0
LINE
  5
8E8
330
1D
100
AcDbEntity
  8
0
100
AcDbLine
 10
218.5
 20
7.69236
 30
0.0
 11
218.348
 21
8.4566
 31
0.0
  0
LINE
  5
8E9
330
1D
100
AcDbEntity
  8
0
100
AcDbLine
 10
218.5
 20
7.69236
 30
0.0
 11
218.5
 21
0.0
 31
0.0
  0
LINE
  5
8EA
330
1D
100
AcDbEntity
  8
0
100
AcDbLine
 10
213.6436
 20
0.0
 30
0.0
 11
212.1172
 21
0.0
 31
0.0
  0
LINE
  5
8EB
330
1D
100
AcDbEntity
  8
0
100
AcDbLine
 10
213.3985
 20
0.0
 30
0.0
 11
211.531
 21
0.0
 31
0.0
  0
LINE
  5
8EC
330
1D
100
AcDbEntity
  8
0
100
AcDbLine
 10
212.4893
 20
0.0
 30
0.0
 11
210.4917
 21
0.0
 31
0.0
  0
LINE
  5
8ED
330
1D
100
AcDbEntity
  8
0
100
AcDbLine
 10
212.9074
 20
0.0
 30
0.0
 11
211.2469
 21
0.0
 31
0.0
  0
LINE
  5
8EE
330
1D
100
AcDbEntity
  8
0
100
AcDbLine
 10
212.7524
 20
9.69037
 30
0.0
 11
211.1129
 21
9.69037
 31
0.0
  0
LINE
  5
8EF
330
1D
100
AcDbEntity
  8
0
100
AcDbLine
 10
216.8455
 20
0.0
 30
0.0
 11
215.6802
 21
0.0
 31
0.0
  0
LINE
  5
8F0
330
1D
100
AcDbEntity
  8
0
100
AcDbLine
 10
217.7088
 20
0.0
 30
0.0
 11
216.8455
 21
0.0
 31
0.0
  0
LINE
  5
8F1
330
1D
100
AcDbEntity
  8
0
100
AcDbLine
 10
216.9996
 20
0.0
 30
0.0
 11
216.7715
 21
0.0
 31
0.0
  0
LINE
  5
8F2
330
1D
100
AcDbEntity
  8
0
100
AcDbLine
 10
216.9996
 20
0.0
 30
0.0
 11
216.9256
 21
0.0
 31
0.0
  0
LINE
  5
8F3
330
1D
100
AcDbEntity
  8
0
100
AcDbLine
 10
216.7715
 20
0.0
 30
0.0
 11
216.2424
 21
0.0
 31
0.0
  0
LINE
  5
8F4
330
1D
100
AcDbEntity
  8
0
100
AcDbLine
 10
216.9256
 20
0.0
 30
0.0
 11
216.5464
 21
0.0
 31
0.0
  0
LINE
  5
8F5
330
1D
100
AcDbEntity
  8
0
100
AcDbLine
 10
217.3187
 20
0.0
 30
0.0
 11
216.3054
 21
0.0
 31
0.0
  0
LINE
  5
8F6
330
1D
100
AcDbEntity
  8
0
100
AcDbLine
 10
216.5464
 20
0.0
 30
0.0
 11
215.8692
 21
0.0
 31
0.0
  0
LINE
  5
8F7
330
1D
100
AcDbEntity
  8
0
100
AcDbLine
 10
216.3054
 20
0.0
 30
0.0
 11
214.994
 21
0.0
 31
0.0
  0
LINE
  5
8F8
330
1D
100
AcDbEntity
  8
0
100
AcDbLine
 10
215.8692
 20
0.0
 30
0.0
 11
214.899
 21
0.0
 31
0.0
  0
LINE
  5
8F9
330
1D
100
AcDbEntity
  8
0
100
AcDbLine
 10
216.2424
 20
0.0
 30
0.0
 11
215.4161
 21
0.0
 31
0.0
  0
LINE
  5
8FA
330
1D
100
AcDbEntity
  8
0
100
AcDbLine
 10
214.899
 20
0.0
 30
0.0
 11
213.6436
 21
0.0
 31
0.0
  0
LINE
  5
8FB
330
1D
100
AcDbEntity
  8
0
100
AcDbLine
 10
214.994
 20
0.0
 30
0.0
 11
213.3985
 21
0.0
 31
0.0
  0
LINE
  5
8FC
330
1D
100
AcDbEntity
  8
0
100
AcDbLine
 10
215.4161
 20
0.0
 30
0.0
 11
214.3008
 21
0.0
 31
0.0
  0
LINE
  5
8FD
330
1D
100
AcDbEntity
  8
0
100
AcDbLine
 10
214.3008
 20
0.0
 30
0.0
 11
212.9074
 21
0.0
 31
0.0
  0
LINE
  5
8FE
330
1D
100
AcDbEntity
  8
0
100
AcDbLine
 10
215.6802
 20
0.0
 30
0.0
 11
214.2238
 21
0.0
 31
0.0
  0
LINE
  5
8FF
330
1D
100
AcDbEntity
  8
0
100
AcDbLine
 10
214.2238
 20
0.0
 30
0.0
 11
212.4893
 21
0.0
 31
0.0
  0
LINE
  5
900
330
1D
100
AcDbEntity
  8
0
100
AcDbLine
 10
217.2656
 20
9.53852
 30
0.0
 11
217.1896
 21
9.53852
 31
0.0
  0
LINE
  5
901
330
1D
100
AcDbEntity
  8
0
100
AcDbLine
 10
217.1896
 20
9.53852
 30
0.0
 11
216.5084
 21
9.69037
 31
0.0
  0
LINE
  5
902
330
1D
100
AcDbEntity
  8
0
100
AcDbLine
 10
214.1107
 20
9.69037
 30
0.0
 11
212.7524
 21
9.69037
 31
0.0
  0
LINE
  5
903
330
1D
100
AcDbEntity
  8
0
100
AcDbLine
 10
216.5084
 20
9.69037
 30
0.0
 11
216.3794
 21
9.69037
 31
0.0
  0
LINE
  5
904
330
1D
100
AcDbEntity
  8
0
100
AcDbLine
 10
216.5084
 20
9.69037
 30
0.0
 11
214.1107
 21
9.69037
 31
0.0
  0
LINE
  5
905
330
1D
100
AcDbEntity
  8
0
100
AcDbLine
 10
209.3354
 20
0.0
 30
0.0
 11
207.1908
 21
0.0
 31
0.0
  0
LINE
  5
906
330
1D
100
AcDbEntity
  8
0
100
AcDbLine
 10
211.2469
 20
0.0
 30
0.0
 11
209.3354
 21
0.0
 31
0.0
  0
LINE
  5
907
330
1D
100
AcDbEntity
  8
0
100
AcDbLine
 10
210.4917
 20
0.0
 30
0.0
 11
208.2511
 21
0.0
 31
0.0
  0
LINE
  5
908
330
1D
100
AcDbEntity
  8
0
100
AcDbLine
 10
212.1172
 20
0.0
 30
0.0
 11
210.3297
 21
0.0
 31
0.0
  0
LINE
  5
909
330
1D
100
AcDbEntity
  8
0
100
AcDbLine
 10
211.531
 20
0.0
 30
0.0
 11
209.4104
 21
0.0
 31
0.0
  0
LINE
  5
90A
330
1D
100
AcDbEntity
  8
0
100
AcDbLine
 10
210.3297
 20
0.0
 30
0.0
 11
208.3001
 21
0.0
 31
0.0
  0
LINE
  5
90B
330
1D
100
AcDbEntity
  8
0
100
AcDbLine
 10
209.4104
 20
0.0
 30
0.0
 11
207.0547
 21
0.0
 31
0.0
  0
LINE
  5
90C
330
1D
100
AcDbEntity
  8
0
100
AcDbLine
 10
211.1129
 20
9.69037
 30
0.0
 11
209.2074
 21
9.69037
 31
0.0
  0
LINE
  5
90D
330
1D
100
AcDbEntity
  8
0
100
AcDbLine
 10
209.2074
 20
9.69037
 30
0.0
 11
207.0527
 21
9.69037
 31
0.0
  0
LINE
  5
90E
330
1D
100
AcDbEntity
  8
0
100
AcDbLine
 10
196.6848
 20
0.0
 30
0.0
 11
193.6969
 21
0.0
 31
0.0
  0
LINE
  5
90F
330
1D
100
AcDbEntity
  8
0
100
AcDbLine
 10
197.2749
 20
0.0
 30
0.0
 11
194.153
 21
0.0
 31
0.0
  0
LINE
  5
910
330
1D
100
AcDbEntity
  8
0
100
AcDbLine
 10
195.2163
 20
0.0
 30
0.0
 11
192.179
 21
0.0
 31
0.0
  0
LINE
  5
911
330
1D
100
AcDbEntity
  8
0
100
AcDbLine
 10
195.7415
 20
0.0
 30
0.0
 11
192.569
 21
0.0
 31
0.0
  0
LINE
  5
912
330
1D
100
AcDbEntity
  8
0
100
AcDbLine
 10
196.4097
 20
9.69037
 30
0.0
 11
193.371
 21
9.69037
 31
0.0
  0
LINE
  5
913
330
1D
100
AcDbEntity
  8
0
100
AcDbLine
 10
204.8301
 20
0.0
 30
0.0
 11
202.2764
 21
0.0
 31
0.0
  0
LINE
  5
914
330
1D
100
AcDbEntity
  8
0
100
AcDbLine
 10
205.7854
 20
0.0
 30
0.0
 11
203.1176
 21
0.0
 31
0.0
  0
LINE
  5
915
330
1D
100
AcDbEntity
  8
0
100
AcDbLine
 10
203.1176
 20
0.0
 30
0.0
 11
200.2728
 21
0.0
 31
0.0
  0
LINE
  5
916
330
1D
100
AcDbEntity
  8
0
100
AcDbLine
 10
202.2764
 20
0.0
 30
0.0
 11
199.5536
 21
0.0
 31
0.0
  0
LINE
  5
917
330
1D
100
AcDbEntity
  8
0
100
AcDbLine
 10
203.5867
 20
0.0
 30
0.0
 11
200.946
 21
0.0
 31
0.0
  0
LINE
  5
918
330
1D
100
AcDbEntity
  8
0
100
AcDbLine
 10
204.486
 20
0.0
 30
0.0
 11
201.7272
 21
0.0
 31
0.0
  0
LINE
  5
919
330
1D
100
AcDbEntity
  8
0
100
AcDbLine
 10
200.946
 20
0.0
 30
0.0
 11
198.1482
 21
0.0
 31
0.0
  0
LINE
  5
91A
330
1D
100
AcDbEntity
  8
0
100
AcDbLine
 10
201.7272
 20
0.0
 30
0.0
 11
198.8034
 21
0.0
 31
0.0
  0
LINE
  5
91B
330
1D
100
AcDbEntity
  8
0
100
AcDbLine
 10
206.0454
 20
0.0
 30
0.0
 11
203.5867
 21
0.0
 31
0.0
  0
LINE
  5
91C
330
1D
100
AcDbEntity
  8
0
100
AcDbLine
 10
198.1482
 20
0.0
 30
0.0
 11
195.2163
 21
0.0
 31
0.0
  0
LINE
  5
91D
330
1D
100
AcDbEntity
  8
0
100
AcDbLine
 10
198.8034
 20
0.0
 30
0.0
 11
195.7415
 21
0.0
 31
0.0
  0
LINE
  5
91E
330
1D
100
AcDbEntity
  8
0
100
AcDbLine
 10
199.5536
 20
0.0
 30
0.0
 11
196.6848
 21
0.0
 31
0.0
  0
LINE
  5
91F
330
1D
100
AcDbEntity
  8
0
100
AcDbLine
 10
200.2728
 20
0.0
 30
0.0
 11
197.2749
 21
0.0
 31
0.0
  0
LINE
  5
920
330
1D
100
AcDbEntity
  8
0
100
AcDbLine
 10
204.673
 20
9.69037
 30
0.0
 11
202.0893
 21
9.69037
 31
0.0
  0
LINE
  5
921
330
1D
100
AcDbEntity
  8
0
100
AcDbLine
 10
202.0893
 20
9.69037
 30
0.0
 11
199.3255
 21
9.69037
 31
0.0
  0
LINE
  5
922
330
1D
100
AcDbEntity
  8
0
100
AcDbLine
 10
206.3735
 20
9.94512
 30
0.0
 11
206.1905
 21
9.75931
 31
0.0
  0
LINE
  5
923
330
1D
100
AcDbEntity
  8
0
100
AcDbLine
 10
206.1905
 20
9.75931
 30
0.0
 11
205.9384
 21
9.69037
 31
0.0
  0
LINE
  5
924
330
1D
100
AcDbEntity
  8
0
100
AcDbLine
 10
199.3255
 20
9.69037
 30
0.0
 11
196.4097
 21
9.69037
 31
0.0
  0
LINE
  5
925
330
1D
100
AcDbEntity
  8
0
100
AcDbLine
 10
194.153
 20
0.0
 30
0.0
 11
190.935
 21
0.0
 31
0.0
  0
LINE
  5
926
330
1D
100
AcDbEntity
  8
0
100
AcDbLine
 10
193.6969
 20
0.0
 30
0.0
 11
190.616
 21
0.0
 31
0.0
  0
LINE
  5
927
330
1D
100
AcDbEntity
  8
0
100
AcDbLine
 10
187.472
 20
0.0
 30
0.0
 11
184.291
 21
0.0
 31
0.0
  0
LINE
  5
928
330
1D
100
AcDbEntity
  8
0
100
AcDbLine
 10
187.649
 20
0.0
 30
0.0
 11
184.326
 21
0.0
 31
0.0
  0
LINE
  5
929
330
1D
100
AcDbEntity
  8
0
100
AcDbLine
 10
190.616
 20
0.0
 30
0.0
 11
187.472
 21
0.0
 31
0.0
  0
LINE
  5
92A
330
1D
100
AcDbEntity
  8
0
100
AcDbLine
 10
190.935
 20
0.0
 30
0.0
 11
187.649
 21
0.0
 31
0.0
  0
LINE
  5
92B
330
1D
100
AcDbEntity
  8
0
100
AcDbLine
 10
192.179
 20
0.0
 30
0.0
 11
189.064
 21
0.0
 31
0.0
  0
LINE
  5
92C
330
1D
100
AcDbEntity
  8
0
100
AcDbLine
 10
189.064
 20
0.0
 30
0.0
 11
185.897
 21
0.0
 31
0.0
  0
LINE
  5
92D
330
1D
100
AcDbEntity
  8
0
100
AcDbLine
 10
192.569
 20
0.0
 30
0.0
 11
189.313
 21
0.0
 31
0.0
  0
LINE
  5
92E
330
1D
100
AcDbEntity
  8
0
100
AcDbLine
 10
189.313
 20
0.0
 30
0.0
 11
186.005
 21
0.0
 31
0.0
  0
LINE
  5
92F
330
1D
100
AcDbEntity
  8
0
100
AcDbLine
 10
193.371
 20
9.69037
 30
0.0
 11
190.235
 21
9.69037
 31
0.0
  0
LINE
  5
930
330
1D
100
AcDbEntity
  8
0
100
AcDbLine
 10
187.035
 20
9.69037
 30
0.0
 11
183.801
 21
9.69037
 31
0.0
  0
LINE
  5
931
330
1D
100
AcDbEntity
  8
0
100
AcDbLine
 10
190.235
 20
9.69037
 30
0.0
 11
187.035
 21
9.69037
 31
0.0
  0
LINE
  5
932
330
1D
100
AcDbEntity
  8
0
100
AcDbLine
 10
203.1566
 20
130.108
 30
0.0
 11
202.0833
 21
144.554
 31
0.0
  0
LINE
  5
933
330
1D
100
AcDbEntity
  8
0
100
AcDbLine
 10
203.1566
 20
130.108
 30
0.0
 11
202.0833
 21
144.555
 31
0.0
  0
LINE
  5
934
330
1D
100
AcDbEntity
  8
0
100
AcDbLine
 10
201.498534544482
 20
138.101966351111
 30
0.0
 11
200.682436299287
 21
134.71515863355
 31
0.0
  0
LINE
  5
935
330
1D
100
AcDbEntity
  8
0
100
AcDbLine
 10
204.2329
 20
112.305
 30
0.0
 11
203.1566
 21
130.108
 31
0.0
  0
LINE
  5
936
330
1D
100
AcDbEntity
  8
0
100
AcDbLine
 10
204.361
 20
109.891
 30
0.0
 11
204.3129
 21
110.808
 31
0.0
  0
LINE
  5
937
330
1D
100
AcDbEntity
  8
0
100
AcDbLine
 10
204.3129
 20
110.808
 30
0.0
 11
204.2879
 21
111.264
 31
0.0
  0
LINE
  5
938
330
1D
100
AcDbEntity
  8
0
100
AcDbLine
 10
204.7461
 20
102.201
 30
0.0
 11
204.361
 21
109.891
 31
0.0
  0
LINE
  5
939
330
1D
100
AcDbEntity
  8
0
100
AcDbLine
 10
204.2879
 20
111.264
 30
0.0
 11
204.2329
 21
112.305
 31
0.0
  0
LINE
  5
93A
330
1D
100
AcDbEntity
  8
0
100
AcDbLine
 10
195.1761
 20
125.83
 30
0.0
 11
194.8825
 21
125.344
 31
0.0
  0
LINE
  5
93B
330
1D
100
AcDbEntity
  8
0
100
AcDbLine
 10
195.3274
 20
132.108
 30
0.0
 11
193.927
 21
132.71
 31
0.0
  0
LINE
  5
93C
330
1D
100
AcDbEntity
  8
0
100
AcDbLine
 10
195.3648
 20
126.327
 30
0.0
 11
195.1761
 21
125.83
 31
0.0
  0
LINE
  5
93D
330
1D
100
AcDbEntity
  8
0
100
AcDbLine
 10
195.5
 20
127.263
 30
0.0
 11
195.5
 21
131.922105495476
 31
0.0
  0
LINE
  5
93E
330
1D
100
AcDbEntity
  8
0
100
AcDbLine
 10
195.4932
 20
127.304948592411
 30
0.0
 11
195.4932
 21
131.929429265063
 31
0.0
  0
LINE
  5
93F
330
1D
100
AcDbEntity
  8
0
100
AcDbLine
 10
195.5
 20
127.012
 30
0.0
 11
195.5
 21
131.922105495476
 31
0.0
  0
LINE
  5
940
330
1D
100
AcDbEntity
  8
0
100
AcDbLine
 10
195.4932
 20
131.929429265063
 30
0.0
 11
195.4932
 21
127.304948592411
 31
0.0
  0
LINE
  5
941
330
1D
100
AcDbEntity
  8
0
100
AcDbLine
 10
195.5
 20
131.922105495476
 30
0.0
 11
195.5
 21
127.012
 31
0.0
  0
LINE
  5
942
330
1D
100
AcDbEntity
  8
0
100
AcDbLine
 10
195.5
 20
131.922105495476
 30
0.0
 11
195.5
 21
127.263
 31
0.0
  0
LINE
  5
943
330
1D
100
AcDbEntity
  8
0
100
AcDbLine
 10
195.7805
 20
131.62
 30
0.0
 11
195.3274
 21
132.108
 31
0.0
  0
LINE
  5
944
330
1D
100
AcDbEntity
  8
0
100
AcDbLine
 10
200.682436299287
 20
134.71515863355
 30
0.0
 11
199.458288931494
 21
131.736400038587
 31
0.0
  0
LINE
  5
945
330
1D
100
AcDbEntity
  8
0
100
AcDbLine
 10
198.3282
 20
129.906
 30
0.0
 11
197.2009
 21
128.398
 31
0.0
  0
LINE
  5
946
330
1D
100
AcDbEntity
  8
0
100
AcDbLine
 10
195.5
 20
127.263
 30
0.0
 11
195.4932
 21
127.137
 31
0.0
  0
LINE
  5
947
330
1D
100
AcDbEntity
  8
0
100
AcDbLine
 10
195.4183
 20
126.507
 30
0.0
 11
195.3648
 21
126.327
 31
0.0
  0
LINE
  5
948
330
1D
100
AcDbEntity
  8
0
100
AcDbLine
 10
195.4932
 20
127.240042201835
 30
0.0
 11
195.4932
 21
127.137
 31
0.0
  0
LINE
  5
949
330
1D
100
AcDbEntity
  8
0
100
AcDbLine
 10
195.4932
 20
127.137
 30
0.0
 11
195.4932
 21
127.240042201835
 31
0.0
  0
LINE
  5
94A
330
1D
100
AcDbEntity
  8
0
100
AcDbLine
 10
195.5
 20
127.012
 30
0.0
 11
195.4183
 21
126.507
 31
0.0
  0
LINE
  5
94B
330
1D
100
AcDbEntity
  8
0
100
AcDbLine
 10
195.7185
 20
129.461
 30
0.0
 11
195.5
 21
129.075362954524
 31
0.0
  0
LINE
  5
94C
330
1D
100
AcDbEntity
  8
0
100
AcDbLine
 10
195.9596
 20
130.287
 30
0.0
 11
195.7185
 21
129.461
 31
0.0
  0
LINE
  5
94D
330
1D
100
AcDbEntity
  8
0
100
AcDbLine
 10
195.6505
 20
131.115
 30
0.0
 11
195.5
 21
130.938475029727
 31
0.0
  0
LINE
  5
94E
330
1D
100
AcDbEntity
  8
0
100
AcDbLine
 10
195.77269210968
 20
131.628409292598
 30
0.0
 11
195.6505
 21
131.115
 31
0.0
  0
LINE
  5
94F
330
1D
100
AcDbEntity
  8
0
100
AcDbLine
 10
195.9916
 20
130.977
 30
0.0
 11
195.7805
 21
131.62
 31
0.0
  0
LINE
  5
950
330
1D
100
AcDbEntity
  8
0
100
AcDbLine
 10
195.9916
 20
130.977
 30
0.0
 11
195.9596
 21
130.287
 31
0.0
  0
LINE
  5
951
330
1D
100
AcDbEntity
  8
0
100
AcDbLine
 10
197.2009
 20
128.398
 30
0.0
 11
195.9496
 21
127.016
 31
0.0
  0
LINE
  5
952
330
1D
100
AcDbEntity
  8
0
100
AcDbLine
 10
199.458288931494
 20
131.736400038587
 30
0.0
 11
198.3282
 21
129.906
 31
0.0
  0
LINE
  5
953
330
1D
100
AcDbEntity
  8
0
100
AcDbLine
 10
193.664611197625
 20
126.285177833164
 30
0.0
 11
193.49
 21
125.828
 31
0.0
  0
LINE
  5
954
330
1D
100
AcDbEntity
  8
0
100
AcDbLine
 10
192.248
 20
126.304
 30
0.0
 11
192.08
 21
125.903
 31
0.0
  0
LINE
  5
955
330
1D
100
AcDbEntity
  8
0
100
AcDbLine
 10
187.729
 20
126.038
 30
0.0
 11
186.835
 21
125.85
 31
0.0
  0
LINE
  5
956
330
1D
100
AcDbEntity
  8
0
100
AcDbLine
 10
193.6082
 20
126.055
 30
0.0
 11
193.393
 21
125.606
 31
0.0
  0
LINE
  5
957
330
1D
100
AcDbEntity
  8
0
100
AcDbLine
 10
189.332
 20
123.092
 30
0.0
 11
188.406
 21
122.839
 31
0.0
  0
LINE
  5
958
330
1D
100
AcDbEntity
  8
0
100
AcDbLine
 10
189.243
 20
123.849
 30
0.0
 11
188.513
 21
123.601
 31
0.0
  0
LINE
  5
959
330
1D
100
AcDbEntity
  8
0
100
AcDbLine
 10
189.29
 20
123.033
 30
0.0
 11
188.406
 21
122.792
 31
0.0
  0
LINE
  5
95A
330
1D
100
AcDbEntity
  8
0
100
AcDbLine
 10
190.115
 20
122.493
 30
0.0
 11
189.156
 21
122.234
 31
0.0
  0
LINE
  5
95B
330
1D
100
AcDbEntity
  8
0
100
AcDbLine
 10
192.601
 20
123.494
 30
0.0
 11
191.846
 21
123.126
 31
0.0
  0
LINE
  5
95C
330
1D
100
AcDbEntity
  8
0
100
AcDbLine
 10
192.285
 20
124.49
 30
0.0
 11
191.678
 21
124.091
 31
0.0
  0
LINE
  5
95D
330
1D
100
AcDbEntity
  8
0
100
AcDbLine
 10
192.151
 20
124.348
 30
0.0
 11
191.552
 21
123.972
 31
0.0
  0
LINE
  5
95E
330
1D
100
AcDbEntity
  8
0
100
AcDbLine
 10
193.8585
 20
124.317
 30
0.0
 11
193.274
 21
123.892
 31
0.0
  0
LINE
  5
95F
330
1D
100
AcDbEntity
  8
0
100
AcDbLine
 10
193.274
 20
123.892
 30
0.0
 11
192.601
 21
123.494
 31
0.0
  0
LINE
  5
960
330
1D
100
AcDbEntity
  8
0
100
AcDbLine
 10
194.8825
 20
125.344
 30
0.0
 11
194.485
 21
124.872
 31
0.0
  0
LINE
  5
961
330
1D
100
AcDbEntity
  8
0
100
AcDbLine
 10
192.794
 20
124.916
 30
0.0
 11
192.285
 21
124.49
 31
0.0
  0
LINE
  5
962
330
1D
100
AcDbEntity
  8
0
100
AcDbLine
 10
193.198
 20
125.364
 30
0.0
 11
192.794
 21
124.916
 31
0.0
  0
LINE
  5
963
330
1D
100
AcDbEntity
  8
0
100
AcDbLine
 10
193.076
 20
125.169
 30
0.0
 11
192.661
 21
124.747
 31
0.0
  0
LINE
  5
964
330
1D
100
AcDbEntity
  8
0
100
AcDbLine
 10
194.485
 20
124.872
 30
0.0
 11
193.9886
 21
124.419
 31
0.0
  0
LINE
  5
965
330
1D
100
AcDbEntity
  8
0
100
AcDbLine
 10
193.9886
 20
124.419
 30
0.0
 11
193.8585
 21
124.317
 31
0.0
  0
LINE
  5
966
330
1D
100
AcDbEntity
  8
0
100
AcDbLine
 10
192.661
 20
124.747
 30
0.0
 11
192.151
 21
124.348
 31
0.0
  0
LINE
  5
967
330
1D
100
AcDbEntity
  8
0
100
AcDbLine
 10
193.49
 20
125.828
 30
0.0
 11
193.198
 21
125.364
 31
0.0
  0
LINE
  5
968
330
1D
100
AcDbEntity
  8
0
100
AcDbLine
 10
193.393
 20
125.606
 30
0.0
 11
193.076
 21
125.169
 31
0.0
  0
LINE
  5
969
330
1D
100
AcDbEntity
  8
0
100
AcDbLine
 10
191.678
 20
124.091
 30
0.0
 11
190.978
 21
123.721
 31
0.0
  0
LINE
  5
96A
330
1D
100
AcDbEntity
  8
0
100
AcDbLine
 10
191.552
 20
123.972
 30
0.0
 11
190.872
 21
123.625
 31
0.0
  0
LINE
  5
96B
330
1D
100
AcDbEntity
  8
0
100
AcDbLine
 10
191.846
 20
123.126
 30
0.0
 11
191.014
 21
122.791
 31
0.0
  0
LINE
  5
96C
330
1D
100
AcDbEntity
  8
0
100
AcDbLine
 10
190.978
 20
123.721
 30
0.0
 11
190.193
 21
123.387
 31
0.0
  0
LINE
  5
96D
330
1D
100
AcDbEntity
  8
0
100
AcDbLine
 10
189.91
 20
124.131
 30
0.0
 11
189.243
 21
123.849
 31
0.0
  0
LINE
  5
96E
330
1D
100
AcDbEntity
  8
0
100
AcDbLine
 10
190.193
 20
123.387
 30
0.0
 11
189.332
 21
123.092
 31
0.0
  0
LINE
  5
96F
330
1D
100
AcDbEntity
  8
0
100
AcDbLine
 10
190.872
 20
123.625
 30
0.0
 11
190.115
 21
123.311
 31
0.0
  0
LINE
  5
970
330
1D
100
AcDbEntity
  8
0
100
AcDbLine
 10
190.115
 20
123.311
 30
0.0
 11
189.29
 21
123.033
 31
0.0
  0
LINE
  5
971
330
1D
100
AcDbEntity
  8
0
100
AcDbLine
 10
191.014
 20
122.791
 30
0.0
 11
190.115
 21
122.493
 31
0.0
  0
LINE
  5
972
330
1D
100
AcDbEntity
  8
0
100
AcDbLine
 10
191.026
 20
124.777
 30
0.0
 11
190.506
 21
124.441
 31
0.0
  0
LINE
  5
973
330
1D
100
AcDbEntity
  8
0
100
AcDbLine
 10
191.466
 20
125.136
 30
0.0
 11
191.026
 21
124.777
 31
0.0
  0
LINE
  5
974
330
1D
100
AcDbEntity
  8
0
100
AcDbLine
 10
191.818
 20
125.512
 30
0.0
 11
191.466
 21
125.136
 31
0.0
  0
LINE
  5
975
330
1D
100
AcDbEntity
  8
0
100
AcDbLine
 10
190.506
 20
124.441
 30
0.0
 11
189.91
 21
124.131
 31
0.0
  0
LINE
  5
976
330
1D
100
AcDbEntity
  8
0
100
AcDbLine
 10
192.08
 20
125.903
 30
0.0
 11
191.818
 21
125.512
 31
0.0
  0
LINE
  5
977
330
1D
100
AcDbEntity
  8
0
100
AcDbLine
 10
187.093
 20
121.843
 30
0.0
 11
186.008
 21
121.714
 31
0.0
  0
LINE
  5
978
330
1D
100
AcDbEntity
  8
0
100
AcDbLine
 10
186.464
 20
122.477
 30
0.0
 11
185.441
 21
122.366
 31
0.0
  0
LINE
  5
979
330
1D
100
AcDbEntity
  8
0
100
AcDbLine
 10
186.496
 20
122.437
 30
0.0
 11
185.491
 21
122.324
 31
0.0
  0
LINE
  5
97A
330
1D
100
AcDbEntity
  8
0
100
AcDbLine
 10
186.82
 20
123.196
 30
0.0
 11
185.868
 21
123.053
 31
0.0
  0
LINE
  5
97B
330
1D
100
AcDbEntity
  8
0
100
AcDbLine
 10
186.835
 20
125.85
 30
0.0
 11
185.899
 21
125.707
 31
0.0
  0
LINE
  5
97C
330
1D
100
AcDbEntity
  8
0
100
AcDbLine
 10
189.156
 20
122.234
 30
0.0
 11
188.146
 21
122.016
 31
0.0
  0
LINE
  5
97D
330
1D
100
AcDbEntity
  8
0
100
AcDbLine
 10
188.146
 20
122.016
 30
0.0
 11
187.093
 21
121.843
 31
0.0
  0
LINE
  5
97E
330
1D
100
AcDbEntity
  8
0
100
AcDbLine
 10
188.513
 20
123.601
 30
0.0
 11
187.729
 21
123.387
 31
0.0
  0
LINE
  5
97F
330
1D
100
AcDbEntity
  8
0
100
AcDbLine
 10
188.406
 20
122.839
 30
0.0
 11
187.456
 21
122.636
 31
0.0
  0
LINE
  5
980
330
1D
100
AcDbEntity
  8
0
100
AcDbLine
 10
187.729
 20
123.387
 30
0.0
 11
186.82
 21
123.196
 31
0.0
  0
LINE
  5
981
330
1D
100
AcDbEntity
  8
0
100
AcDbLine
 10
187.456
 20
122.636
 30
0.0
 11
186.464
 21
122.477
 31
0.0
  0
LINE
  5
982
330
1D
100
AcDbEntity
  8
0
100
AcDbLine
 10
188.406
 20
122.792
 30
0.0
 11
187.472
 21
122.593
 31
0.0
  0
LINE
  5
983
330
1D
100
AcDbEntity
  8
0
100
AcDbLine
 10
187.472
 20
122.593
 30
0.0
 11
186.496
 21
122.437
 31
0.0
  0
LINE
  5
984
330
1D
100
AcDbEntity
  8
0
100
AcDbLine
 10
186.008
 20
121.714
 30
0.0
 11
184.9
 21
121.631
 31
0.0
  0
LINE
  5
985
330
1D
100
AcDbEntity
  8
0
100
AcDbLine
 10
184.9
 20
121.631
 30
0.0
 11
183.78
 21
121.595
 31
0.0
  0
LINE
  5
986
330
1D
100
AcDbEntity
  8
0
100
AcDbLine
 10
185.441
 20
122.366
 30
0.0
 11
184.396
 21
122.301
 31
0.0
  0
LINE
  5
987
330
1D
100
AcDbEntity
  8
0
100
AcDbLine
 10
185.491
 20
122.324
 30
0.0
 11
184.464
 21
122.258
 31
0.0
  0
LINE
  5
988
330
1D
100
AcDbEntity
  8
0
100
AcDbLine
 10
185.868
 20
123.053
 30
0.0
 11
184.884
 21
122.957
 31
0.0
  0
LINE
  5
989
330
1D
100
AcDbEntity
  8
0
100
AcDbLine
 10
184.884
 20
122.957
 30
0.0
 11
183.883
 21
122.912
 31
0.0
  0
LINE
  5
98A
330
1D
100
AcDbEntity
  8
0
100
AcDbLine
 10
185.899
 20
125.707
 30
0.0
 11
184.932
 21
125.611
 31
0.0
  0
LINE
  5
98B
330
1D
100
AcDbEntity
  8
0
100
AcDbLine
 10
184.932
 20
125.611
 30
0.0
 11
183.949
 21
125.565
 31
0.0
  0
LINE
  5
98C
330
1D
100
AcDbEntity
  8
0
100
AcDbLine
 10
189.348
 20
126.541
 30
0.0
 11
188.57
 21
126.269
 31
0.0
  0
LINE
  5
98D
330
1D
100
AcDbEntity
  8
0
100
AcDbLine
 10
189.243
 20
129.785
 30
0.0
 11
188.513
 21
130.034
 31
0.0
  0
LINE
  5
98E
330
1D
100
AcDbEntity
  8
0
100
AcDbLine
 10
189.29
 20
130.51
 30
0.0
 11
188.406
 21
130.751
 31
0.0
  0
LINE
  5
98F
330
1D
100
AcDbEntity
  8
0
100
AcDbLine
 10
189.495
 20
133.283
 30
0.0
 11
187.788
 21
133.371
 31
0.0
  0
LINE
  5
990
330
1D
100
AcDbEntity
  8
0
100
AcDbLine
 10
192.248
 20
127.332
 30
0.0
 11
192.08
 21
127.733
 31
0.0
  0
LINE
  5
991
330
1D
100
AcDbEntity
  8
0
100
AcDbLine
 10
192.151
 20
129.196
 30
0.0
 11
191.552
 21
129.571
 31
0.0
  0
LINE
  5
992
330
1D
100
AcDbEntity
  8
0
100
AcDbLine
 10
193.6718
 20
126.314510714286
 30
0.0
 11
193.6718
 21
127.229489285714
 31
0.0
  0
LINE
  5
993
330
1D
100
AcDbEntity
  8
0
100
AcDbLine
 10
193.669224070022
 20
126.304
 30
0.0
 11
192.248
 21
126.304
 31
0.0
  0
LINE
  5
994
330
1D
100
AcDbEntity
  8
0
100
AcDbLine
 10
193.7202
 20
126.512
 30
0.0
 11
193.6082
 21
126.055
 31
0.0
  0
LINE
  5
995
330
1D
100
AcDbEntity
  8
0
100
AcDbLine
 10
192.248
 20
126.304
 30
0.0
 11
192.248
 21
127.332
 31
0.0
  0
LINE
  5
996
330
1D
100
AcDbEntity
  8
0
100
AcDbLine
 10
193.7202
 20
127.032
 30
0.0
 11
193.6082
 21
127.489
 31
0.0
  0
LINE
  5
997
330
1D
100
AcDbEntity
  8
0
100
AcDbLine
 10
193.7242
 20
126.772
 30
0.0
 11
193.7202
 21
126.512
 31
0.0
  0
LINE
  5
998
330
1D
100
AcDbEntity
  8
0
100
AcDbLine
 10
193.7242
 20
126.772
 30
0.0
 11
193.7202
 21
127.032
 31
0.0
  0
LINE
  5
999
330
1D
100
AcDbEntity
  8
0
100
AcDbLine
 10
193.64667702407
 20
127.332
 30
0.0
 11
192.248
 21
127.332
 31
0.0
  0
LINE
  5
99A
330
1D
100
AcDbEntity
  8
0
100
AcDbLine
 10
193.6082
 20
127.489
 30
0.0
 11
193.393
 21
127.937
 31
0.0
  0
LINE
  5
99B
330
1D
100
AcDbEntity
  8
0
100
AcDbLine
 10
192.248
 20
127.332
 30
0.0
 11
192.248
 21
126.304
 31
0.0
  0
LINE
  5
99C
330
1D
100
AcDbEntity
  8
0
100
AcDbLine
 10
193.393
 20
127.937
 30
0.0
 11
193.076
 21
128.376
 31
0.0
  0
LINE
  5
99D
330
1D
100
AcDbEntity
  8
0
100
AcDbLine
 10
193.076
 20
128.376
 30
0.0
 11
192.661
 21
128.796
 31
0.0
  0
LINE
  5
99E
330
1D
100
AcDbEntity
  8
0
100
AcDbLine
 10
192.661
 20
128.796
 30
0.0
 11
192.151
 21
129.196
 31
0.0
  0
LINE
  5
99F
330
1D
100
AcDbEntity
  8
0
100
AcDbLine
 10
193.6718
 20
127.229489285714
 30
0.0
 11
193.6718
 21
126.314510714286
 31
0.0
  0
LINE
  5
9A0
330
1D
100
AcDbEntity
  8
0
100
AcDbLine
 10
190.051
 20
126.85
 30
0.0
 11
189.348
 21
126.541
 31
0.0
  0
LINE
  5
9A1
330
1D
100
AcDbEntity
  8
0
100
AcDbLine
 10
191.818
 20
128.123
 30
0.0
 11
191.466
 21
128.5
 31
0.0
  0
LINE
  5
9A2
330
1D
100
AcDbEntity
  8
0
100
AcDbLine
 10
192.08
 20
127.733
 30
0.0
 11
191.818
 21
128.123
 31
0.0
  0
LINE
  5
9A3
330
1D
100
AcDbEntity
  8
0
100
AcDbLine
 10
191.792771641901
 20
128.150020144895
 30
0.0
 11
191.636
 21
127.955
 31
0.0
  0
LINE
  5
9A4
330
1D
100
AcDbEntity
  8
0
100
AcDbLine
 10
191.026
 20
128.858
 30
0.0
 11
190.506
 21
129.194
 31
0.0
  0
LINE
  5
9A5
330
1D
100
AcDbEntity
  8
0
100
AcDbLine
 10
191.466
 20
128.5
 30
0.0
 11
191.026
 21
128.858
 31
0.0
  0
LINE
  5
9A6
330
1D
100
AcDbEntity
  8
0
100
AcDbLine
 10
191.636
 20
127.955
 30
0.0
 11
191.202
 21
127.561
 31
0.0
  0
LINE
  5
9A7
330
1D
100
AcDbEntity
  8
0
100
AcDbLine
 10
191.202
 20
127.561
 30
0.0
 11
190.671
 21
127.191
 31
0.0
  0
LINE
  5
9A8
330
1D
100
AcDbEntity
  8
0
100
AcDbLine
 10
190.671
 20
127.191
 30
0.0
 11
190.051
 21
126.85
 31
0.0
  0
LINE
  5
9A9
330
1D
100
AcDbEntity
  8
0
100
AcDbLine
 10
190.506
 20
129.194
 30
0.0
 11
189.91
 21
129.505
 31
0.0
  0
LINE
  5
9AA
330
1D
100
AcDbEntity
  8
0
100
AcDbLine
 10
191.552
 20
129.571
 30
0.0
 11
190.872
 21
129.917
 31
0.0
  0
LINE
  5
9AB
330
1D
100
AcDbEntity
  8
0
100
AcDbLine
 10
189.91
 20
129.505
 30
0.0
 11
189.243
 21
129.785
 31
0.0
  0
LINE
  5
9AC
330
1D
100
AcDbEntity
  8
0
100
AcDbLine
 10
190.872
 20
129.917
 30
0.0
 11
190.115
 21
130.232
 31
0.0
  0
LINE
  5
9AD
330
1D
100
AcDbEntity
  8
0
100
AcDbLine
 10
190.115
 20
130.232
 30
0.0
 11
189.29
 21
130.51
 31
0.0
  0
LINE
  5
9AE
330
1D
100
AcDbEntity
  8
0
100
AcDbLine
 10
193.927
 20
132.71
 30
0.0
 11
191.88
 21
133.072
 31
0.0
  0
LINE
  5
9AF
330
1D
100
AcDbEntity
  8
0
100
AcDbLine
 10
191.88
 20
133.072
 30
0.0
 11
189.495
 21
133.283
 31
0.0
  0
LINE
  5
9B0
330
1D
100
AcDbEntity
  8
0
100
AcDbLine
 10
188.57
 20
126.269
 30
0.0
 11
187.729
 21
126.038
 31
0.0
  0
LINE
  5
9B1
330
1D
100
AcDbEntity
  8
0
100
AcDbLine
 10
188.513
 20
130.034
 30
0.0
 11
187.729
 21
130.248
 31
0.0
  0
LINE
  5
9B2
330
1D
100
AcDbEntity
  8
0
100
AcDbLine
 10
187.729
 20
130.248
 30
0.0
 11
186.82
 21
130.439
 31
0.0
  0
LINE
  5
9B3
330
1D
100
AcDbEntity
  8
0
100
AcDbLine
 10
186.82
 20
130.439
 30
0.0
 11
185.868
 21
130.583
 31
0.0
  0
LINE
  5
9B4
330
1D
100
AcDbEntity
  8
0
100
AcDbLine
 10
185.868
 20
130.583
 30
0.0
 11
184.884
 21
130.678
 31
0.0
  0
LINE
  5
9B5
330
1D
100
AcDbEntity
  8
0
100
AcDbLine
 10
184.884
 20
130.678
 30
0.0
 11
183.883
 21
130.723
 31
0.0
  0
LINE
  5
9B6
330
1D
100
AcDbEntity
  8
0
100
AcDbLine
 10
188.406
 20
130.751
 30
0.0
 11
187.472
 21
130.951
 31
0.0
  0
LINE
  5
9B7
330
1D
100
AcDbEntity
  8
0
100
AcDbLine
 10
187.472
 20
130.951
 30
0.0
 11
186.496
 21
131.107
 31
0.0
  0
LINE
  5
9B8
330
1D
100
AcDbEntity
  8
0
100
AcDbLine
 10
186.496
 20
131.107
 30
0.0
 11
185.491
 21
131.219
 31
0.0
  0
LINE
  5
9B9
330
1D
100
AcDbEntity
  8
0
100
AcDbLine
 10
185.491
 20
131.219
 30
0.0
 11
184.464
 21
131.286
 31
0.0
  0
LINE
  5
9BA
330
1D
100
AcDbEntity
  8
0
100
AcDbLine
 10
187.788
 20
133.371
 30
0.0
 11
185.995
 21
133.424
 31
0.0
  0
LINE
  5
9BB
330
1D
100
AcDbEntity
  8
0
100
AcDbLine
 10
202.0833
 20
144.555
 30
0.0
 11
201.9443
 21
145.661
 31
0.0
  0
LINE
  5
9BC
330
1D
100
AcDbEntity
  8
0
100
AcDbLine
 10
202.0833
 20
144.555
 30
0.0
 11
201.9803
 21
141.122
 31
0.0
  0
LINE
  5
9BD
330
1D
100
AcDbEntity
  8
0
100
AcDbLine
 10
201.9443
 20
145.661
 30
0.0
 11
201.8813
 21
145.903
 31
0.0
  0
LINE
  5
9BE
330
1D
100
AcDbEntity
  8
0
100
AcDbLine
 10
202.0813
 20
144.58
 30
0.0
 11
201.9443
 21
145.661
 31
0.0
  0
LINE
  5
9BF
330
1D
100
AcDbEntity
  8
0
100
AcDbLine
 10
202.0833
 20
144.554
 30
0.0
 11
201.9803
 21
141.122
 31
0.0
  0
LINE
  5
9C0
330
1D
100
AcDbEntity
  8
0
100
AcDbLine
 10
201.8813
 20
145.903
 30
0.0
 11
201.7252
 21
146.424
 31
0.0
  0
LINE
  5
9C1
330
1D
100
AcDbEntity
  8
0
100
AcDbLine
 10
199.9677
 20
148.341
 30
0.0
 11
198.6733
 21
148.986
 31
0.0
  0
LINE
  5
9C2
330
1D
100
AcDbEntity
  8
0
100
AcDbLine
 10
200.995
 20
147.5
 30
0.0
 11
199.9677
 21
148.341
 31
0.0
  0
LINE
  5
9C3
330
1D
100
AcDbEntity
  8
0
100
AcDbLine
 10
201.17
 20
147.325
 30
0.0
 11
200.995
 21
147.5
 31
0.0
  0
LINE
  5
9C4
330
1D
100
AcDbEntity
  8
0
100
AcDbLine
 10
201.7252
 20
146.424
 30
0.0
 11
201.17
 21
147.325
 31
0.0
  0
LINE
  5
9C5
330
1D
100
AcDbEntity
  8
0
100
AcDbLine
 10
194.9973
 20
150.031
 30
0.0
 11
194.8292
 21
150.062
 31
0.0
  0
LINE
  5
9C6
330
1D
100
AcDbEntity
  8
0
100
AcDbLine
 10
196.9648
 20
149.563
 30
0.0
 11
194.9973
 21
150.031
 31
0.0
  0
LINE
  5
9C7
330
1D
100
AcDbEntity
  8
0
100
AcDbLine
 10
194.8292
 20
150.062
 30
0.0
 11
192.582
 21
150.438
 31
0.0
  0
LINE
  5
9C8
330
1D
100
AcDbEntity
  8
0
100
AcDbLine
 10
192.582
 20
150.438
 30
0.0
 11
189.291
 21
150.787
 31
0.0
  0
LINE
  5
9C9
330
1D
100
AcDbEntity
  8
0
100
AcDbLine
 10
189.291
 20
150.787
 30
0.0
 11
187.154
 21
150.917
 31
0.0
  0
LINE
  5
9CA
330
1D
100
AcDbEntity
  8
0
100
AcDbLine
 10
198.6733
 20
148.986
 30
0.0
 11
196.9648
 21
149.563
 31
0.0
  0
LINE
  5
9CB
330
1D
100
AcDbEntity
  8
0
100
AcDbLine
 10
201.9803
 20
141.122000000001
 30
0.0
 11
201.498534544482
 21
138.101966351111
 31
0.0
  0
LINE
  5
9CC
330
1D
100
AcDbEntity
  8
0
100
AcDbLine
 10
161.215
 20
0.0
 30
0.0
 11
158.749
 21
0.0
 31
0.0
  0
LINE
  5
9CD
330
1D
100
AcDbEntity
  8
0
100
AcDbLine
 10
162.17
 20
0.0
 30
0.0
 11
159.809
 21
0.0
 31
0.0
  0
LINE
  5
9CE
330
1D
100
AcDbEntity
  8
0
100
AcDbLine
 10
160.955
 20
0.0
 30
0.0
 11
158.7
 21
0.0
 31
0.0
  0
LINE
  5
9CF
330
1D
100
AcDbEntity
  8
0
100
AcDbLine
 10
162.514
 20
0.0
 30
0.0
 11
159.945
 21
0.0
 31
0.0
  0
LINE
  5
9D0
330
1D
100
AcDbEntity
  8
0
100
AcDbLine
 10
172.847
 20
0.0
 30
0.0
 11
169.725
 21
0.0
 31
0.0
  0
LINE
  5
9D1
330
1D
100
AcDbEntity
  8
0
100
AcDbLine
 10
173.303
 20
0.0
 30
0.0
 11
170.315
 21
0.0
 31
0.0
  0
LINE
  5
9D2
330
1D
100
AcDbEntity
  8
0
100
AcDbLine
 10
174.821
 20
0.0
 30
0.0
 11
171.784
 21
0.0
 31
0.0
  0
LINE
  5
9D3
330
1D
100
AcDbEntity
  8
0
100
AcDbLine
 10
174.431
 20
0.0
 30
0.0
 11
171.258
 21
0.0
 31
0.0
  0
LINE
  5
9D4
330
1D
100
AcDbEntity
  8
0
100
AcDbLine
 10
176.065
 20
0.0
 30
0.0
 11
172.847
 21
0.0
 31
0.0
  0
LINE
  5
9D5
330
1D
100
AcDbEntity
  8
0
100
AcDbLine
 10
179.351
 20
0.0
 30
0.0
 11
176.065
 21
0.0
 31
0.0
  0
LINE
  5
9D6
330
1D
100
AcDbEntity
  8
0
100
AcDbLine
 10
182.674
 20
0.0
 30
0.0
 11
179.351
 21
0.0
 31
0.0
  0
LINE
  5
9D7
330
1D
100
AcDbEntity
  8
0
100
AcDbLine
 10
176.384
 20
0.0
 30
0.0
 11
173.303
 21
0.0
 31
0.0
  0
LINE
  5
9D8
330
1D
100
AcDbEntity
  8
0
100
AcDbLine
 10
179.528
 20
0.0
 30
0.0
 11
176.384
 21
0.0
 31
0.0
  0
LINE
  5
9D9
330
1D
100
AcDbEntity
  8
0
100
AcDbLine
 10
182.709
 20
0.0
 30
0.0
 11
179.528
 21
0.0
 31
0.0
  0
LINE
  5
9DA
330
1D
100
AcDbEntity
  8
0
100
AcDbLine
 10
181.103
 20
0.0
 30
0.0
 11
177.936
 21
0.0
 31
0.0
  0
LINE
  5
9DB
330
1D
100
AcDbEntity
  8
0
100
AcDbLine
 10
177.936
 20
0.0
 30
0.0
 11
174.821
 21
0.0
 31
0.0
  0
LINE
  5
9DC
330
1D
100
AcDbEntity
  8
0
100
AcDbLine
 10
180.995
 20
0.0
 30
0.0
 11
177.687
 21
0.0
 31
0.0
  0
LINE
  5
9DD
330
1D
100
AcDbEntity
  8
0
100
AcDbLine
 10
177.687
 20
0.0
 30
0.0
 11
174.431
 21
0.0
 31
0.0
  0
LINE
  5
9DE
330
1D
100
AcDbEntity
  8
0
100
AcDbLine
 10
170.315
 20
0.0
 30
0.0
 11
167.446
 21
0.0
 31
0.0
  0
LINE
  5
9DF
330
1D
100
AcDbEntity
  8
0
100
AcDbLine
 10
171.784
 20
0.0
 30
0.0
 11
168.852
 21
0.0
 31
0.0
  0
LINE
  5
9E0
330
1D
100
AcDbEntity
  8
0
100
AcDbLine
 10
171.258
 20
0.0
 30
0.0
 11
168.197
 21
0.0
 31
0.0
  0
LINE
  5
9E1
330
1D
100
AcDbEntity
  8
0
100
AcDbLine
 10
166.727
 20
0.0
 30
0.0
 11
163.882
 21
0.0
 31
0.0
  0
LINE
  5
9E2
330
1D
100
AcDbEntity
  8
0
100
AcDbLine
 10
167.446
 20
0.0
 30
0.0
 11
164.724
 21
0.0
 31
0.0
  0
LINE
  5
9E3
330
1D
100
AcDbEntity
  8
0
100
AcDbLine
 10
169.725
 20
0.0
 30
0.0
 11
166.727
 21
0.0
 31
0.0
  0
LINE
  5
9E4
330
1D
100
AcDbEntity
  8
0
100
AcDbLine
 10
166.054
 20
0.0
 30
0.0
 11
163.413
 21
0.0
 31
0.0
  0
LINE
  5
9E5
330
1D
100
AcDbEntity
  8
0
100
AcDbLine
 10
168.852
 20
0.0
 30
0.0
 11
166.054
 21
0.0
 31
0.0
  0
LINE
  5
9E6
330
1D
100
AcDbEntity
  8
0
100
AcDbLine
 10
168.197
 20
0.0
 30
0.0
 11
165.273
 21
0.0
 31
0.0
  0
LINE
  5
9E7
330
1D
100
AcDbEntity
  8
0
100
AcDbLine
 10
165.273
 20
0.0
 30
0.0
 11
162.514
 21
0.0
 31
0.0
  0
LINE
  5
9E8
330
1D
100
AcDbEntity
  8
0
100
AcDbLine
 10
163.882
 20
0.0
 30
0.0
 11
161.215
 21
0.0
 31
0.0
  0
LINE
  5
9E9
330
1D
100
AcDbEntity
  8
0
100
AcDbLine
 10
164.724
 20
0.0
 30
0.0
 11
162.17
 21
0.0
 31
0.0
  0
LINE
  5
9EA
330
1D
100
AcDbEntity
  8
0
100
AcDbLine
 10
163.413
 20
0.0
 30
0.0
 11
160.955
 21
0.0
 31
0.0
  0
LINE
  5
9EB
330
1D
100
AcDbEntity
  8
0
100
AcDbLine
 10
149.291
 20
0.0
 30
0.0
 11
148.738
 21
0.0
 31
0.0
  0
LINE
  5
9EC
330
1D
100
AcDbEntity
  8
0
100
AcDbLine
 10
149.681
 20
0.0
 30
0.0
 11
148.973
 21
0.0
 31
0.0
  0
LINE
  5
9ED
330
1D
100
AcDbEntity
  8
0
100
AcDbLine
 10
155.753
 20
0.0
 30
0.0
 11
154.093
 21
0.0
 31
0.0
  0
LINE
  5
9EE
330
1D
100
AcDbEntity
  8
0
100
AcDbLine
 10
156.508
 20
0.0
 30
0.0
 11
154.511
 21
0.0
 31
0.0
  0
LINE
  5
9EF
330
1D
100
AcDbEntity
  8
0
100
AcDbLine
 10
154.883
 20
0.0
 30
0.0
 11
153.356
 21
0.0
 31
0.0
  0
LINE
  5
9F0
330
1D
100
AcDbEntity
  8
0
100
AcDbLine
 10
155.469
 20
0.0
 30
0.0
 11
153.601
 21
0.0
 31
0.0
  0
LINE
  5
9F1
330
1D
100
AcDbEntity
  8
0
100
AcDbLine
 10
158.749
 20
0.0
 30
0.0
 11
156.508
 21
0.0
 31
0.0
  0
LINE
  5
9F2
330
1D
100
AcDbEntity
  8
0
100
AcDbLine
 10
159.809
 20
0.0
 30
0.0
 11
157.665
 21
0.0
 31
0.0
  0
LINE
  5
9F3
330
1D
100
AcDbEntity
  8
0
100
AcDbLine
 10
157.665
 20
0.0
 30
0.0
 11
155.753
 21
0.0
 31
0.0
  0
LINE
  5
9F4
330
1D
100
AcDbEntity
  8
0
100
AcDbLine
 10
158.7
 20
0.0
 30
0.0
 11
156.67
 21
0.0
 31
0.0
  0
LINE
  5
9F5
330
1D
100
AcDbEntity
  8
0
100
AcDbLine
 10
156.67
 20
0.0
 30
0.0
 11
154.883
 21
0.0
 31
0.0
  0
LINE
  5
9F6
330
1D
100
AcDbEntity
  8
0
100
AcDbLine
 10
157.59
 20
0.0
 30
0.0
 11
155.469
 21
0.0
 31
0.0
  0
LINE
  5
9F7
330
1D
100
AcDbEntity
  8
0
100
AcDbLine
 10
159.945
 20
0.0
 30
0.0
 11
157.59
 21
0.0
 31
0.0
  0
LINE
  5
9F8
330
1D
100
AcDbEntity
  8
0
100
AcDbLine
 10
151.584
 20
0.0
 30
0.0
 11
150.758
 21
0.0
 31
0.0
  0
LINE
  5
9F9
330
1D
100
AcDbEntity
  8
0
100
AcDbLine
 10
152.699
 20
0.0
 30
0.0
 11
151.584
 21
0.0
 31
0.0
  0
LINE
  5
9FA
330
1D
100
AcDbEntity
  8
0
100
AcDbLine
 10
151.32
 20
0.0
 30
0.0
 11
150.154
 21
0.0
 31
0.0
  0
LINE
  5
9FB
330
1D
100
AcDbEntity
  8
0
100
AcDbLine
 10
150.154
 20
0.0
 30
0.0
 11
149.291
 21
0.0
 31
0.0
  0
LINE
  5
9FC
330
1D
100
AcDbEntity
  8
0
100
AcDbLine
 10
150.228
 20
0.0
 30
0.0
 11
150.0
 21
0.0
 31
0.0
  0
LINE
  5
9FD
330
1D
100
AcDbEntity
  8
0
100
AcDbLine
 10
150.758
 20
0.0
 30
0.0
 11
150.228
 21
0.0
 31
0.0
  0
LINE
  5
9FE
330
1D
100
AcDbEntity
  8
0
100
AcDbLine
 10
152.776
 20
0.0
 30
0.0
 11
151.32
 21
0.0
 31
0.0
  0
LINE
  5
9FF
330
1D
100
AcDbEntity
  8
0
100
AcDbLine
 10
154.093
 20
0.0
 30
0.0
 11
152.699
 21
0.0
 31
0.0
  0
LINE
  5
A00
330
1D
100
AcDbEntity
  8
0
100
AcDbLine
 10
154.511
 20
0.0
 30
0.0
 11
152.776
 21
0.0
 31
0.0
  0
LINE
  5
A01
330
1D
100
AcDbEntity
  8
0
100
AcDbLine
 10
150.454
 20
0.0
 30
0.0
 11
150.074
 21
0.0
 31
0.0
  0
LINE
  5
A02
330
1D
100
AcDbEntity
  8
0
100
AcDbLine
 10
150.074
 20
0.0
 30
0.0
 11
150.0
 21
0.0
 31
0.0
  0
LINE
  5
A03
330
1D
100
AcDbEntity
  8
0
100
AcDbLine
 10
153.356
 20
0.0
 30
0.0
 11
152.101
 21
0.0
 31
0.0
  0
LINE
  5
A04
330
1D
100
AcDbEntity
  8
0
100
AcDbLine
 10
153.601
 20
0.0
 30
0.0
 11
152.006
 21
0.0
 31
0.0
  0
LINE
  5
A05
330
1D
100
AcDbEntity
  8
0
100
AcDbLine
 10
152.006
 20
0.0
 30
0.0
 11
150.695
 21
0.0
 31
0.0
  0
LINE
  5
A06
330
1D
100
AcDbEntity
  8
0
100
AcDbLine
 10
150.695
 20
0.0
 30
0.0
 11
149.681
 21
0.0
 31
0.0
  0
LINE
  5
A07
330
1D
100
AcDbEntity
  8
0
100
AcDbLine
 10
152.101
 20
0.0
 30
0.0
 11
151.131
 21
0.0
 31
0.0
  0
LINE
  5
A08
330
1D
100
AcDbEntity
  8
0
100
AcDbLine
 10
151.131
 20
0.0
 30
0.0
 11
150.454
 21
0.0
 31
0.0
  0
LINE
  5
A09
330
1D
100
AcDbEntity
  8
0
100
AcDbLine
 10
148.738
 20
0.0
 30
0.0
 11
148.5
 21
0.0
 31
0.0
  0
LINE
  5
A0A
330
1D
100
AcDbEntity
  8
0
100
AcDbLine
 10
148.738
 20
0.0
 30
0.0
 11
148.5
 21
0.0
 31
0.0
  0
LINE
  5
A0B
330
1D
100
AcDbEntity
  8
0
100
AcDbLine
 10
148.973
 20
0.0
 30
0.0
 11
148.579
 21
0.0
 31
0.0
  0
LINE
  5
A0C
330
1D
100
AcDbEntity
  8
0
100
AcDbLine
 10
148.579
 20
0.0
 30
0.0
 11
148.5
 21
0.0
 31
0.0
  0
LINE
  5
A0D
330
1D
100
AcDbEntity
  8
0
100
AcDbLine
 10
148.579
 20
0.0
 30
0.0
 11
148.5
 21
0.0
 31
0.0
  0
ENDSEC
  0
SECTION
  2
OBJECTS
  0
DICTIONARY
  5
C
330
0
100
AcDbDictionary
281
     1
  3
ACAD_GROUP
350
D
  3
ACAD_LAYOUT
350
1A
  3
ACAD_MLEADERSTYLE
350
A10
  3
ACAD_MLINESTYLE
350
17
  3
ACAD_PLOTSETTINGS
350
19
  3
ACAD_PLOTSTYLENAME
350
E
  3
ACAD_SCALELIST
350
798
  3
AcDbVariableDictionary
350
A0E
  3
DWGPROPS
350
A13
  0
DICTIONARY
  5
D
102
{ACAD_REACTORS
330
C
102
}
330
C
100
AcDbDictionary
281
     1
  0
DICTIONARY
  5
1A
102
{ACAD_REACTORS
330
C
102
}
330
C
100
AcDbDictionary
281
     1
  3
Layout1
350
1C
  3
Model
350
1E
  0
DICTIONARY
  5
A10
102
{ACAD_REACTORS
330
C
102
}
330
C
100
AcDbDictionary
281
     1
  0
DICTIONARY
  5
17
102
{ACAD_REACTORS
330
C
102
}
330
C
100
AcDbDictionary
281
     1
  3
Standard
350
18
  0
DICTIONARY
  5
19
102
{ACAD_REACTORS
330
C
102
}
330
C
100
AcDbDictionary
281
     1
  0
ACDBDICTIONARYWDFLT
  5
E
102
{ACAD_REACTORS
330
C
102
}
330
C
100
AcDbDictionary
281
     1
  3
Normal
350
F
100
AcDbDictionaryWithDefault
340
F
  0
DICTIONARY
  5
798
102
{ACAD_REACTORS
330
C
102
}
330
C
100
AcDbDictionary
281
     1
  3
A0
350
799
  3
A1
350
79A
  3
A2
350
79B
  3
A3
350
79C
  3
A4
350
79D
  3
A5
350
79E
  3
A6
350
79F
  3
A7
350
7A0
  3
A8
350
7A1
  3
A9
350
7A2
  3
B0
350
7A3
  3
B1
350
7A4
  3
B2
350
7A5
  3
B3
350
7A6
  3
B4
350
7A7
  3
B5
350
7A8
  3
B6
350
7A9
  3
B7
350
7AA
  3
B8
350
7AB
  3
B9
350
7AC
  3
C0
350
7AD
  3
C1
350
7AE
  3
C2
350
7AF
  3
C3
350
7B0
  3
C4
350
7B1
  3
C5
350
7B2
  3
C6
350
7B3
  3
C7
350
7B4
  3
C8
350
7B5
  3
C9
350
7B6
  3
D0
350
7B7
  3
D1
350
7B8
  3
D2
350
7B9
  0
DICTIONARY
  5
A0E
102
{ACAD_REACTORS
330
C
102
}
330
C
100
AcDbDictionary
281
     1
  3
CANNOSCALE
350
A11
  0
XRECORD
  5
A13
102
{ACAD_REACTORS
330
C
102
}
330
C
100
AcDbXrecord
280
     1
  1
DWGPROPS COOKIE
  2

  3

  4

  6

  7

  8
MARTIN
  9

300
=
301
=
302
=
303
=
304
=
305
=
306
=
307
=
308
=
309
=
 40
0.0
 41
2455873.306150706
 42
2455873.319801609
  1

 90
        0
  0
LAYOUT
  5
1C
102
{ACAD_REACTORS
330
1A
102
}
330
1A
100
AcDbPlotSettings
  1

  2
none_device
  4

  6

 40
0.0
 41
0.0
 42
0.0
 43
0.0
 44
0.0
 45
0.0
 46
0.0
 47
0.0
 48
0.0
 49
0.0
140
0.0
141
0.0
142
1.0
143
1.0
 70
   688
 72
     0
 73
     0
 74
     5
  7

 75
    16
147
1.0
148
0.0
149
0.0
100
AcDbLayout
  1
Layout1
 70
     1
 71
     1
 10
0.0
 20
0.0
 11
12.0
 21
9.0
 12
0.0
 22
0.0
 32
0.0
 14
1.000000000000E+20
 24
1.000000000000E+20
 34
1.000000000000E+20
 15
-1.000000000000E+20
 25
-1.000000000000E+20
 35
-1.000000000000E+20
146
0.0
 13
0.0
 23
0.0
 33
0.0
 16
1.0
 26
0.0
 36
0.0
 17
0.0
 27
1.0
 37
0.0
 76
     0
330
1B
  0
LAYOUT
  5
1E
102
{ACAD_REACTORS
330
1A
102
}
330
1A
100
AcDbPlotSettings
  1

  2
none_device
  4

  6

 40
0.0
 41
0.0
 42
0.0
 43
0.0
 44
0.0
 45
0.0
 46
0.0
 47
0.0
 48
0.0
 49
0.0
140
0.0
141
0.0
142
1.0
143
1.0
 70
  1712
 72
     0
 73
     0
 74
     0
  7

 75
     0
147
1.0
148
0.0
149
0.0
100
AcDbLayout
  1
Model
 70
     1
 71
     0
 10
0.0
 20
0.0
 11
12.0
 21
9.0
 12
0.0
 22
0.0
 32
0.0
 14
0.2
 24
0.0
 34
0.0
 15
366.8
 25
151.0
 35
0.0
146
0.0
 13
0.0
 23
0.0
 33
0.0
 16
1.0
 26
0.0
 36
0.0
 17
0.0
 27
1.0
 37
0.0
 76
     0
330
1D
331
793
  0
MLINESTYLE
  5
18
102
{ACAD_REACTORS
330
17
102
}
330
17
100
AcDbMlineStyle
  2
Standard
 70
     0
  3

 62
   256
 51
90.0
 52
90.0
 71
     2
 49
0.5
 62
   256
  6
BYLAYER
 49
-0.5
 62
   256
  6
BYLAYER
  0
ACDBPLACEHOLDER
  5
F
102
{ACAD_REACTORS
330
E
102
}
330
E
  0
SCALE
  5
799
102
{ACAD_REACTORS
330
798
102
}
330
798
100
AcDbScale
 70
     0
300
1:1
140
1.0
141
1.0
290
     1
  0
SCALE
  5
79A
102
{ACAD_REACTORS
330
798
102
}
330
798
100
AcDbScale
 70
     0
300
1:2
140
1.0
141
2.0
290
     0
  0
SCALE
  5
79B
102
{ACAD_REACTORS
330
798
102
}
330
798
100
AcDbScale
 70
     0
300
1:4
140
1.0
141
4.0
290
     0
  0
SCALE
  5
79C
102
{ACAD_REACTORS
330
798
102
}
330
798
100
AcDbScale
 70
     0
300
1:5
140
1.0
141
5.0
290
     0
  0
SCALE
  5
79D
102
{ACAD_REACTORS
330
798
102
}
330
798
100
AcDbScale
 70
     0
300
1:8
140
1.0
141
8.0
290
     0
  0
SCALE
  5
79E
102
{ACAD_REACTORS
330
798
102
}
330
798
100
AcDbScale
 70
     0
300
1:10
140
1.0
141
10.0
290
     0
  0
SCALE
  5
79F
102
{ACAD_REACTORS
330
798
102
}
330
798
100
AcDbScale
 70
     0
300
1:16
140
1.0
141
16.0
290
     0
  0
SCALE
  5
7A0
102
{ACAD_REACTORS
330
798
102
}
330
798
100
AcDbScale
 70
     0
300
1:20
140
1.0
141
20.0
290
     0
  0
SCALE
  5
7A1
102
{ACAD_REACTORS
330
798
102
}
330
798
100
AcDbScale
 70
     0
300
1:30
140
1.0
141
30.0
290
     0
  0
SCALE
  5
7A2
102
{ACAD_REACTORS
330
798
102
}
330
798
100
AcDbScale
 70
     0
300
1:40
140
1.0
141
40.0
290
     0
  0
SCALE
  5
7A3
102
{ACAD_REACTORS
330
798
102
}
330
798
100
AcDbScale
 70
     0
300
1:50
140
1.0
141
50.0
290
     0
  0
SCALE
  5
7A4
102
{ACAD_REACTORS
330
798
102
}
330
798
100
AcDbScale
 70
     0
300
1:100
140
1.0
141
100.0
290
     0
  0
SCALE
  5
7A5
102
{ACAD_REACTORS
330
798
102
}
330
798
100
AcDbScale
 70
     0
300
2:1
140
2.0
141
1.0
290
     0
  0
SCALE
  5
7A6
102
{ACAD_REACTORS
330
798
102
}
330
798
100
AcDbScale
 70
     0
300
4:1
140
4.0
141
1.0
290
     0
  0
SCALE
  5
7A7
102
{ACAD_REACTORS
330
798
102
}
330
798
100
AcDbScale
 70
     0
300
8:1
140
8.0
141
1.0
290
     0
  0
SCALE
  5
7A8
102
{ACAD_REACTORS
330
798
102
}
330
798
100
AcDbScale
 70
     0
300
10:1
140
10.0
141
1.0
290
     0
  0
SCALE
  5
7A9
102
{ACAD_REACTORS
330
798
102
}
330
798
100
AcDbScale
 70
     0
300
100:1
140
100.0
141
1.0
290
     0
  0
SCALE
  5
7AA
102
{ACAD_REACTORS
330
798
102
}
330
798
100
AcDbScale
 70
     0
300
1/128" = 1'-0"
140
0.0078125
141
12.0
290
     0
  0
SCALE
  5
7AB
102
{ACAD_REACTORS
330
798
102
}
330
798
100
AcDbScale
 70
     0
300
1/64" = 1'-0"
140
0.015625
141
12.0
290
     0
  0
SCALE
  5
7AC
102
{ACAD_REACTORS
330
798
102
}
330
798
100
AcDbScale
 70
     0
300
1/32" = 1'-0"
140
0.03125
141
12.0
290
     0
  0
SCALE
  5
7AD
102
{ACAD_REACTORS
330
798
102
}
330
798
100
AcDbScale
 70
     0
300
1/16" = 1'-0"
140
0.0625
141
12.0
290
     0
  0
SCALE
  5
7AE
102
{ACAD_REACTORS
330
798
102
}
330
798
100
AcDbScale
 70
     0
300
3/32" = 1'-0"
140
0.09375
141
12.0
290
     0
  0
SCALE
  5
7AF
102
{ACAD_REACTORS
330
798
102
}
330
798
100
AcDbScale
 70
     0
300
1/8" = 1'-0"
140
0.125
141
12.0
290
     0
  0
SCALE
  5
7B0
102
{ACAD_REACTORS
330
798
102
}
330
798
100
AcDbScale
 70
     0
300
3/16" = 1'-0"
140
0.1875
141
12.0
290
     0
  0
SCALE
  5
7B1
102
{ACAD_REACTORS
330
798
102
}
330
798
100
AcDbScale
 70
     0
300
1/4" = 1'-0"
140
0.25
141
12.0
290
     0
  0
SCALE
  5
7B2
102
{ACAD_REACTORS
330
798
102
}
330
798
100
AcDbScale
 70
     0
300
3/8" = 1'-0"
140
0.375
141
12.0
290
     0
  0
SCALE
  5
7B3
102
{ACAD_REACTORS
330
798
102
}
330
798
100
AcDbScale
 70
     0
300
1/2" = 1'-0"
140
0.5
141
12.0
290
     0
  0
SCALE
  5
7B4
102
{ACAD_REACTORS
330
798
102
}
330
798
100
AcDbScale
 70
     0
300
3/4" = 1'-0"
140
0.75
141
12.0
290
     0
  0
SCALE
  5
7B5
102
{ACAD_REACTORS
330
798
102
}
330
798
100
AcDbScale
 70
     0
300
1" = 1'-0"
140
1.0
141
12.0
290
     0
  0
SCALE
  5
7B6
102
{ACAD_REACTORS
330
798
102
}
330
798
100
AcDbScale
 70
     0
300
1-1/2" = 1'-0"
140
1.5
141
12.0
290
     0
  0
SCALE
  5
7B7
102
{ACAD_REACTORS
330
798
102
}
330
798
100
AcDbScale
 70
     0
300
3" = 1'-0"
140
3.0
141
12.0
290
     0
  0
SCALE
  5
7B8
102
{ACAD_REACTORS
330
798
102
}
330
798
100
AcDbScale
 70
     0
300
6" = 1'-0"
140
6.0
141
12.0
290
     0
  0
SCALE
  5
7B9
102
{ACAD_REACTORS
330
798
102
}
330
798
100
AcDbScale
 70
     0
300
1'-0" = 1'-0"
140
12.0
141
12.0
290
     0
  0
DICTIONARYVAR
  5
A11
102
{ACAD_REACTORS
330
A0E
102
}
330
A0E
100
DictionaryVariables
280
     0
  1
1:1
  0
ENDSEC
  0
SECTION
  2
THUMBNAILIMAGE
 90
    16364
310
28000000B40000005500000001000800000000000000000000000000000000000000000000000000FFFFFF000000FF0000FFFF0000FF0000FFFF0000FF000000FF00FF000000000080808000C0C0C0000000FF007F7FFF000000A5005252A50000007F003F3F7F0000004C0026264C000000260013132600003FFF007F9FFF
310
000029A5005267A500001F7F003F4F7F0000134C00262F4C000009260013172600007FFF007FBFFF000052A500527CA500003F7F003F5F7F0000264C0026394C0000132600131C260000BFFF007FDFFF00007CA5005291A500005F7F003F6F7F0000394C0026424C00001C26001321260000FFFF007FFFFF0000A5A50052A5
310
A500007F7F003F7F7F00004C4C00264C4C00002626001326260000FFBF007FFFDF0000A57C0052A59100007F5F003F7F6F00004C3900264C420000261C001326210000FF7F007FFFBF0000A5520052A57C00007F3F003F7F5F00004C2600264C39000026130013261C0000FF3F007FFF9F0000A5290052A56700007F1F003F
310
7F4F00004C1300264C2F00002609001326170000FF00007FFF7F0000A5000052A55200007F00003F7F3F00004C0000264C260000260000132613003FFF00009FFF7F0029A5000067A552001F7F00004F7F3F00134C00002F4C260009260000172613007FFF0000BFFF7F0052A500007CA552003F7F00005F7F3F00264C0000
310
394C2600132600001C261300BFFF0000DFFF7F007CA5000091A552005F7F00006F7F3F00394C0000424C26001C26000021261300FFFF0000FFFF7F00A5A50000A5A552007F7F00007F7F3F004C4C00004C4C26002626000026261300FFBF0000FFDF7F00A57C0000A59152007F5F00007F6F3F004C3900004C422600261C00
310
0026211300FF7F0000FFBF7F00A5520000A57C52007F3F00007F5F3F004C2600004C39260026130000261C1300FF3F0000FF9F7F00A5290000A56752007F1F00007F4F3F004C1300004C2F26002609000026171300FF000000FF7F7F00A5000000A55252007F0000007F3F3F004C0000004C2626002600000026131300FF00
310
3F00FF7F9F00A5002900A55267007F001F007F3F4F004C0013004C262F002600090026131700FF007F00FF7FBF00A5005200A5527C007F003F007F3F5F004C0026004C2639002600130026131C00FF00BF00FF7FDF00A5007C00A55291007F005F007F3F6F004C0039004C26420026001C0026132100FF00FF00FF7FFF00A5
310
00A500A552A5007F007F007F3F7F004C004C004C264C002600260026132600BF00FF00DF7FFF007C00A5009152A5005F007F006F3F7F0039004C0042264C001C002600211326007F00FF00BF7FFF005200A5007C52A5003F007F005F3F7F0026004C0039264C00130026001C1326003F00FF009F7FFF002900A5006752A500
310
1F007F004F3F7F0013004C002F264C000900260017132600000000002D2D2D005B5B5B0089898900B7B7B700B3B3B30000000000000000000000000000000000000000000000000000000000000000000000000000000000000000000000000000000000000000000000000000000000000000000000000000000000000000
310
00000000000000000000000000000000000000000000000000000000000000000000000000000000000000000000000000000000000000000000000000000000000000000000000000000000000000000000000000000000000000000000000000000000000000000000000000000000000000000000000000000000000000
310
00000000000000000000000000000000000000000000000000000000000000000000000000000000000000000000000000000000000000000000000000000000000000000000000000000000000000000000000000000000000000000000000000000000000000000000000000000000000000000000000000000000000000
310
00000000000000000000000000000000000000000000000000000000000000000000000000000000000000000000000000000000000000000000000000000000000000000000000000000000000000000000000000000000000000000000000000000000000000000000000000000000000000000000000000000000000000
310
00000000000000000000000000000000000000000000000000000000000000000000000000000000000000000000000000000000000000000000000000000000000000000000000000000000000000000000000000000000000000000000000000000000000000000000000000000000000000000000000000000000000000
310
00000000000000000000000000000000000000000000000000000000000000000000000000000000000000000000000000000000000000000000000000000000000000000000000000000000000000000000000000000000000000000000000000000000000000000000000000000000000000000000000000000000000000
310
00000000000000000000000000000000000000000000000000000000000000000000000000000000000000000000000000000000000000000000000000000000000000000000000000000000000000000000000000000000000000000000000000000000000000000000000000000000000000000000000000000000000000
310
00000000000000000000000000000000000000000000000000000000000000000000000000000000000000000000000000000000000000000000000000000000000000000000000000000000000000000000070707070707070707070707070707070707070707070707070707070707000000000000000000000000000000
310
00000000000707070707070707070707070707070707070707070707070707070707070707070707000000000000000000000000000000000000000007070707070707070707070707070707070707070707070707070707070700000000000000000000000000000000000000000000000000000000000000000000000000
310
00000000000000000700000000000000000000000000000000000000000000000000000000070000000000000000000000000000000000000000070000000000000000000000000000000000000000000000000000000000000000000700000000000000000000000000000000000000000700000000000000000000000000
310
00000000000000000000000000000007000000000000000000000000000000000000000000000000000000000000000000000000000000000000000000070000000000000000000000000000000000000000000000000000000007000000000000000000000000000000000000000007000000000000000000000000000000
310
00000000000000000000000000000000000007000000000000000000000000000000000000000007000000000000000000000000000000000000000000000000000000000700000000000000000000000000000000000000000000000000000000000000000000000000000000000000000007000000000000000000000000
310
00000000000000000000000000000000070000000000000000000000000000000000000000070000000000000000000000000000000000000000000000000000000000000000000700000000000000000000000000000000000000000700000000000000000000000000000000000000000000000000000000070000000000
310
00000000000000000000000000000000000000000000000000000000000000000000000000000000070000000000000000000000000000000000000000000000000000000007000000000000000000000000000000000000000007000000000000000000000000000000000000000000000000000000000000000000070000
310
00000000000000000000000000000000000007000000000000000000000000000000000000000000000000000000000700000000000000000000000000000000000000000000000000000000000000000000000000000000000000000007070707070707070707070707070707070707070707070707070707070000000000
310
00000000000000000000000000000000070707070707070707070707070707070707070707070707070707070707070707070700000000000000000000000000000000000000000007070707070707070707070707070707070707070707070707070707070000000000000000000000000000000000000000000000000000
310
00000000000000000000000000000000000000000000000000000700000000000000000000000000000000000000000000000000000000000000000000000000000000000000000000000007000000000000000000000000000000000000000000070000000000000000000000000000000000000000000000000000000000
310
00000000000000000000000000000000000000070000000000000000000000000000000000000000000000000000000000000000000000000000000000000000000000000000000000000000000000070000000000000000000000000000070000000000000000000000000000000000000000000000000000000000000000
310
00070000000000000000000000000000000000000000000700000000000000000000000000000000000000000000000000000000000000000007000000000000000000000000000007000000000000000000000000000000000000000000000000000000000000000000000000000000000000000000000000000000000000
310
00000000000700000000000000000000000000000700000000000000000000000000000000000000000000000000000000000000000007000000000000000000000000000000000000000000070000000000000000000000000000000000000000000000000000000000000000000700000000000000000000000000000700
310
00000000000000000000000000000000000000000000000000000000000000000000000000000000000000000000000000000000000000000000070000000000000000000000000000070000000000000000000000000000000000000000000000000000000000000000000700000000000000000000000000000000000000
310
00000700000000000000000000000000000000000000000000000000000000000000000007000000000000000000000000000007000000000000000000000000000000000000000000000000000000000000000000000000000000000000000000000000000000000000000000000007000000000000000000000000000007
310
00000000000000000000000000000000000000000000000000000000000000000007000000000000000000000000000000000000000000070000000000000000000000000000000000000000000000000000000000000000000700000000000000000000000000000700000000000000000000000000000000000000000000
310
00000000000000000000000000000000000000000000000000000000000000000000000000070000000000000000000000000000070000000000000000000000000000000000000000000000000000000000000000000700000000000000000000000000000000000000000007000000000000000000000000000000000000
310
00000000000000000000000000000007000000000000000000000000000007000000000000000000000000000000000000000000000000000000000000000000000000000000000000000000000000000000000000000000000007000000000000000000000000000007000000000000000000000000000000000000000000
310
00000000000000000000000007000000000000000000000000000000000000000000070000000000000000000000000000000000000000000000000000000000000000000700000000000000000000000000000700000000000000000000000000000000000000000000000000000000000000000000000000000000000000
310
00000000000000000000000000000000070000000000000000000000000000070000000000000000000000000000000000000000000000000000000000000000000700000000000000000000000000000000000000000007000000000000000000000000000000000000000000000000000000000000000000070000000000
310
00000000000000000007000000000000000000000000000000000000000000000000000000000000000000000000000000000000000000000000000000000000000000000007000000000000000000000000000007000000000000000000000000000000000000000000000000000000000000000000070000000000000000
310
00000000000000000000000000070000000000000000000000000000000000000000000000000000000000000000000700000000000000000000000000000700000000000000000000000000000000000000000000000000000000000000000000000000000000000000000000000000000000000000000000000700000000
310
00000000000000000000070000000000000000000000000000000000000000000000000000000000000000000700000000000000000000000000000000000000000007000000000000000000000000000000000000000000000000000000000000000000070000000000000000000000000000070000000000000000000000
310
00000000000000000000000000000000000000000000000000000000000000000000000000000000000000000000000000000000000000000000000000000007000000000000000000000000000000000000000000000000000000000000000000070000000000000000000000000000000000000000000700000000000000
310
00000000000000000000000000000000000000000000000000000700000000000000000000000000000000000000000000000000000000000000000000000000000000000000000000000000000000000000000000000000000000000000000000000000000700000000000000000000000000000700000000000000000000
310
00000000000000000000000000000000000000000000000700000000000000000000000000000000000000000007000000000000000000000000000000000000000000000000000000000000000000070000000000000000000000000000070000000000000000000000000000000000000000000000000000000000000000
310
00000000000000000000000000000000000000000000000000000007000000000000000000000000000007000000000000000000000000000000000000000000000000000000000000000000070000000000000000000000000000000000000000000700000000000000000000000000000000000000000000000000000000
310
00000000000700000000000000000000000000000700000000000000000000000000000000000000000000000000000000000000000000000000000000000000000000000000000000000000000000000700000000000000000000000000000700000000000000000000000000000000000000000000000000000000000000
310
00000700000000000000000000000000000000000000000007000000000000000000000000000000000000000000000000000000000000000000070000000000000000000000000000070000000000000000000000000000000000000000000000000000000000000000000000000000000000000000000000000000000000
310
00000000000007000000000000000000000000000007000000000000000000000000000000000000000000000000000000000000000000070000000000000000000000000000000000000000000700000000000000000000000000000000000000000000000000000000000000000007000000000000000000000000000007
310
00000000000000000000000000000000000000000000000000000000000000000000000000000000000000000000000000000000000000000000000700000000000000000000000000000700000000000000000000000000000000000000000000000000000000000000000007000000000000000000000000000000000000
310
00000007000000000000000000000000000000000000000000000000000000000000000000070000000000000000000000000000070000000000000000000000000000000000000000000000000000000000000000000000000000000000000000000000000000000000000000000000070000000000000000000000000000
310
07000000000000000000000000000000000000000000000000000000000000000000070000000000000000000000000000000000000000000700000000000000000000000000000000000000000000000000000000000000000007000000000000000000000000000007000000000000000000000000000000000000000000
310
00000000000000000000000000000000000000000000000000000000000000000000000000000700000000000000000000000000000700000000000000000000000000000000000000000000000000000000000000000007000000000000000000000000000000000000000000070000000000000000000000000000000000
310
00000000000000000000000000000000070000000000000000000000000000070000000000000000000000000000000000000000000000000000000000000000000000000000000000000000000000000000000000000000000007000000000000000000000000000000070000000000000000000000000000000000000000
310
00000000000000000000000000070000000000000000000000000000000000000000000700000000000000000000000000000000000000000000000000000000000000000007000000000000000000000000000000070000000000000000000000000000000000000000000000000000000000000000000000000000000000
310
00000000000000000000000000000000070000000000000000000000000000000700000000000000000000000000000000000000000000000000000000000000000007000000000000000000000000000000000000000000070000000000000000000000000000000000000000000000000000000000000000000700000000
310
00000000000000000000000700000000000000000000000000000000000000000000000000000000000000000000000000000000000000000000000000000000000000000700000000000000000000000000000000070000000000000000000000000000000000000000000000000000000000000000000700000000000000
310
00000000000000000000000000000700000000000000000000000000000000000000000000000000000000000000000007000000000000000000000000000000000700000000000000000000000000000000000000000000000000000000000000000000000000000000000000000000000000000000000007000000000000
310
00000000000000000000000700000000000000000000000000000000000000000000000000000000000000000007000000000000000000000000000000000000000007000000000000000000000000000000000000000000000000000000000000000000000700000000000000000000000000000000000700000000000000
310
00000000000000000000000000000000000000000000000000000000000000000000000000000000000000000707000000000000000000000000000000070707070000000000000000000000000000000000000000000000000000000000000000000007000000000000000000000000000000000000000700000000000000
310
00000000000000000000000000000000000000000000000000000007070707000000000000000000000000000000070700000000000000000000000000000000000000000000000000000000000000000000000000000000000000000000000007070000000000000000000000000707070700000000000000000000000000
310
00000000000000000000000000000000000000000000000000070000000000000000000000000000000000000007000000000000000000000000000000000000000000000000000000000000000000000000000007070707000000000000000000000000070700000000000000000000000000000000000000000000000000
310
00000000000000000000000000000000000007000707000000000000000000000707070700000000000000000000000000000000000000000000000000000000000000000000000000000000000007000000000000000000000000000000000000000700000000000000000000000000000000000000000000000000000000
310
00000000000000000000000000000707070700000000000000000000070700070000000000000000000000000000000000000000000000000000000000000000000000000707070000000000000000000007070707000000000000000000000000000000000000000000000000000000000000000000000000000000000000
310
00000000070000000000000000000000000000000000000007000000000000000000000000000000000000000000000000000000000000000000000000000000000000000000000707070700000000000000000000070707070000000000000000000000000000000000000000000000000000070707070707000000000000
310
00000007070707000000000000000000000000000000000000000000000000000000000000000000000000000000000000000000000000000007000000000000000000000000000000000000000700000000000000000000000000000000000000000000000000000000000000000000000000000000000000000000000000
310
00070707070000000000000000000007070707070700000000000000000000000000000000070707070000000000000000000007070707070000000000000000000000000000000000000000000000000000000000000000000000000000000000000000000000000000000000000700000000000000000000000000000000
310
00000007000000000000000000000000000000000000000000000000000000000000000000000000000000000000000000000000000000000000070707070700000000000000000000000707070000000000000000000007070700000000000000000000070707070000000000000000000000000000000000000000000000
310
00000000000000000000000000000000000000000000000000000000000000000000000007000000000000000000000000000000000000000700000000000000000000000000000000000000000000000000000000000000000000000000000000000000000000000000000000000000000000000707070700000000000000
310
00000007070700000000000707000000000000000000070707070000000000000000000000000000000000000000000000000000000000000000000000000000000000000000000000000000000000000000000000000000000700000000000000000000000000000000000000070000000000000000000000000000000000
310
00000000000000000000000000000000000000000000000000000000000000000000000000000000000000000000070707070000000000000000000707000000070000000000000707070700000000000000000000000000000000000000000000000000000000000000000000000000000000000000000000000000000000
310
00000000000000000000000000000007000000000000000000000000000000000000000700000000000000000000000000000000000000000000000000000000000000000000000000000000000000000000000000000000000000000000000000000000000000070707070000000000000700000007000007070707000000
310
00000000000000000000000000000000000000000000000000000000000000000000000000000000000000000000000000000000000000000000000000000000000000000700000000000000000000000000000000000000070000000000000000000000000000000000000000000000000000000000000000000000000000
310
00000000000000000000000000000000000000000000000000000000000000000007070707000007000000070707000000000000000000000000000000000000000000000000000000000000000000000000000000000000000000000000000000000000000000000000000000000000000000000000000000070000000000
310
00000000000000000000000000000700000000000000000000000000000000000000000000000000000000000000000000000000000000000000000000000000000000000000000000000000000000000000000000000000000007070700000000000000000000000000000000000000000000000000000000000000000000
310
00000000000000000000000000000000000000000000000000000000000000000000000000000000000000000000000700000000000000000000000000000000000000070000000000000000000000000000000000000000000000000000000000000000000000000000000000000000000000000000000000000000000000
310
00000000000000000000000000000000000000000000000000000000000000000000000000000000000000000000000000000000000000000000000000000000000000000000000000000000000000000000000000000000000000000000000000000000070000000000000000000000000000000000000007000000000000
310
00000000000000000000000000000000000000000000000000000000000000000000000000000000000000000000000000000000000000000000000000000000000000000000000000000000000000000000000000000000000000000000000000000000000000000000000000000000000000000000000000000000000000
310
00000000000000000000000000000000000000000000000000000700000000000000000000000000000000000000070000000000000000000000000000000000000000000000000000000000000000000000000000000000000000000000000000000000000000000000000000000000000000000000000000000000000000
310
00000000000000000000000000000000000000000000000000000000000000000000000000000000000000000000000000000000000000000000000000000000000000000000000000000000000000070000000000000000000000000000000000000007000000000000000000000000000000000000000000000000000000
310
00000000000000000000000000000000000000000000000000000000000000000000000000000000000000000000000000000000000000000000000000000000000000000000000000000000000000000000000000000000000000000000000000000000000000000000000000000000000000000000000000000000000000
310
00000000000700000000000000000000000000000000000000070000000000000000000000000000000000000000000000000000000000000000000000000000000000000000000000000000000000000000000000000000000000000000000000000000000000000000000000000000000000000000000000000000000000
310
00000000000000000000000000000000000000000000000000000000000000000000000000000000000000000000000000000000000000000000070000000000000000000000000000000000000007000000000000000000000000000000000000000000000000000000000000000000000000000000000000000000000000
310
00000000000000000000000000000000000000000000000000000000000000000000000000000000000000000000000000000000000000000000000000000000000000000000000000000000000000000000000000000000000000000000000000000000000000000000000000000007000000000000000000000000000000
310
00000000070000000000000000000000000000000000000000000000000000000000000000000000000000000000000000000000000000000000000000000000000000000000000000000000000000000000000000000000000000000000000000000000000000000000000000000000000000000000000000000000000000
310
00000000000000000000000000000000000000000000000000000000000000000000000000070000000000000000000000000000000000000007000000000000000000000000000000000000000000000000000000000000000000000000000000000000000000000000000000000000000000000000000000000000000000
310
00000000000000000000000000000000000000000000000000000000000000000000000000000000000000000000000000000000000000000000000000000000000000000000000000000000000000000000000000000000000007000000000000000000000000000000000000000700000000000000000000000000000000
310
00000000000000000000000000000000000000000000000000000000000000000000000000000000000000000000000000000000000000000000000000000000000000000000000000000000000000000000000000000000000000000000000000000000000000000000000000000000000000000000000000000000000000
310
00000000000000000000000000000000070000000000000000000000000000000000000007000000000000000000000000000000000000000000000000000000000000000000000000000000000000000000000000000000000000000000000000000000000000000000000000000000000000000000000000000000000000
310
00000000000000000000000000000000000000000000000000000000000000000000000000000000000000000000000000000000000000000000000000000000000000000007000000000000000000000000000000000000000700000000000000000000000000000000000000000000000000000000000000000000000000
310
00000000000000000000000000000000000000000000000000000000000000000000000000000000000000000000000000000000000000000000000000000000000000000000000000000000000000000000000000000000000000000000000000000000000000000000000000000000000000000000000000000700000000
310
00000000000000000000000000000007000000000000000000000000000000000000000000000000000000000000000000000000000000000000000000000000000000000000000000000000000000000000000000000000000000000000000000000000000000000000000000000000000000000000000000000000000000
310
00000000000000000000000000000000000000000000000000000000000000000000000000000000000000000000000007000000000000000000000000000000000000000700000000000000000000000000000000000000000000000000000000000000000000000000000000000000000000000000000000000000000000
310
00000000000000000000000000000000000000000000000000000000000000000000000000000000000000000000000000000000000000000000000000000000000000000000000000000000000000000000000000000000000000000000000000000000000700000000000000000000000000000000000000070000000000
310
00000000000000000000000000000000000000000000000000000000000000000000000000000000000000000000000000000000000000000000000000000000000000000000000000000000000000000000000000000000000000000000000000000000000000000000000000000000000000000000000000000000000000
310
00000000000000000000000000000000000000000000000000000007000000000000000000000000000000000000000700000000000000000000000000000000000000000000000000000000000000000000000000000000000000000000000000000000000000000000000000000000000000000000000000000000000000
310
00000000000000000000000000000000000000000000000000000000000000000000000000000000000000000000000000000000000000000000000000000000000000000000000000000000000000000700000000000000000000000000000000000000070000000000000000000000000000000000000000000000000000
310
00000000000000000000000000000000000000000000000000000000000000000000000000000000000000000000000000000000000000000000000000000000000000000000000000000000000000000000000000000000000000000000000000000000000000000000000000000000000000000000000000000000000000
310
00000000000007000000000000000000000000000000000000000700000000000000000000000000000000000000000000000000000000000000000000000000000000000000000000000000000000000000000000000000000000000000000000000000000000000000000000000000000000000000000000000000000000
310
00000000000000000000000000000000000000000000000000000000000000000000000000000000000000000000000000000000000000000000000700000000000000000000000000000000000000070000000000000000000000000000000000000000000000000000000000000000000000000000000000000000000000
310
00000000000000000000000000000000000000000000000000000000000000000000000000000000000000000000000000000000000000000000000000000000000000000000000000000000000000000000000000000000000000000000000000000000000000000000000000000000070000000000000000000000000000
310
00000000000700000000000000000000000000000000000000000000000000000000000000000000000000000000000000000000000000000000000000000000000000000000000000000000000000000000000000000000000000000000000000000000000000000000000000000000000000000000000000000000000000
310
00000000000000000000000000000000000000000000000000000000000000000000000000000700000000000000000000000000000000000000070000000000000000000000000000000000000000000000000000000000000000000000000000000000000000000000000000000000000000000000000000000000000000
310
00000000000000000000000000000000000000000000000000000000000000000000000000000000000000000000000000000000000000000000000000000000000000000000000000000000000000000000000000000000000000000700000000070707070707070707000000000007000000000000000000000000000000
310
00000000000000000000000000000000000000000000000000000000000000000000000000000000000000000000000000000000000000000000000000000000000000000000000000000000000000000000000000000000000000000000000000000000000000000000000000000000000000000000000000000000000000
310
00000000000000000000000000000000000007000000070707070000000707070707000000070000000000000000000000000000000000000000000000000000000000000000000000000000000000000000000000000000000000000000000000000000000000000000000000000000000000000000000000000000000000
310
00000000000000000000000000000000000000000000000000000000000000000000000000000000000000000000000000000000000000000000000000000000000000000000000700000707070707070707070707070700000007000000000000000000000000000000000000000000000000000000000000000000000000
310
00000000000000000000000000000000000000000000000000000000000000000000000000000000000000000000000000000000000000000000000000000000000000000000000000000000000000000000000000000000000000000000000000000000000000000000000000000000000000000000000000000000070007
310
07070707000000000007070707070000070000000000000000000000000000000000000000000000000000000000000000000000000000000000000000000000000000000000000000000000000000000000000000000000000000000000000000000000000000000000000000000000000000000000000000000000000000
310
00000000000000000000000000000000000000000000000000000000000000000000000000000000000000000000000000000700070700070707070707070707000707000007000000000000000000000000000000000000000000000000000000000000000000000000000000000000000000000000000000000000000000
310
00000000000000000000000000000000000000000000000000000000000000000000000000000000000000000000000000000000000000000000000000000000000000000000000000000000000000000000000000000000000000000000000000000000000000070700070707070707000707070707070007000700000000
310
00000000000000000000000000000000000000000000000000000000000000000000000000000000000000000000000000000000000000000000000000000000000000000000000000000000000000000000000000000000000000000000000000000000000000000000000000000000000000000000000000000000000000
310
00000000000000000000000000000000000000000000000000000000000707000000000000000000000000000000070007000000000000000000000000000000000000000000000000000000000000000000000000000000000000000000000000000000000000000000000000000000000000000000000000000000000000
310
00000000000000000000000000000000000000000000000000000000000000000000000000000000000000000000000000000000000000000000000000000000000000000000000000000000000000000000070000000000000000000000000000000007000700000000000000000000000000000000000000000000000000
310
00000000000000000000000000000000000000000000000000000000000000000000000000000000000000000000000000000000000000000000000000000000000000000000000000000000000000000000000000000000000000000000000000000000000000000000000000000000000000000000000000000000000000
310
00000000000000000700000000000000000000000000000000000700000000000000000000000000000000000000000000000000000000000000000000000000000000000000000000000000000000000000000000000000000000000000000000000000000000000000000000000000000000000000000000000000000000
310
00000000000000000000000000000000000000000000000000000000000000000000000000000000000000000000000000000000000000000000000000070000000000000000000000000000000000070000000000000000000000000000000000000000000000000000000000000000000000000000000000000000000000
310
00000000000000000000000000000000000000000000000000000000000000000000000000000000000000000000000000000000000000000000000000000000000000000000000000000000000000000000000000000000000000000000000000000000000000000000000000000000000007000000000000000000000000
310
00000000000700000000000000000000000000000000000000000000000000000000000000000000000000000000000000000000000000000000000000000000000000000000000000000000000000000000000000000000000000000000000000000000000000000000000000000000000000000000000000000000000000
310
00000000000000000000000000000000000000000000000000000000000000000000000000000000070000000000000000000000000000000000070000000000000000000000000000000000000000000000000000000000000000000000000000000000000000000000000000000000000000000000000000000000000000
310
00000000000000000000000000000000000000000000000000000000000000000000000000000000000000000000000000000000000000000000000000000000000000000000000000000000000000000000000000000000000000000007070000000000000000000000000000000707000000000000000000000000000000
310
00000000000000000000000000000000000000000000000000000000000000000000000000000000000000000000000000000000000000000000000000000000000000000000000000000000000000000000000000000000000000000000000000000000000000000000000000000000000000000000000000000000000000
310
00000000000000000000000000000000000000000707070700000000000000000007070707000000000000000000000000000000000000000000000000000000000000000000000000000000000000000000000000000000000000000000000000000000000000000000000000000000000000000000000000000000000000
310
00000000000000000000000000000000000000000000000000000000000000000000000000000000000000000000000000000000000000000000000000000000000000000000000000000000000707070700070707070000000000000000000000000000000000000000000000000000000000000000000000000000000000
310
00000000000000000000000000000000000000000000000000000000000000000000000000000000000000000000000000000000000000000000000000000000000000000000000000000000000000000000000000000000000000000000000000000000000000000000000000000000000000000000000000000000000000
310
00000000000000000000000000000000000000000000000000000000000000000000000000000000000000000000000000000000000000000000000000000000000000000000000000000000000000000000000000000000000000000000000000000000000000000000000000000000000000000000000000000000000000
310
00000000000000000000000000000000000000000000000000000000000000000000000000000000000000000000000000000000000000000000000000000000000000000000000000000000000000000000000000000000000000000000000000000000000000000000000000000000000000000000000000000000000000
310
00000000000000000000000000000000000000000000000000000000000000000000000000000000000000000000000000000000000000000000000000000000000000000000000000000000000000000000000000000000000000000000000000000000000000000000000000000000000000000000000000000000000000
310
00000000000000000000000000000000000000000000000000000000000000000000000000000000000000000000000000000000000000000000000000000000000000000000000000000000000000000000000000000000000000000000000000000000000000000000000000000000000000000000000000000000000000
310
00000000000000000000000000000000000000000000000000000000000000000000000000000000000000000000000000000000000000000000000000000000000000000000000000000000000000000000000000000000000000000000000000000000000000000000000000000000000000000000000000000000000000
310
00000000000000000000000000000000000000000000000000000000000000000000000000000000000000000000000000000000000000000000000000000000000000000000000000000000000000000000000000000000000000000000000000000000000000000000000000000000000000000000000000000000000000
310
00000000000000000000000000000000000000000000000000000000000000000000000000000000000000000000000000000000000000000000000000000000000000000000000000000000000000000000000000000000000000000000000000000000000000000000000000000000000000000000000000000000000000
310
000000000000000000000000000000000000000000000000000000000000000000000000000000000000000000000000000000000000000000000000000000000000000000000000000000000000000000000000000000000000000000000000000000000000000000000000
  0
ENDSEC
  0
EOF
