  0
SECTION
  2
HEADER
  9
$ACADVER
  1
AC1015
  9
$ACADMAINTVER
 70
    20
  9
$DWGCODEPAGE
  3
ANSI_1252
  9
$INSBASE
 10
0.0
 20
0.0
 30
0.0
  9
$EXTMIN
 10
157.9794566116857
 20
0.0
 30
0.0
  9
$EXTMAX
 10
287.8616807356159
 20
120.0563592569347
 30
0.0
  9
$LIMMIN
 10
0.0
 20
0.0
  9
$LIMMAX
 10
12.0
 20
9.0
  9
$ORTHOMODE
 70
     1
  9
$REGENMODE
 70
     1
  9
$FILLMODE
 70
     1
  9
$QTEXTMODE
 70
     0
  9
$MIRRTEXT
 70
     0
  9
$LTSCALE
 40
1.0
  9
$ATTMODE
 70
     1
  9
$TEXTSIZE
 40
0.875
  9
$TRACEWID
 40
0.05
  9
$TEXTSTYLE
  7
Standard
  9
$CLAYER
  8
0
  9
$CELTYPE
  6
ByLayer
  9
$CECOLOR
 62
   256
  9
$CELTSCALE
 40
1.0
  9
$DISPSILH
 70
     0
  9
$DIMSCALE
 40
1.0
  9
$DIMASZ
 40
1.8
  9
$DIMEXO
 40
0.0625
  9
$DIMDLI
 40
0.38
  9
$DIMRND
 40
0.0
  9
$DIMDLE
 40
0.0
  9
$DIMEXE
 40
0.0625
  9
$DIMTP
 40
0.0
  9
$DIMTM
 40
0.0
  9
$DIMTXT
 40
1.8
  9
$DIMCEN
 40
0.09
  9
$DIMTSZ
 40
0.0
  9
$DIMTOL
 70
     0
  9
$DIMLIM
 70
     0
  9
$DIMTIH
 70
     1
  9
$DIMTOH
 70
     1
  9
$DIMSE1
 70
     0
  9
$DIMSE2
 70
     0
  9
$DIMTAD
 70
     0
  9
$DIMZIN
 70
     0
  9
$DIMBLK
  1

  9
$DIMASO
 70
     1
  9
$DIMSHO
 70
     1
  9
$DIMPOST
  1
"
  9
$DIMAPOST
  1
mm
  9
$DIMALT
 70
     1
  9
$DIMALTD
 70
     0
  9
$DIMALTF
 40
25.4
  9
$DIMLFAC
 40
1.0
  9
$DIMTOFL
 70
     0
  9
$DIMTVP
 40
0.0
  9
$DIMTIX
 70
     0
  9
$DIMSOXD
 70
     0
  9
$DIMSAH
 70
     0
  9
$DIMBLK1
  1

  9
$DIMBLK2
  1

  9
$DIMSTYLE
  2
spec dim2
  9
$DIMCLRD
 70
     0
  9
$DIMCLRE
 70
   256
  9
$DIMCLRT
 70
     0
  9
$DIMTFAC
 40
1.0
  9
$DIMGAP
 40
0.09
  9
$DIMJUST
 70
     0
  9
$DIMSD1
 70
     0
  9
$DIMSD2
 70
     0
  9
$DIMTOLJ
 70
     1
  9
$DIMTZIN
 70
     0
  9
$DIMALTZ
 70
     0
  9
$DIMALTTZ
 70
     0
  9
$DIMUPT
 70
     0
  9
$DIMDEC
 70
     4
  9
$DIMTDEC
 70
     4
  9
$DIMALTU
 70
     2
  9
$DIMALTTD
 70
     0
  9
$DIMTXSTY
  7
Standard
  9
$DIMAUNIT
 70
     0
  9
$DIMADEC
 70
     0
  9
$DIMALTRND
 40
0.0
  9
$DIMAZIN
 70
     0
  9
$DIMDSEP
 70
    46
  9
$DIMATFIT
 70
     3
  9
$DIMFRAC
 70
     2
  9
$DIMLDRBLK
  1

  9
$DIMLUNIT
 70
     5
  9
$DIMLWD
 70
    -1
  9
$DIMLWE
 70
    -1
  9
$DIMTMOVE
 70
     0
  9
$LUNITS
 70
     2
  9
$LUPREC
 70
     4
  9
$SKETCHINC
 40
0.1
  9
$FILLETRAD
 40
0.1
  9
$AUNITS
 70
     0
  9
$AUPREC
 70
     0
  9
$MENU
  1
.
  9
$ELEVATION
 40
0.0
  9
$PELEVATION
 40
0.0
  9
$THICKNESS
 40
0.0
  9
$LIMCHECK
 70
     0
  9
$CHAMFERA
 40
0.0
  9
$CHAMFERB
 40
0.0
  9
$CHAMFERC
 40
0.0
  9
$CHAMFERD
 40
0.0
  9
$SKPOLY
 70
     0
  9
$TDCREATE
 40
2455131.219719143
  9
$TDUCREATE
 40
2455131.553052477
  9
$TDUPDATE
 40
2455231.619458854
  9
$TDUUPDATE
 40
2455231.952792188
  9
$TDINDWG
 40
0.3275535069
  9
$TDUSRTIMER
 40
0.3275529630
  9
$USRTIMER
 70
     1
  9
$ANGBASE
 50
0.0
  9
$ANGDIR
 70
     0
  9
$PDMODE
 70
     0
  9
$PDSIZE
 40
0.0
  9
$PLINEWID
 40
0.0
  9
$SPLFRAME
 70
     0
  9
$SPLINETYPE
 70
     6
  9
$SPLINESEGS
 70
     8
  9
$HANDSEED
  5
ED4A
  9
$SURFTAB1
 70
     6
  9
$SURFTAB2
 70
     6
  9
$SURFTYPE
 70
     6
  9
$SURFU
 70
     6
  9
$SURFV
 70
     6
  9
$UCSBASE
  2

  9
$UCSNAME
  2

  9
$UCSORG
 10
0.0
 20
0.0
 30
0.0
  9
$UCSXDIR
 10
1.0
 20
0.0
 30
0.0
  9
$UCSYDIR
 10
0.0
 20
1.0
 30
0.0
  9
$UCSORTHOREF
  2

  9
$UCSORTHOVIEW
 70
     0
  9
$UCSORGTOP
 10
0.0
 20
0.0
 30
0.0
  9
$UCSORGBOTTOM
 10
0.0
 20
0.0
 30
0.0
  9
$UCSORGLEFT
 10
0.0
 20
0.0
 30
0.0
  9
$UCSORGRIGHT
 10
0.0
 20
0.0
 30
0.0
  9
$UCSORGFRONT
 10
0.0
 20
0.0
 30
0.0
  9
$UCSORGBACK
 10
0.0
 20
0.0
 30
0.0
  9
$PUCSBASE
  2

  9
$PUCSNAME
  2

  9
$PUCSORG
 10
0.0
 20
0.0
 30
0.0
  9
$PUCSXDIR
 10
1.0
 20
0.0
 30
0.0
  9
$PUCSYDIR
 10
0.0
 20
1.0
 30
0.0
  9
$PUCSORTHOREF
  2

  9
$PUCSORTHOVIEW
 70
     0
  9
$PUCSORGTOP
 10
0.0
 20
0.0
 30
0.0
  9
$PUCSORGBOTTOM
 10
0.0
 20
0.0
 30
0.0
  9
$PUCSORGLEFT
 10
0.0
 20
0.0
 30
0.0
  9
$PUCSORGRIGHT
 10
0.0
 20
0.0
 30
0.0
  9
$PUCSORGFRONT
 10
0.0
 20
0.0
 30
0.0
  9
$PUCSORGBACK
 10
0.0
 20
0.0
 30
0.0
  9
$USERI1
 70
     0
  9
$USERI2
 70
     0
  9
$USERI3
 70
     0
  9
$USERI4
 70
     0
  9
$USERI5
 70
     0
  9
$USERR1
 40
0.0
  9
$USERR2
 40
0.0
  9
$USERR3
 40
0.0
  9
$USERR4
 40
0.0
  9
$USERR5
 40
0.0
  9
$WORLDVIEW
 70
     1
  9
$SHADEDGE
 70
     3
  9
$SHADEDIF
 70
    70
  9
$TILEMODE
 70
     1
  9
$MAXACTVP
 70
    64
  9
$PINSBASE
 10
0.0
 20
0.0
 30
0.0
  9
$PLIMCHECK
 70
     0
  9
$PEXTMIN
 10
0.0
 20
0.0
 30
0.0
  9
$PEXTMAX
 10
8.5
 20
11.0
 30
0.0
  9
$PLIMMIN
 10
0.0
 20
0.0
  9
$PLIMMAX
 10
12.0
 20
9.0
  9
$UNITMODE
 70
     0
  9
$VISRETAIN
 70
     1
  9
$PLINEGEN
 70
     0
  9
$PSLTSCALE
 70
     1
  9
$TREEDEPTH
 70
  3020
  9
$CMLSTYLE
  2
Standard
  9
$CMLJUST
 70
     0
  9
$CMLSCALE
 40
1.0
  9
$PROXYGRAPHICS
 70
     1
  9
$MEASUREMENT
 70
     0
  9
$CELWEIGHT
370
    -1
  9
$ENDCAPS
280
     0
  9
$JOINSTYLE
280
     0
  9
$LWDISPLAY
290
     0
  9
$INSUNITS
 70
     1
  9
$HYPERLINKBASE
  1

  9
$STYLESHEET
  1

  9
$XEDIT
290
     1
  9
$CEPSNTYPE
380
     0
  9
$PSTYLEMODE
290
     1
  9
$FINGERPRINTGUID
  2
{1B7DE421-5619-48BD-B391-0ABF79F09AE4}
  9
$VERSIONGUID
  2
{26DEAFC9-489E-4A3D-9685-174B6A67A4AF}
  9
$EXTNAMES
290
     1
  9
$PSVPSCALE
 40
0.0
  9
$OLESTARTUP
290
     0
  0
ENDSEC
  0
SECTION
  2
CLASSES
  0
CLASS
  1
ACDBDICTIONARYWDFLT
  2
AcDbDictionaryWithDefault
  3
ObjectDBX Classes
 90
        0
280
     0
281
     0
  0
CLASS
  1
ACDBPLACEHOLDER
  2
AcDbPlaceHolder
  3
ObjectDBX Classes
 90
        0
280
     0
281
     0
  0
CLASS
  1
LAYOUT
  2
AcDbLayout
  3
ObjectDBX Classes
 90
        0
280
     0
281
     0
  0
CLASS
  1
DICTIONARYVAR
  2
AcDbDictionaryVar
  3
ObjectDBX Classes
 90
        0
280
     0
281
     0
  0
CLASS
  1
TABLESTYLE
  2
AcDbTableStyle
  3
ObjectDBX Classes
 90
     4095
280
     0
281
     0
  0
CLASS
  1
SORTENTSTABLE
  2
AcDbSortentsTable
  3
ObjectDBX Classes
 90
        0
280
     0
281
     0
  0
CLASS
  1
DIMASSOC
  2
AcDbDimAssoc
  3
"AcDbDimAssoc|Product Desc:     AcDim ARX App For Dimension|Company:          Autodesk, Inc.|WEB Address:      www.autodesk.com"
 90
    32768
280
     0
281
     0
  0
CLASS
  1
MATERIAL
  2
AcDbMaterial
  3
ObjectDBX Classes
 90
     1024
280
     0
281
     0
  0
CLASS
  1
PLOTSETTINGS
  2
AcDbPlotSettings
  3
ObjectDBX Classes
 90
        0
280
     0
281
     0
  0
CLASS
  1
VISUALSTYLE
  2
AcDbVisualStyle
  3
ObjectDBX Classes
 90
     4095
280
     0
281
     0
  0
ENDSEC
  0
SECTION
  2
TABLES
  0
TABLE
  2
VPORT
  5
8
330
0
100
AcDbSymbolTable
 70
     1
  0
VPORT
  5
ED14
330
8
100
AcDbSymbolTableRecord
100
AcDbViewportTableRecord
  2
*Active
 70
     0
 10
0.0
 20
0.0
 11
1.0
 21
1.0
 12
236.5271152795434
 22
60.03055394174754
 13
0.0
 23
0.0
 14
0.5
 24
0.5
 15
0.5
 25
0.5
 16
0.0
 26
0.0
 36
1.0
 17
0.0
 27
0.0
 37
0.0
 40
121.0704387465849
 41
1.898716119828815
 42
50.0
 43
0.0
 44
0.0
 50
0.0
 51
0.0
 71
     0
 72
  1000
 73
     1
 74
     3
 75
     0
 76
     0
 77
     0
 78
     0
281
     0
 65
     1
110
0.0
120
0.0
130
0.0
111
1.0
121
0.0
131
0.0
112
0.0
122
1.0
132
0.0
 79
     0
146
0.0
  0
ENDTAB
  0
TABLE
  2
LTYPE
  5
5
330
0
100
AcDbSymbolTable
 70
    13
  0
LTYPE
  5
14
330
5
100
AcDbSymbolTableRecord
100
AcDbLinetypeTableRecord
  2
ByBlock
 70
     0
  3

 72
    65
 73
     0
 40
0.0
  0
LTYPE
  5
15
330
5
100
AcDbSymbolTableRecord
100
AcDbLinetypeTableRecord
  2
ByLayer
 70
     0
  3

 72
    65
 73
     0
 40
0.0
  0
LTYPE
  5
16
330
5
100
AcDbSymbolTableRecord
100
AcDbLinetypeTableRecord
  2
Continuous
 70
     0
  3
Solid line
 72
    65
 73
     0
 40
0.0
  0
LTYPE
  5
14F
330
5
100
AcDbSymbolTableRecord
100
AcDbLinetypeTableRecord
  2
DASHED
 70
     0
  3
-- -- -- -- -- -- -- -- -- --
 72
    65
 73
     2
 40
3.0
 49
2.0
 74
     0
 49
-1.0
 74
     0
  0
LTYPE
  5
150
330
5
100
AcDbSymbolTableRecord
100
AcDbLinetypeTableRecord
  2
\U+7834\U+7DDA
 70
     0
  3
- - - -
 72
    65
 73
     2
 40
1.25
 49
0.5
 74
     0
 49
-0.75
 74
     0
1001
AcadStringInfo
1000
MIFCodePage
1070
     1
  0
LTYPE
  5
151
330
5
100
AcDbSymbolTableRecord
100
AcDbLinetypeTableRecord
  2
\U+4E2D\U+5FC3\U+7DDA
 70
     0
  3
-.-.-
 72
    65
 73
     4
 40
5.0
 49
3.0
 74
     0
 49
-0.75
 74
     0
 49
0.5
 74
     0
 49
-0.75
 74
     0
1001
AcadStringInfo
1000
MIFCodePage
1070
     1
  0
LTYPE
  5
43A9
330
5
100
AcDbSymbolTableRecord
100
AcDbLinetypeTableRecord
  2
ACAD_ISO04W100
 70
     0
  3
ISO long-dash dot ____ . ____ . ____ . ____ . _
 72
    65
 73
     4
 40
30.5
 49
24.0
 74
     0
 49
-3.0
 74
     0
 49
0.5
 74
     0
 49
-3.0
 74
     0
  0
LTYPE
  5
43AA
330
5
100
AcDbSymbolTableRecord
100
AcDbLinetypeTableRecord
  2
CENTERX2
 70
     0
  3
Center (2x) ________  __  ________  __  _____
 72
    65
 73
     4
 40
4.0
 49
2.5
 74
     0
 49
-0.5
 74
     0
 49
0.5
 74
     0
 49
-0.5
 74
     0
  0
LTYPE
  5
43AB
330
5
100
AcDbSymbolTableRecord
100
AcDbLinetypeTableRecord
  2
ACAD_ISO03W100
 70
     0
  3
ISO dash space __    __    __    __    __    __
 72
    65
 73
     2
 40
30.0
 49
12.0
 74
     0
 49
-18.0
 74
     0
  0
LTYPE
  5
43AC
330
5
100
AcDbSymbolTableRecord
100
AcDbLinetypeTableRecord
  2
HIDDEN
 70
     0
  3
Hidden __ __ __ __ __ __ __ __ __ __ __ __ __ _
 72
    65
 73
     2
 40
9.524999999999998
 49
6.349999999999999
 74
     0
 49
-3.174999999999999
 74
     0
  0
LTYPE
  5
43AD
330
5
100
AcDbSymbolTableRecord
100
AcDbLinetypeTableRecord
  2
CENTER
 70
     0
  3
Center ____ _ ____ _ ____ _ ____ _ ____ _ ____
 72
    65
 73
     4
 40
50.8
 49
31.75
 74
     0
 49
-6.349999999999999
 74
     0
 49
6.349999999999999
 74
     0
 49
-6.349999999999999
 74
     0
  0
LTYPE
  5
43AE
330
5
100
AcDbSymbolTableRecord
100
AcDbLinetypeTableRecord
  2
AM_ISO08W050
 70
     0
  3
____ . ____ . ____ . ____ . ____ . ____ . ____
 72
    65
 73
     4
 40
18.0
 49
12.0
 74
     0
 49
-1.5
 74
     0
 49
3.0
 74
     0
 49
-1.5
 74
     0
  0
LTYPE
  5
43AF
330
5
100
AcDbSymbolTableRecord
100
AcDbLinetypeTableRecord
  2
CENTER2
 70
     0
  3
Center (.5x) ___ _ ___ _ ___ _ ___ _ ___ _ ___
 72
    65
 73
     4
 40
28.575
 49
19.05
 74
     0
 49
-3.174999999999998
 74
     0
 49
3.174999999999998
 74
     0
 49
-3.174999999999998
 74
     0
  0
LTYPE
  5
43B0
330
5
100
AcDbSymbolTableRecord
100
AcDbLinetypeTableRecord
  2
Amzigzag2
 70
     0
  3
/\/-/\/-/\/-/\/-/\/-/\/
 72
    65
 73
     2
 40
0.4401
 49
0.0001
 74
     4
 75
   136
340
43D2
 46
0.0016
 50
0.0
 44
0.0
 45
0.0
 49
-0.4400000000000003
 74
     0
  0
LTYPE
  5
741A
330
5
100
AcDbSymbolTableRecord
100
AcDbLinetypeTableRecord
  2
PHANTOM
 70
     0
  3
----- - - ----- - - ----- - -
 72
    65
 73
     6
 40
12.0
 49
7.0
 74
     0
 49
-1.0
 74
     0
 49
1.0
 74
     0
 49
-1.0
 74
     0
 49
1.0
 74
     0
 49
-1.0
 74
     0
  0
ENDTAB
  0
TABLE
  2
LAYER
  5
2
102
{ACAD_XDICTIONARY
360
97
102
}
330
0
100
AcDbSymbolTable
 70
    19
  0
LAYER
  5
10
330
2
100
AcDbSymbolTableRecord
100
AcDbLayerTableRecord
  2
0
 70
     0
 62
     7
  6
Continuous
370
    -3
390
F
  0
LAYER
  5
9F
330
2
100
AcDbSymbolTableRecord
100
AcDbLayerTableRecord
  2
Defpoints
 70
     0
 62
     7
  6
Continuous
290
     0
370
    -3
390
F
  0
LAYER
  5
152
330
2
100
AcDbSymbolTableRecord
100
AcDbLayerTableRecord
  2
product
 70
     0
 62
     7
  6
Continuous
370
    18
390
F
  0
LAYER
  5
153
330
2
100
AcDbSymbolTableRecord
100
AcDbLayerTableRecord
  2
dimensions
 70
     0
 62
     7
  6
Continuous
370
     9
390
F
1001
AcAecLayerStandard
1000

1000

  0
LAYER
  5
43B1
330
2
100
AcDbSymbolTableRecord
100
AcDbLayerTableRecord
  2
CENTER
 70
     0
 62
     6
  6
ACAD_ISO04W100
370
    -3
390
F
  0
LAYER
  5
43B4
330
2
100
AcDbSymbolTableRecord
100
AcDbLayerTableRecord
  2
\U+6807\U+6CE8
 70
     0
 62
     6
  6
Continuous
370
    -3
390
F
1001
AcadStringInfo
1000
MIFCodePage
1070
     5
  0
LAYER
  5
43B7
330
2
100
AcDbSymbolTableRecord
100
AcDbLayerTableRecord
  2
1710
 70
     0
 62
     7
  6
Continuous
370
    -3
390
F
  0
LAYER
  5
43BA
330
2
100
AcDbSymbolTableRecord
100
AcDbLayerTableRecord
  2
\U+4E0A\U+578B\U+7EBF
 70
     0
 62
     7
  6
Continuous
370
    -3
390
F
1001
AcadStringInfo
1000
MIFCodePage
1070
     5
  0
LAYER
  5
43BD
330
2
100
AcDbSymbolTableRecord
100
AcDbLayerTableRecord
  2
\U+56FE\U+5C421
 70
     0
 62
     7
  6
Continuous
370
    -3
390
F
1001
AcadStringInfo
1000
MIFCodePage
1070
     5
  0
LAYER
  5
43C0
330
2
100
AcDbSymbolTableRecord
100
AcDbLayerTableRecord
  2
\U+56FE\U+5C422
 70
     0
 62
   170
  6
CENTER
370
    -3
390
F
1001
AcadStringInfo
1000
MIFCodePage
1070
     5
  0
LAYER
  5
43C3
330
2
100
AcDbSymbolTableRecord
100
AcDbLayerTableRecord
  2
epron
 70
     0
 62
     7
  6
Continuous
370
    -3
390
F
  0
LAYER
  5
43C6
330
2
100
AcDbSymbolTableRecord
100
AcDbLayerTableRecord
  2
BANE_KANAGU
 70
     0
 62
     1
  6
Continuous
370
    -3
390
F
  0
LAYER
  5
43C9
330
2
100
AcDbSymbolTableRecord
100
AcDbLayerTableRecord
  2
AM_7
 70
     0
 62
     4
  6
AM_ISO08W050
370
    25
390
F
  0
LAYER
  5
43CC
330
2
100
AcDbSymbolTableRecord
100
AcDbLayerTableRecord
  2
AM_INV
 70
     0
 62
   253
  6
Continuous
370
     0
390
F
  0
LAYER
  5
43CF
330
2
100
AcDbSymbolTableRecord
100
AcDbLayerTableRecord
  2
\U+88D9\U+677F
 70
     0
 62
   255
  6
Continuous
370
    -3
390
F
1001
AcadStringInfo
1000
MIFCodePage
1070
     5
  0
LAYER
  5
D2E6
330
2
100
AcDbSymbolTableRecord
100
AcDbLayerTableRecord
  2
PIC01
 70
     0
 62
     7
  6
Continuous
370
    -3
390
F
  0
LAYER
  5
D2E7
330
2
100
AcDbSymbolTableRecord
100
AcDbLayerTableRecord
  2
DRAW1
 70
     0
 62
     7
  6
Continuous
370
    -3
390
F
  0
LAYER
  5
DC55
330
2
100
AcDbSymbolTableRecord
100
AcDbLayerTableRecord
  2
cen
 70
     0
 62
     1
  6
CENTER2
370
     9
390
F
  0
LAYER
  5
DC56
330
2
100
AcDbSymbolTableRecord
100
AcDbLayerTableRecord
  2
dim
 70
     0
 62
     3
  6
Continuous
370
     9
390
F
1001
AcAecLayerStandard
1000

1000

  0
ENDTAB
  0
TABLE
  2
STYLE
  5
3
330
0
100
AcDbSymbolTable
 70
     4
  0
STYLE
  5
11
330
3
100
AcDbSymbolTableRecord
100
AcDbTextStyleTableRecord
  2
Standard
 70
     0
 40
0.0
 41
1.0
 50
0.0
 71
     0
 42
0.875
  3
ARIAL.TTF
  4

1001
ACAD
1000
Arial
1071
       34
  0
STYLE
  5
43D2
330
3
100
AcDbSymbolTableRecord
100
AcDbTextStyleTableRecord
  2

 70
     1
 40
0.0
 41
1.0
 50
0.0
 71
     0
 42
6.0
  3
genltshp.shx
  4

  0
STYLE
  5
43D3
330
3
100
AcDbSymbolTableRecord
100
AcDbTextStyleTableRecord
  2
\U+6837\U+5F0F 5
 70
     0
 40
3.0
 41
1.0
 50
0.0
 71
     0
 42
3.0
  3
SimSun.ttf
  4

1001
ACAD
1000
SimSun
1071
    34306
1001
AcadStringInfo
1000
MIFCodePage
1070
     5
  0
STYLE
  5
DC57
330
3
100
AcDbSymbolTableRecord
100
AcDbTextStyleTableRecord
  2
chinese
 70
     0
 40
5.0
 41
1.0
 50
0.0
 71
     0
 42
5.0
  3
SimSun.ttf
  4

1001
ACAD
1000
SimSun
1071
    34306
  0
ENDTAB
  0
TABLE
  2
VIEW
  5
6
330
0
100
AcDbSymbolTable
 70
     0
  0
ENDTAB
  0
TABLE
  2
UCS
  5
7
330
0
100
AcDbSymbolTable
 70
     0
  0
ENDTAB
  0
TABLE
  2
APPID
  5
9
330
0
100
AcDbSymbolTable
 70
    18
  0
APPID
  5
12
330
9
100
AcDbSymbolTableRecord
100
AcDbRegAppTableRecord
  2
ACAD
 70
     0
  0
APPID
  5
8F
330
9
100
AcDbSymbolTableRecord
100
AcDbRegAppTableRecord
  2
ACAD_PSEXT
 70
     0
  0
APPID
  5
156
330
9
100
AcDbSymbolTableRecord
100
AcDbRegAppTableRecord
  2
ACAD_DSTYLE_DIMEXT_LENGTH
 70
     0
  0
APPID
  5
157
330
9
100
AcDbSymbolTableRecord
100
AcDbRegAppTableRecord
  2
ACAD_DSTYLE_DIMEXT_ENABLED
 70
     0
  0
APPID
  5
158
330
9
100
AcDbSymbolTableRecord
100
AcDbRegAppTableRecord
  2
ACAD_DSTYLE_DIMJOGGED_JOGANGLE_SYMBOL
 70
     0
  0
APPID
  5
159
330
9
100
AcDbSymbolTableRecord
100
AcDbRegAppTableRecord
  2
ACAD_DSTYLE_DIMARC_LENGTH_SYMBOL
 70
     0
  0
APPID
  5
15A
330
9
100
AcDbSymbolTableRecord
100
AcDbRegAppTableRecord
  2
AcAecLayerStandard
 70
     0
  0
APPID
  5
348
330
9
100
AcDbSymbolTableRecord
100
AcDbRegAppTableRecord
  2
ACAD_DIMASSOC_CALC_DIMLFAC
 70
     0
  0
APPID
  5
349
330
9
100
AcDbSymbolTableRecord
100
AcDbRegAppTableRecord
  2
ACAD_DIMASSOC_DIMLFAC
 70
     0
  0
APPID
  5
34A
330
9
100
AcDbSymbolTableRecord
100
AcDbRegAppTableRecord
  2
ACAD_DIMASSOC_OVERRIDDEN_DIMLFAC
 70
     0
  0
APPID
  5
370
330
9
100
AcDbSymbolTableRecord
100
AcDbRegAppTableRecord
  2
ACAD_DSTYLE_DIMTEXT_FILL
 70
     0
  0
APPID
  5
373
330
9
100
AcDbSymbolTableRecord
100
AcDbRegAppTableRecord
  2
ACAD_DSTYLE_DIM_LINETYPE
 70
     0
  0
APPID
  5
374
330
9
100
AcDbSymbolTableRecord
100
AcDbRegAppTableRecord
  2
ACAD_DSTYLE_DIM_EXT1_LINETYPE
 70
     0
  0
APPID
  5
375
330
9
100
AcDbSymbolTableRecord
100
AcDbRegAppTableRecord
  2
ACAD_DSTYLE_DIM_EXT2_LINETYPE
 70
     0
  0
APPID
  5
43D4
330
9
100
AcDbSymbolTableRecord
100
AcDbRegAppTableRecord
  2
AcadStringInfo
 70
     0
  0
APPID
  5
43D5
330
9
100
AcDbSymbolTableRecord
100
AcDbRegAppTableRecord
  2
GENIUS_GENBH_13
 70
     0
  0
APPID
  5
BA33
330
9
100
AcDbSymbolTableRecord
100
AcDbRegAppTableRecord
  2
DCO15
 70
     0
  0
APPID
  5
CA30
330
9
100
AcDbSymbolTableRecord
100
AcDbRegAppTableRecord
  2
ACAD_EXEMPT_FROM_CAD_STANDARDS
 70
     0
  0
ENDTAB
  0
TABLE
  2
DIMSTYLE
  5
A
330
0
100
AcDbSymbolTable
 70
     3
100
AcDbDimStyleTable
 71
     3
340
C09A
340
BF09
340
27
  0
DIMSTYLE
105
27
330
A
100
AcDbSymbolTableRecord
100
AcDbDimStyleTableRecord
  2
Standard
 70
     0
  3
"
  4
mm
 44
0.0625
171
     0
177
   256
274
     0
276
     2
277
     5
340
11
371
    -1
372
    -1
1001
ACAD_DSTYLE_DIMJOGGED_JOGANGLE_SYMBOL
1070
   384
1040
0.7853981633974483
1001
ACAD_DSTYLE_DIMEXT_LENGTH
1070
   378
1040
0.18
1001
ACAD_DSTYLE_DIM_LINETYPE
1070
   380
1005
15
1001
ACAD_DSTYLE_DIM_EXT1_LINETYPE
1070
   381
1005
15
1001
ACAD_DSTYLE_DIM_EXT2_LINETYPE
1070
   382
1005
15
  0
DIMSTYLE
105
BF09
330
A
100
AcDbSymbolTableRecord
100
AcDbDimStyleTableRecord
  2
spec dim1
 70
     0
  3
"
  4
mm
 41
0.875
 44
0.0625
140
0.875
170
     1
171
     0
177
   256
274
     0
276
     2
277
     5
340
11
371
    -1
372
    -1
1001
ACAD_DSTYLE_DIMJOGGED_JOGANGLE_SYMBOL
1070
   384
1040
0.7853981633974483
1001
ACAD_DSTYLE_DIMEXT_LENGTH
1070
   378
1040
0.18
1001
ACAD_DSTYLE_DIM_LINETYPE
1070
   380
1005
15
1001
ACAD_DSTYLE_DIM_EXT1_LINETYPE
1070
   381
1005
15
1001
ACAD_DSTYLE_DIM_EXT2_LINETYPE
1070
   382
1005
15
  0
DIMSTYLE
105
C09A
330
A
100
AcDbSymbolTableRecord
100
AcDbDimStyleTableRecord
  2
spec dim2
 70
     0
  3
"
  4
mm
 41
1.8
 44
0.0625
140
1.8
170
     1
171
     0
177
   256
274
     0
276
     2
277
     5
340
11
371
    -1
372
    -1
1001
ACAD_DSTYLE_DIMJOGGED_JOGANGLE_SYMBOL
1070
   384
1040
0.7853981633974483
1001
ACAD_DSTYLE_DIMEXT_LENGTH
1070
   378
1040
0.18
1001
ACAD_DSTYLE_DIM_LINETYPE
1070
   380
1005
15
1001
ACAD_DSTYLE_DIM_EXT1_LINETYPE
1070
   381
1005
15
1001
ACAD_DSTYLE_DIM_EXT2_LINETYPE
1070
   382
1005
15
  0
ENDTAB
  0
TABLE
  2
BLOCK_RECORD
  5
1
330
0
100
AcDbSymbolTable
 70
    16
  0
BLOCK_RECORD
  5
1F
102
{ACAD_XDICTIONARY
360
C9C7
102
}
330
1
100
AcDbSymbolTableRecord
100
AcDbBlockTableRecord
  2
*Model_Space
340
22
  0
BLOCK_RECORD
  5
73E5
102
{ACAD_XDICTIONARY
360
ECA4
102
}
330
1
100
AcDbSymbolTableRecord
100
AcDbBlockTableRecord
  2
*Paper_Space
340
73E6
  0
BLOCK_RECORD
  5
B2
102
{ACAD_XDICTIONARY
360
B3
102
}
330
1
100
AcDbSymbolTableRecord
100
AcDbBlockTableRecord
  2
A$C75E7028D
340
0
  0
BLOCK_RECORD
  5
4311
102
{ACAD_XDICTIONARY
360
4312
102
}
330
1
100
AcDbSymbolTableRecord
100
AcDbBlockTableRecord
  2
A$C36E445EB
340
0
  0
BLOCK_RECORD
  5
E09F
102
{ACAD_XDICTIONARY
360
E0CC
102
}
330
1
100
AcDbSymbolTableRecord
100
AcDbBlockTableRecord
  2
A$C65A8616D
340
0
1001
ACAD
1000
DesignCenter Data
1002
{
1070
     1
1070
     1
1002
}
  0
ENDTAB
  0
ENDSEC
  0
SECTION
  2
BLOCKS
  0
BLOCK
  5
20
330
1F
100
AcDbEntity
  8
0
100
AcDbBlockBegin
  2
*Model_Space
 70
     0
 10
0.0
 20
0.0
 30
0.0
  3
*Model_Space
  1

  0
ENDBLK
  5
21
330
1F
100
AcDbEntity
  8
0
100
AcDbBlockEnd
  0
BLOCK
  5
73E7
330
73E5
100
AcDbEntity
 67
     1
  8
0
100
AcDbBlockBegin
  2
*Paper_Space
 70
     0
 10
0.0
 20
0.0
 30
0.0
  3
*Paper_Space
  1

  0
ENDBLK
  5
73E8
330
73E5
100
AcDbEntity
 67
     1
  8
0
100
AcDbBlockEnd
  0
BLOCK
  5
B5
330
B2
100
AcDbEntity
  8
0
100
AcDbBlockBegin
  2
A$C75E7028D
 70
     0
 10
0.0
 20
0.0
 30
0.0
  3
A$C75E7028D
  1

  0
LINE
  5
B6
330
B2
100
AcDbEntity
  8
0
  6
DASHED
 62
     4
 48
2.0
100
AcDbLine
 10
-7.99999999999747
 20
20.00000000000114
 30
0.0
 11
8.000000000002543
 21
19.99999999999898
 31
0.0
  0
LINE
  5
B7
330
B2
100
AcDbEntity
  8
0
  6
DASHED
 62
     4
 48
2.0
100
AcDbLine
 10
10.00000000000227
 20
17.99999999999875
 30
0.0
 11
9.999999999997228
 21
-18.00000000000136
 31
0.0
  0
ARC
  5
B8
330
B2
100
AcDbEntity
  8
0
  6
DASHED
 62
     4
 48
2.0
100
AcDbCircle
 10
8.000000000002273
 20
17.99999999999897
 30
0.0
 40
2.0
100
AcDbArc
 50
359.9999999999935
 51
89.99999999999266
  0
LINE
  5
B9
330
B2
100
AcDbEntity
  8
0
  6
DASHED
 62
     4
 48
2.0
100
AcDbLine
 10
-8.000000000002728
 20
-19.99999999999875
 30
0.0
 11
7.99999999999693
 21
-20.00000000000114
 31
0.0
  0
ARC
  5
BA
330
B2
100
AcDbEntity
  8
0
  6
DASHED
 62
     4
 48
2.0
100
AcDbCircle
 10
-8.000000000002444
 20
-17.99999999999875
 30
0.0
 40
2.0
100
AcDbArc
 50
179.9999999999935
 51
269.9999999999919
  0
ARC
  5
BB
330
B2
100
AcDbEntity
  8
0
  6
DASHED
 62
     4
 48
2.0
100
AcDbCircle
 10
7.999999999997228
 20
-18.00000000000114
 30
0.0
 40
2.0
100
AcDbArc
 50
269.9999999999919
 51
359.9999999999935
  0
LINE
  5
BC
330
B2
100
AcDbEntity
  8
0
  6
DASHED
 62
     4
 48
2.0
100
AcDbLine
 10
-9.999999999997726
 20
18.00000000000136
 30
0.0
 11
-10.00000000000244
 21
-17.99999999999852
 31
0.0
  0
ARC
  5
BD
330
B2
100
AcDbEntity
  8
0
  6
DASHED
 62
     4
 48
2.0
100
AcDbCircle
 10
-7.999999999997726
 20
18.00000000000114
 30
0.0
 40
2.0
100
AcDbArc
 50
89.99999999999266
 51
179.9999999999935
  0
LINE
  5
BE
330
B2
100
AcDbEntity
  8
0
  6
\U+4E2D\U+5FC3\U+7DDA
 62
     4
 48
0.5
100
AcDbLine
 10
-8.389327847191253
 20
0.0000000000011369
 30
0.0
 11
8.389327847191168
 21
-0.0000000000010232
 31
0.0
  0
LINE
  5
BF
330
B2
100
AcDbEntity
  8
0
  6
\U+4E2D\U+5FC3\U+7DDA
 62
     4
 48
0.5
100
AcDbLine
 10
0.0000000000013074
 20
9.671579624598507
 30
0.0
 11
-0.0000000000013074
 21
-9.671579624598507
 31
0.0
  0
CIRCLE
  5
C0
330
B2
100
AcDbEntity
  8
0
  6
DASHED
 62
     4
 48
2.0
100
AcDbCircle
 10
0.0
 20
0.0
 30
0.0
 40
5.0
  0
POINT
  5
C1
330
B2
100
AcDbEntity
  8
Defpoints
  6
ByBlock
 62
     4
 48
2.0
100
AcDbPoint
 10
9.999999999996958
 20
-20.00000000000148
 30
0.0
 50
269.9999999999922
  0
POINT
  5
C2
330
B2
100
AcDbEntity
  8
0
  6
DASHED
 62
     4
 48
5.0
100
AcDbPoint
 10
-10.00000000000271
 20
-19.99999999999852
 30
0.0
 50
269.9999999999922
  0
POINT
  5
C3
330
B2
100
AcDbEntity
  8
0
  6
DASHED
 62
     4
 48
5.0
100
AcDbPoint
 10
10.00000000000254
 20
19.99999999999875
 30
0.0
 50
269.9999999999922
  0
CIRCLE
  5
C4
330
B2
100
AcDbEntity
  8
0
  6
DASHED
 62
     4
 48
2.0
100
AcDbCircle
 10
0.0
 20
0.0
 30
0.0
 40
4.0
  0
ENDBLK
  5
C5
330
B2
100
AcDbEntity
  8
0
100
AcDbBlockEnd
  0
BLOCK
  5
4314
330
4311
100
AcDbEntity
  8
0
 62
     2
370
    -3
100
AcDbBlockBegin
  2
A$C36E445EB
 70
     0
 10
0.0
 20
0.0
 30
0.0
  3
A$C36E445EB
  1

  0
LINE
  5
4315
102
{ACAD_REACTORS
330
4322
102
}
330
4311
100
AcDbEntity
  8
0
  6
ByBlock
100
AcDbLine
 10
14.61553282762179
 20
27.73352210156736
 30
0.0
 11
20.23930918623228
 21
3.374270481937855
 31
0.0
  0
LINE
  5
4316
102
{ACAD_REACTORS
330
4322
102
}
330
4311
100
AcDbEntity
  8
0
  6
ByBlock
100
AcDbLine
 10
13.64116276285495
 20
27.50857104722673
 30
0.0
 11
19.26493912143633
 21
3.149319427593582
 31
0.0
  0
LINE
  5
4317
330
4311
100
AcDbEntity
  8
0
  6
ByBlock
100
AcDbLine
 10
-0.000018144142814
 20
24.35925628641053
 30
0.0
 11
5.623758214438566
 21
0.0000046667810238
 31
0.0
  0
LINE
  5
4318
330
4311
100
AcDbEntity
  8
0
  6
ByBlock
100
AcDbLine
 10
20.23930918623228
 20
3.374270481937855
 30
0.0
 11
5.623758214438566
 21
0.0000046667810238
 31
0.0
  0
LINE
  5
4319
330
4311
100
AcDbEntity
  8
epron
  6
CENTER2
 62
     1
100
AcDbLine
 10
7.890199119574388
 20
13.35205512625907
 30
0.0
 11
1.878025298181455
 21
11.96403543138149
 31
0.0
  0
LINE
  5
431A
330
4311
100
AcDbEntity
  8
\U+56FE\U+5C422
 48
0.2
100
AcDbLine
 10
4.416196884296367
 20
16.65523494540321
 30
0.0
 11
3.44182681950042
 21
16.43028389106257
 31
0.0
  0
LINE
  5
431B
330
4311
100
AcDbEntity
  8
\U+56FE\U+5C422
 48
0.2
100
AcDbLine
 10
6.215805319050557
 20
8.860274427122931
 30
0.0
 11
5.241435254254611
 21
8.635323372782295
 31
0.0
  0
LINE
  5
431C
330
4311
100
AcDbEntity
  8
epron
  6
CENTER2
 62
     1
100
AcDbLine
 10
22.73837887422997
 20
13.18796315044165
 30
0.0
 11
13.64256524736993
 21
11.08802911159
 31
0.0
  0
LINE
  5
431D
102
{ACAD_REACTORS
330
4322
102
}
330
4311
100
AcDbEntity
  8
0
  6
ByBlock
100
AcDbLine
 10
17.31494547973852
 20
16.0410813241433
 30
0.0
 11
16.34057541500078
 21
15.81613026980267
 31
0.0
  0
LINE
  5
431E
102
{ACAD_REACTORS
330
4322
102
}
330
4311
100
AcDbEntity
  8
0
  6
ByBlock
100
AcDbLine
 10
14.61553282762179
 20
27.73352210156736
 30
0.0
 11
-0.000018144142814
 21
24.35925628641053
 31
0.0
  0
LINE
  5
431F
330
4311
100
AcDbEntity
  8
0
  6
ByBlock
100
AcDbLine
 10
1.529742857557719
 20
24.71242944173355
 30
0.0
 11
7.153519216197308
 21
0.353177822104044
 31
0.0
  0
LINE
  5
4320
330
4311
100
AcDbEntity
  8
0
  6
ByBlock
100
AcDbLine
 10
2.504112922382772
 20
24.93738049608146
 30
0.0
 11
8.127889280964152
 21
0.57812887644468
 31
0.0
  0
LINE
  5
4321
330
4311
100
AcDbEntity
  8
\U+6807\U+6CE8
  6
ByBlock
100
AcDbLine
 10
4.341631036892066
 20
12.53280363192607
 30
0.0
 11
4.341631036892066
 21
12.53280363192607
 31
0.0
  0
HATCH
  5
4322
330
4311
100
AcDbEntity
  8
\U+6807\U+6CE8
  6
ByBlock
100
AcDbHatch
 10
0.0
 20
0.0
 30
0.0
210
0.0
220
0.0
230
1.0
  2
ANSI31
 70
     0
 71
     1
 91
        1
 92
        7
 72
     0
 73
     1
 93
        4
 10
14.61553282762179
 20
27.73352210156736
 10
13.64116276285475
 20
27.50857104722755
 10
16.34057541497539
 20
15.8161302697968
 10
17.31494547975441
 20
16.04108132414697
 97
        4
330
431E
330
4315
330
431D
330
4316
 75
     0
 76
     1
 52
5.0
 41
0.5
 77
     0
 78
     1
 53
140.0
 43
52567.55519395428
 44
3843.430503517029
 45
1.020425330377379
 46
1.216095553451377
 79
     0
 47
0.0924411634878856
 98
        1
 10
15.12777253420791
 20
23.40409978697426
  0
ENDBLK
  5
4323
330
4311
100
AcDbEntity
  8
0
 62
     2
370
    -3
100
AcDbBlockEnd
  0
BLOCK
  5
E0CE
330
E09F
100
AcDbEntity
  8
0
100
AcDbBlockBegin
  2
A$C65A8616D
 70
     0
 10
0.0
 20
0.0
 30
0.0
  3
A$C65A8616D
  1

  0
LINE
  5
E0A0
330
E09F
100
AcDbEntity
  8
0
  6
HIDDEN
 48
0.05
100
AcDbLine
 10
-0.000001614552616
 20
5.453464917241717
 30
0.0
 11
-0.000001614552616
 21
4.784086517241718
 31
0.0
  0
LINE
  5
E0A1
330
E09F
100
AcDbEntity
  8
0
  6
HIDDEN
 48
5.0
100
AcDbLine
 10
0.3543751854473953
 20
4.60689811724174
 30
0.0
 11
0.3543751854473953
 21
4.554220716545657
 31
0.0
  0
LINE
  5
E0A2
330
E09F
100
AcDbEntity
  8
0
  6
HIDDEN
 48
5.0
100
AcDbLine
 10
0.6693767854473834
 20
0.3937517172417415
 30
0.0
 11
0.6693767854473834
 21
0.5315649172417239
 31
0.0
  0
LINE
  5
E0A3
330
E09F
100
AcDbEntity
  8
0
  6
HIDDEN
 48
0.1
100
AcDbLine
 10
0.6693767854473834
 20
0.5315649172417239
 30
0.0
 11
0.6693767854473834
 21
4.095020517241721
 31
0.0
  0
LINE
  5
E0A4
330
E09F
100
AcDbEntity
  8
0
  6
HIDDEN
 48
5.0
100
AcDbLine
 10
0.6700120346210383
 20
-0.0000002827582648
 30
0.0
 11
0.6700120346210383
 21
0.2759774676933375
 31
0.0
  0
LINE
  5
E0A5
330
E09F
100
AcDbEntity
  8
0
  6
HIDDEN
 48
5.0
100
AcDbLine
 10
3.543766385447383
 20
3.446524003865675
 30
0.0
 11
3.543766385447383
 21
3.933463402357574
 31
0.0
  0
LINE
  5
E0A6
330
E09F
100
AcDbEntity
  8
0
  6
HIDDEN
 48
0.01
100
AcDbLine
 10
3.750957257291247
 20
4.255488404071456
 30
0.0
 11
3.576926149725835
 21
4.095020517241721
 31
0.0
  0
LINE
  5
E0A7
330
E09F
100
AcDbEntity
  8
0
  6
HIDDEN
 48
5.0
100
AcDbLine
 10
3.8587679854474
 20
4.60689811724174
 30
0.0
 11
3.8587679854474
 21
4.501543315849573
 31
0.0
  0
LINE
  5
E0A8
330
E09F
100
AcDbEntity
  8
0
  6
HIDDEN
 48
0.05
100
AcDbLine
 10
4.213144785447383
 20
5.453464917241717
 30
0.0
 11
4.213144785447383
 21
4.784086517241718
 31
0.0
  0
LINE
  5
E0A9
330
E09F
100
AcDbEntity
  8
0
  6
HIDDEN
 48
5.0
100
AcDbLine
 10
0.5287622089622346
 20
4.19398883911208
 30
0.0
 11
0.604249407939733
 21
4.124584748653433
 31
0.0
  0
LINE
  5
E0AA
330
E09F
100
AcDbEntity
  8
0
  6
HIDDEN
 48
5.0
100
AcDbLine
 10
3.643508736225157
 20
3.273976315373147
 30
0.0
 11
3.86049105300367
 21
2.897984229635682
 31
0.0
  0
LINE
  5
E0AB
330
E09F
100
AcDbEntity
  8
0
  6
HIDDEN
 48
0.1
100
AcDbLine
 10
0.6700120346210383
 20
-0.0000002827582648
 30
0.0
 11
4.845218546023261
 21
-0.0000002827582648
 31
0.0
  0
LINE
  5
E0AC
330
E09F
100
AcDbEntity
  8
0
  6
HIDDEN
 48
0.1
100
AcDbLine
 10
5.729089985447387
 20
0.3583140372417404
 30
0.0
 11
5.729089985447387
 21
2.996452437241742
 31
0.0
  0
LINE
  5
E0AD
330
E09F
100
AcDbEntity
  8
0
  6
HIDDEN
 48
0.1
100
AcDbLine
 10
3.860438731899421
 20
2.898014437241727
 30
0.0
 11
5.70940238544739
 21
2.898014437241727
 31
0.0
  0
LINE
  5
E0AE
330
E09F
100
AcDbEntity
  8
0
  6
HIDDEN
 48
0.1
100
AcDbLine
 10
3.576926149725835
 20
4.095020517241721
 30
0.0
 11
0.6362170211689318
 21
4.095020517241721
 31
0.0
  0
LINE
  5
E0AF
330
E09F
100
AcDbEntity
  8
0
  6
HIDDEN
 48
0.1
100
AcDbLine
 10
0.137903948869905
 20
4.646273317241735
 30
0.0
 11
2.087501338994258
 21
4.646273317241735
 31
0.0
  0
LINE
  5
E0B0
330
E09F
100
AcDbEntity
  8
0
  6
HIDDEN
 48
0.1
100
AcDbLine
 10
2.125641831900509
 20
4.646273317241735
 30
0.0
 11
4.07523922202489
 21
4.646273317241735
 31
0.0
  0
LINE
  5
E0B1
330
E09F
100
AcDbEntity
  8
0
  6
HIDDEN
 48
0.1
100
AcDbLine
 10
-0.000001614552616
 20
4.784086517241718
 30
0.0
 11
4.213144785447383
 21
4.784086517241718
 31
0.0
  0
LINE
  5
E0B2
330
E09F
100
AcDbEntity
  8
0
  6
HIDDEN
 48
0.1
100
AcDbLine
 10
4.213144785447383
 20
5.453464917241717
 30
0.0
 11
-0.000001614552616
 21
5.453464917241717
 31
0.0
  0
ARC
  5
E0B3
330
E09F
100
AcDbEntity
  8
0
  6
HIDDEN
 48
0.012
100
AcDbCircle
 10
3.524078785447386
 20
4.501543315849573
 30
0.0
 40
0.3346891999999999
100
AcDbArc
 50
312.6780503247031
 51
0.0
  0
ARC
  5
E0B4
330
E09F
100
AcDbEntity
  8
0
  6
HIDDEN
 48
0.02
100
AcDbCircle
 10
0.6890643854473808
 20
4.501543315849573
 30
0.0
 40
0.3346891999999999
100
AcDbArc
 50
180.0
 51
227.3219496752968
  0
ARC
  5
E0B5
330
E09F
100
AcDbEntity
  8
0
  6
HIDDEN
 48
5.0
100
AcDbCircle
 10
4.075331585447401
 20
4.784086517241718
 30
0.0
 40
0.1378132
100
AcDbArc
 50
272.8659839826158
 51
0.0
  0
ARC
  5
E0B6
330
E09F
100
AcDbEntity
  8
0
  6
HIDDEN
 48
5.0
100
AcDbCircle
 10
0.1378115854473947
 20
4.784086517241718
 30
0.0
 40
0.1378132
100
AcDbArc
 50
180.0
 51
267.1340160179027
  0
ARC
  5
E0B7
330
E09F
100
AcDbEntity
  8
0
  6
HIDDEN
 48
5.0
100
AcDbCircle
 10
3.898143185447395
 20
4.60689811724174
 30
0.0
 40
0.0393752
100
AcDbArc
 50
90.00000000078653
 51
180.0
  0
ARC
  5
E0B8
330
E09F
100
AcDbEntity
  8
0
  6
HIDDEN
 48
5.0
100
AcDbCircle
 10
0.3149999854474004
 20
4.60689811724174
 30
0.0
 40
0.0393752
100
AcDbArc
 50
0.0
 51
89.99999999971015
  0
ARC
  5
E0B9
330
E09F
100
AcDbEntity
  8
0
  6
HIDDEN
 48
5.0
100
AcDbCircle
 10
5.70940238544739
 20
2.917702037241724
 30
0.0
 40
0.0196876
100
AcDbArc
 50
270.0
 51
359.9999329635982
  0
SPLINE
  5
E0BA
330
E09F
100
AcDbEntity
  8
0
  6
HIDDEN
 48
5.0
100
AcDbSpline
210
0.0
220
0.0
230
1.0
 70
     8
 71
     3
 72
     8
 73
     4
 74
     2
 42
0.0000000001
 43
0.0000000001
 44
0.0000000001
 12
0.9987861346674025
 22
-0.049257052247872
 32
0.0
 13
0.9993260616881732
 23
-0.0367072531089599
 33
0.0
 40
0.0
 40
0.0
 40
0.0
 40
0.0
 40
0.0017871805275449
 40
0.0017871805275449
 40
0.0017871805275449
 40
0.0017871805275449
 10
0.1309209254473842
 20
4.646445691543164
 30
0.0
 10
0.1315159291577373
 20
4.646416347794956
 30
0.0
 10
0.1321111287445525
 20
4.646390736811202
 30
0.0
 10
0.1327064541039249
 20
4.64636886931521
 30
0.0
 11
0.1309209254473842
 21
4.646445691543164
 31
0.0
 11
0.1327064541039249
 21
4.64636886931521
 31
0.0
  0
SPLINE
  5
E0BB
330
E09F
100
AcDbEntity
  8
0
  6
HIDDEN
 48
5.0
100
AcDbSpline
210
0.0
220
0.0
230
1.0
 70
     8
 71
     3
 72
     8
 73
     4
 74
     2
 42
0.0000000001
 43
0.0000000001
 44
0.0000000001
 12
0.9993260616645207
 22
-0.0367072537528818
 32
0.0
 13
1.0
 23
0.0
 33
0.0
 40
0.0
 40
0.0
 40
0.0
 40
0.0
 40
0.0051983730186603
 40
0.0051983730186603
 40
0.0051983730186603
 40
0.0051983730186603
 10
0.1327064541039249
 20
4.64636886931521
 30
0.0
 10
0.1344380773158585
 20
4.646305263316044
 30
0.0
 10
0.1361711578636848
 20
4.646273317241735
 30
0.0
 10
0.137903948869905
 20
4.646273317241735
 30
0.0
 11
0.1327064541039249
 21
4.64636886931521
 31
0.0
 11
0.137903948869905
 21
4.646273317241735
 31
0.0
  0
SPLINE
  5
E0BC
330
E09F
100
AcDbEntity
  8
0
  6
HIDDEN
 48
5.0
100
AcDbSpline
210
0.0
220
0.0
230
1.0
 70
     8
 71
     3
 72
     8
 73
     4
 74
     2
 42
0.0000000001
 43
0.0000000001
 44
0.0000000001
 12
1.0
 22
0.0
 32
0.0
 13
0.9993260614937343
 23
0.0367072584024112
 33
0.0
 40
0.0
 40
0.0
 40
0.0
 40
0.0
 40
0.0051983730183136
 40
0.0051983730183136
 40
0.0051983730183136
 40
0.0051983730183136
 10
4.07523922202489
 20
4.646273317241735
 30
0.0
 10
4.076972013030995
 20
4.646273317241735
 30
0.0
 10
4.078705093579292
 20
4.646305263292218
 30
0.0
 10
4.080436716790813
 20
4.646368869299436
 30
0.0
 11
4.07523922202489
 21
4.646273317241735
 31
0.0
 11
4.080436716790813
 21
4.646368869299436
 31
0.0
  0
SPLINE
  5
E0BD
330
E09F
100
AcDbEntity
  8
0
  6
HIDDEN
 48
5.0
100
AcDbSpline
210
0.0
220
0.0
230
1.0
 70
     8
 71
     3
 72
     8
 73
     4
 74
     2
 42
0.0000000001
 43
0.0000000001
 44
0.0000000001
 12
0.9993260613899906
 22
0.0367072612267481
 32
0.0
 13
0.9987861343270811
 23
0.0492570591485717
 33
0.0
 40
0.0
 40
0.0
 40
0.0
 40
0.0
 40
0.0017871805282514
 40
0.0017871805282514
 40
0.0017871805282514
 40
0.0017871805282514
 10
4.080436716790813
 20
4.646368869299436
 30
0.0
 10
4.081032042150243
 20
4.646390736800273
 30
0.0
 10
4.081627241736997
 20
4.646416347790834
 30
0.0
 10
4.082222245447383
 20
4.646445691543164
 30
0.0
 11
4.080436716790813
 21
4.646368869299436
 31
0.0
 11
4.082222245447383
 21
4.646445691543164
 31
0.0
  0
SPLINE
  5
E0BE
330
E09F
100
AcDbEntity
  8
0
  6
HIDDEN
 48
5.0
100
AcDbSpline
210
0.0
220
0.0
230
1.0
 70
     8
 71
     3
 72
     9
 73
     5
 74
     3
 42
0.0000000001
 43
0.0000000001
 44
0.0000000001
 12
1.0
 22
0.0
 32
0.0
 13
0.9999999947377062
 23
-0.000102589411603
 33
0.0
 40
0.0
 40
0.0
 40
0.0
 40
0.0
 40
0.0088906319947047
 40
0.0191374057262517
 40
0.0191374057262517
 40
0.0191374057262517
 40
0.0191374057262517
 10
2.087501338994258
 20
4.646273317241735
 30
0.0
 10
2.090464882992492
 20
4.646273317241735
 30
0.0
 10
2.096843351905696
 20
4.646388642762836
 30
0.0
 10
2.103222354899811
 20
4.646446038269004
 30
0.0
 10
2.106637946125687
 20
4.646445687865508
 30
0.0
 11
2.087501338994258
 21
4.646273317241735
 31
0.0
 11
2.096391467145735
 21
4.646367967733368
 31
0.0
 11
2.106637946125687
 21
4.646445687865508
 31
0.0
  0
SPLINE
  5
E0BF
330
E09F
100
AcDbEntity
  8
0
  6
HIDDEN
 48
5.0
100
AcDbSpline
210
0.0
220
0.0
230
1.0
 70
     8
 71
     3
 72
     9
 73
     5
 74
     3
 42
0.0000000001
 43
0.0000000001
 44
0.0000000001
 12
0.9999999947377101
 22
-0.0001025893748282
 32
0.0
 13
1.0
 23
0.0
 33
0.0
 40
0.0
 40
0.0
 40
0.0
 40
0.0
 40
0.0101164325851825
 40
0.0190046882075207
 40
0.0190046882075207
 40
0.0190046882075207
 40
0.0190046882075207
 10
2.106637946125687
 20
4.646445687865508
 30
0.0
 10
2.110010090303002
 20
4.646445341919343
 30
0.0
 10
2.116344842958769
 20
4.646387777963887
 30
0.0
 10
2.122679080026396
 20
4.646273317241735
 30
0.0
 10
2.125641831900509
 20
4.646273317241735
 30
0.0
 11
2.106637946125687
 21
4.646445687865508
 31
0.0
 11
2.116754079916347
 21
4.646367935823718
 31
0.0
 11
2.125641831900509
 21
4.646273317241735
 31
0.0
  0
LINE
  5
E0C0
330
E09F
100
AcDbEntity
  8
0
  6
HIDDEN
 48
0.1
100
AcDbLine
 10
12.96031566429224
 20
-0.0000002827582648
 30
0.0
 11
10.40846151646559
 21
-0.0000002827582648
 31
0.0
  0
LINE
  5
E0C1
330
E09F
100
AcDbEntity
  8
0
  6
HIDDEN
 48
0.1
100
AcDbLine
 10
6.792220385447393
 20
0.3583140372417404
 30
0.0
 11
4.845218546023261
 21
0.3583140372417404
 31
0.0
  0
LINE
  5
E0C2
330
E09F
100
AcDbEntity
  8
0
  6
HIDDEN
 48
0.1
100
AcDbLine
 10
6.792220385447393
 20
2.993858175201978
 30
0.0
 11
6.792220385447393
 21
0.3583140372417404
 31
0.0
  0
LINE
  5
E0C3
330
E09F
100
AcDbEntity
  8
0
  6
HIDDEN
 48
5.0
100
AcDbLine
 10
6.792220385447393
 20
2.993858175201978
 30
0.0
 11
6.772532785447396
 21
2.993858175201978
 31
0.0
  0
LINE
  5
E0C4
330
E09F
100
AcDbEntity
  8
0
  6
HIDDEN
 48
0.05
100
AcDbLine
 10
6.68984953327498
 20
2.996452437241742
 30
0.0
 11
5.729089985447387
 21
2.996452437241742
 31
0.0
  0
ARC
  5
E0C5
330
E09F
100
AcDbEntity
  8
0
  6
HIDDEN
 48
0.1
100
AcDbCircle
 10
8.801754760926172
 20
-0.6668461783533175
 30
0.0
 40
1.739594793843663
100
AcDbArc
 50
22.54035413398736
 51
126.6712020713367
  0
ARC
  5
E0C6
330
E09F
100
AcDbEntity
  8
0
  6
HIDDEN
 48
0.1
100
AcDbCircle
 10
6.883373748159982
 20
2.270587539128065
 30
0.0
 40
1.775291549979337
100
AcDbArc
 50
267.0568211590594
 51
299.6952813160647
  0
SPLINE
  5
E0C7
330
E09F
100
AcDbEntity
  8
0
  6
HIDDEN
 48
0.1
100
AcDbSpline
210
0.0
220
0.0
230
1.0
 70
     8
 71
     3
 72
    38
 73
    34
 74
     0
 42
0.0000000001
 43
0.0000000001
 40
0.0093689485947718
 40
0.0093689485947718
 40
0.0093689485947718
 40
0.0093689485947718
 40
0.3973794685434135
 40
0.5082228716513196
 40
0.6092119940507872
 40
0.7047588418300234
 40
0.798701275607903
 40
0.8927560111377362
 40
0.9864726373749576
 40
1.07941095490823
 40
1.172175814988148
 40
1.267206687493155
 40
1.368975344423821
 40
1.482019654267598
 40
1.609619025793599
 40
1.751488481534916
 40
1.906025867515333
 40
2.073610057072957
 40
2.258818443134986
 40
2.465356596199717
 40
2.684886769740489
 40
2.90324810276256
 40
3.117490124184316
 40
3.331170247824092
 40
3.552158913391858
 40
3.789518004037376
 40
4.05215714472236
 40
4.350484782965096
 40
4.694716222643293
 40
5.092557476188858
 40
5.528183156544126
 40
5.972338560899153
 40
7.920123254719101
 40
7.920123254719101
 40
7.920123254719101
 40
7.920123254719101
 10
6.792220385445517
 20
2.821528038309502
 30
0.0
 10
6.910286995635431
 20
2.874324117145299
 30
0.0
 10
7.058334124865609
 20
2.950399083298492
 30
0.0
 10
7.241571116340935
 20
3.030460999592399
 30
0.0
 10
7.335142680219007
 20
3.072199019596361
 30
0.0
 10
7.423656092526812
 20
3.111451106028241
 30
0.0
 10
7.510069869861979
 20
3.149736644869747
 30
0.0
 10
7.595791054446181
 20
3.18807194164033
 30
0.0
 10
7.681471413505192
 20
3.225699954554087
 30
0.0
 10
7.768040935522122
 20
3.260118018093727
 30
0.0
 10
7.856077586808652
 20
3.291885513080714
 30
0.0
 10
7.947910016790331
 20
3.321663331353818
 30
0.0
 10
8.047223101470876
 20
3.350096469403879
 30
0.0
 10
8.158081272122871
 20
3.377383173401227
 30
0.0
 10
8.283109271523045
 20
3.402610335179559
 30
0.0
 10
8.422875605607657
 20
3.423987335131293
 30
0.0
 10
8.576833930077867
 20
3.439539247483047
 30
0.0
 10
8.74589568383979
 20
3.446653201138047
 30
0.0
 10
8.932396437960534
 20
3.443870321032605
 30
0.0
 10
9.135859508052362
 20
3.431499689242798
 30
0.0
 10
9.349375129985958
 20
3.40695386606346
 30
0.0
 10
9.563777349634364
 20
3.370485180103564
 30
0.0
 10
9.774016407109968
 20
3.323025346077216
 30
0.0
 10
9.982285505890558
 20
3.264246873336304
 30
0.0
 10
10.19438688925027
 20
3.191837522041161
 30
0.0
 10
10.41718831337678
 20
3.101371514633942
 30
0.0
 10
10.65724031313377
 20
2.986099277380645
 30
0.0
 10
10.91976015414178
 20
2.836780692103729
 30
0.0
 10
11.20685854237695
 20
2.64153705765694
 30
0.0
 10
11.51059148351157
 20
2.391685238920263
 30
0.0
 10
11.80968046579568
 20
2.087802183622734
 30
0.0
 10
12.40137458903038
 20
1.348878694083278
 30
0.0
 10
12.64806008175006
 20
0.5693981197825338
 30
0.0
 10
12.96031566429224
 20
-0.0000002827582648
 30
0.0
  0
LINE
  5
E0C8
330
E09F
100
AcDbEntity
  8
0
  6
HIDDEN
 48
5.0
100
AcDbLine
 10
6.693887298116266
 20
2.996205231569717
 30
0.0
 11
6.689844852611059
 21
2.996452438068615
 31
0.0
  0
SPLINE
  5
E0C9
330
E09F
100
AcDbEntity
  8
0
  6
HIDDEN
 48
5.0
100
AcDbSpline
210
0.0
220
0.0
230
1.0
 70
     8
 71
     3
 72
    12
 73
     8
 74
     6
 42
0.0000000001
 43
0.0000000001
 44
0.0000000001
 12
-1.0
 22
0.0
 32
0.0
 13
-0.9981724719607074
 23
0.0604294317352946
 33
0.0
 40
0.0
 40
0.0
 40
0.0
 40
0.0
 40
0.0253780018187017
 40
0.0484999575953482
 40
0.0668634877775871
 40
0.0786568877127059
 40
0.0787963782749903
 40
0.0787963782749903
 40
0.0787963782749903
 40
0.0787963782749903
 10
6.772532785447396
 20
2.993858175201978
 30
0.0
 10
6.764073451507829
 20
2.993858175201978
 30
0.0
 10
6.74790637083198
 20
2.994014379666102
 30
0.0
 10
6.725626141027685
 20
2.994638045793237
 30
0.0
 10
6.707883119918635
 20
2.995418006100736
 30
0.0
 10
6.697799156946072
 20
2.995968471872016
 30
0.0
 10
6.693828791940628
 20
2.996208770829634
 30
0.0
 10
6.693782380060838
 20
2.996211580608104
 30
0.0
 11
6.772532785447396
 21
2.993858175201978
 31
0.0
 11
6.747155962064255
 21
2.994102738672069
 31
0.0
 11
6.724043092303276
 21
2.994750882444094
 31
0.0
 11
6.705697117657479
 21
2.995553662021421
 31
0.0
 11
6.693921615989211
 21
2.996203156047783
 31
0.0
 11
6.693782380060838
 21
2.996211580608104
 31
0.0
  0
LINE
  5
E0CA
330
E09F
100
AcDbEntity
  8
0
  6
HIDDEN
 48
5.0
100
AcDbLine
 10
6.693782380060838
 20
2.996211580608104
 30
0.0
 11
6.689844852611059
 21
2.996452438068615
 31
0.0
  0
LINE
  5
E0CB
330
E09F
100
AcDbEntity
  8
0
  6
HIDDEN
 48
5.0
100
AcDbLine
 10
4.845218546023261
 20
0.3583140372417404
 30
0.0
 11
4.845218546023261
 21
-0.0000002827582648
 31
0.0
  0
ENDBLK
  5
E0CF
330
E09F
100
AcDbEntity
  8
0
100
AcDbBlockEnd
  0
ENDSEC
  0
SECTION
  2
ENTITIES
  0
LWPOLYLINE
  5
CB6A
330
1F
100
AcDbEntity
  8
0
100
AcDbPolyline
 90
        4
 70
     1
 43
0.0
 10
157.9794566116857
 20
0.0
 10
287.8616807356159
 20
0.0
 10
287.8616807356159
 20
120.0563592569347
 10
157.9794566116857
 20
120.0563592569347
  0
ARC
  5
E97C
330
1F
100
AcDbEntity
  8
PIC01
  6
Continuous
 62
     7
100
AcDbCircle
 10
221.393302990733
 20
82.64003493100174
 30
0.0
 40
5.038399999999998
100
AcDbArc
 50
319.0355148194833
 51
40.96448518051675
  0
ARC
  5
E97D
330
1F
100
AcDbEntity
  8
PIC01
  6
Continuous
 62
     7
100
AcDbCircle
 10
216.197452990733
 20
75.45637868100176
 30
0.0
 40
14.17049999999999
100
AcDbArc
 50
68.74572397372863
 51
82.28885588624981
  0
ARC
  5
E97E
330
1F
100
AcDbEntity
  8
PIC01
  6
Continuous
 62
     7
100
AcDbCircle
 10
217.7670654449099
 20
79.49173916791217
 30
0.0
 40
9.840625000000001
100
AcDbArc
 50
40.96448222295739
 51
68.7457255800399
  0
ARC
  5
E97F
330
1F
100
AcDbEntity
  8
PIC01
  6
Continuous
 62
     7
100
AcDbCircle
 10
217.7670654449099
 20
85.78833069409135
 30
0.0
 40
9.840625000000001
100
AcDbArc
 50
291.2542744199601
 51
319.0355177770426
  0
ARC
  5
E980
330
1F
100
AcDbEntity
  8
PIC01
  6
Continuous
 62
     7
100
AcDbCircle
 10
216.197452990733
 20
89.82369118100177
 30
0.0
 40
14.17050000000001
100
AcDbArc
 50
277.7111441137502
 51
291.2542760262713
  0
ARC
  5
E981
330
1F
100
AcDbEntity
  8
PIC01
  6
Continuous
 62
     7
100
AcDbCircle
 10
221.393302990733
 20
82.64003493100174
 30
0.0
 40
3.345812499999997
100
AcDbArc
 50
319.0355148194833
 51
40.96448518051675
  0
ARC
  5
E982
330
1F
100
AcDbEntity
  8
PIC01
  6
Continuous
 62
     7
100
AcDbCircle
 10
217.7670654449099
 20
79.49173916791217
 30
0.0
 40
8.148037500000009
100
AcDbArc
 50
40.96448222295739
 51
68.7457231201354
  0
ARC
  5
E983
330
1F
100
AcDbEntity
  8
PIC01
  6
Continuous
 62
     7
100
AcDbCircle
 10
217.7670654449099
 20
85.78833069409135
 30
0.0
 40
8.148037499999999
100
AcDbArc
 50
291.2542744199601
 51
319.0355177770426
  0
ARC
  5
E984
330
1F
100
AcDbEntity
  8
PIC01
  6
Continuous
 62
     7
100
AcDbCircle
 10
216.197452990733
 20
89.82369118100177
 30
0.0
 40
12.47791249999999
100
AcDbArc
 50
263.8875982413649
 51
291.2542760262713
  0
CIRCLE
  5
E985
330
1F
100
AcDbEntity
  8
PIC01
  6
Continuous
 62
     7
100
AcDbCircle
 10
207.9313279907331
 20
79.88465993100174
 30
0.0
 40
0.2755375
  0
CIRCLE
  5
E986
330
1F
100
AcDbEntity
  8
PIC01
  6
Continuous
 62
     7
100
AcDbCircle
 10
207.9313279907331
 20
85.39540993100176
 30
0.0
 40
0.2755375
  0
ARC
  5
E987
330
1F
100
AcDbEntity
  8
PIC01
  6
Continuous
 62
     7
100
AcDbCircle
 10
276.815702990733
 20
82.64003493100174
 30
0.0
 40
78.72500000000001
100
AcDbArc
 50
174.493447046972
 51
185.5065529530279
  0
ARC
  5
E988
330
1F
100
AcDbEntity
  8
PIC01
  6
Continuous
 62
     7
100
AcDbCircle
 10
199.2376177875206
 20
90.11890993100177
 30
0.0
 40
0.787249999999977
100
AcDbArc
 50
89.1715065180311
 51
174.493447046972
  0
LINE
  5
E989
330
1F
100
AcDbEntity
  8
PIC01
  6
Continuous
 62
     7
100
AcDbLine
 10
216.1580864838195
 20
81.83944299567899
 30
0.0
 11
216.1580864838195
 21
83.44062686632453
 31
0.0
  0
ARC
  5
E98A
330
1F
100
AcDbEntity
  8
PIC01
  6
Continuous
 62
     7
100
AcDbCircle
 10
221.3933034618418
 20
82.64002619645832
 30
0.0
 40
3.345812499999998
100
AcDbArc
 50
319.0355177770426
 51
40.96448222295739
  0
ARC
  5
E98B
330
1F
100
AcDbEntity
  8
PIC01
  6
Continuous
 62
     7
100
AcDbCircle
 10
217.7670659160187
 20
79.49173043336871
 30
0.0
 40
8.1480375
100
AcDbArc
 50
40.96448222295739
 51
68.7457255800399
  0
ARC
  5
E98C
330
1F
100
AcDbEntity
  8
PIC01
  6
Continuous
 62
     7
100
AcDbCircle
 10
215.4281684269697
 20
82.64003053850494
 30
0.0
 40
5.253178666383562
100
AcDbArc
 50
96.11240551611949
 51
263.8875982413649
  0
ARC
  5
E98D
330
1F
100
AcDbEntity
  8
PIC01
  6
Continuous
 62
     7
100
AcDbCircle
 10
199.2376177875206
 20
75.16115993100182
 30
0.0
 40
0.7872500000000184
100
AcDbArc
 50
185.5065529530279
 51
270.9095561042844
  0
ARC
  5
E98E
330
1F
100
AcDbEntity
  8
PIC01
  6
Continuous
 62
     7
100
AcDbCircle
 10
196.9723629068364
 20
-66.52746205982362
 30
0.0
 40
157.45
100
AcDbArc
 50
82.28885588624981
 51
89.1715065180311
  0
LINE
  5
E98F
330
1F
100
AcDbEntity
  8
PIC01
  6
Continuous
 62
     7
100
AcDbLine
 10
216.1580864838195
 20
81.93150993100173
 30
0.0
 11
216.0006364838195
 21
81.93150993100173
 31
0.0
  0
ARC
  5
E990
330
1F
100
AcDbEntity
  8
PIC01
  6
Continuous
 62
     7
100
AcDbCircle
 10
188.6438305309165
 20
82.64003493100174
 30
0.0
 40
16.53224999999996
100
AcDbArc
 50
336.6344123383963
 51
23.37923053575412
  0
ARC
  5
E991
330
1F
100
AcDbEntity
  8
PIC01
  6
Continuous
 62
     7
100
AcDbCircle
 10
201.2905076422606
 20
77.17617304118933
 30
0.0
 40
2.755374999999989
100
AcDbArc
 50
271.681679956062
 51
336.6344123383963
  0
ARC
  5
E992
330
1F
100
AcDbEntity
  8
PIC01
  6
Continuous
 62
     7
100
AcDbCircle
 10
201.2896038375531
 20
88.10690809971355
 30
0.0
 40
2.755374999999992
100
AcDbArc
 50
23.37923053575412
 51
88.40077309930832
  0
ARC
  5
E993
330
1F
100
AcDbEntity
  8
PIC01
  6
Continuous
 62
     7
100
AcDbCircle
 10
215.1740345130594
 20
82.64003493100174
 30
0.0
 40
2.755375000000009
100
AcDbArc
 50
156.2199943535829
 51
203.7799838164076
  0
ARC
  5
E994
330
1F
100
AcDbEntity
  8
PIC01
  6
Continuous
 62
     7
100
AcDbCircle
 10
212.9407547759043
 20
83.62409785644784
 30
0.0
 40
0.3149
100
AcDbArc
 50
90.0
 51
156.2199943535829
  0
ARC
  5
E995
330
1F
100
AcDbEntity
  8
PIC01
  6
Continuous
 62
     7
100
AcDbCircle
 10
212.940754400971
 20
81.65597285644786
 30
0.0
 40
0.3149
100
AcDbArc
 50
203.779983816412
 51
270.0
  0
LINE
  5
E996
330
1F
100
AcDbEntity
  8
PIC01
  6
Continuous
 62
     7
100
AcDbLine
 10
213.0093306422653
 20
83.93899785644784
 30
0.0
 11
212.9407547759043
 21
83.93899785644784
 31
0.0
  0
LINE
  5
E997
330
1F
100
AcDbEntity
  8
PIC01
  6
Continuous
 62
     7
100
AcDbLine
 10
213.0093306422653
 20
81.34107200555567
 30
0.0
 11
212.940754400971
 21
81.34107285644784
 31
0.0
  0
LINE
  5
E998
330
1F
100
AcDbEntity
  8
PIC01
  6
Continuous
 62
     7
100
AcDbLine
 10
216.1580864838195
 20
83.42728493100175
 30
0.0
 11
216.0006364838195
 21
83.34855993100175
 31
0.0
  0
LINE
  5
E999
330
1F
100
AcDbEntity
  8
PIC01
  6
Continuous
 62
     7
100
AcDbLine
 10
240.624525523189
 20
51.40511511140067
 30
0.0
 11
240.4326492776923
 21
53.50040642829602
 31
0.0
  0
ARC
  5
E99A
330
1F
100
AcDbEntity
  8
PIC01
  6
Continuous
 62
     7
100
AcDbCircle
 10
240.7816098743547
 20
51.41583934185353
 30
0.0
 40
0.1574500000000003
100
AcDbArc
 50
183.9055524766658
 51
265.0268818358011
  0
LINE
  5
E99B
330
1F
100
AcDbEntity
  8
PIC01
  6
Continuous
 62
     7
100
AcDbLine
 10
241.7768513097942
 20
51.36517440303393
 30
0.0
 11
241.788123513904
 21
51.4824053257761
 31
0.0
  0
LINE
  5
E99C
330
1F
100
AcDbEntity
  8
PIC01
  6
Continuous
 62
     7
100
AcDbLine
 10
241.15646457769
 20
51.25838934185353
 30
0.0
 11
241.6593059460703
 21
51.25838934185353
 31
0.0
  0
ARC
  5
E99D
330
1F
100
AcDbEntity
  8
PIC01
  6
Continuous
 62
     7
100
AcDbCircle
 10
241.6593059460703
 20
51.37647684185354
 30
0.0
 40
0.1180875000000029
100
AcDbArc
 50
270.0
 51
354.5076754428687
  0
ARC
  5
E99E
330
1F
100
AcDbEntity
  8
PIC01
  6
Continuous
 62
     7
100
AcDbCircle
 10
240.92028957769
 20
51.19934559185353
 30
0.0
 40
0.05904375
100
AcDbArc
 50
180.0
 51
270.0
  0
LINE
  5
E99F
330
1F
100
AcDbEntity
  8
PIC01
  6
Continuous
 62
     7
100
AcDbLine
 10
241.03837707769
 20
51.14030184185353
 30
0.0
 11
240.92028957769
 21
51.14030184185353
 31
0.0
  0
ARC
  5
E9A0
330
1F
100
AcDbEntity
  8
PIC01
  6
Continuous
 62
     7
100
AcDbCircle
 10
241.03837707769
 20
51.19934559185353
 30
0.0
 40
0.05904375
100
AcDbArc
 50
270.0
 51
0.0
  0
ARC
  5
E9A1
330
1F
100
AcDbEntity
  8
PIC01
  6
Continuous
 62
     7
100
AcDbCircle
 10
241.15646457769
 20
51.19934559185353
 30
0.0
 40
0.05904375
100
AcDbArc
 50
90.0
 51
180.0
  0
ARC
  5
E9A2
330
1F
100
AcDbEntity
  8
PIC01
  6
Continuous
 62
     7
100
AcDbCircle
 10
240.80220207769
 20
51.19934559185353
 30
0.0
 40
0.05904375
100
AcDbArc
 50
0.0
 51
90.0
  0
LINE
  5
E9A3
330
1F
100
AcDbEntity
  8
PIC01
  6
Continuous
 62
     7
100
AcDbLine
 10
240.80220207769
 20
51.25838934185353
 30
0.0
 11
240.7679607949089
 21
51.25898206554708
 31
0.0
  0
LINE
  5
E9A4
330
1F
100
AcDbEntity
  8
PIC01
  6
Continuous
 62
     7
100
AcDbLine
 10
256.517472966483
 20
51.40511511140067
 30
0.0
 11
256.8031691497746
 21
55.58988320569512
 31
0.0
  0
ARC
  5
E9A5
330
1F
100
AcDbEntity
  8
PIC01
  6
Continuous
 62
     7
100
AcDbCircle
 10
256.3603886153172
 20
51.41583934185353
 30
0.0
 40
0.1574500000000003
100
AcDbArc
 50
270.0
 51
356.0944475233342
  0
LINE
  5
E9A6
330
1F
100
AcDbEntity
  8
PIC01
  6
Continuous
 62
     7
100
AcDbLine
 10
255.3050409233372
 20
51.48240532577613
 30
0.0
 11
255.316313127447
 21
51.36517440303393
 31
0.0
  0
LINE
  5
E9A7
330
1F
100
AcDbEntity
  8
PIC01
  6
Continuous
 62
     7
100
AcDbLine
 10
255.4338584911709
 20
51.25838934185353
 30
0.0
 11
256.3603886153172
 21
51.25838934185353
 31
0.0
  0
ARC
  5
E9A8
330
1F
100
AcDbEntity
  8
PIC01
  6
Continuous
 62
     7
100
AcDbCircle
 10
255.4338584911709
 20
51.37647684185354
 30
0.0
 40
0.1180875000000029
100
AcDbArc
 50
185.4923245571312
 51
270.0
  0
LINE
  5
E9A9
330
1F
100
AcDbEntity
  8
PIC01
  6
Continuous
 62
     7
100
AcDbLine
 10
242.7597963095756
 20
37.56023800011236
 30
0.0
 11
254.3328660402429
 21
37.56023692119471
 31
0.0
  0
LINE
  5
E9AA
330
1F
100
AcDbEntity
  8
PIC01
  6
Continuous
 62
     7
100
AcDbLine
 10
256.0941498595513
 20
51.14030184185353
 30
0.0
 11
256.2122373595512
 21
51.14030184185353
 31
0.0
  0
ARC
  5
E9AB
330
1F
100
AcDbEntity
  8
PIC01
  6
Continuous
 62
     7
100
AcDbCircle
 10
256.2122373595512
 20
51.19934559185353
 30
0.0
 40
0.05904375
100
AcDbArc
 50
270.0
 51
0.0
  0
ARC
  5
E9AC
330
1F
100
AcDbEntity
  8
PIC01
  6
Continuous
 62
     7
100
AcDbCircle
 10
256.0941498595513
 20
51.19934559185353
 30
0.0
 40
0.05904375
100
AcDbArc
 50
180.0
 51
270.0
  0
ARC
  5
E9AD
330
1F
100
AcDbEntity
  8
PIC01
  6
Continuous
 62
     7
100
AcDbCircle
 10
256.3303248595512
 20
51.19934559185353
 30
0.0
 40
0.05904375
100
AcDbArc
 50
90.0
 51
180.0
  0
ARC
  5
E9AE
330
1F
100
AcDbEntity
  8
PIC01
  6
Continuous
 62
     7
100
AcDbCircle
 10
255.9760623595512
 20
51.19934559185353
 30
0.0
 40
0.05904375
100
AcDbArc
 50
0.0
 51
90.0
  0
LINE
  5
E9AF
330
1F
100
AcDbEntity
  8
PIC01
  6
Continuous
 62
     7
100
AcDbLine
 10
253.8675444871797
 20
47.49039877176792
 30
0.0
 11
254.4507452177877
 21
37.68533583253751
 31
0.0
  0
ARC
  5
E9B0
330
1F
100
AcDbEntity
  8
PIC01
  6
Continuous
 62
     7
100
AcDbCircle
 10
226.1168023406515
 20
53.38396348356855
 30
0.0
 40
0.3149000000000088
100
AcDbArc
 50
350.6695956820788
 51
90.0
  0
ARC
  5
E9B1
330
1F
100
AcDbEntity
  8
PIC01
  6
Continuous
 62
     7
100
AcDbCircle
 10
200.0588343682596
 20
55.8638001590309
 30
0.0
 40
1.968125000000004
100
AcDbArc
 50
178.9169298281736
 51
185.4269985579026
  0
ARC
  5
E9B2
330
1F
100
AcDbEntity
  8
PIC01
  6
Continuous
 62
     7
100
AcDbCircle
 10
220.6012770925403
 20
54.29017097254268
 30
0.0
 40
5.90437499999999
100
AcDbArc
 50
335.48304816121
 51
350.6695956820788
  0
LINE
  5
E9B3
330
1F
100
AcDbEntity
  8
PIC01
  6
Continuous
 62
     7
100
AcDbLine
 10
226.1168023406515
 20
53.69886348356856
 30
0.0
 11
205.7290417755985
 21
53.6988626461814
 31
0.0
  0
LINE
  5
E9B4
330
1F
100
AcDbEntity
  8
PIC01
  6
Continuous
 62
     7
100
AcDbLine
 10
198.2875235406091
 20
52.7722421364297
 30
0.0
 11
198.2875235406091
 21
53.69886447063326
 31
0.0
  0
LINE
  5
E9B5
330
1F
100
AcDbEntity
  8
PIC01
  6
Continuous
 62
     7
100
AcDbLine
 10
198.5236922080667
 20
37.56023692119472
 30
0.0
 11
223.3614321105631
 21
37.56023692119472
 31
0.0
  0
LINE
  5
E9B6
330
1F
100
AcDbEntity
  8
PIC01
  6
Continuous
 62
     7
100
AcDbLine
 10
198.2875235406091
 20
53.69886432369106
 30
0.0
 11
198.0995314709632
 21
55.67765996382576
 31
0.0
  0
ARC
  5
E9B7
330
1F
100
AcDbEntity
  8
PIC01
  6
Continuous
 62
     7
100
AcDbCircle
 10
218.8106011205916
 20
55.1068689455479
 30
0.0
 40
7.872499999999995
100
AcDbArc
 50
306.2618403865312
 51
335.48304816121
  0
LINE
  5
E9BB
330
1F
100
AcDbEntity
  8
PIC01
  6
Continuous
 62
     7
100
AcDbLine
 10
198.5236833236366
 20
44.64548747932903
 30
0.0
 11
198.8111353751778
 21
44.64548747932903
 31
0.0
  0
ARC
  5
E9BC
330
1F
100
AcDbEntity
  8
PIC01
  6
Continuous
 62
     7
100
AcDbCircle
 10
198.7992318362404
 20
44.80293747932903
 30
0.0
 40
0.15745
100
AcDbArc
 50
270.0
 51
0.0
  0
LINE
  5
E9BD
330
1F
100
AcDbEntity
  8
PIC01
  6
Continuous
 62
     7
100
AcDbLine
 10
198.9566818362405
 20
44.80293747932903
 30
0.0
 11
198.9566818362405
 21
45.43273765903089
 31
0.0
  0
ARC
  5
E9C4
330
1F
100
AcDbEntity
  8
PIC01
  6
Continuous
 62
     7
100
AcDbCircle
 10
204.1918943362404
 20
45.43273765903089
 30
0.0
 40
5.235212500000009
100
AcDbArc
 50
168.7855085159604
 51
180.0
  0
LINE
  5
E9C5
330
1F
100
AcDbEntity
  8
PIC01
  6
Continuous
 62
     7
100
AcDbLine
 10
205.2295909206837
 20
50.56407624840415
 30
0.0
 11
205.2295909206837
 21
50.56677811517857
 31
0.0
  0
LINE
  5
E9C6
330
1F
100
AcDbEntity
  8
PIC01
  6
Continuous
 62
     7
100
AcDbLine
 10
198.4055958236366
 20
44.36994997932901
 30
0.0
 11
198.4055958236366
 21
44.52739997932903
 31
0.0
  0
ARC
  5
E9C7
330
1F
100
AcDbEntity
  8
PIC01
  6
Continuous
 62
     7
100
AcDbCircle
 10
198.5236833236366
 20
44.52739997932903
 30
0.0
 40
0.1180875
100
AcDbArc
 50
90.0
 51
180.0
  0
ARC
  5
E9C8
330
1F
100
AcDbEntity
  8
PIC01
  6
Continuous
 62
     7
100
AcDbCircle
 10
198.5236833236366
 20
44.36994997932901
 30
0.0
 40
0.1180875
100
AcDbArc
 50
180.0
 51
223.0435918671362
  0
ARC
  5
E9C9
330
1F
100
AcDbEntity
  8
PIC01
  6
Continuous
 62
     7
100
AcDbCircle
 10
223.3614321105631
 20
37.67832442119472
 30
0.0
 40
0.1180875
100
AcDbArc
 50
270.0
 51
8.908277779066141
  0
LINE
  5
E9CA
330
1F
100
AcDbEntity
  8
PIC01
  6
Continuous
 62
     7
100
AcDbLine
 10
222.2185418572553
 20
45.73235424249249
 30
0.0
 11
223.4780951805375
 21
37.69661063896628
 31
0.0
  0
ARC
  5
E9CB
330
1F
100
AcDbEntity
  8
PIC01
  6
Continuous
 62
     7
100
AcDbCircle
 10
254.3328660511406
 20
37.67832443275986
 30
0.0
 40
0.1180875000000006
100
AcDbArc
 50
269.9999947124652
 51
3.403916813267083
  0
ARC
  5
E9CC
330
1F
100
AcDbEntity
  8
PIC01
  6
Continuous
 62
     7
100
AcDbCircle
 10
253.396027820591
 20
47.46235317265717
 30
0.0
 40
0.4723500000003708
100
AcDbArc
 50
3.403916813282623
 51
44.99999999997868
  0
ARC
  5
E9CD
330
1F
100
AcDbEntity
  8
PIC01
  6
Continuous
 62
     7
100
AcDbCircle
 10
198.5236922080667
 20
37.67832442119472
 30
0.0
 40
0.1180875
100
AcDbArc
 50
176.5298634135475
 51
270.0
  0
ARC
  5
E9CE
330
1F
100
AcDbEntity
  8
PIC01
  6
Continuous
 62
     7
100
AcDbCircle
 10
197.5743565703649
 20
43.48333715970086
 30
0.0
 40
1.180875000000006
100
AcDbArc
 50
356.5298634135475
 51
43.04359186712771
  0
LINE
  5
E9CF
330
1F
100
AcDbEntity
  8
PIC01
  6
Continuous
 62
     7
100
AcDbLine
 10
198.753066415091
 20
43.41186081696577
 30
0.0
 11
198.4058212235941
 21
37.68547205546822
 31
0.0
  0
LINE
  5
E9D0
330
1F
100
AcDbEntity
  8
PIC01
  6
Continuous
 62
     7
100
AcDbLine
 10
243.2256199500614
 20
47.49039877176792
 30
0.0
 11
242.6424192194535
 21
37.68533583253751
 31
0.0
  0
ARC
  5
E9D1
330
1F
100
AcDbEntity
  8
PIC01
  6
Continuous
 62
     7
100
AcDbCircle
 10
242.7602983861005
 20
37.67832443275986
 30
0.0
 40
0.1180875000000006
100
AcDbArc
 50
176.5960831867329
 51
270.0000052875349
  0
ARC
  5
E9D2
330
1F
100
AcDbEntity
  8
PIC01
  6
Continuous
 62
     7
100
AcDbCircle
 10
243.6971366166493
 20
47.46235317265752
 30
0.0
 40
0.472349999999519
100
AcDbArc
 50
134.9999999999706
 51
176.5960831867532
  0
ARC
  5
E9D3
330
1F
100
AcDbEntity
  8
PIC01
  6
Continuous
 62
     7
100
AcDbCircle
 10
196.9723629068364
 20
231.8075319218271
 30
0.0
 40
157.45
100
AcDbArc
 50
270.8284934819477
 51
277.7111441137502
  0
ARC
  5
E9D4
330
1F
100
AcDbEntity
  8
PIC01
  6
Continuous
 62
     7
100
AcDbCircle
 10
204.1918943362404
 20
44.25186265903099
 30
0.0
 40
6.416087499999916
100
AcDbArc
 50
43.99620903492546
 51
90.0
  0
ARC
  5
E9D5
330
1F
100
AcDbEntity
  8
PIC01
  6
Continuous
 62
     7
100
AcDbCircle
 10
204.1918943362404
 20
45.43273765903089
 30
0.0
 40
5.235212499999994
100
AcDbArc
 50
90.0
 51
101.7983020016627
  0
LINE
  5
E9D6
330
1F
100
AcDbEntity
  8
PIC01
  6
Continuous
 62
     7
100
AcDbLine
 10
253.4170589974042
 20
48.10932577203142
 30
0.0
 11
253.7300297086849
 21
47.79635506075077
 31
0.0
  0
LINE
  5
E9D7
330
1F
100
AcDbEntity
  8
PIC01
  6
Continuous
 62
     7
100
AcDbLine
 10
243.6761054398369
 20
48.10932577203142
 30
0.0
 11
243.3631347285563
 21
47.79635506075079
 31
0.0
  0
ARC
  5
E9D8
330
1F
100
AcDbEntity
  8
PIC01
  6
Continuous
 62
     7
100
AcDbCircle
 10
189.4059769767628
 20
48.37510476140045
 30
0.0
 40
9.840625000000009
100
AcDbArc
 50
348.7452837092356
 51
24.52804033751835
  0
ARC
  5
E9D9
330
1F
100
AcDbEntity
  8
PIC01
  6
Continuous
 62
     7
100
AcDbCircle
 10
199.074773540609
 20
52.78714510829008
 30
0.0
 40
0.7872499999999944
100
AcDbArc
 50
180.0
 51
204.5280403375183
  0
ARC
  5
E9DA
330
1F
100
AcDbEntity
  8
PIC01
  6
Continuous
 62
     7
100
AcDbCircle
 10
204.1918943362404
 20
45.43273765903089
 30
0.0
 40
5.235212499999994
100
AcDbArc
 50
109.4257451142049
 51
109.4460844435559
  0
ARC
  5
E9DB
330
1F
100
AcDbEntity
  8
PIC01
  6
Continuous
 62
     7
100
AcDbCircle
 10
204.1918943362404
 20
45.43273765903089
 30
0.0
 40
5.235212499999994
100
AcDbArc
 50
168.7452837092356
 51
180.0
  0
ARC
  5
E9DC
330
1F
100
AcDbEntity
  8
PIC01
  6
Continuous
 62
     7
100
AcDbCircle
 10
216.197452990733
 20
75.45637868100176
 30
0.0
 40
12.47791249999999
100
AcDbArc
 50
68.74572397372863
 51
76.77245649894667
  0
LINE
  5
E9DD
330
1F
100
AcDbEntity
  8
PIC01
  6
Continuous
 62
     7
100
AcDbLine
 10
216.1580864838195
 20
83.34855993100175
 30
0.0
 11
216.0006364838195
 21
83.34855993100175
 31
0.0
  0
LINE
  5
E9DE
330
1F
100
AcDbEntity
  8
PIC01
  6
Continuous
 62
     7
100
AcDbLine
 10
216.1580864838195
 20
81.85278493100176
 30
0.0
 11
216.0006364838195
 21
81.93150993100173
 31
0.0
  0
ARC
  5
E9DF
330
1F
100
AcDbEntity
  8
PIC01
  6
Continuous
 62
     7
100
AcDbCircle
 10
210.3446207564354
 20
112.7227871461317
 30
0.0
 40
31.49
100
AcDbArc
 50
274.7768880853807
 51
280.5194617413679
  0
ARC
  5
E9E0
330
1F
100
AcDbEntity
  8
PIC01
  6
Continuous
 62
     7
100
AcDbCircle
 10
210.3446207564354
 20
52.55728271587172
 30
0.0
 40
31.49
100
AcDbArc
 50
79.48053825863208
 51
85.22311191461934
  0
ARC
  5
E9E1
330
1F
100
AcDbEntity
  8
PIC01
  6
Continuous
 62
     7
100
AcDbCircle
 10
216.0793614838195
 20
81.83944299567899
 30
0.0
 40
0.078725
100
AcDbArc
 50
280.5194617413679
 51
0.0
  0
ARC
  5
E9E2
330
1F
100
AcDbEntity
  8
PIC01
  6
Continuous
 62
     7
100
AcDbCircle
 10
216.0793614838195
 20
83.44062686632453
 30
0.0
 40
0.078725
100
AcDbArc
 50
0.0
 51
79.48053825863208
  0
ARC
  5
E9E3
330
1F
100
AcDbEntity
  8
PIC01
  6
Continuous
 62
     7
100
AcDbCircle
 10
216.197452990733
 20
75.45637868100176
 30
0.0
 40
12.47791249999999
100
AcDbArc
 50
68.74572397372863
 51
96.11240175863516
  0
ARC
  5
E9E4
330
1F
100
AcDbEntity
  8
PIC01
  6
Continuous
 62
     7
100
AcDbCircle
 10
241.3990190434274
 20
58.75844940619327
 30
0.0
 40
15.745
100
AcDbArc
 50
320.5979880818467
 51
329.7354811048035
  0
ARC
  5
E9E5
330
1F
100
AcDbEntity
  8
PIC01
  6
Continuous
 62
     7
100
AcDbCircle
 10
251.5983287613561
 20
52.80692373286676
 30
0.0
 40
3.936249999999994
100
AcDbArc
 50
329.7354811048035
 51
340.3366813508776
  0
ARC
  5
E9E6
330
1F
100
AcDbEntity
  8
PIC01
  6
Continuous
 62
     7
100
AcDbCircle
 10
255.6944675773934
 20
47.01519490186803
 30
0.0
 40
2.755375000000001
100
AcDbArc
 50
140.5979880818466
 51
147.345859768223
  0
ARC
  5
E9E7
330
1F
100
AcDbEntity
  8
PIC01
  6
Continuous
 62
     7
100
AcDbCircle
 10
253.6397269227999
 20
48.33199369742706
 30
0.0
 40
0.3149
100
AcDbArc
 50
147.345859768223
 51
225.000000000004
  0
ARC
  5
E9E8
330
1F
100
AcDbEntity
  8
PIC01
  6
Continuous
 62
     7
100
AcDbCircle
 10
241.3986968598478
 20
47.01519490186803
 30
0.0
 40
2.755375000000001
100
AcDbArc
 50
32.65414023177699
 51
39.40201191815336
  0
ARC
  5
E9E9
330
1F
100
AcDbEntity
  8
PIC01
  6
Continuous
 62
     7
100
AcDbCircle
 10
243.4534375144413
 20
48.33199369742706
 30
0.0
 40
0.3149
100
AcDbArc
 50
314.9999999999959
 51
32.65414023177699
  0
ARC
  5
E9EA
330
1F
100
AcDbEntity
  8
PIC01
  6
Continuous
 62
     7
100
AcDbCircle
 10
255.6941453938138
 20
58.75844940619327
 30
0.0
 40
15.74500000000003
100
AcDbArc
 50
210.2645188951965
 51
219.4020119181534
  0
ARC
  5
E9EB
330
1F
100
AcDbEntity
  8
PIC01
  6
Continuous
 62
     7
100
AcDbCircle
 10
245.4948356758851
 20
52.80692373286664
 30
0.0
 40
3.936249999999998
100
AcDbArc
 50
199.6633186491224
 51
210.2645188951965
  0
ARC
  5
E9EE
330
1F
100
AcDbEntity
  8
PIC01
  6
PHANTOM
 62
     7
100
AcDbCircle
 10
219.3070958118112
 20
82.64003493100174
 30
0.0
 40
1.968125000000003
100
AcDbArc
 50
320.4829446530595
 51
39.51705534694053
  0
CIRCLE
  5
E9EF
330
1F
100
AcDbEntity
  8
PIC01
  6
DASHED
 62
     7
 48
0.01
100
AcDbCircle
 10
207.9313273061264
 20
85.39540797808816
 30
0.0
 40
0.5904375000000001
  0
CIRCLE
  5
E9F0
330
1F
100
AcDbEntity
  8
PIC01
  6
DASHED
 62
     7
 48
0.01
100
AcDbCircle
 10
207.9313273061264
 20
79.88466188391537
 30
0.0
 40
0.5904375000000001
  0
ARC
  5
E9F1
330
1F
100
AcDbEntity
  8
PIC01
  6
PHANTOM
 62
     7
100
AcDbCircle
 10
214.1899698925566
 20
82.64003493100174
 30
0.0
 40
2.755374999999992
100
AcDbArc
 50
132.028234874942
 51
227.971765125058
  0
ARC
  5
E9F2
330
1F
100
AcDbEntity
  8
PIC01
  6
PHANTOM
 62
     7
100
AcDbCircle
 10
216.0006448925567
 20
83.03365993100173
 30
0.0
 40
3.936250000000009
100
AcDbArc
 50
261.3038275667303
 51
270.8192137154949
  0
ARC
  5
E9F3
330
1F
100
AcDbEntity
  8
PIC01
  6
PHANTOM
 62
     7
100
AcDbCircle
 10
216.0006448925567
 20
82.24640993100177
 30
0.0
 40
3.936249999999989
100
AcDbArc
 50
89.18078628450514
 51
98.69617243326977
  0
LINE
  5
E9F5
330
1F
100
AcDbEntity
  8
PIC01
  6
Continuous
 62
     7
100
AcDbLine
 10
216.0006364838195
 20
81.93150993100173
 30
0.0
 11
216.0006364838195
 21
83.34855993100175
 31
0.0
  0
ARC
  5
E9F7
330
1F
100
AcDbEntity
  8
PIC01
  6
PHANTOM
 62
     7
100
AcDbCircle
 10
215.966877796832
 20
79.88490133568681
 30
0.0
 40
6.297999999999989
100
AcDbArc
 50
39.51705534694053
 51
89.18078628450514
  0
ARC
  5
E9F8
330
1F
100
AcDbEntity
  8
PIC01
  6
PHANTOM
 62
     7
100
AcDbCircle
 10
215.966877796832
 20
85.3951685263167
 30
0.0
 40
6.298000000000006
100
AcDbArc
 50
270.8192137154949
 51
320.4829446530595
  0
ARC
  5
E9F9
330
1F
100
AcDbEntity
  8
PIC01
  6
Continuous
 62
     7
100
AcDbCircle
 10
204.1918943362404
 20
45.43273765903089
 30
0.0
 40
5.235212499999999
100
AcDbArc
 50
101.7919955763037
 51
109.4257451142049
  0
ARC
  5
E9FA
330
1F
100
AcDbEntity
  8
PIC01
  6
Continuous
 62
     7
100
AcDbCircle
 10
204.1918943362412
 20
45.43273765903012
 30
0.0
 40
4.034656250000753
100
AcDbArc
 50
139.948324624432
 51
179.9999999999894
  0
LINE
  5
E9FB
330
1F
100
AcDbEntity
  8
PIC01
  6
DASHED
 62
     7
100
AcDbLine
 10
240.8119812142914
 20
51.25838934185353
 30
0.0
 11
241.15646457769
 21
51.25838934185353
 31
0.0
  0
ARC
  5
E9FD
330
1F
100
AcDbEntity
  8
PIC01
  6
Continuous
 62
     7
100
AcDbCircle
 10
225.3295570565736
 20
46.21998671640111
 30
0.0
 40
3.148999999999997
100
AcDbArc
 50
126.2618403865312
 51
188.9082777790712
  0
LINE
  5
E9FE
330
1F
100
AcDbEntity
  8
PIC01
  6
Continuous
 62
     7
100
AcDbLine
 10
198.8688847962558
 20
51.25838932369106
 30
0.0
 11
204.6332443891365
 21
51.25838932369106
 31
0.0
  0
ARC
  5
E9FF
330
1F
100
AcDbEntity
  8
PIC01
  6
DASHED
 62
     7
100
AcDbCircle
 10
198.8688847962558
 20
51.45520182369105
 30
0.0
 40
0.196812499999995
100
AcDbArc
 50
253.2498157554498
 51
270.0
  0
LINE
  5
EA00
330
1F
100
AcDbEntity
  8
PIC01
  6
Continuous
 62
     7
100
AcDbLine
 10
216.1974586381127
 20
52.12436307615103
 30
0.0
 11
204.93100052083
 21
51.26966730486862
 31
0.0
  0
ARC
  5
EA01
330
1F
100
AcDbEntity
  8
PIC01
  6
DASHED
 62
     7
100
AcDbCircle
 10
204.6332443891365
 20
55.19463932369106
 30
0.0
 40
3.936250000000002
100
AcDbArc
 50
270.0
 51
274.3382614750752
  0
LINE
  5
EA02
330
1F
100
AcDbEntity
  8
PIC01
  6
Continuous
 62
     7
100
AcDbLine
 10
209.5845638005278
 20
48.77855012948504
 30
0.0
 11
209.5845638005278
 21
50.71027320254187
 31
0.0
  0
LINE
  5
EA03
330
1F
100
AcDbEntity
  8
PIC01
  6
Continuous
 62
     7
100
AcDbLine
 10
198.7401843736921
 20
44.64548747932903
 30
0.0
 11
199.7636130862404
 21
44.64548747932903
 31
0.0
  0
LINE
  5
EA04
330
1F
100
AcDbEntity
  8
PIC01
  6
Continuous
 62
     7
100
AcDbLine
 10
202.4593852752051
 20
48.66046262948504
 30
0.0
 11
209.4664763005278
 21
48.66046262948504
 31
0.0
  0
ARC
  5
EA05
330
1F
100
AcDbEntity
  8
PIC01
  6
Continuous
 62
     7
100
AcDbCircle
 10
202.4593852752051
 20
46.88915012948505
 30
0.0
 40
1.7713125
100
AcDbArc
 50
90.0
 51
139.948324624432
  0
LINE
  5
EA06
330
1F
100
AcDbEntity
  8
PIC01
  6
DASHED
 62
     7
100
AcDbLine
 10
200.1572380862405
 20
45.03911247932903
 30
0.0
 11
200.1572380862405
 21
45.43273765903089
 31
0.0
  0
ARC
  5
EA07
330
1F
100
AcDbEntity
  8
PIC01
  6
Continuous
 62
     7
100
AcDbCircle
 10
199.7636130862404
 20
45.03911247932903
 30
0.0
 40
0.393625
100
AcDbArc
 50
270.0
 51
0.0
  0
ARC
  5
EA08
330
1F
100
AcDbEntity
  8
PIC01
  6
Continuous
 62
     7
100
AcDbCircle
 10
209.4664763005278
 20
48.77855012948504
 30
0.0
 40
0.1180875
100
AcDbArc
 50
270.0
 51
0.0
  0
ARC
  5
EA09
330
1F
100
AcDbEntity
  8
PIC01
  6
DASHED
 62
     7
100
AcDbCircle
 10
204.1918943362404
 20
45.43273765903089
 30
0.0
 40
5.235212499999994
100
AcDbArc
 50
168.7452837092356
 51
168.7855085159604
  0
ARC
  5
EA19
330
1F
100
AcDbEntity
  8
PIC01
  6
PHANTOM
 62
     7
100
AcDbCircle
 10
216.2982151286237
 20
84.9791593450937
 30
0.0
 40
5.904374999999999
100
AcDbArc
 50
227.971765125058
 51
261.3038275667303
  0
ARC
  5
EA1A
330
1F
100
AcDbEntity
  8
PIC01
  6
PHANTOM
 62
     7
100
AcDbCircle
 10
216.2982151286237
 20
80.30091051690984
 30
0.0
 40
5.904374999999997
100
AcDbArc
 50
98.69617243326977
 51
132.028234874942
  0
ARC
  5
EA1B
330
1F
100
AcDbEntity
  8
PIC01
  6
Continuous
 62
     7
100
AcDbCircle
 10
208.9208036112448
 20
48.81791262948505
 30
0.0
 40
0.15745
100
AcDbArc
 50
223.9962090349254
 51
270.0
  0
ARC
  5
EA1C
330
1F
100
AcDbEntity
  8
PIC01
  6
Continuous
 62
     7
100
AcDbCircle
 10
204.1918943362404
 20
45.43273765903089
 30
0.0
 40
5.235212499999994
100
AcDbArc
 50
109.4460844435559
 51
168.7452837092356
  0
LINE
  5
EA1D
330
1F
100
AcDbEntity
  8
PIC01
  6
Continuous
 62
     7
100
AcDbLine
 10
208.8179382786313
 20
51.14298655383731
 30
0.0
 11
209.5163822301153
 21
50.81729682539334
 31
0.0
  0
ARC
  5
EA1E
330
1F
100
AcDbEntity
  8
PIC01
  6
Continuous
 62
     7
100
AcDbCircle
 10
209.1506444758815
 20
51.85647737284717
 30
0.0
 40
0.7872500000000001
100
AcDbArc
 50
204.0813382777063
 51
245.0000023533089
  0
ARC
  5
EA1F
330
1F
100
AcDbEntity
  8
PIC01
  6
Continuous
 62
     7
100
AcDbCircle
 10
209.4664763005278
 20
50.71027320254187
 30
0.0
 40
0.1180875
100
AcDbArc
 50
0.0
 51
65.00000235331069
  0
ARC
  5
EA20
330
1F
100
AcDbEntity
  8
PIC01
  6
Continuous
 62
     7
100
AcDbCircle
 10
197.0349697600076
 20
232.9167042881955
 30
0.0
 40
158.23725
100
AcDbArc
 50
270.8284934819477
 51
271.5181696415613
  0
ARC
  5
EA21
330
1F
100
AcDbEntity
  8
PIC01
  6
Continuous
 62
     7
100
AcDbCircle
 10
199.3116078310468
 20
75.48316459892378
 30
0.0
 40
0.7872500000000037
100
AcDbArc
 50
185.2758356301579
 51
270.8284934819477
  0
ARC
  5
EA22
330
1F
100
AcDbEntity
  8
PIC01
  6
Continuous
 62
     7
100
AcDbCircle
 10
276.815702990733
 20
82.64003493100174
 30
0.0
 40
78.621083
100
AcDbArc
 50
174.7241643698421
 51
185.2758356301579
  0
ARC
  5
EA23
330
1F
100
AcDbEntity
  8
PIC01
  6
Continuous
 62
     7
100
AcDbCircle
 10
201.1543000860879
 20
77.48940755052375
 30
0.0
 40
2.755374999999998
100
AcDbArc
 50
271.5181696415613
 51
342.2836476570584
  0
ARC
  5
EA24
330
1F
100
AcDbEntity
  8
PIC01
  6
Continuous
 62
     7
100
AcDbCircle
 10
185.0311402809164
 20
82.64003493100174
 30
0.0
 40
19.68125000000005
100
AcDbArc
 50
342.2836476570584
 51
17.71635091387966
  0
ARC
  5
EA25
330
1F
100
AcDbEntity
  8
PIC01
  6
Continuous
 62
     7
100
AcDbCircle
 10
188.6438305309165
 20
82.64003493100174
 30
0.0
 40
16.53224999999996
100
AcDbArc
 50
336.6344123383963
 51
23.37923053575412
  0
ARC
  5
EA26
330
1F
100
AcDbEntity
  8
PIC01
  6
Continuous
 62
     7
100
AcDbCircle
 10
201.1543000860879
 20
87.79066231147975
 30
0.0
 40
2.755374999999998
100
AcDbArc
 50
17.71635234294156
 51
88.48183035843874
  0
ARC
  5
EA27
330
1F
100
AcDbEntity
  8
PIC01
  6
Continuous
 62
     7
100
AcDbCircle
 10
197.0372463980787
 20
-67.47920088650277
 30
0.0
 40
158.0798
100
AcDbArc
 50
88.48183035843874
 51
89.1715065180311
  0
ARC
  5
EA28
330
1F
100
AcDbEntity
  8
PIC01
  6
Continuous
 62
     7
100
AcDbCircle
 10
199.3116078310468
 20
89.79690526307972
 30
0.0
 40
0.7872500000000037
100
AcDbArc
 50
89.1715065180311
 51
174.7241643698421
  0
ARC
  5
EA29
330
1F
100
AcDbEntity
  8
PIC01
  6
Continuous
 62
     7
100
AcDbCircle
 10
200.0588282924061
 20
55.8638001590309
 30
0.0
 40
1.968125000000004
100
AcDbArc
 50
178.9169298281736
 51
185.4269985579026
  0
LINE
  5
EA2A
330
1F
100
AcDbEntity
  8
PIC01
  6
Continuous
 62
     7
100
AcDbLine
 10
198.2875174647556
 20
53.69886432369106
 30
0.0
 11
198.0995253951098
 21
55.67765996382576
 31
0.0
  0
ARC
  5
EA2B
330
1F
100
AcDbEntity
  8
PIC01
  6
Continuous
 62
     7
100
AcDbCircle
 10
205.729035675494
 20
54.28930014618138
 30
0.0
 40
0.5904375000000006
100
AcDbArc
 50
183.7417679009586
 51
270.0000023533165
  0
LINE
  5
EA2C
330
1F
100
AcDbEntity
  8
PIC01
  6
Continuous
 62
     7
100
AcDbLine
 10
198.2875174647556
 20
53.69886432369106
 30
0.0
 11
198.0995253951098
 21
55.67765996382576
 31
0.0
  0
ARC
  5
EA2D
330
1F
100
AcDbEntity
  8
PIC01
  6
Continuous
 62
     7
100
AcDbCircle
 10
205.729035675494
 20
54.28930014618138
 30
0.0
 40
0.5904375000000006
100
AcDbArc
 50
183.7417679009586
 51
270.0000023533165
  0
LINE
  5
EA2E
330
1F
100
AcDbEntity
  8
PIC01
  6
Continuous
 62
     7
100
AcDbLine
 10
198.2875098643269
 20
53.69886432369104
 30
0.0
 11
198.0995177946811
 21
55.67765996382579
 31
0.0
  0
ARC
  5
EA2F
330
1F
100
AcDbEntity
  8
PIC01
  6
Continuous
 62
     7
100
AcDbCircle
 10
205.7290280750653
 20
54.28930014618142
 30
0.0
 40
0.5904375000000006
100
AcDbArc
 50
183.7417679009586
 51
270.0000023533165
  0
LINE
  5
EA30
330
1F
100
AcDbEntity
  8
PIC01
  6
Continuous
 62
     7
100
AcDbLine
 10
204.7145078549573
 20
60.75454127159639
 30
0.0
 11
205.1398492048507
 21
54.25076833725817
 31
0.0
  0
LINE
  5
EA31
330
1F
100
AcDbEntity
  8
PIC01
  6
Continuous
 62
     7
100
AcDbLine
 10
198.2169710974938
 20
61.39700515757687
 30
0.0
 11
198.3289179255357
 21
61.50895198561878
 31
0.0
  0
ARC
  5
EA32
330
1F
100
AcDbEntity
  8
PIC01
  6
Continuous
 62
     7
100
AcDbCircle
 10
198.3185890142728
 20
61.68946116512109
 30
0.0
 40
0.1180875
100
AcDbArc
 50
178.9169298281793
 51
270.0
  0
ARC
  5
EA33
330
1F
100
AcDbEntity
  8
PIC01
  6
Continuous
 62
     7
100
AcDbCircle
 10
198.4723032451325
 20
61.53201116512111
 30
0.0
 40
0.0393625000000187
100
AcDbArc
 50
90.0
 51
150.0000000000111
  0
ARC
  5
EA34
330
1F
100
AcDbEntity
  8
PIC01
  6
Continuous
 62
     7
100
AcDbCircle
 10
198.4041253952196
 20
61.57137366512109
 30
0.0
 40
0.0393625
100
AcDbArc
 50
270.0
 51
330.0000000000433
  0
LINE
  5
EA35
330
1F
100
AcDbEntity
  8
PIC01
  6
Continuous
 62
     7
100
AcDbLine
 10
198.4041253952222
 20
61.53201112016876
 30
0.0
 11
198.3845804116522
 21
61.53201000414154
 31
0.0
  0
LINE
  5
EA36
330
1F
100
AcDbEntity
  8
PIC01
  6
Continuous
 62
     7
100
AcDbLine
 10
198.3185890142728
 20
61.57137366512109
 30
0.0
 11
204.179365164351
 21
61.57137366512109
 31
0.0
  0
LINE
  5
EA37
330
1F
100
AcDbEntity
  8
PIC01
  6
CENTER
 62
     7
100
AcDbLine
 10
199.5204622893291
 20
60.35112682369106
 30
0.0
 11
200.5964362268291
 21
60.35112682369106
 31
0.0
  0
LINE
  5
EA38
330
1F
100
AcDbEntity
  8
PIC01
  6
CENTER
 62
     7
100
AcDbLine
 10
200.0588232018292
 20
60.45738589244106
 30
0.0
 11
200.0588232018292
 21
60.83066441619107
 31
0.0
  0
LINE
  5
EA39
330
1F
100
AcDbEntity
  8
PIC01
  6
CENTER
 62
     7
100
AcDbLine
 10
200.0588232018292
 20
59.63953952478277
 30
0.0
 11
200.0588232018292
 21
60.36835972619101
 31
0.0
  0
LINE
  5
EA3A
330
1F
100
AcDbEntity
  8
PIC01
  6
PHANTOM
 62
     7
100
AcDbLine
 10
199.7144013268292
 20
60.06574869869107
 30
0.0
 11
199.7144013268292
 21
60.63650494869107
 31
0.0
  0
ARC
  5
EA3B
330
1F
100
AcDbEntity
  8
PIC01
  6
PHANTOM
 62
     7
100
AcDbCircle
 10
199.7734450768292
 20
60.63650494869107
 30
0.0
 40
0.05904375
100
AcDbArc
 50
90.0
 51
180.0
  0
LINE
  5
EA3C
330
1F
100
AcDbEntity
  8
PIC01
  6
PHANTOM
 62
     7
100
AcDbLine
 10
199.7734450768292
 20
60.69554869869105
 30
0.0
 11
200.3442013268292
 21
60.69554869869105
 31
0.0
  0
LINE
  5
EA3D
330
1F
100
AcDbEntity
  8
PIC01
  6
PHANTOM
 62
     7
100
AcDbLine
 10
200.4032450768292
 20
60.06574869869107
 30
0.0
 11
200.4032450768292
 21
60.63650494869107
 31
0.0
  0
ARC
  5
EA3E
330
1F
100
AcDbEntity
  8
PIC01
  6
PHANTOM
 62
     7
100
AcDbCircle
 10
200.3442013268292
 20
60.63650494869107
 30
0.0
 40
0.05904375
100
AcDbArc
 50
0.0
 51
90.0
  0
ARC
  5
EA3F
330
1F
100
AcDbEntity
  8
PIC01
  6
PHANTOM
 62
     7
100
AcDbCircle
 10
200.3442013268292
 20
60.06574869869107
 30
0.0
 40
0.05904375
100
AcDbArc
 50
270.0
 51
0.0
  0
LINE
  5
EA40
330
1F
100
AcDbEntity
  8
PIC01
  6
PHANTOM
 62
     7
100
AcDbLine
 10
199.7734450768292
 20
60.00670494869106
 30
0.0
 11
200.3442013268292
 21
60.00670494869106
 31
0.0
  0
ARC
  5
EA41
330
1F
100
AcDbEntity
  8
PIC01
  6
PHANTOM
 62
     7
100
AcDbCircle
 10
199.7734450768292
 20
60.06574869869107
 30
0.0
 40
0.05904375
100
AcDbArc
 50
180.0
 51
270.0
  0
LINE
  5
EA42
330
1F
100
AcDbEntity
  8
PIC01
  6
Continuous
 62
     7
100
AcDbLine
 10
198.2005226116721
 20
61.69169325679096
 30
0.0
 11
198.1938697845648
 21
61.33979222409767
 31
0.0
  0
LINE
  5
EA43
330
1F
100
AcDbEntity
  8
PIC01
  6
Continuous
 62
     7
100
AcDbLine
 10
198.1939271437757
 20
61.3428262373412
 30
0.0
 11
198.0910473153022
 21
55.90100168686205
 31
0.0
  0
LINE
  5
EA44
330
1F
100
AcDbEntity
  8
PIC01
  6
Continuous
 62
     7
100
AcDbLine
 10
204.7144040385901
 20
60.75612869797573
 30
0.0
 11
204.6610876946278
 21
61.57137366512109
 31
0.0
  0
LINE
  5
EA45
330
1F
100
AcDbEntity
  8
PIC01
  6
Continuous
 62
     7
100
AcDbLine
 10
204.179365164351
 20
61.57137366512109
 30
0.0
 11
204.6610876946278
 21
61.57137366512109
 31
0.0
  0
LINE
  5
EA46
330
1F
100
AcDbEntity
  8
PIC01
  6
Continuous
 62
     7
100
AcDbLine
 10
198.2154620330436
 20
62.4819133727766
 30
0.0
 11
198.2205727142733
 21
62.75224265888031
 31
0.0
  0
ARC
  5
EA47
330
1F
100
AcDbEntity
  8
PIC01
  6
Continuous
 62
     7
100
AcDbCircle
 10
198.2726380788427
 20
61.34133817622796
 30
0.0
 40
0.0787250000000006
100
AcDbArc
 50
135.0000000000034
 51
178.9169298281842
  0
ARC
  5
EA48
330
1F
100
AcDbEntity
  8
PIC01
  6
Continuous
 62
     7
100
AcDbCircle
 10
198.3845849068846
 20
61.4532850042699
 30
0.0
 40
0.0787249999999992
100
AcDbArc
 50
90.003271614425
 51
135.0000000000213
  0
LINE
  5
EA49
330
1F
100
AcDbEntity
  8
PIC01
  6
Continuous
 62
     7
100
AcDbLine
 10
198.2229036681252
 20
62.87553837277664
 30
0.0
 11
198.2005226116722
 21
61.69169325679096
 31
0.0
  0
ARC
  5
EA4A
330
1F
100
AcDbEntity
  8
PIC01
  6
Continuous
 62
     7
100
AcDbCircle
 10
198.4983919408597
 20
62.87033015888031
 30
0.0
 40
0.2755375000000007
100
AcDbArc
 50
82.66913007591538
 51
178.9169298281842
  0
LINE
  5
EA4B
330
1F
100
AcDbEntity
  8
PIC01
  6
Continuous
 62
     7
100
AcDbLine
 10
204.6495629166234
 20
62.1315948134104
 30
0.0
 11
204.7138260793419
 21
61.10640224049899
 31
0.0
  0
LINE
  5
EA4C
330
1F
100
AcDbEntity
  8
PIC01
  6
Continuous
 62
     7
100
AcDbLine
 10
204.4097234697156
 20
62.38764206823572
 30
0.0
 11
198.5335502516506
 21
63.14361537086324
 31
0.0
  0
ARC
  5
EA4D
330
1F
100
AcDbEntity
  8
PIC01
  6
Continuous
 62
     7
100
AcDbCircle
 10
204.3745651589247
 20
62.11435685625272
 30
0.0
 40
0.2755375000000007
100
AcDbArc
 50
3.586835182507706
 51
82.66913007591538
  0
LINE
  5
EA4E
330
1F
100
AcDbEntity
  8
PIC01
  6
Continuous
 62
     7
100
AcDbLine
 10
198.3185890142728
 20
61.57137366512109
 30
0.0
 11
199.3813758236966
 21
61.57137366512109
 31
0.0
  0
ARC
  5
EA4F
330
1F
100
AcDbEntity
  8
PIC01
  6
Continuous
 62
     7
100
AcDbCircle
 10
252.8764615411965
 20
55.86380184185352
 30
0.0
 40
3.936249999999998
100
AcDbArc
 50
356.0944475233293
 51
2.91417477907035
  0
LINE
  5
EA50
330
1F
100
AcDbEntity
  8
PIC01
  6
Continuous
 62
     7
100
AcDbLine
 10
256.517477289059
 20
51.40511677606078
 30
0.0
 11
256.8035703203425
 21
55.59569608053126
 31
0.0
  0
LINE
  5
EA51
330
1F
100
AcDbEntity
  8
PIC01
  6
Continuous
 62
     7
100
AcDbLine
 10
240.4326492776923
 20
53.50040642829602
 30
0.0
 11
240.2896027620505
 21
55.59569608053124
 31
0.0
  0
ARC
  5
EA52
330
1F
100
AcDbEntity
  8
PIC01
  6
Continuous
 62
     7
100
AcDbCircle
 10
244.2167115411965
 20
55.86380184185352
 30
0.0
 40
3.936249999999998
100
AcDbArc
 50
178.5827856353204
 51
183.9055524766707
  0
ARC
  5
EA53
330
1F
100
AcDbEntity
  8
PIC01
  6
Continuous
 62
     7
100
AcDbCircle
 10
252.8764572186206
 20
55.86380184185352
 30
0.0
 40
3.936249999999998
100
AcDbArc
 50
356.0944475233293
 51
2.91417477907035
  0
LINE
  5
EA54
330
1F
100
AcDbEntity
  8
PIC01
  6
Continuous
 62
     7
100
AcDbLine
 10
256.517472966483
 20
51.40511677606078
 30
0.0
 11
256.8035659977666
 21
55.59569608053126
 31
0.0
  0
ARC
  5
EA55
330
1F
100
AcDbEntity
  8
PIC01
  6
Continuous
 62
     7
100
AcDbCircle
 10
244.2167072186206
 20
55.86380184185352
 30
0.0
 40
3.936249999999998
100
AcDbArc
 50
178.5827856353204
 51
183.9055524766707
  0
ARC
  5
EA57
330
1F
100
AcDbEntity
  8
PIC01
  6
Continuous
 62
     7
100
AcDbCircle
 10
248.5465822186206
 20
-169.0928846366001
 30
0.0
 40
232.23875
100
AcDbArc
 50
88.14387480988964
 51
91.85612519011035
  0
ARC
  5
EA58
330
1F
100
AcDbEntity
  8
PIC01
  6
Continuous
 62
     7
100
AcDbCircle
 10
256.3539230102409
 20
61.68945921382618
 30
0.0
 40
0.1180874999999955
100
AcDbArc
 50
278.6497628544524
 51
7.282949068235355
  0
ARC
  5
EA59
330
1F
100
AcDbEntity
  8
PIC01
  6
Continuous
 62
     7
100
AcDbCircle
 10
248.5465822186206
 20
113.0115778573849
 30
0.0
 40
52.03065276410557
100
AcDbArc
 50
270.0
 51
278.6497628544524
  0
LINE
  5
EA5A
330
1F
100
AcDbEntity
  8
PIC01
  6
Continuous
 62
     7
100
AcDbLine
 10
256.4706757871422
 20
61.39462556917314
 30
0.0
 11
256.3563501611404
 21
61.50895119517508
 31
0.0
  0
ARC
  5
EA5B
330
1F
100
AcDbEntity
  8
PIC01
  6
Continuous
 62
     7
100
AcDbCircle
 10
256.3006831797914
 20
61.45328421382617
 30
0.0
 40
0.078725
100
AcDbArc
 50
45.00000000000401
 51
90.0
  0
LINE
  5
EA5C
330
1F
100
AcDbEntity
  8
PIC01
  6
Continuous
 62
     7
100
AcDbLine
 10
256.3006831797914
 20
61.53200921382616
 30
0.0
 11
256.2707671150928
 21
61.53200921382616
 31
0.0
  0
ARC
  5
EA5D
330
1F
100
AcDbEntity
  8
PIC01
  6
Continuous
 62
     7
100
AcDbCircle
 10
256.2707671150928
 20
61.57137171382617
 30
0.0
 40
0.0393625
100
AcDbArc
 50
209.9999999999983
 51
270.0
  0
ARC
  5
EA5E
330
1F
100
AcDbEntity
  8
PIC01
  6
Continuous
 62
     7
100
AcDbCircle
 10
256.4150088057933
 20
61.3389585878242
 30
0.0
 40
0.0787250000000006
100
AcDbArc
 50
5.344097927100063
 51
45.00000000000401
  0
ARC
  5
EA5F
330
1F
100
AcDbEntity
  8
PIC01
  6
Continuous
 62
     7
100
AcDbCircle
 10
178.1105847922966
 20
54.01408486925694
 30
0.0
 40
78.72499999999994
100
AcDbArc
 50
5.344211262339686
 51
5.508649700276623
  0
ARC
  5
EA60
330
1F
100
AcDbEntity
  8
PIC01
  6
Continuous
 62
     7
100
AcDbCircle
 10
178.1105847922966
 20
54.01408486925694
 30
0.0
 40
78.72499999999994
100
AcDbArc
 50
1.417214364679623
 51
5.344211262339686
  0
LINE
  5
EA61
330
1F
100
AcDbEntity
  8
PIC01
  6
Continuous
 62
     7
100
AcDbLine
 10
256.3331457258466
 20
62.78354923492275
 30
0.0
 11
256.4710578053781
 21
61.70442909774018
 31
0.0
  0
ARC
  5
EA62
330
1F
100
AcDbEntity
  8
PIC01
  6
Continuous
 62
     7
100
AcDbCircle
 10
256.0598312038597
 20
62.74861950579011
 30
0.0
 40
0.2755374999999997
100
AcDbArc
 50
7.282949068235355
 51
88.14387480988964
  0
ARC
  5
EA63
330
1F
100
AcDbEntity
  8
PIC01
  6
Continuous
 62
     7
100
AcDbCircle
 10
256.2025892651798
 20
61.53200921382616
 30
0.0
 40
0.0393624999999994
100
AcDbArc
 50
29.99999999999832
 51
31.03748309035626
  0
ARC
  5
EA64
330
1F
100
AcDbEntity
  8
PIC01
  6
Continuous
 62
     7
100
AcDbCircle
 10
248.5465822186206
 20
213.7586485033297
 30
0.0
 40
151.4000391883319
100
AcDbArc
 50
270.0
 51
272.7689764288003
  0
ARC
  5
EA65
330
1F
100
AcDbEntity
  8
PIC01
  6
Continuous
 62
     7
100
AcDbCircle
 10
255.8415428715509
 20
62.92854316924768
 30
0.0
 40
0.3936249999999978
100
AcDbArc
 50
272.7689764288003
 51
337.6118326777409
  0
LINE
  5
EA66
330
1F
100
AcDbEntity
  8
PIC01
  6
Continuous
 62
     7
100
AcDbLine
 10
256.517472966483
 20
51.40511677606078
 30
0.0
 11
256.8035659977666
 21
55.59569608053126
 31
0.0
  0
ARC
  5
EA67
330
1F
100
AcDbEntity
  8
PIC01
  6
Continuous
 62
     7
100
AcDbCircle
 10
252.8764572186206
 20
55.86380184185352
 30
0.0
 40
3.936249999999998
100
AcDbArc
 50
356.0944475233293
 51
2.91417477907035
  0
ARC
  5
EA68
330
1F
100
AcDbEntity
  8
PIC01
  6
Continuous
 62
     7
100
AcDbCircle
 10
318.9825796449446
 20
54.01408648722494
 30
0.0
 40
78.72499999999998
100
AcDbArc
 50
174.6559020729096
 51
178.5827856353204
  0
ARC
  5
EA69
330
1F
100
AcDbEntity
  8
PIC01
  6
Continuous
 62
     7
100
AcDbCircle
 10
240.7392415863395
 20
61.68945926412396
 30
0.0
 40
0.1180876516773862
100
AcDbArc
 50
172.7170849398705
 51
261.2968044393842
  0
LINE
  5
EA6A
330
1F
100
AcDbEntity
  8
PIC01
  6
Continuous
 62
     7
100
AcDbLine
 10
240.7924812574498
 20
61.53200921382616
 30
0.0
 11
240.8223973221484
 21
61.53200921382616
 31
0.0
  0
LINE
  5
EA6B
330
1F
100
AcDbEntity
  8
PIC01
  6
Continuous
 62
     7
100
AcDbLine
 10
240.6224886500989
 20
61.39462556917314
 30
0.0
 11
240.7368142761009
 21
61.50895119517508
 31
0.0
  0
ARC
  5
EA6C
330
1F
100
AcDbEntity
  8
PIC01
  6
Continuous
 62
     7
100
AcDbCircle
 10
240.6781556314478
 20
61.3389585878242
 30
0.0
 40
0.0787250000000006
100
AcDbArc
 50
134.999999999993
 51
174.6559020728999
  0
ARC
  5
EA6D
330
1F
100
AcDbEntity
  8
PIC01
  6
Continuous
 62
     7
100
AcDbCircle
 10
240.7924812574498
 20
61.45328421382617
 30
0.0
 40
0.078725
100
AcDbArc
 50
90.0
 51
134.9999999999959
  0
ARC
  5
EA6E
330
1F
100
AcDbEntity
  8
PIC01
  6
Continuous
 62
     7
100
AcDbCircle
 10
240.8905751720614
 20
61.53200921382616
 30
0.0
 40
0.0393624999999994
100
AcDbArc
 50
148.9625583477176
 51
149.9999999999936
  0
ARC
  5
EA6F
330
1F
100
AcDbEntity
  8
PIC01
  6
Continuous
 62
     7
100
AcDbCircle
 10
240.8223973221484
 20
61.57137171382617
 30
0.0
 40
0.0393625
100
AcDbArc
 50
270.0
 51
330.0000000000017
  0
LINE
  5
EA70
330
1F
100
AcDbEntity
  8
PIC01
  6
Continuous
 62
     7
100
AcDbLine
 10
240.5997728246275
 20
61.34629079212913
 30
0.0
 11
240.6211539270004
 21
61.57137171382617
 31
0.0
  0
LINE
  5
EA71
330
1F
100
AcDbEntity
  8
PIC01
  6
Continuous
 62
     7
100
AcDbLine
 10
240.6211539270004
 20
61.57137171382617
 30
0.0
 11
240.6211539270004
 21
61.68945921382618
 31
0.0
  0
LINE
  5
EA72
330
1F
100
AcDbEntity
  8
PIC01
  6
Continuous
 62
     7
100
AcDbLine
 10
240.7600187113945
 20
62.78354923492275
 30
0.0
 11
240.622106631863
 21
61.70442909774018
 31
0.0
  0
ARC
  5
EA73
330
1F
100
AcDbEntity
  8
PIC01
  6
Continuous
 62
     7
100
AcDbCircle
 10
241.0333332333815
 20
62.74861950579011
 30
0.0
 40
0.2755374999999997
100
AcDbArc
 50
91.85612519011035
 51
172.7170509317598
  0
LINE
  5
EA74
330
1F
100
AcDbEntity
  8
PIC01
  6
Continuous
 62
     7
100
AcDbLine
 10
240.7303157346804
 20
61.57137171382617
 30
0.0
 11
240.6211539270004
 21
61.57137171382617
 31
0.0
  0
ARC
  5
EA75
330
1F
100
AcDbEntity
  8
PIC01
  6
Continuous
 62
     7
100
AcDbCircle
 10
248.5465820407313
 20
113.0115778573845
 30
0.0
 40
52.03065276410518
100
AcDbArc
 50
261.3501162346342
 51
270.0
  0
ARC
  5
EA76
330
1F
100
AcDbEntity
  8
PIC01
  6
Continuous
 62
     7
100
AcDbCircle
 10
248.5465822186205
 20
213.7586485033297
 30
0.0
 40
151.4000391883319
100
AcDbArc
 50
267.2310235711996
 51
270.0
  0
ARC
  5
EA77
330
1F
100
AcDbEntity
  8
PIC01
  6
Continuous
 62
     7
100
AcDbCircle
 10
241.2516215656903
 20
62.92854316924768
 30
0.0
 40
0.3936249999999977
100
AcDbArc
 50
202.388167322259
 51
267.2310235711996
  0
LINE
  5
EA78
330
1F
100
AcDbEntity
  8
PIC01
  6
Continuous
 62
     7
100
AcDbLine
 10
255.3360582120916
 20
53.69885882651261
 30
0.0
 11
241.7571062251494
 21
53.69885882651261
 31
0.0
  0
ARC
  5
EA79
330
1F
100
AcDbEntity
  8
PIC01
  6
Continuous
 62
     7
100
AcDbCircle
 10
255.3360582120916
 20
53.3839588265126
 30
0.0
 40
0.3149
100
AcDbArc
 50
356.0710171567685
 51
90.0
  0
ARC
  5
EA7A
330
1F
100
AcDbEntity
  8
PIC01
  6
Continuous
 62
     7
100
AcDbCircle
 10
246.6181208485458
 20
53.98271875412666
 30
0.0
 40
9.053374999999995
100
AcDbArc
 50
346.7160698412433
 51
356.0710171567685
  0
ARC
  5
EA7B
330
1F
100
AcDbEntity
  8
PIC01
  6
Continuous
 62
     7
100
AcDbCircle
 10
241.7571062251494
 20
53.3839588265126
 30
0.0
 40
0.3149
100
AcDbArc
 50
90.0
 51
183.9289828432315
  0
ARC
  5
EA7C
330
1F
100
AcDbEntity
  8
PIC01
  6
Continuous
 62
     7
100
AcDbCircle
 10
250.4750435886953
 20
53.98271875412666
 30
0.0
 40
9.053374999999995
100
AcDbArc
 50
183.9289828432315
 51
193.2839301587559
  0
ARC
  5
EA7D
330
1F
100
AcDbEntity
  8
PIC01
  6
Continuous
 62
     7
100
AcDbCircle
 10
251.5983287613561
 20
52.80692225353368
 30
0.0
 40
3.936249999999997
100
AcDbArc
 50
340.3366861993471
 51
346.7160698412433
  0
ARC
  5
EA7E
330
1F
100
AcDbEntity
  8
PIC01
  6
Continuous
 62
     7
100
AcDbCircle
 10
245.494835675885
 20
52.80692225353356
 30
0.0
 40
3.93625
100
AcDbArc
 50
193.2839301587559
 51
199.6633138006528
  0
LINE
  5
EADF
330
1F
100
AcDbEntity
  8
0
  6
HIDDEN
 62
     0
 48
0.1
100
AcDbLine
 10
198.8683658275656
 20
37.56248195979019
 30
0.0
 11
203.0435723389679
 21
37.56248195979019
 31
0.0
  0
LINE
  5
EAF4
330
1F
100
AcDbEntity
  8
0
  6
HIDDEN
 62
     0
 48
0.1
100
AcDbLine
 10
211.1586694572368
 20
37.56248195979019
 30
0.0
 11
208.6068153094102
 21
37.56248195979019
 31
0.0
  0
LINE
  5
EB00
330
1F
100
AcDbEntity
  8
0
  6
HIDDEN
 62
     0
 48
0.1
100
AcDbLine
 10
212.1586694572368
 20
37.56248195979019
 30
0.0
 11
209.6068153094102
 21
37.56248195979019
 31
0.0
  0
LINE
  5
EB03
330
1F
100
AcDbEntity
  8
0
  6
HIDDEN
 62
     0
 48
0.1
100
AcDbLine
 10
213.1586694572368
 20
37.56248195979019
 30
0.0
 11
210.6068153094102
 21
37.56248195979019
 31
0.0
  0
LINE
  5
EC29
330
1F
100
AcDbEntity
  8
0
  6
CENTER
 48
0.001
100
AcDbLine
 10
207.9313279907331
 20
86.18290993100178
 30
0.0
 11
207.9313279907331
 21
84.60790993100177
 31
0.0
  0
LINE
  5
EC2A
330
1F
100
AcDbEntity
  8
0
  6
CENTER
 48
0.001
100
AcDbLine
 10
207.1438279907331
 20
85.39540993100176
 30
0.0
 11
208.718827990733
 21
85.39540993100176
 31
0.0
  0
LINE
  5
EC2B
330
1F
100
AcDbEntity
  8
0
  6
CENTER
 48
0.001
100
AcDbLine
 10
207.9286149147003
 20
80.67215993100175
 30
0.0
 11
207.9286149147003
 21
79.09715993100174
 31
0.0
  0
LINE
  5
EC2C
330
1F
100
AcDbEntity
  8
0
  6
CENTER
 48
0.001
100
AcDbLine
 10
207.1411149147003
 20
79.88465993100174
 30
0.0
 11
208.7161149147003
 21
79.88465993100174
 31
0.0
  0
VIEWPORT
  5
73F1
102
{ACAD_XDICTIONARY
360
ED3F
102
}
330
73E5
100
AcDbEntity
 67
     1
  8
0
100
AcDbViewport
 10
4.249969508324248
 20
5.500000025611372
 30
0.0
 40
18.56886585041724
 41
11.09208970849282
 68
     1
 69
     1
 12
4.249969508324248
 22
5.500000025611372
 13
0.0
 23
0.0
 14
0.5
 24
0.5
 15
0.5
 25
0.5
 16
0.0
 26
0.0
 36
1.0
 17
0.0
 27
0.0
 37
0.0
 42
50.0
 43
0.0
 44
0.0
 45
11.09208970849282
 50
0.0
 51
0.0
 72
  1000
 90
    32800
  1

281
     0
 71
     1
 74
     0
110
0.0
120
0.0
130
0.0
111
1.0
121
0.0
131
0.0
112
0.0
122
1.0
132
0.0
 79
     0
146
0.0
  0
VIEWPORT
  5
73F3
102
{ACAD_XDICTIONARY
360
ED41
102
}
330
73E5
100
AcDbEntity
 67
     1
  8
Defpoints
 62
     5
100
AcDbViewport
 10
4.25
 20
5.5
 30
0.0
 40
8.5
 41
11.0
 68
     2
 69
     2
 12
226.8938591829288
 22
67.65919973681771
 13
0.0
 23
0.0
 14
0.5
 24
0.5
 15
0.5
 25
0.5
 16
0.0
 26
0.0
 36
1.0
 17
0.0
 27
0.0
 37
0.0
 42
50.0
 43
0.0
 44
0.0
 45
88.00000018827637
 50
0.0
 51
0.0
 72
  1000
 90
    32864
  1

281
     0
 71
     1
 74
     0
110
0.0
120
0.0
130
0.0
111
1.0
121
0.0
131
0.0
112
0.0
122
1.0
132
0.0
 79
     0
146
0.0
  0
ENDSEC
  0
SECTION
  2
OBJECTS
  0
DICTIONARY
  5
C
330
0
100
AcDbDictionary
281
     1
  3
ACAD_2007HEADERVARS_RT
350
ED33
  3
ACAD_COLOR
350
73
  3
ACAD_GROUP
350
D
  3
ACAD_LAYOUT
350
1A
  3
ACAD_MATERIAL
350
72
  3
ACAD_MLINESTYLE
350
17
  3
ACAD_PLOTSETTINGS
350
19
  3
ACAD_PLOTSTYLENAME
350
E
  3
ACAD_TABLESTYLE
350
86
  3
ACAD_VISUALSTYLE
350
ED18
  3
AcDbVariableDictionary
350
66
  3
ASE_INDEX_DICTIONARY
350
CF30
  3
DWGPROPS
350
ED32
  0
DICTIONARY
  5
97
330
2
100
AcDbDictionary
280
     1
281
     1
  3
ACAD_LAYERFILTERS
360
36CA
  3
ACAD_LAYERSTATES
360
98
  3
ACLYDICTIONARY
360
36C9
  0
DICTIONARY
  5
C9C7
330
1F
100
AcDbDictionary
280
     1
281
     1
  3
ACAD_SORTENTS
360
C9C8
  0
DICTIONARY
  5
ECA4
330
73E5
100
AcDbDictionary
280
     1
281
     1
  3
ACAD_SORTENTS
360
ECA5
  0
DICTIONARY
  5
B3
330
B2
100
AcDbDictionary
280
     1
281
     1
  3
ACAD_SORTENTS
360
B4
  0
DICTIONARY
  5
4312
330
4311
100
AcDbDictionary
280
     1
281
     1
  3
ACAD_SORTENTS
360
4313
  0
DICTIONARY
  5
E0CC
330
E09F
100
AcDbDictionary
280
     1
281
     1
  3
ACAD_SORTENTS
360
E0CD
  0
DICTIONARY
  5
ED3F
330
73F1
100
AcDbDictionary
280
     1
281
     1
  3
ACAD_XREC_ROUNDTRIP
360
ED40
  0
DICTIONARY
  5
ED41
330
73F3
100
AcDbDictionary
280
     1
281
     1
  3
ACAD_XREC_ROUNDTRIP
360
ED42
  0
DICTIONARY
  5
ED33
102
{ACAD_REACTORS
330
C
102
}
330
C
100
AcDbDictionary
281
     1
  3
DIMFXL
350
ED34
  3
DIMLTEX1
350
ED36
  3
DIMLTEX2
350
ED37
  3
DIMLTYPE
350
ED35
  0
DICTIONARY
  5
73
102
{ACAD_REACTORS
330
C
102
}
330
C
100
AcDbDictionary
281
     1
  0
DICTIONARY
  5
D
102
{ACAD_REACTORS
330
C
102
}
330
C
100
AcDbDictionary
281
     1
  0
DICTIONARY
  5
1A
102
{ACAD_REACTORS
330
C
102
}
330
C
100
AcDbDictionary
281
     1
  3
Model
350
22
  3
toilet 8.5x11
350
73E6
  0
DICTIONARY
  5
72
102
{ACAD_REACTORS
330
C
102
}
330
C
100
AcDbDictionary
281
     1
  3
ByBlock
350
ED17
  3
ByLayer
350
ED16
  3
Global
350
43D6
  0
DICTIONARY
  5
17
102
{ACAD_REACTORS
330
C
102
}
330
C
100
AcDbDictionary
281
     1
  3
Standard
350
18
  0
DICTIONARY
  5
19
102
{ACAD_REACTORS
330
C
102
}
330
C
100
AcDbDictionary
281
     1
  3
Setup1
350
A580
  0
ACDBDICTIONARYWDFLT
  5
E
102
{ACAD_REACTORS
330
C
102
}
330
C
100
AcDbDictionary
281
     1
  3
Normal
350
F
100
AcDbDictionaryWithDefault
340
F
  0
DICTIONARY
  5
86
102
{ACAD_REACTORS
330
C
102
}
330
C
100
AcDbDictionary
281
     1
  3
Standard
350
87
  0
DICTIONARY
  5
ED18
102
{ACAD_REACTORS
330
C
102
}
330
C
100
AcDbDictionary
281
     1
  3
2dWireframe
350
ED1E
  3
3D Hidden
350
ED20
  3
3dWireframe
350
ED1F
  3
Basic
350
ED1D
  3
Brighten
350
ED24
  3
ColorChange
350
ED28
  3
Conceptual
350
ED21
  3
Dim
350
ED23
  3
Facepattern
350
ED27
  3
Flat
350
ED19
  3
FlatWithEdges
350
ED1A
  3
Gouraud
350
ED1B
  3
GouraudWithEdges
350
ED1C
  3
Linepattern
350
ED26
  3
Realistic
350
ED22
  3
Thicken
350
ED25
  0
DICTIONARY
  5
66
102
{ACAD_REACTORS
330
C
102
}
330
C
100
AcDbDictionary
281
     1
  3
CTABLESTYLE
350
36F
  3
DIMASSOC
350
67
  3
HIDETEXT
350
6B
  3
INDEXCTL
350
ED31
  3
SORTENTS
350
ED30
  0
DICTIONARY
  5
CF30
102
{ACAD_REACTORS
330
C
102
}
330
C
100
AcDbDictionary
281
     1
  3
ASEBlockHierarchyIndexRecord
350
CF31
1001
DCO15
1040
1662369317.164
  0
XRECORD
  5
ED32
102
{ACAD_REACTORS
330
C
102
}
330
C
100
AcDbXrecord
280
     1
  1
DWGPROPS COOKIE
  2

  3

  4

  6

  7

  8
jgayle
  9

300
=
301
=
302
=
303
=
304
=
305
=
306
=
307
=
308
=
309
=
 40
0.3275515162037037
 41
2455131.219719143
 42
2455231.619458854
  1

 90
        0
  0
DICTIONARY
  5
36CA
102
{ACAD_REACTORS
330
97
102
}
330
97
100
AcDbDictionary
281
     1
  0
DICTIONARY
  5
98
102
{ACAD_REACTORS
330
97
102
}
330
97
100
AcDbDictionary
281
     1
  0
DICTIONARY
  5
36C9
102
{ACAD_REACTORS
330
97
102
}
330
97
100
AcDbDictionary
281
     1
1001
ACAD
1000
<All
  0
SORTENTSTABLE
  5
C9C8
102
{ACAD_REACTORS
330
C9C7
102
}
330
C9C7
100
AcDbSortentsTable
330
1F
331
EA6F
  5
EA6F
331
EA58
  5
EA58
331
EA1A
  5
EA1A
331
EA39
  5
EA39
331
E99E
  5
E99E
331
E97F
  5
E97F
331
E9BD
  5
E9BD
331
E9DC
  5
E9DC
331
E9F3
  5
E9F3
331
EA70
  5
EA70
331
EA1B
  5
EA1B
331
EA3A
  5
EA3A
331
EA59
  5
EA59
331
E9DD
  5
E9DD
331
E980
  5
E980
331
E99F
  5
E99F
331
EA71
  5
EA71
331
EB00
  5
EB00
331
EA5A
  5
EA5A
331
EA1C
  5
EA1C
331
EA3B
  5
EA3B
331
E9A0
  5
E9A0
331
E981
  5
E981
331
E9DE
  5
E9DE
331
E9F5
  5
E9F5
331
EA72
  5
EA72
331
EA1D
  5
EA1D
331
EA3C
  5
EA3C
331
EA5B
  5
EA5B
331
E9DF
  5
E9DF
331
E982
  5
E982
331
E9A1
  5
E9A1
331
EA73
  5
EA73
331
EA5C
  5
EA5C
331
EA1E
  5
EA1E
331
EA3D
  5
EA3D
331
E9A2
  5
E9A2
331
E983
  5
E983
331
E9F7
  5
E9F7
331
EA74
  5
EA74
331
EB03
  5
EB03
331
EA1F
  5
EA1F
331
EA3E
  5
EA3E
331
EA5D
  5
EA5D
331
E984
  5
E984
331
E9A3
  5
E9A3
331
E9F8
  5
E9F8
331
EA75
  5
EA75
331
EA5E
  5
EA5E
331
EA20
  5
EA20
331
EA3F
  5
EA3F
331
E9F9
  5
E9F9
331
E9A4
  5
E9A4
331
E985
  5
E985
331
EA76
  5
EA76
331
EA21
  5
EA21
331
EA40
  5
EA40
331
EA5F
  5
EA5F
331
E9C4
  5
E9C4
331
E986
  5
E986
331
E9A5
  5
E9A5
331
E9FA
  5
E9FA
331
EA77
  5
EA77
331
EA41
  5
EA41
331
EA22
  5
EA22
331
E9FB
  5
E9FB
331
E9A6
  5
E9A6
331
E987
  5
E987
331
E9C5
  5
E9C5
331
EA78
  5
EA78
331
EA23
  5
EA23
331
EA42
  5
EA42
331
E9C6
  5
E9C6
331
E9A7
  5
E9A7
331
EA79
  5
EA79
331
EA43
  5
EA43
331
EA24
  5
EA24
331
E9FD
  5
E9FD
331
E9C7
  5
E9C7
331
EA7A
  5
EA7A
331
EA25
  5
EA25
331
EA44
  5
EA44
331
E9FE
  5
E9FE
331
EA7B
  5
EA7B
331
EA45
  5
EA45
331
EA26
  5
EA26
331
E9FF
  5
E9FF
331
EA7C
  5
EA7C
331
EA27
  5
EA27
331
EA46
  5
EA46
331
EA7D
  5
EA7D
331
EA47
  5
EA47
331
EA7E
  5
EA7E
331
EC29
  5
EC29
331
EC2A
  5
EC2A
331
EC2B
  5
EC2B
331
EC2C
  5
EC2C
331
E988
  5
E988
331
E989
  5
E989
331
E9A8
  5
E9A8
331
E9A9
  5
E9A9
331
E98A
  5
E98A
331
E9C8
  5
E9C8
331
E98B
  5
E98B
331
E9AA
  5
E9AA
331
E9C9
  5
E9C9
331
E9E0
  5
E9E0
331
EA00
  5
EA00
331
E9AB
  5
E9AB
331
E98C
  5
E98C
331
E9CA
  5
E9CA
331
CB6A
  5
CB6A
331
E9E1
  5
E9E1
331
EA01
  5
EA01
331
E98D
  5
E98D
331
E9AC
  5
E9AC
331
E9CB
  5
E9CB
331
E9E2
  5
E9E2
331
EA28
  5
EA28
331
EA02
  5
EA02
331
E9AD
  5
E9AD
331
E98E
  5
E98E
331
E9CC
  5
E9CC
331
E9E3
  5
E9E3
331
EA29
  5
EA29
331
EA48
  5
EA48
331
EA60
  5
EA60
331
EA49
  5
EA49
331
EA03
  5
EA03
331
E98F
  5
E98F
331
E9AE
  5
E9AE
331
E9CD
  5
E9CD
331
E9E4
  5
E9E4
331
EA2A
  5
EA2A
331
EA61
  5
EA61
331
EA04
  5
EA04
331
E990
  5
E990
331
E9AF
  5
E9AF
331
E9CE
  5
E9CE
331
E9E5
  5
E9E5
331
EA2B
  5
EA2B
331
EA4A
  5
EA4A
331
EA62
  5
EA62
331
EA05
  5
EA05
331
E991
  5
E991
331
E9B0
  5
E9B0
331
E9CF
  5
E9CF
331
E9E6
  5
E9E6
331
EA2C
  5
EA2C
331
EA4B
  5
EA4B
331
EA63
  5
EA63
331
EA06
  5
EA06
331
E9B1
  5
E9B1
331
E992
  5
E992
331
E9D0
  5
E9D0
331
E9E7
  5
E9E7
331
EA2D
  5
EA2D
331
EA4C
  5
EA4C
331
EA64
  5
EA64
331
EA07
  5
EA07
331
EA2E
  5
EA2E
331
EA4D
  5
EA4D
331
E9D1
  5
E9D1
331
E993
  5
E993
331
E9B2
  5
E9B2
331
E9E8
  5
E9E8
331
EA65
  5
EA65
331
EA2F
  5
EA2F
331
EA4E
  5
EA4E
331
EA08
  5
EA08
331
E994
  5
E994
331
E9B3
  5
E9B3
331
E9D2
  5
E9D2
331
E9E9
  5
E9E9
331
EA66
  5
EA66
331
EA30
  5
EA30
331
EA4F
  5
EA4F
331
E9D3
  5
E9D3
331
E995
  5
E995
331
E9B4
  5
E9B4
331
E9EA
  5
E9EA
331
EA09
  5
EA09
331
EA67
  5
EA67
331
EA31
  5
EA31
331
EA50
  5
EA50
331
E996
  5
E996
331
E9B5
  5
E9B5
331
E9D4
  5
E9D4
331
E9EB
  5
E9EB
331
EADF
  5
EADF
331
EA68
  5
EA68
331
EA32
  5
EA32
331
EA51
  5
EA51
331
E9D5
  5
E9D5
331
E997
  5
E997
331
E9B6
  5
E9B6
331
EA69
  5
EA69
331
EA33
  5
EA33
331
EA52
  5
EA52
331
E998
  5
E998
331
E9B7
  5
E9B7
331
E9D6
  5
E9D6
331
EA6A
  5
EA6A
331
EA34
  5
EA34
331
EA53
  5
EA53
331
E9D7
  5
E9D7
331
E999
  5
E999
331
E9EE
  5
E9EE
331
EA6B
  5
EA6B
331
EA35
  5
EA35
331
EA54
  5
EA54
331
E99A
  5
E99A
331
E9D8
  5
E9D8
331
E9EF
  5
E9EF
331
EA6C
  5
EA6C
331
EA36
  5
EA36
331
EA55
  5
EA55
331
E9D9
  5
E9D9
331
E97C
  5
E97C
331
E99B
  5
E99B
331
E9F0
  5
E9F0
331
EAF4
  5
EAF4
331
EA6D
  5
EA6D
331
EA37
  5
EA37
331
E99C
  5
E99C
331
E97D
  5
E97D
331
E9BB
  5
E9BB
331
E9DA
  5
E9DA
331
E9F1
  5
E9F1
331
EA6E
  5
EA6E
331
EA38
  5
EA38
331
EA19
  5
EA19
331
EA57
  5
EA57
331
E9DB
  5
E9DB
331
E97E
  5
E97E
331
E99D
  5
E99D
331
E9BC
  5
E9BC
331
E9F2
  5
E9F2
  0
SORTENTSTABLE
  5
ECA5
102
{ACAD_REACTORS
330
ECA4
102
}
330
ECA4
100
AcDbSortentsTable
330
73E5
331
73F1
  5
73F1
331
73F3
  5
73F3
  0
SORTENTSTABLE
  5
B4
102
{ACAD_REACTORS
330
B3
102
}
330
B3
100
AcDbSortentsTable
330
B2
  0
SORTENTSTABLE
  5
4313
102
{ACAD_REACTORS
330
4312
102
}
330
4312
100
AcDbSortentsTable
330
4311
  0
SORTENTSTABLE
  5
E0CD
102
{ACAD_REACTORS
330
E0CC
102
}
330
E0CC
100
AcDbSortentsTable
330
E09F
  0
XRECORD
  5
ED40
102
{ACAD_REACTORS
330
ED3F
102
}
330
ED3F
100
AcDbXrecord
280
     1
102
SHADEPLOT
 70
     0
  0
XRECORD
  5
ED42
102
{ACAD_REACTORS
330
ED41
102
}
330
ED41
100
AcDbXrecord
280
     1
102
SHADEPLOT
 70
     0
  0
XRECORD
  5
ED34
102
{ACAD_REACTORS
330
ED33
102
}
330
ED33
100
AcDbXrecord
280
     1
 40
0.18
  0
XRECORD
  5
ED36
102
{ACAD_REACTORS
330
ED33
102
}
330
ED33
100
AcDbXrecord
280
     1
340
15
  0
XRECORD
  5
ED37
102
{ACAD_REACTORS
330
ED33
102
}
330
ED33
100
AcDbXrecord
280
     1
340
15
  0
XRECORD
  5
ED35
102
{ACAD_REACTORS
330
ED33
102
}
330
ED33
100
AcDbXrecord
280
     1
340
15
  0
LAYOUT
  5
22
102
{ACAD_XDICTIONARY
360
ED38
102
}
102
{ACAD_REACTORS
330
1A
102
}
330
1A
100
AcDbPlotSettings
  1

  2
none_device
  4
ANSI_A_(8.50_x_11.00_Inches)
  6

 40
6.349999904632568
 41
19.04999923706055
 42
6.350006103515625
 43
19.04998779296875
 44
215.8999938964844
 45
279.3999938964844
 46
0.0
 47
0.0
 48
0.0
 49
0.0
140
0.0
141
0.0
142
1.0
143
2.584895464708373
 70
 11952
 72
     0
 73
     1
 74
     0
  7

 75
     0
147
0.3868628397755418
148
0.0
149
0.0
100
AcDbLayout
  1
Model
 70
     1
 71
     0
 10
0.0
 20
0.0
 11
12.0
 21
9.0
 12
0.0
 22
0.0
 32
0.0
 14
0.0
 24
0.0
 34
0.0
 15
0.0
 25
0.0
 35
0.0
146
0.0
 13
0.0
 23
0.0
 33
0.0
 16
1.0
 26
0.0
 36
0.0
 17
0.0
 27
1.0
 37
0.0
 76
     0
330
1F
331
ED14
  0
LAYOUT
  5
73E6
102
{ACAD_XDICTIONARY
360
73F9
102
}
102
{ACAD_REACTORS
330
1A
102
}
330
1A
100
AcDbPlotSettings
  1

  2
none_device
  4
Letter_(8.50_x_11.00_Inches)
  6

 40
6.349999904632568
 41
6.349999904632568
 42
6.350006103515625
 43
6.350006103515625
 44
215.8999938964844
 45
279.3999938964844
 46
0.0
 47
0.0
 48
0.0
 49
0.0
140
0.0
141
0.0
142
1.0
143
1.0
 70
   688
 72
     0
 73
     1
 74
     5
  7

 75
    16
147
1.0
148
0.0
149
0.0
100
AcDbLayout
  1
toilet 8.5x11
 70
     1
 71
     1
 10
0.0
 20
0.0
 11
12.0
 21
9.0
 12
0.0
 22
0.0
 32
0.0
 14
0.0
 24
0.0
 34
0.0
 15
8.5
 25
11.0
 35
0.0
146
0.0
 13
0.0
 23
0.0
 33
0.0
 16
1.0
 26
0.0
 36
0.0
 17
0.0
 27
1.0
 37
0.0
 76
     0
330
73E5
331
73F1
1001
ACAD_PSEXT
1000
None
1000
None
1000
Not applicable
1000
The layout will not be plotted unless a new plotter configuration name is selected.
1070
     0
  0
MATERIAL
  5
ED17
102
{ACAD_XDICTIONARY
360
ED48
102
}
102
{ACAD_REACTORS
330
72
102
}
330
72
100
AcDbMaterial
  1
ByBlock
  0
MATERIAL
  5
ED16
102
{ACAD_XDICTIONARY
360
ED46
102
}
102
{ACAD_REACTORS
330
72
102
}
330
72
100
AcDbMaterial
  1
ByLayer
  0
MATERIAL
  5
43D6
102
{ACAD_XDICTIONARY
360
ED3C
102
}
102
{ACAD_REACTORS
330
72
102
}
330
72
100
AcDbMaterial
  1
Global
  0
MLINESTYLE
  5
18
102
{ACAD_REACTORS
330
17
102
}
330
17
100
AcDbMlineStyle
  2
STANDARD
 70
     0
  3

 62
   256
 51
90.0
 52
90.0
 71
     2
 49
0.5
 62
   256
  6
BYLAYER
 49
-0.5
 62
   256
  6
BYLAYER
  0
PLOTSETTINGS
  5
A580
102
{ACAD_XDICTIONARY
360
ED43
102
}
102
{ACAD_REACTORS
330
19
102
}
330
19
100
AcDbPlotSettings
  1
Setup1
  2
none_device
  4
Letter_(8.50_x_11.00_Inches)
  6

 40
6.349999904632568
 41
6.349999904632568
 42
6.350006103515625
 43
6.350006103515625
 44
215.8999938964844
 45
279.3999938964844
 46
0.0
 47
0.0
 48
0.0
 49
0.0
140
0.0
141
0.0
142
1.0
143
1.0
 70
 15024
 72
     0
 73
     1
 74
     5
  7

 75
    16
147
1.0
148
0.0
149
0.0
1001
ACAD_PSEXT
1000
None
1000
None
1000
Not applicable
1000
The layout will not be plotted unless a new plotter configuration name is selected.
1070
     0
  0
ACDBPLACEHOLDER
  5
F
102
{ACAD_REACTORS
330
E
102
}
330
E
  0
TABLESTYLE
  5
87
102
{ACAD_XDICTIONARY
360
ED3A
102
}
102
{ACAD_REACTORS
330
86
102
}
330
86
100
AcDbTableStyle
  3
Standard
 70
     0
 71
     0
 40
0.06
 41
0.06
280
     0
281
     0
  7
Standard
140
0.18
170
     2
 62
     0
 63
     7
283
     0
274
    -2
284
     1
 64
     0
275
    -2
285
     1
 65
     0
276
    -2
286
     1
 66
     0
277
    -2
287
     1
 67
     0
278
    -2
288
     1
 68
     0
279
    -2
289
     1
 69
     0
  7
Standard
140
0.25
170
     5
 62
     0
 63
     7
283
     0
274
    -2
284
     1
 64
     0
275
    -2
285
     1
 65
     0
276
    -2
286
     1
 66
     0
277
    -2
287
     1
 67
     0
278
    -2
288
     1
 68
     0
279
    -2
289
     1
 69
     0
  7
Standard
140
0.18
170
     5
 62
     0
 63
     7
283
     0
274
    -2
284
     1
 64
     0
275
    -2
285
     1
 65
     0
276
    -2
286
     1
 66
     0
277
    -2
287
     1
 67
     0
278
    -2
288
     1
 68
     0
279
    -2
289
     1
 69
     0
  0
VISUALSTYLE
  5
ED1E
102
{ACAD_REACTORS
330
ED18
102
}
330
ED18
100
AcDbVisualStyle
  2
2dWireframe
 70
     4
 71
     0
 72
     2
 73
     0
 90
        0
 40
-0.6
 41
-30.0
 62
     5
 63
     7
 74
     1
 91
        4
 64
     7
 65
   257
 75
     1
175
     1
 42
1.0
 92
        0
 66
   257
 43
1.0
 76
     1
 77
     6
 78
     2
 67
     7
 79
     5
170
     0
171
     0
290
     0
174
     0
 93
        1
 44
0.0
173
     0
291
     0
 45
0.0
1001
ACAD
1000
AcDbSavedByObjectVersion
1070
     0
  0
VISUALSTYLE
  5
ED20
102
{ACAD_REACTORS
330
ED18
102
}
330
ED18
100
AcDbVisualStyle
  2
3D Hidden
 70
     6
 71
     1
 72
     2
 73
     2
 90
        0
 40
-0.6
 41
-30.0
 62
     5
 63
     7
 74
     2
 91
        2
 64
     7
 65
   257
 75
     2
175
     1
 42
40.0
 92
        0
 66
   257
 43
1.0
 76
     1
 77
     6
 78
     2
 67
     7
 79
     3
170
     0
171
     0
290
     0
174
     0
 93
        1
 44
0.0
173
     0
291
     0
 45
0.0
1001
ACAD
1000
AcDbSavedByObjectVersion
1070
     0
  0
VISUALSTYLE
  5
ED1F
102
{ACAD_REACTORS
330
ED18
102
}
330
ED18
100
AcDbVisualStyle
  2
3dWireframe
 70
     5
 71
     0
 72
     2
 73
     0
 90
        0
 40
-0.6
 41
-30.0
 62
     5
 63
     7
 74
     1
 91
        4
 64
     7
 65
   257
 75
     1
175
     1
 42
1.0
 92
        0
 66
   257
 43
1.0
 76
     1
 77
     6
 78
     2
 67
     7
 79
     5
170
     0
171
     0
290
     0
174
     0
 93
        1
 44
0.0
173
     0
291
     0
 45
0.0
1001
ACAD
1000
AcDbSavedByObjectVersion
1070
     0
  0
VISUALSTYLE
  5
ED1D
102
{ACAD_REACTORS
330
ED18
102
}
330
ED18
100
AcDbVisualStyle
  2
Basic
 70
     7
 71
     1
 72
     0
 73
     1
 90
        0
 40
-0.6
 41
-30.0
 62
     5
 63
     7
 74
     0
 91
        4
 64
     7
 65
   257
 75
     1
175
     1
 42
1.0
 92
        8
 66
     7
 43
1.0
 76
     1
 77
     6
 78
     2
 67
     7
 79
     5
170
     0
171
     0
290
     0
174
     0
 93
        1
 44
0.0
173
     0
291
     1
 45
0.0
1001
ACAD
1000
AcDbSavedByObjectVersion
1070
     0
  0
VISUALSTYLE
  5
ED24
102
{ACAD_REACTORS
330
ED18
102
}
330
ED18
100
AcDbVisualStyle
  2
Brighten
 70
    12
 71
     2
 72
     2
 73
     0
 90
        0
 40
-0.6
 41
-30.0
 62
     5
 63
     7
 74
     1
 91
        4
 64
     7
 65
   257
 75
     1
175
     1
 42
1.0
 92
        8
 66
     7
 43
1.0
 76
     1
 77
     6
 78
     2
 67
     7
 79
     5
170
     0
171
     0
290
     0
174
     0
 93
        1
 44
50.0
173
     0
291
     1
 45
0.0
1001
ACAD
1000
AcDbSavedByObjectVersion
1070
     0
  0
VISUALSTYLE
  5
ED28
102
{ACAD_REACTORS
330
ED18
102
}
330
ED18
100
AcDbVisualStyle
  2
ColorChange
 70
    16
 71
     2
 72
     2
 73
     3
 90
        0
 40
-0.6
 41
-30.0
 62
     5
 63
     8
 74
     1
 91
        4
 64
     7
 65
   257
 75
     1
175
     1
 42
1.0
 92
        8
 66
     8
 43
1.0
 76
     1
 77
     6
 78
     2
 67
     7
 79
     5
170
     0
171
     0
290
     0
174
     0
 93
        1
 44
0.0
173
     0
291
     1
 45
0.0
1001
ACAD
1000
AcDbSavedByObjectVersion
1070
     0
  0
VISUALSTYLE
  5
ED21
102
{ACAD_REACTORS
330
ED18
102
}
330
ED18
100
AcDbVisualStyle
  2
Conceptual
 70
     9
 71
     3
 72
     2
 73
     0
 90
        0
 40
-0.6
 41
-30.0
 62
     5
 63
     7
 74
     2
 91
        2
 64
     7
 65
   257
 75
     1
175
     1
 42
40.0
 92
        8
 66
     7
 43
1.0
 76
     1
 77
     6
 78
     2
 67
     7
 79
     3
170
     0
171
     0
290
     0
174
     0
 93
        1
 44
0.0
173
     0
291
     0
 45
0.0
1001
ACAD
1000
AcDbSavedByObjectVersion
1070
     0
  0
VISUALSTYLE
  5
ED23
102
{ACAD_REACTORS
330
ED18
102
}
330
ED18
100
AcDbVisualStyle
  2
Dim
 70
    11
 71
     2
 72
     2
 73
     0
 90
        0
 40
-0.6
 41
-30.0
 62
     5
 63
     7
 74
     1
 91
        4
 64
     7
 65
   257
 75
     1
175
     1
 42
1.0
 92
        8
 66
     7
 43
1.0
 76
     1
 77
     6
 78
     2
 67
     7
 79
     5
170
     0
171
     0
290
     0
174
     0
 93
        1
 44
-50.0
173
     0
291
     1
 45
0.0
1001
ACAD
1000
AcDbSavedByObjectVersion
1070
     0
  0
VISUALSTYLE
  5
ED27
102
{ACAD_REACTORS
330
ED18
102
}
330
ED18
100
AcDbVisualStyle
  2
Facepattern
 70
    15
 71
     2
 72
     2
 73
     0
 90
        0
 40
-0.6
 41
-30.0
 62
     5
 63
     7
 74
     1
 91
        4
 64
     7
 65
   257
 75
     1
175
     1
 42
1.0
 92
        8
 66
     7
 43
1.0
 76
     1
 77
     6
 78
     2
 67
     7
 79
     5
170
     0
171
     0
290
     0
174
     0
 93
        1
 44
0.0
173
     0
291
     1
 45
0.0
1001
ACAD
1000
AcDbSavedByObjectVersion
1070
     0
  0
VISUALSTYLE
  5
ED19
102
{ACAD_REACTORS
330
ED18
102
}
330
ED18
100
AcDbVisualStyle
  2
Flat
 70
     0
 71
     2
 72
     1
 73
     1
 90
        2
 40
-0.6
 41
30.0
 62
     5
 63
     7
 74
     0
 91
        4
 64
     7
 65
   257
 75
     1
175
     1
 42
1.0
 92
        8
 66
     7
 43
1.0
 76
     1
 77
     6
 78
     2
 67
     7
 79
     5
170
     0
171
     0
290
     0
174
     0
 93
       13
 44
0.0
173
     0
291
     1
 45
0.0
1001
ACAD
1000
AcDbSavedByObjectVersion
1070
     0
  0
VISUALSTYLE
  5
ED1A
102
{ACAD_REACTORS
330
ED18
102
}
330
ED18
100
AcDbVisualStyle
  2
FlatWithEdges
 70
     1
 71
     2
 72
     1
 73
     1
 90
        2
 40
-0.6
 41
30.0
 62
     5
 63
     7
 74
     1
 91
        4
 64
     7
 65
   257
 75
     1
175
     1
 42
1.0
 92
        0
 66
   257
 43
1.0
 76
     1
 77
     6
 78
     2
 67
     7
 79
     5
170
     0
171
     0
290
     0
174
     0
 93
       13
 44
0.0
173
     0
291
     1
 45
0.0
1001
ACAD
1000
AcDbSavedByObjectVersion
1070
     0
  0
VISUALSTYLE
  5
ED1B
102
{ACAD_REACTORS
330
ED18
102
}
330
ED18
100
AcDbVisualStyle
  2
Gouraud
 70
     2
 71
     2
 72
     2
 73
     1
 90
        2
 40
-0.6
 41
30.0
 62
     5
 63
     7
 74
     0
 91
        4
 64
     7
 65
   257
 75
     1
175
     1
 42
1.0
 92
        0
 66
     7
 43
1.0
 76
     1
 77
     6
 78
     2
 67
     7
 79
     5
170
     0
171
     0
290
     0
174
     0
 93
       13
 44
0.0
173
     0
291
     1
 45
0.0
1001
ACAD
1000
AcDbSavedByObjectVersion
1070
     0
  0
VISUALSTYLE
  5
ED1C
102
{ACAD_REACTORS
330
ED18
102
}
330
ED18
100
AcDbVisualStyle
  2
GouraudWithEdges
 70
     3
 71
     2
 72
     2
 73
     1
 90
        2
 40
-0.6
 41
30.0
 62
     5
 63
     7
 74
     1
 91
        4
 64
     7
 65
   257
 75
     1
175
     1
 42
1.0
 92
        0
 66
   257
 43
1.0
 76
     1
 77
     6
 78
     2
 67
     7
 79
     5
170
     0
171
     0
290
     0
174
     0
 93
       13
 44
0.0
173
     0
291
     1
 45
0.0
1001
ACAD
1000
AcDbSavedByObjectVersion
1070
     0
  0
VISUALSTYLE
  5
ED26
102
{ACAD_REACTORS
330
ED18
102
}
330
ED18
100
AcDbVisualStyle
  2
Linepattern
 70
    14
 71
     2
 72
     2
 73
     0
 90
        0
 40
-0.6
 41
-30.0
 62
     5
 63
     7
 74
     1
 91
        4
 64
     7
 65
   257
 75
     7
175
     7
 42
1.0
 92
        8
 66
     7
 43
1.0
 76
     1
 77
     6
 78
     2
 67
     7
 79
     5
170
     0
171
     0
290
     0
174
     0
 93
        1
 44
0.0
173
     0
291
     1
 45
0.0
1001
ACAD
1000
AcDbSavedByObjectVersion
1070
     0
  0
VISUALSTYLE
  5
ED22
102
{ACAD_REACTORS
330
ED18
102
}
330
ED18
100
AcDbVisualStyle
  2
Realistic
 70
     8
 71
     2
 72
     2
 73
     0
 90
        0
 40
-0.6
 41
-30.0
 62
     5
 63
     7
 74
     1
 91
        0
 64
     7
 65
   257
 75
     1
175
     1
 42
1.0
 92
        8
 66
     8
 43
1.0
 76
     1
 77
     6
 78
     2
 67
     7
 79
     5
170
     0
171
     0
290
     0
174
     0
 93
       13
 44
0.0
173
     0
291
     0
 45
0.0
1001
ACAD
1000
AcDbSavedByObjectVersion
1070
     0
  0
VISUALSTYLE
  5
ED25
102
{ACAD_REACTORS
330
ED18
102
}
330
ED18
100
AcDbVisualStyle
  2
Thicken
 70
    13
 71
     2
 72
     2
 73
     0
 90
        0
 40
-0.6
 41
-30.0
 62
     5
 63
     7
 74
     1
 91
        4
 64
     7
 65
   257
 75
     1
175
     1
 42
1.0
 92
       12
 66
     7
 43
1.0
 76
     1
 77
     6
 78
     2
 67
     7
 79
     5
170
     0
171
     0
290
     0
174
     0
 93
        1
 44
0.0
173
     0
291
     1
 45
0.0
1001
ACAD
1000
AcDbSavedByObjectVersion
1070
     0
  0
DICTIONARYVAR
  5
36F
102
{ACAD_REACTORS
330
66
102
}
330
66
100
DictionaryVariables
280
     0
  1
STANDARD
  0
DICTIONARYVAR
  5
67
102
{ACAD_REACTORS
330
66
102
}
330
66
100
DictionaryVariables
280
     0
  1
2
  0
DICTIONARYVAR
  5
6B
102
{ACAD_REACTORS
330
66
102
}
330
66
100
DictionaryVariables
280
     0
  1
1
  0
DICTIONARYVAR
  5
ED31
102
{ACAD_REACTORS
330
66
102
}
330
66
100
DictionaryVariables
280
     0
  1
0
  0
DICTIONARYVAR
  5
ED30
102
{ACAD_REACTORS
330
66
102
}
330
66
100
DictionaryVariables
280
     0
  1
127
  0
XRECORD
  5
CF31
102
{ACAD_REACTORS
330
CF30
102
}
330
CF30
100
AcDbXrecord
280
     1
330
0
330
0
330
0
330
0
330
0
330
0
330
0
330
0
330
0
  0
DICTIONARY
  5
ED38
330
22
100
AcDbDictionary
280
     1
281
     1
  3
ACAD_XREC_ROUNDTRIP
360
ED39
  0
DICTIONARY
  5
73F9
330
73E6
100
AcDbDictionary
280
     1
281
     1
  3
ACAD_XREC_ROUNDTRIP
360
ED3E
  3
ADSK_XREC_LAYOUTTHUMBNAIL
360
73FA
  0
DICTIONARY
  5
ED48
330
ED17
100
AcDbDictionary
280
     1
281
     1
  3
ACAD_XREC_ROUNDTRIP
360
ED49
  0
DICTIONARY
  5
ED46
330
ED16
100
AcDbDictionary
280
     1
281
     1
  3
ACAD_XREC_ROUNDTRIP
360
ED47
  0
DICTIONARY
  5
ED3C
330
43D6
100
AcDbDictionary
280
     1
281
     1
  3
ACAD_XREC_ROUNDTRIP
360
ED3D
  0
DICTIONARY
  5
ED43
330
A580
100
AcDbDictionary
280
     1
281
     1
  3
ACAD_XREC_ROUNDTRIP
360
ED44
  0
DICTIONARY
  5
ED3A
330
87
100
AcDbDictionary
280
     1
281
     1
  3
ACAD_XREC_ROUNDTRIP
360
ED3B
  0
XRECORD
  5
ED39
102
{ACAD_REACTORS
330
ED38
102
}
330
ED38
100
AcDbXrecord
280
     1
102
SHADEPLOT
 70
     0
102
SHADEPLOTRESLEVEL
 70
     2
102
SHADEPLOTCUSTOMDPI
 70
   300
  0
XRECORD
  5
ED3E
102
{ACAD_REACTORS
330
73F9
102
}
330
73F9
100
AcDbXrecord
280
     1
102
SHADEPLOT
 70
     0
102
SHADEPLOTRESLEVEL
 70
     2
102
SHADEPLOTCUSTOMDPI
 70
   300
  0
XRECORD
  5
73FA
102
{ACAD_REACTORS
330
73F9
102
}
330
73F9
100
AcDbXrecord
280
     1
310
28000000B4000000870000000100080000000000EC5E0000000000000000000000010000000000000000000000000000FFFFFF000000000000000000000000000000000000000000000000000000000000000000330000006600000099000000CC000000FF00000000330000333300006633000099330000CC330000FF3300
310
0000660000336600006666000099660000CC660000FF66000000990000339900006699000099990000CC990000FF99000000CC000033CC000066CC000099CC0000CCCC0000FFCC000000FF000033FF000066FF000099FF0000CCFF0000FFFF000000003300330033006600330099003300CC003300FF003300003333003333
310
33006633330099333300CC333300FF33330000663300336633006666330099663300CC663300FF66330000993300339933006699330099993300CC993300FF99330000CC330033CC330066CC330099CC3300CCCC3300FFCC330000FF330033FF330066FF330099FF3300CCFF3300FFFF330000006600330066006600660099
310
006600CC006600FF00660000336600333366006633660099336600CC336600FF33660000666600336666006666660099666600CC666600FF66660000996600339966006699660099996600CC996600FF99660000CC660033CC660066CC660099CC6600CCCC6600FFCC660000FF660033FF660066FF660099FF6600CCFF6600
310
FFFF660000009900330099006600990099009900CC009900FF00990000339900333399006633990099339900CC339900FF33990000669900336699006666990099669900CC669900FF66990000999900339999006699990099999900CC999900FF99990000CC990033CC990066CC990099CC9900CCCC9900FFCC990000FF99
310
0033FF990066FF990099FF9900CCFF9900FFFF99000000CC003300CC006600CC009900CC00CC00CC00FF00CC000033CC003333CC006633CC009933CC00CC33CC00FF33CC000066CC003366CC006666CC009966CC00CC66CC00FF66CC000099CC003399CC006699CC009999CC00CC99CC00FF99CC0000CCCC0033CCCC0066CC
310
CC0099CCCC00CCCCCC00FFCCCC0000FFCC0033FFCC0066FFCC0099FFCC00CCFFCC00FFFFCC000000FF003300FF006600FF009900FF00CC00FF00FF00FF000033FF003333FF006633FF009933FF00CC33FF00FF33FF000066FF003366FF006666FF009966FF00CC66FF00FF66FF000099FF003399FF006699FF009999FF00CC
310
99FF00FF99FF0000CCFF0033CCFF0066CCFF0099CCFF00CCCCFF00FFCCFF0000FFFF0033FFFF0066FFFF0099FFFF00CCFFFF00FFFFFF00000000000D0D0D001A1A1A00282828003535350043434300505050005D5D5D006B6B6B00787878008686860093939300A1A1A100AEAEAE00BBBBBB00C9C9C900D6D6D600E4E4E400
310
F1F1F100FFFFFF00000000000000000000000000000000000000000000000000000000000000000000000000000000000F0F0F0F0F0F0F0F0F0F0F0F0F0F0F0F0F0F0F0F0F0F0F0F0F0F0F0F0F0F0F0F0F0F0F0F0F0F0F0F0F0F0F0F0F0F0F0F0F0F0F0F0F0F0F0F0F0F0F0F0F0F0F0F0F0F0F0F0F0F0F0F0F0F0F0F0F0F0F
310
0F0F0F0F0F0F0F0F0F0F0F0F0F0F0F0F0F0F0F0F0F0F0F0F0F0F0F0F0F0F0F0F0F0F0F0F0F0F0F0F0F0F0F0F0F0F0F0FE2E2E2E2E2E2E2E2E2E2E2E2E2E2E2E2E2E2E2E2E2E2E2E2E2E2E2E2E2E2E2E2E2E2E2E2E2E2E2E2E2E2E2E2E2E2E2E2E2E2E2E2E20FE2E2E2E2E2E2E2E2E2E2E2E2E2E2E2E2E2E2E2E2E2E2E2E2E2
310
E2E2E2E2E2E2E2E2E2E2E2E2E2E2E2E2E2E2E2E2E2E2E2E2E2E2E2E2E2E2E2E2E2E2E2E2E2E2E2E2E2E2E2E2E2E2E2E2E2E2E2E2E2E2E2E2E2E2E2E2E2E2E2E2E2E2E2E2E2E2E2E2E2E2E2E2E2E2E2E2E2E2E2E2E2E2E2E2E2E2E2E2E2E2E2E2E2E2E2E20FE2E2E2E2E2E2E2E2E2E2E2E2E2E2E2E2E2E2E2E2E2E2E2E2E2E2
310
E2E2E2E2E2E2E2E2E2E2E2E2E2E2E2E2E2E2E2E2E2E2E2E2E2E2E20FE2E2E2E2E2E2E2E2E2E2E2E2E2E2E2E2E2E2E2E2E2E2E2E2E2E2E2E2E2E2E2E2E2E2E2E2E2E2E2E2E2E2E2E2E2E2E2E2E2E2E2E2E2E2E2E2E2E2E2E2E2E2E2E2E2E2E2E2E2E2E2E2E2E2E2E2E2E2E2E2E2E2E2E2E2E2E2E2E2E2E2E2E2E2E2E2E2E2E2
310
E2E2E2E2E2E2E2E2E2E2E2E2E2E2E2E2E2E2E2E2E2E2E2E2E2E20FE2E2E2E2E2E2E2E2E2E2E2E2E2E2E2E2E2E2E2E2E2E2E2E2E2E2E2E2E2E2E2E2E2E2E2E2E2E2E2E2E2E2E2E2E2E2E2E2E2E2E2E2E20FE2E2E2E2E2E2E2E2E2E2E2E2E2E2E2E2E2E2E2E2E2E2E2E2E2E2E2E2E2E2E2E2E2E2E2E2E2E2E2E2E2E2E2E2E2E2
310
E2E2E2E2E2E2E2E2E2E2E2E2E2E2E2E2E2E2E2E2E2E2E2E2E2E2E2E2E2E2E2E2E2E2E2E2E2E2E2E2E2E2E2E2E2E2E2E2E2E2E2E2E2E2E2E2E2E2E2E2E2E2E2E2E2E2E2E2E2E2E2E2E2E2E2E2E2E2E20FE2E2E2E2E2E2E2E2E2E2E2E2E2E2E2E2E2E2E2E2E2E2E2E2E2E2E2E2E2E2E2E2E2E2E2E2E2E2E2E2E2E2E2E2E2E2E2
310
E2E2E2E2E2E20FE2E2E2E2E2E2E2E2E2E2E2E2E2E2E2E2E2E2E2E2E2E2E2E2E2E2E2E2E2E2E2E2E2E2E2E2E2E2E2E2E2E2E2E2E2E2E2E2E2E2E2E2E2E2E2E2E2E2E2E2E2E2E2E2E2E2E2E2E2E2E2E2E2E2E2E2E2E2E2E2E2E2E2E2E2E2E2E2E2E2E2E2E2E2E2E2E2E2E2E2E2E2E2E2E2E2E2E2E2E2E2E2E2E2E2E2E2E2E2E2
310
E2E2E2E2E20FE2E2E2E2E2E2E2E2E2E2E2E2E2E2E2E2E2E2E2E2E2E2E2E2E2E2E2E2E2E2E2E2E2E2E2E2E2E2E2E2E2E2E2E2E2E2E2E2E2E2E2E2E20FE2E2E2E2E2E2E2E2E2E2E2E2E2E2E2E2E2E2E2E2E2E2E2E2E2E2E2E2E2E2E2E2E2E2E2E2E2E2E2E2E2E2E2E2E2E2E2E2E2E2E2E2E2E2E2E2E2E2E2E2E2E2E2E2E2E2E2
310
E2E2E2E2E2E2E2E2E2E2E2E2E2E2E2E2E2E2E2E2E2E2E2E2E2E2E2E2E2E2E2E2E2E2E2E2E2E2E2E2E2E2E2E2E2E2E2E2E2E2E2E2E2E2E2E2E2E20FE2E2E2E2E2E2E2E2E2E2E2E2E2E2E2E2E2E2E2E2E2E2E2E2E2E2E2E2E2E2E2E2E2E2E2E2E2E2E2E2E2E2E2E2E2E2E2E2E2E2E2E2E20FE2E2E2E2E2E2E2E2E2E2E2E2E2E2
310
E2E2E2E2E2E2E2E2E2E2E2E2E2E2E2E2E2E2E2E2E2E2E2E2E2E2E2E2E2E2E2E2E2E2E2E2E2E2E2E2E2E2E2E2E2E2E2E2E2E2E2E2E2E2E2E2E2E2E2E2E2E2E2E2E2E2E2E2E2E2E2E2E2E2E2E2E2E2E2E2E2E2E2E2E2E2E2E2E2E2E2E2E2E2E2E2E2E2E2E2E2E2E2E2E2E2E2E2E2E2E20FE2E2E2E2E2E2E2E2E2E2E2E2E2E2E2
310
E2E2E2E2E2E2E2E2E2E2E2E2E2E2E2E2E2E2E2E2E2E2E2E2E2E2E2E2E2E2E2E2E2E2E2E2E2E20FE2E2E2E2E2E2E2E2E2E2E2E2E2E2E2E2E2E2E2E2E2E2E2E2E2E2E2E2E2E2E2E2E2E2E2E2E2E2E2E2E2E2E2E2E2E2E2E2E2E2E2E2E2E2E2E2E2E2E2E2E2E2E2E2E2E2E2E2E2E2E2E2E2E2E2E2E2E2E2E2E2E2E2E2E2E2E2E2
310
E2E2E2E2E2E2E2E2E2E2E2E2E2E2E2E2E2E2E2E2E2E2E2E2E2E2E2E2E2E2E2E2E2E2E2E2E20FE2E2E2E2E2E2E2E2E2E2E2E2E2E2E2E2E2E2E2E2E2E2E2E2E2E2E2E2E2E2E2E2E2E2E2E2E2E2E2E2E2E2E2E2E2E2E2E2E2E2E2E2E20FE2E2E2E2E2E2E2E2E2E2E2E2E2E2E2E2E2E2E2E2E2E2E2E2E2E2E2E2E2E2E2E2E2E2E2
310
E2E2E2E2E2E2E2E2E2E2E2E2E2E2E2E2E2E2E2E2E2E2E2E2E2E2E2E2E2E2E2E2E2E2E2E2E2E2E2E2E2E2E2E2E2E2E2E2E2E2E2E2E2E2E2E2E2E2E2E2E2E2E2E2E2E2E2E2E2E2E2E2E2E2E2E2E2E2E2E2E2E2E2E2E2E2E2E2E2E20FE2E2E2E2E2E2E2E2E2E2E2E2E2E2E2E2E2E2E2E2E2E2E2E2E2E2E2E2E2E2E2E2E2E2E2E2
310
E2E2E2E2E2E2E2E2E2E2E2E2E2E2E2E2E20FE2E2E2E2E2E2E2E2E2E2E2E2E2E2E2E2E2E2E2E2E2E2E2E2E2E2E2E2E2E2E2E2E2E2E2E2E2E2E2E2E2E2E2E2E2E2E2E2E2E2E2E2E2E2E2E2E2E2E2E2E2E2E2E2E2E2E2E2E2E2E2E2E2E2E2E2E2E2E2E2E2E2E2E2E2E2E2E2E2E2E2E2E2E2E2E2E2E2E2E2E2E2E2E2E2E2E2E2E2
310
E2E2E2E2E2E2E2E2E2E2E2E2E2E2E2E20FE2E2E2E2E2E2E2E2E2E2E2E2E2E2E2E2E2E2E2E2E2E2E2E2E2E2E2E2E2E2E2E2E2E2E2E2E2E2E2E2E2E2E2E2E2E2E2E2E2E2E2E2E20FE2E2E2E2E2E2E2E2E2E2E2E2E2E2E2E2E2E2E2E2E2E2E2E2E2E2E2E2E2E2E2E2E2E2E2E2E2E2E2E2E2E2E2E2E2E2E2E2E2E2E2E2E2E2E2E2
310
E2E2E2E2E2E2E2E2E2E2E2E2E2E2E2E2E2E2E2E2E2E2E2E2E2E2E2E2E2E2E2E2E2E2E2E2E2E2E2E2E2E2E2E2E2E2E2E2E2E2E2E2E2E2E2E2E2E2E2E2E2E2E2E2E2E2E2E2E20FE2E2E2E2E2E2E2E2E2E2E2E2E2E2E2E2E2E2E2E2E2E2E2E2E2E2E2E2E2E2E2E2E2E2E2E2E2E2E2E2E2E2E2E2E2E2E2E2E2E2E2E2E20FE2E2E2
310
E2E2E2E2E2E2E2E2E2E2E2E2E2E2E2E2E2E2E2E2E2E2E2E2E2E2E2E2E2E2E2E2E2E2E2E2E2E2E2E2E2E2E2E2E2E2E2E2E2E2E2E2E2E2E2E2E2E2E2E2E2E2E2E2E2E2E2E2E2E2E2E2E2E2E2E2E2E2E2E2E2E2E2E2E2E2E2E2E2E2E2E2E2E2E2E2E2E2E2E2E2E2E2E2E2E2E2E2E2E2E2E2E2E2E2E2E2E2E2E2E2E20FE2E2E2E2
310
E2E2E2E2E2E2E2E2E2E2E2E2E2E2E2E2E2E2E2E2E2E2E2E2E2E2E2E2E2E2E2E2E2E2E2E2E2E2E2E2E2E2E2E2E2E2E2E2E20FE2E2E2E2E2E2E2E2E2E2E2E2E2E2E2E2E2E2E2E2E2E2E2E2E2E2E2E2E2E2E2E2E2E2E2E2E2E2E2E2E2E2E2E2E2E2E2E2E2E2E2E2E2E2E2E2E2E2E2E2E2E2E2E2E2E2E2E2E2E2E2E2E2E2E2E2E2
310
E2E2E2E2E2E2E2E2E2E2E2E2E2E2E2E2E2E2E2E2E2E2E2E2E2E2E2E2E2E2E2E2E2E2E2E2E2E2E2E2E2E2E2E2E2E2E2E20FE2E2E2E2E2E2E2E2E2E2E2E2E2E2E2E2E2E2E2E2E2E2E2E2E2E2E2E2E2E2E2E2E2E2E2E2E2E2E2E2E2E2E2E2E2E2E2E2E2E2E2E2E20FE2E2E2E2E2E2E2E2E2E2E2E2E2E2E2E2E2E2E2E2E2E2E2E2
310
E2E2E2E2E2E2E2E2E2E2E2E2E2E2E2E2E2E2E2E2E2E2E2E2E2E2E2E2E2E2E2E2E2E2E2E2E2E2E2E2E2E2E2E2E2E2E2E2E2E2E2E2E2E2E2E2E2E2E2E2E2E2E2E2E2E2E2E2E2E2E2E2E2E2E2E2E2E2E2E2E2E2E2E2E2E2E2E2E2E2E2E2E2E2E2E2E2E2E2E2E20FE2E2E2E2E2E2E2E2E2E2E2E2E2E2E2E2E2E2E2E2E2E2E2E2E2
310
E2E2E2E2E2E2E2E2E2E2E2E2E2E2E2E2E2E2E2E2E2E2E2E2E2E2E2E20FE2E2E2E2E2E2E2E2E2E2E2E2E2E2E2E2E2E2E2E2E2E2E2E2E2E2E2E2E2E2E2E2E2E2E2E2E2E2E2E2E2E2E2E2E2E2E2E2E2E2E2E2E2E2E2E2E2E2E2E2E2E2E2E2E2E2E2E2E2E2E2E2E2E2E2E2E2E2E2E2E2E2E2E2E2E2E2E2E2E2E2E2E2E2E2E2E2E2
310
E2E2E2E2E2E2E2E2E2E2E2E2E2E2E2E2E2E2E2E2E2E2E2E2E2E2E20FE2E2E2E2E2E2E2E2E2E2E2E2E2E2E2E2E2E2E2E2E2E2E2E2E2E2E2E2E2E2E2E2E2E2E2E2E2E2E2E2E2E2E2E2E2E2E2E2E2E2E2E2E20FE2E2E2E2E2E2E2E2E2E2E2E2E2E2E2E2E2E2E2E2E2E2E2E2E2E2E2E2E2E2E2E2E2E2E2E2E2E2E2E2E2E2E2E2E2
310
E2E2E2E2E2E2E2E2E2E2E2E2E2E2E2E2E2E2E2E2E2E2E2E2E2E2E2E2E2E2E2E2E2E2E2E2E2E2E2E2E2E2E2E2E2E2E2E2E2E2E2E2E2E2E2E2E2E2E2E2E2E2E2E2E2E2E2E2E2E2E2E2E2E2E2E2E2E2E2E20FE2E2E2E2E2E2E2E2E2E2E2E2E2E2E2E2E2E2E2E2E2E2E2E2E2E2E2E2E2E2E2E2E2E2E2E2E2E2E2E2E2E2E2E2E2E2
310
E2E2E2E2E2E2E20FE2E2E2E2E2E2E2E2E2E2E2E2E2E2E2E2E2E2E2E2E2E2E2E2E2E2E2E2E2E2E2E2E2E2E2E2E2E2E2E2E2E2E2E2E2E2E2E2E2E2E2E2E2E2E2E2E2E2E2E2E2E2E2E2E2E2E2E2E2E2E2E2E2E2E2E2E2E2E2E2E2E2E2E2E2E2E2E2E2E2E2E2E2E2E2E2E2E2E2E2E2E2E2E2E2E2E2E2E2E2E2E2E2E2E2E2E2E2E2
310
E2E2E2E2E2E20FE2E2E2E2E2E2E2E2E2E2E2E2E2E2E2E2E2E2E2E2E2E2E2E2E2E2E2E2E2E2E2E2E2E2E2E2E2E2E2E2E2E2E2E2E2E2E2E2E2E2E2E2E20FE2E2E2E2E2E2E2E2E2E2E2E2E2E2E2E2E2E2E2E2E2E2E2E2E2E2E2E2E2E2E2E2E2E2E2E2E2E2E2E2E2E2E2E2E2E2E2E2E2E2E2E2E2E2E2E2E2E2E2E2E2E2E2E2E2E2
310
E2E2E2E2E2E2E2E2E2E2E2E2E2E2E2E2E2E2E2E2E2E2E2E2E2E2E2E2E2E2E2E2E2E2E2E2E2E2E2E2E2E2E2E2E2E2E2E2E2E2E2E2E2E2E2E2E2E2E20FE2E2E2E2E2E2E2E2E2E2E2E2E2E2E2E2E2E2E2E2E2E2E2E2E2E2E2E2E2E2E2E2E2E2E2E2E2E2E2E2E2E2E2E2E2E2E2E2E2E2E2E2E20FE2E2E2E2E2E2E2E2E2E2E2E2E2
310
E2E2E2E2E2E2E2E2E2E2E2E2E2E2E2E2E2E2E2E2E2E2E2E2E2E2E2E2E2E2E2E2E2E2E2E2E2E2E2E2E2E2E2E2E2E2E2E2E2E2E2E2E2E2E2E2E2E2E2E2E2E2E2E2E2E2E2E2E2E2E2E2E2E2E2E2E2E2E2E2E2E2E2E2E2E2E2E2E2E2E2E2E2E2E2E2E2E2E2E2E2E2E2E2E2E2E2E2E2E2E2E20FE2E2E2E2E2E2E2E2E2E2E2E2E2E2
310
E2E2E2E2E2E2E2E2E2E2E2E2E2E2E2E2E2E2E2E2E2E2E2E2E2E2E2E2E2E2E2E2E2E2E2E2E2E2E20FE2E2E2E2E2E2E2E2E2E2E2E2E2E2E2E2E2E2E2E2E2E2E2E2E2E2E2E2E2E2E2E2E2E2E2E2E2E2E2E2E2E2E2E2E2E2E2E2E2E2E2E2E2E2E2E2E2E2E2E2E2E2E2E2E2E2E2E2E2E2E2E2E2E2E2E2E2E2E2E2E2E2E2E2E2E2E2
310
E2E2E2E2E2E2E2E2E2E2E2E2E2E2E2E2E2E2E2E2E2E2E2E2E2E2E2E2E2E2E2E2E2E2E2E2E2E20FE2E2E2E2E2E2E2E2E2E2E2E2E2E2E2E2E2E2E2E2E2E2E2E2E2E2E2E2E2E2E2E2E2E2E2E2E2E2E2E2E2E2E2E2E2E2E2E2E2E2E2E2E20FE2E2E2E2E2E2E2E2E2E2E2E2E2E2E2E2E2E2E2E2E2E2E2E2E2E2E2E2E2E2E2E2E2E2
310
E2E2E2E2E2E2E2E2E2E2E2E2E2E2E2E2E2E2E2E2E2E2E2E2E2E2E2E2E2E2E2E2E2E2E2E2E2E2E2E2E2E2E2E2E2E2E2E2E2E2E2E2E2E2E2E2E2E2E2E2E2E2E2E2E2E2E2E2E2E2E2E2E2E2E2E2E2E2E2E2E2E2E2E2E2E2E2E2E2E2E20FE2E2E2E2E2E2E2E2E2E2E2E2E2E2E2E2E2E2E2E2E2E2E2E2E2E2E2E2E2E2E2E2E2E2E2
310
E2E2E2E2E2E2E2E2E2E2E2E2E2E2E2E2E2E20FE2E2E2E2E2E2E2E2E2E2E2E2E2E2E2E2E2E2E2E2E2E2E2E2E2E2E2E2E2E2E2E2E2E2E2E2E2E2E2E2E2E2E2E2E2E2E2E2E2E2E2E2E2E2E2E2E2E2E2E2E2E2E2E2E2E2E2E2E2E2E2E2E2E2E2E2E2E2E2E2E2E2E2E2E2E2E2E2E2E2E2E2E2E2E2E2E2E2E2E2E2E2E2E2E2E2E2E2
310
E2E2E2E2E2E2E2E2E2E2E2E2E2E2E2E2E20FE2E2E2E2E2E2E2E2E2E2E2E2E2E2E2E2E2E2E2E2E2E2E2E2E2E2E2E2E2E2E2E2E2E2E2E2E2E2E2E2E2E2E2E2E2E2E2E2E2E2E2E2E20FE2E2E2E2E2E2E2E2E2E2E2E2E2E2E2E2E2E2E2E2E2E2E2E2E2E2E2E2E2E2E2E2E2E2E2E2E2E2E2E2E2E2E2E2E2E2E2E2E2E2E2E2E2E2E2
310
E2E2E2E2E2E2E2E2E2E2E2E2E2E2E2E2E2E2E2E2E2E2E2E2E2E2E2E2E2E2E2E2E2E2E2E2E2E2E2E2E2E2E2E2E2E2E2E2E2E2E2E2E2E2E2E2E2E2E2E2E2E2E2E2E2E2E2E2E2E20FE2E2E2E2E2E2E2E2E2E2E2E2E2E2E2E2E2E2E2E2E2E2E2E2E2E2E2E2E2E2E2E2E2E2E2E2E2E2E2E2E2E2E2E2E2E2E2E2E2E2E2E2E20FE2E2
310
E2E2E2E2E2E2E2E2E2E2E2E2E2E2E2E2E2E2E2E2E2E2E2E2E2E2E2E2E2E2E2E2E2E2E2E2E2E2E2E2E2E2E2E2E2E2E2E2E2E2E2E2E2E2E2E2E2E2E2E2E2E2E2E2E2E2E2E2E2E2E2E2E2E2E2E2E2E2E2E2E2E2E2E2E2E2E2E2E2E2E2E2E2E2E2E2E2E2E2E2E2E2E2E2E2E2E2E2E2E2E2E2E2E2E2E2E2E2E2E2E2E2E20FE2E2E2
310
E2E2E2E2E2E2E2E2E2E2E2E2E2E2E2E2E2E2E2E2E2E2E2E2E2E2E2E2E2E2E2E2E2E2E2E2E2E2E2E2E2E2E2E2E2E2E2E2E2E20FE2E2E2E2E2E2E2E2E2E2E2E2E2E2E2E2E2E2E2E2E2E2E2E2E2E2E2E2E2E2E2E2E2E2E2E2E2E2E2E2E2E2E2E2E2E2E2E2E2E2E2E2E2E2E2E2E2E2E2E2E2E2E2E2E2E2E2E2E2E2E2E2E2E2E2E2
310
E2E2E2E2E2E2E2E2E2E2E2E2E2E2E2E2E2E2E2E2E2E2E2E2E2E2E2E2E2E2E2E2E2E2E2E2E2E2E2E2E2E2E2E2E2E2E2E2E20FE2E2E2E2E2E2E2E2E2E2E2E2E2E2E2E2E2E2E2E2E2E2E2E2E2E2E2E2E2E2E2E2E2E2E2E2E2E2E2E2E2E2E2E2E2E2E2E2E2E2E2E2E20FE2E2E2E2E2E2E2E2E2E2E2E2E2E2E2E2E2E2E2E2E2E2E2
310
E2E2E2E2E2E2E2E2E2E2E2E2E2E2E2E2E2E2E2E2E2E2E2E2E2E2E2E2E2E2E2E2E2E2E2E2E2E2E2E2E2E2E2E2E2E2E2E2E2E2E2E2E2E2E2E2E2E2E2E2E2E2E2E2E2E2E2E2E2E2E2E2E2E2E2E2E2E2E2E2E2E2E2E2E2E2E2E2E2E2E2E2E2E2E2E2E2E2E2E2E2E20FE2E2E2E2E2E2E2E2E2E2E2E2E2E2E2E2E2E2E2E2E2E2E2E2
310
E2E2E2E2E2E2E2E2E2E2E2E2E2E2E2E2E2E2E2E2E2E2E2E2E2E2E2E2E20FE2E2E2E2E2E2E2E2E2F5F5F5F5F5F5F5F5F5F5F5F5F5F5F5F5F5F5F5F5F5F5F5F5F5F5F5F5F5F5F5F5F5F5F5F5F5F5F5F5F5F5F5F5F5F5F5F5E2E2E2E2E2E2E2E2E2E2E2E2E2E2E2E2E2E2E2E2E2E2E2E2E2E2E2E2E2E2E2E2E2E2F5F5F5F5F5F5
310
F5F5F5F5F5F5F5F5F5F5F5F5F5F5F5F5F5E2E2E2E2E2E2E2E2E2E2E20FE2E2E2E2E2E2E2E2E2E2E2E2E2E2E2E2E2E2E2E2E2E2E2E2E2E2E2E2E2E2E2E2E2E2E2E2E2E2E2E2E2E2E2E2E2E2E2E2E2E2E2E2E20FE2E2E2E2E2E2E2E2E2F5E2E2E2E2E2E2E2E2E2E2E2E2E2E2E2E2E2E2E2E2E2E2E2E2E2E2E2E2E2E2E2E2E2E2
310
E2E2E2E2E2E2E2E2E2E2E2E2F5E2E2E2E2E2E2E2E2E2E2E2E2E2E2E2E2E2E2E2E2E2E2E2E2E2E2E2E2E2E2E2E2E2E2F5E2E2E2E2E2E2E2E2E2E2E2E2E2E2E2E2E2E2E2E2E2F5E2E2E2E2E2E2E2E2E2E2E20FE2E2E2E2E2E2E2E2E2E2E2E2E2E2E2E2E2E2E2E2E2E2E2E2E2E2E2E2E2E2E2E2E2E2E2E2E2E2E2E2E2E2E2E2E2
310
E2E2E2E2E2E2E2E20FE2E2E2E2E2E2E2E2E2F5E2E2E2E2E2E2E2E2E2E2E2E2E2E2E2E2E2E2E2E2E2E2E2E2E2E2E2E2E2E2E2E2E2E2E2E2E2E2E2E2E2E2E2E2E2E2F5E2E2E2E2E2E2E2E2E2E2E2E2E2E2E2E2E2E2E2E2E2E2E2E2E2E2E2E2E2E2E2E2E2E2F5E2E2E2E2E2E2E2E2E2E2E2E2E2E2E2E2E2E2E2E2E2F5E2E2E2E2
310
E2E2E2E2E2E2E20FE2E2E2E2E2E2E2E2E2E2E2E2E2E2E2E2E2E2E2E2E2E2E2E2E2E2E2E2E2E2E2E2E2E2E2E2E2E2E2E2E2E2E2E2E2E2E2E2E2E2E2E2E20FE2E2E2E2E2E2E2E2E2F5E2E2E2E2E2E2E2E2E2E2E2E2E2E2E2E2E2E2E2E2E2E2E2E2E2E2E2E2E2E2E2E2E2E2E2E2E2E2E2E2E2E2E2E2E2F5E2E2E2E2E2E2E2E2E2
310
E2E2E2E2E2E2E2E2E2E2E2E2E2E2E2E2E2E2E2E2E2E2E2E2E2E2F5E2E2E2E2E2E2E2E2E2E2E2E2E2E2E2E2E2E2E2E2E2F5E2E2E2E2E2E2E2E2E2E2E20FE2E2E2E2E2E2E2E2E2E2E2E2E2E2E2E2E2E2E2E2E2E2E2E2E2E2E2E2E2E2E2E2E2E2E2E2E2E2E2E2E2E2E2E2E2E2E2E2E2E2E2E2E20FE2E2E2E2E2E2E2E2E2F5E2E2
310
E2E2E2E2E2E2E2E2E2E2E2E2E2E2E2E2E2E2E2E2E2E2E2E2E2E2E2E2E2E2E2E2E2E2E2E2E2E2E2E2E2E2E2F5E2E2E2E2E2E2E2E2E2E2E2E2E2E2E2E2E2E2E2E2E2E2E2E2E2E2E2E2E2E2E2E2E2E2E2F5E2E2E2E2E2E2E2E2E2E2E2E2E2E2E2E2E2E2E2E2E2F5E2E2E2E2E2E2E2E2E2E2E20FE2E2E2E2E2E2E2E2E2E2E2E2E2
310
E2E2E2E2E2E2E2E2E2E2E2E2E2E2E2E2E2E2E2E2E2E2E2E2E2E2E2E2E2E2E2E2E2E2E2E2E2E2E2E20FE2E2E2E2E2E2E2E2E2F5E2E2E2E2E2E2E2E2E2E2E2E2E2E2E2E2E2E2E2E2E2E2E2E2E2E2E2E2E2E2E2E2E2E2E2E2E2E2E2E2E2E2E2E2E2F5E2E2E2E2E2E2E2E2E2E2E2E2E2E2E2E2E2E2E2E2E2E2E2E2E2E2E2E2E2E2
310
E2E2E2E2E2F5E2E2E2E2E2E2E2E2E2E2E2E2E2E2E2E2E2E2E2E2E2F5E2E2E2E2E2E2E2E2E2E2E20FE2E2E2E2E2E2E2E2E2E2E2E2E2E2E2E2E2E2E2E2E2E2E2E2E2E2E2E2E2E2E2E2E2E2E2E2E2E2E2E2E2E2E2E2E2E2E2E2E2E2E2E2E20FE2E2E2E2E2E2E2E2E2E2F5E2E2E2E2E2E2E2E2E2E2E2E2E2E2E2E2E2E2E2E2E2E2
310
E2E2E2E2E2E2E2E2E2E2E2E2E2E2E2E2E2E2E2E2E2E2F5E2E2E2E2E2E2E2E2E2E2E2E2E2E2E2E2E2E2E2E2E2E2E2E2E2E2E2E2E2E2E2E2E2E2E2F5E2E2E2E2E2E2E2E2E2E2E2E2E2E2E2E2E2E2E2E2E2F5E2E2E2E2E2E2E2E2E2E2E20FE2E2E2E2E2E2E2E2E2E2E2E2E2E2E2E2E2E2E2E2E2E2E2E2E2E2E2E2E2E2E2E2E2E2
310
E2E2E2E2E2E2E2E2E2E2E2E2E2E2E2E2E2E2E20FE2E2E2E2E2E2E2E2E2E2F5E2E2E2E2E2E2E2E2E2E2E2E2E2E2E2E2E2E2E2E2E2E2E2E2E2E2E2E2E2E2E2E2E2E2E2E2E2E2E2E2E2E2E2E2F5E2E2E2E2E2E2E2E2E2E2E2E2E2E2E2E2E2E2E2E2E2E2E2E2E2E2E2E2E2E2E2E2E2E2E2F5E2E2E2E2E2E2E2E2E2E2E2E2E2E2E2
310
E2E2E2E2E2E2F5E2E2E2E2E2E2E2E2E2E2E20FE2E2E2E2E2E2E2E2E2E2E2E2E2E2E2E2E2E2E2E2E2E2E2E2E2E2E2E2E2E2E2E2E2E2E2E2E2E2E2E2E2E2E2E2E2E2E2E2E2E2E2E2E20FE2E2E2E2E2E2E2E2E2E2F5E2E2E2E2E2E2E2E2E2E2E2E2E2E2E2E2E2E2E2E2E2E2E2E2E2E2E2E2E2E2E2E2E2E2E2E2E2E2E2E2E2E2E2
310
F5E2E2E2E2E2E2E2E2E2E2E2E2E2E2E2E2E2E2E2E2E2E2E2E2E2E2E2E2E2E2E2E2E2E2E2E2F5E2E2E2E2E2E2E2E2E2E2E2E2E2E2E2E2E2E2E2E2E2F5E2E2E2E2E2E2E2E2E2E2E20FE2E2E2E2E2E2E2E2E2E2E2E2E2E2E2E2E2E2E2E2E2E2E2E2E2E2E2E2E2E2E2E2E2E2E2E2E2E2E2E2E2E2E2E2E2E2E2E2E2E2E2E2E20FE2
310
E2E2E2E2E2E2E2E2E2F5E2E2E2E2E2E2E2E2E2E2E2E2E2E2E2E2E2E2E2E2E2E2E2E2E2E2E2E2E2E2E2E2E2E2E2E2E2E2E2E2E2E2E2F5E2E2E2E2E2E2E2E2E2E2E2E2E2E2E2E2E2E2E2E2E2E2E2E2E2E2E2E2E2E2E2E2E2E2E2E2F5E2E2E2E2E2E2E2E2E2E2E2E2E2E2E2E2E2E2E2E2F5E2E2E2E2E2E2E2E2E2E2E2E20FE2E2
310
E2E2E2E2E2E2E2E2E2E2E2E2E2E2E2E2E2E2E2E2E2E2E2E2E2E2E2E2E2E2E2E2E2E2E2E2E2E2E2E2E2E2E2E2E2E2E2E2E2E2E20FE2E2E2E2E2E2E2E2E2E2F5E2E2E2E2E2E2E2E2E2E2E2E2E2E2E2E2E2E2E2E2E2E2E2E2E2E2E2E2E2E2E2E2E2E2E2E2E2E2E2E2E2E2E2F5E2E2E2E2E2E2E2E2E2E2E2E2E2E2E2E2E2E2E2E2
310
E2E2E2E2E2E2E2E2E2E2E2E2E2E2E2E2E2F5E2E2E2E2E2E2E2E2E2E2E2E2E2E2E2E2E2E2E2F5E2E2E2E2E2E2E2E2E2E2E2E20FE2E2E2E2E2E2E2E2E2E2E2E2E2E2E2E2E2E2E2E2E2E2E2E2E2E2E2E2E2E2E2E2E2E2E2E2E2E2E2E2E2E2E2E2E2E2E2E2E2E2E2E2E20FE2E2E2E2E2E2E2E2E2E2F5E2E2E2E2E2E2E2E2E2E2E2
310
E2E2E2E2E2E2E2E2E2E2E2E2E2E2E2E2E2E2E2E2E2E2E2E2E2E2E2E2E2E2E2E2F5E2E2E2E2E2E2E2E2E2E2E2E2E2E2E2E2E2E2E2E2E2E2E2E2E2E2E2E2E2E2E2E2E2E2E2E2E2F5E2E2E2E2E2E2E2E2E2E2E2E2E2E2E2E2E2E2E2F5E2E2E2E2E2E2E2E2E2E2E2E20FE2E2E2E2E2E2E2E2E2E2E2E2E2E2E2E2E2E2E2E2E2E2E2
310
E2E2E2E2E2E2E2E2E2E2E2E2E2E2E2E2E2E2E2E2E2E2E2E2E2E2E2E2E2E20FE2E2E2E2E2E2E2E2E2F5E2E2E2E2E2E2E2E2E2E2E2E2E2E2E2E2E2E2E2E2E2E2E2E2E2E2E2E2E2E2E2E2E2E2E2E2E2E2E2E2E2E2E2E2F5E2E2E2E2E2E2E2E2E2E2E2E2E2E2E2E2E2E2E2E2E2E2E2E2E2E2E2E2E2E2E2E2E2E2E2E2E2F5E2E2E2
310
E2E2E2E2E2E2E2E2E2E2E2E2E2E2E2E2F5E2E2E2E2E2E2E2E2E2E2E2E20FE2E2E2E2E2E2E2E2E2E2E2E2E2E2E2E2E2E2E2E2E2E2E2E2E2E2E2E2E2E2E2E2E2E2E2E2E2E2E2E2E2E2E2E2E2E2E2E2E2E2E2E2E20FE2E2E2E2E2E2E2E2E2F5F5F5F5E2E2E2E2E2E2E2E2E2E2E2E2E2E2E2E2E2E2E2E2E2E2E2E2E2E2E2E2E2E2
310
E2E2E2E2E2E2E2E2E2E2F5E2E2E2E2E2E2E2E2E2E2E2E2E2E2E2E2E2E2E2E2E2E2E2E2E2E2E2E2E2E2E2E2E2E2E2E2E2E2F5E2E2E2E2E2E2E2E2E2E2E2E2E2E2E2E2E2E2E2F5E2E2E2E2E2E2E2E2E2E2E2E20FE2E2E2E2E2E2E2E2E2E2E2E2E2E2E2E2E2E2E2E2E2E2E2E2E2E2E2E2E2E2E2E2E2E2E2E2E2E2E2E2E2E2E2E2
310
E2E2E2E2E2E2E2E2E20FE2E2E2E2E2E2E2E2E2E2F5E2F5E2E2E2E2E2E2E2E2E2E2E2E2E2E2E2E2E2E2E2E2E2E2E2E2E2E2E2E2E2E2E2E2E2E2E2E2E2E2E2E2F5E2E2E2E2E2E2E2E2E2E2E2E2E2E2E2E2E2E2E2E2E2E2E2E2E2E2E2E2E2E2E2E2E2E2E2E2E2E2F5E2E2E2E2E2E2E2E2E2E2E2E2E2E2E2E2E2E2E2F5E2E2E2E2
310
E2E2E2E2E2E2E2E20FE2E2E2E2E2E2E2E2E2E2E2E2E2E2E2E2E2E2E2E2E2E2E2E2E2E2E2E2E2E2E2E2E2E2E2E2E2E2E2E2E2E2E2E2E2E2E2E2E2E2E2E2E20FE2E2E2E2E2E2E2E2E2E2F5E2F5E2E2E2E2E2E2E2E2E2E2E2E2E2E2E2E2E2E2E2E2E2E2E2E2E2E2E2E2E2E2E2E2E2E2E2E2E2E2E2E2F5E2E2E2E2E2E2E2E2E2E2
310
E2E2E2E2E2E2E2E2E2E2E2E2E2E2E2E2E2E2E2E2E2E2E2E2E2E2E2E2F5E2E2E2E2E2E2E2E2E2E2E2E2E2E2E2E2E2E2E2F5E2E2E2E2E2E2E2E2E2E2E2E20FE2E2E2E2E2E2E2E2E2E2E2E2E2E2E2E2E2E2E2E2E2E2E2E2E2E2E2E2E2E2E2E2E2E2E2E2E2E2E2E2E2E2E2E2E2E2E2E2E2E2E2E2E20FE2E2E2E2E2E2E2E2E2E2F5
310
E2E2F5E2E2E2E2E2E2E2E2E2E2E2E2E2E2E2E2E2E2E2E2E2E2E2E2E2E2E2E2E2E2E2E2E2E2E2E2E2E2E2F5E2E2E2E2E2E2E2E2E2E2E2E2E2E2E2E2E2E2E2E2E2E2E2E2E2E2E2E2E2E2E2E2E2E2E2E2E2E2F5E2E2E2E2E2E2E2E2E2E2E2E2E2E2E2E2E2E2E2F5E2E2E2E2E2E2E2E2E2E2E2E20FE2E2E2E2E2E2E2E2E2E2E2E2
310
E2E2E2E2E2E2E2E2E2E2E2E2E2E2E2E2E2E2E2E2E2E2E2E2E2E2E2E2E2E2E2E2E2E2E2E2E2E2E2E2E20FE2E2E2E2E2E2E2E2E2E2F5E2E2F5E2E2E2E2E2E2E2E2E2E2E2E2E2E2E2E2E2E2E2E2E2E2E2E2E2E2E2E2E2E2E2E2E2E2E2E2E2E2E2F5E2E2E2E2E2E2E2E2E2E2E2E2E2E2E2E2E2E2E2E2E2E2E2E2E2E2E2E2E2E2E2
310
E2E2E2E2E2E2E2F5E2E2E2E2E2E2E2E2E2E2E2E2E2E2E2E2E2E2E2F5E2E2E2E2E2E2E2E2E2E2E2E20FE2E2E2E2E2E2E2E2E2E2E2E2E2E2E2E2E2E2E2E2E2E2E2E2E2E2E2E2E2E2E2E2E2E2E2E2E2E2E2E2E2E2E2E2E2E2E2E2E2E2E2E2E20FE2E2E2E2E2E2E2E2E2E2E2F5E2F5F5E2E2E2E2E2E2E2E2E2E2E2E2E2E2E2E2E2
310
E2E2E2E2E2E2E2E2E2E2E2E2E2E2E2E2E2E2E2E2E2E2F5E2E2E2E2E2E2E2E2E2E2E2E2E2E2E2E2E2E2E2E2E2E2E2E2E2E2E2E2E2E2E2E2E2E2E2E2E2F5E2E2E2E2E2E2E2E2E2E2E2E2E2E2E2E2E2E2E2F5E2E2E2E2E2E2E2E2E2E2E2E20FE2E2E2E2E2E2E2E2E2E2E2E2E2E2E2E2E2E2E2E2E2E2E2E2E2E2E2E2E2E2E2E2E2
310
E2E2E2E2E2E2E2E2E2E2E2E2E2E2E2E2E2E2E2E20FE2E2E2E2E2E2E2E2E2E2E2F5E2E2F5E2E2E2E2E2E2E2E2E2E2E2E2E2E2E2E2E2E2E2E2E2E2E2E2E2E2E2E2E2E2E2E2E2E2E2E2E2E2E2F5F5E2E2E2E2E2E2E2E2E2E2E2E2E2E2E2E2E2E2E2E2E2E2E2E2E2E2E2E2E2E2E2E2E2E2E2E2E2F5E2E2E2E2E2E2E2E2E2E2E2E2
310
E2E2E2E2E2F5F5E2E2E2E2E2E2E2E2E2E2E2E20FE2E2E2E2E2E2E2E2E2E2E2E2E2E2E2E2E2E2E2E2E2E2E2E2E2E2E2E2E2E2E2E2E2E2E2E2E2E2E2E2E2E2E2E2E2E2E2E2E2E2E2E2E20FE2E2E2E2E2E2E2E2E2E2E2F5F5E2E2F5F5F5F5F5F5F5F5F5F5F5F5F5F5F5F5E2E2E2E2E2E2E2E2E2E2E2E2E2E2E2E2E2E2E2E2E2E2
310
E2E2F5F5E2E2E2E2E2E2E2E2E2E2E2E2E2E2E2E2E2E2E2E2E2E2E2E2E2E2E2E2E2E2E2E2E2E2E2E2F5E2E2E2E2E2E2E2E2E2E2E2E2E2E2E2E2E2F5F5E2E2E2E2E2E2E2E2E2E2E2E20FE2E2E2E2E2E2E2E2E2E2E2E2E2E2E2E2E2E2E2E2E2E2E2E2E2E2E2E2E2E2E2E2E2E2E2E2E2E2E2E2E2E2E2E2E2E2E2E2E2E2E2E2E20F
310
E2E2E2E2E2E2E2E2E2E2E2F5E2F5E2E2E2E2E2E2E2E2E2E2E2E2E2E2F5E2F5E2E2E2E2E2E2E2E2E2E2E2E2E2E2E2E2E2E2E2E2E2E2E2E2E2E2F5E2E2E2E2E2E2E2E2E2E2E2E2E2E2E2E2E2E2E2E2E2E2E2E2E2E2E2E2E2E2E2E2E2E2E2F5E2E2E2E2E2E2E2E2E2E2E2E2E2E2E2E2E2E2E2F5E2E2E2E2E2E2E2E2E2E2E20FE2
310
E2E2E2E2E2E2E2E2E2E2E2E2E2E2E2E2E2E2E2E2E2E2E2E2E2E2E2E2E2E2E2E2E2E2E2E2E2E2E2E2E2E2E2E2E2E2E2E2E2E2E2E20FE2E2E2E2E2E2E2E2E2E2F5E2E2F5F5E2E2E2E2E2E2E2E2E2E2E2F5F5E2E2F5E2E2E2E2E2E2E2E2E2E2E2E2E2E2E2E2E2E2E2E2E2E2E2E2E2E2E2F5E2E2E2E2E2E2E2E2E2E2E2E2E2E2E2
310
E2E2E2E2E2E2E2E2E2E2E2E2E2E2E2E2E2E2F5E2E2E2E2E2E2E2E2E2E2E2E2E2E2E2E2E2E2E2E2F5E2E2E2E2E2E2E2E2E2E2E20FE2E2E2E2E2E2E2E2E2E2E2E2E2E2E2E2E2E2E2E2E2E2E2E2E2E2E2E2E2E2E2E2E2E2E2E2E2E2E2E2E2E2E2E2E2E2E2E2E2E2E2E2E20FE2E2E2E2E2E2E2E2E2E2F5E2E2E2E2F5F5F5E2E2E2
310
E2E2E2F5F5E2E2E2E2F5E2E2E2E2E2E2E2E2E2E2E2E2E2E2E2E2E2E2E2E2E2E2E2E2E2E2E2F5E2E2E2E2E2E2E2E2E2E2E2E2E2E2E2E2E2E2E2E2E2E2E2E2E2E2E2E2E2E2E2E2F5E2E2E2E2E2E2E2E2E2E2E2E2E2E2E2E2E2E2E2E2E2F5E2E2E2E2E2E2E2E2E2E2E20FE2E2E2E2E2E2E2E2E2E2E2E2E2E2E2E2E2E2E2E2E2E2
310
E2E2E2E2E2E2E2E2E2E2E2E2E2E2E2E2E2E2E2E2E2E2E2E2E2E2E2E2E2E2E20FE2E2E2E2E2E2E2E2E2E2F5E2E2E2E2E2E2E2F5F5F5F5F5F5E2E2E2E2E2E2F5E2E2E2E2E2E2E2E2E2E2E2E2E2E2E2E2E2E2E2E2E2E2E2E2E2E2E2E2F5E2E2E2E2E2E2E2E2E2E2E2E2E2E2E2E2E2E2E2E2E2E2E2E2E2E2E2E2E2E2F5E2E2E2E2
310
E2E2E2E2E2E2E2E2E2E2E2E2E2E2E2E2E2E2E2F5E2E2E2E2E2E2E2E2E2E20FE2E2E2E2E2E2E2E2E2E2E2E2E2E2E2E2E2E2E2E2E2E2E2E2E2E2E2E2E2E2E2E2E2E2E2E2E2E2E2E2E2E2E2E2E2E2E2E2E2E2E2E2E20FE2E2E2E2E2E2E2E2E2E2F5F5F5F5F5F5F5F5F5F5F5F5F5F5F5F5F5E2F5F5E2E2E2E2E2E2E2E2E2E2E2E2
310
E2E2E2E2E2E2E2E2E2E2E2E2E2E2E2E2E2E2F5E2E2E2E2E2E2E2E2E2E2E2E2E2E2E2E2E2E2E2E2E2E2E2E2E2E2E2F5F5F5E2E2E2E2E2E2E2E2E2E2E2E2E2E2E2E2E2E2E2E2E2E2E2E2F5F5F5E2E2E2E2E2E2E20FE2E2E2E2E2E2E2E2E2E2E2E2E2E2E2E2E2E2E2E2E2E2E2E2E2E2E2E2E2E2E2E2E2E2E2E2E2E2E2E2E2E2E2
310
E2E2E2E2E2E2E2E2E2E20FE2E2E2E2E2E2E2E2E2F5E2E2E2E2E2E2E2E2E2E2E2E2E2E2E2E2E2F5F5F5F5F5F5F5F5F5F5E2E2E2E2E2E2E2E2E2E2E2E2E2E2E2E2E2E2E2E2E2E2E2F5E2E2E2E2E2E2E2E2E2E2E2E2E2E2E2E2E2E2E2E2E2E2E2E2E2E2E2F5F5F5E2E2E2E2E2E2E2E2E2E2E2E2E2E2E2E2E2E2E2E2E2E2E2E2F5
310
E2F5E2E2E2E2E2E2E20FE2E2E2E2E2E2E2E2E2E2E2E2E2E2E2E2E2E2E2E2E2E2E2E2E2E2E2E2E2E2E2E2E2E2E2E2E2E2E2E2E2E2E2E2E2E2E2E2E2E2E2E2E20FE2E2E2E2E2E2E2E2E2F5E2E2E2E2E2E2E2E2E2E2E2E2E2E2E2E2E2E2E2E2E2E2E2E2E2E2E2F5F5F5F5F5F5E2E2E2E2E2E2E2E2E2E2E2E2E2E2E2E2E2E2F5E2
310
E2E2E2E2E2E2E2E2E2E2E2E2E2E2E2E2E2E2E2E2E2E2E2E2E2F5F5E2E2E2E2E2E2E2E2E2E2E2E2E2E2E2E2E2E2E2E2E2E2E2E2E2F5E2F5E2E2E2E2E2E2E20FE2E2E2E2E2E2E2E2E2E2E2E2E2E2E2E2E2E2E2E2E2E2E2E2E2E2E2E2E2E2E2E2E2E2E2E2E2E2E2E2E2E2E2E2E2E2E2E2E2E2E2E2E20FE2E2E2E2E2E2E2E2E2F5
310
E2E2E2E2E2E2E2E2E2E2E2E2E2E2E2E2E2E2E2E2E2E2E2E2E2E2E2E2E2E2E2E2E2E2E2E2E2E2E2E2E2E2E2E2E2E2E2E2E2E2E2F5E2E2E2E2E2E2E2E2E2E2E2E2E2E2E2E2E2E2E2E2E2E2E2E2E2F5E2F5E2E2E2E2E2E2E2E2E2E2E2E2E2E2E2E2E2E2E2E2E2E2E2E2E2F5E2F5E2E2E2E2E2E2E20FE2E2E2E2E2E2E2E2E2E2E2
310
E2E2E2E2E2E2E2E2E2E2E2E2E2E2E2E2E2E2E2E2E2E2E2E2E2E2E2E2E2E2E2E2E2E2E2E2E2E2E2E2E2E20FE2E2E2E2E2E2E2E2E2F5E2E2E2E2E2E2E2E2E2E2E2E2E2E2E2E2E2E2E2E2E2E2E2E2E2E2E2E2E2E2E2E2E2E2E2E2E2E2E2E2E2E2E2E2E2E2E2E2E2E2E2F5E2E2E2E2E2E2E2E2E2E2E2E2E2E2E2E2E2E2E2E2E2E2
310
E2E2E2F5E2F5E2E2E2E2E2E2E2E2E2E2E2E2E2E2E2E2E2E2E2E2E2E2E2E2E2F5E2E2F5E2E2E2E2E2E20FE2E2E2E2E2E2E2E2E2E2E2E2E2E2E2E2E2E2E2E2E2E2E2E2E2E2E2E2E2E2E2E2E2E2E2E2E2E2E2E2E2E2E2E2E2E2E2E2E2E2E2E2E20FE2E2E2E2E2E2E2E2E2F5E2E2E2E2E2E2E2E2E2E2E2E2F5F5F5F5F5F5F5F5F5
310
F5F5F5F5F5F5F5F5F5F5F5F5F5F5F5F5F5F5F5F5F5F5F5F5F5F5F5F5F5F5F5E2E2E2E2E2E2E2E2E2E2E2E2E2E2E2E2E2E2E2E2E2E2E2E2E2F5E2F5F5F5F5F5F5F5F5F5F5F5F5F5F5F5F5F5F5F5F5F5F5F5F5F5F5F5E2E2F5E2E2E2E2E2E20FE2E2E2E2E2E2E2E2E2E2E2E2E2E2E2E2E2E2E2E2E2E2E2E2E2E2E2E2E2E2E2E2
310
E2E2E2E2E2E2E2E2E2E2E2E2E2E2E2E2E2E2E2E2E20FE2E2E2E2E2E2E2E2E2F5E2E2E2E2E2E2E2E2E2E2E2E2F5E2E2E2E2E2E2E2E2E2E2E2E2E2E2E2E2E2E2E2E2E2E2E2E2E2E2E2E2E2E2E2E2E2E2E2E2E2E2E2E2E2E2E2E2E2E2E2E2E2E2E2E2E2E2E2E2E2E2E2E2E2E2E2E2F5E2E2E2E2E2E2E2E2E2E2E2E2E2E2E2E2E2
310
E2E2E2E2E2E2E2E2E2E2E2E2E2F5E2E2E2E2E2E20FE2E2E2E2E2E2E2E2E2E2E2E2E2E2E2E2E2E2E2E2E2E2E2E2E2E2E2E2E2E2E2E2E2E2E2E2E2E2E2E2E2E2E2E2E2E2E2E2E2E2E2E2E20FE2E2E2E2E2E2E2E2F5E2E2E2E2E2E2E2E2E2E2E2E2E2F5E2E2E2E2E2E2E2E2E2E2E2E2E2E2E2E2E2E2E2E2E2E2E2E2E2E2E2E2E2
310
E2E2E2E2E2E2E2E2E2E2E2E2E2E2E2E2E2E2E2E2E2E2E2E2E2E2E2E2E2E2E2E2E2E2E2F5E2E2E2E2E2E2E2E2E2E2E2E2E2E2E2E2E2E2E2E2E2E2E2E2E2E2E2E2E2E2F5E2E2E2E2E2E20FE2E2E2E2E2E2E2E2E2E2E2E2E2E2E2E2E2E2E2E2E2E2E2E2E2E2E2E2E2E2E2E2E2E2E2E2E2E2E2E2E2E2E2E2E2E2E2E2E2E2E2E2E2
310
0FE2E2E2E2E2E2E2E2F5E2E2E2E2E2E2E2E2E2E2E2E2E2F5E2E2E2E2E2E2E2E2E2E2E2E2E2E2E2E2E2E2E2E2E2E2E2E2E2E2E2E2E2E2E2E2E2E2E2E2E2E2E2E2E2E2E2E2E2E2E2E2E2E2E2E2E2E2E2E2E2E2E2E2E2E2E2E2F5E2E2E2E2E2E2E2E2E2E2E2E2E2E2E2E2E2E2E2E2E2E2E2E2E2E2E2E2E2E2F5E2E2E2E2E2E20F
310
E2E2E2E2E2E2E2E2E2E2E2E2E2E2E2E2E2E2E2E2E2E2E2E2E2E2E2E2E2E2E2E2E2E2E2E2E2E2E2E2E2E2E2E2E2E2E2E2E2E2E2E2E20FE2E2E2E2E2E2E2E2F5E2E2E2E2E2E2E2E2E2E2E2E2E2F5E2E2E2E2E2E2E2E2E2E2E2E2E2E2E2E2E2E2E2E2E2E2E2E2E2E2E2E2E2E2E2E2E2E2E2E2E2E2E2E2E2E2E2E2E2E2E2E2E2E2
310
E2E2E2E2E2E2E2E2E2E2E2E2E2E2F5E2E2E2E2E2E2E2E2E2E2E2E2E2E2E2E2E2E2E2E2E2E2E2E2E2E2E2E2E2E2F5E2E2E2E2E2E20FE2E2E2E2E2E2E2E2E2E2E2E2E2E2E2E2E2E2E2E2E2E2E2E2E2E2E2E2E2E2E2E2E2E2E2E2E2E2E2E2E2E2E2E2E2E2E2E2E2E2E2E2E20FE2E2E2E2E2E2E2E2F5E2E2E2E2E2E2E2E2E2E2E2
310
E2E2F5E2E2E2E2E2E2E2E2E2E2E2E2E2E2E2E2E2E2E2E2E2E2E2E2E2E2E2E2E2E2E2E2E2E2E2E2E2E2E2E2E2E2E2E2E2E2E2E2E2E2E2E2E2E2E2E2E2E2E2E2E2E2E2E2F5E2E2E2E2E2E2E2E2E2E2E2E2E2E2E2E2E2E2E2E2E2E2E2E2E2E2E2E2E2E2F5E2E2E2E2E2E20FE2E2E2E2E2E2E2E2E2E2E2E2E2E2E2E2E2E2E2E2E2
310
E2E2E2E2E2E2E2E2E2E2E2E2E2E2E2E2E2E2E2E2E2E2E2E2E2E2E2E2E2E2E2E20FE2E2E2E2E2E2E2E2F5E2E2E2E2E2E2E2E2E2E2E2E2E2F5E2E2E2E2E2E2E2E2E2E2E2E2E2E2E2E2E2E2E2E2E2E2E2E2E2E2E2E2E2E2E2E2E2E2E2E2E2E2E2E2E2E2E2E2E2E2E2E2E2E2E2E2E2E2E2E2E2E2E2E2E2E2E2E2F5E2E2E2E2E2E2
310
E2E2E2E2E2E2E2E2E2E2E2E2E2E2E2E2E2E2E2E2E2E2E2F5E2E2E2E2E2E2E20FE2E2E2E2E2E2E2E2E2E2E2E2E2E2E2E2E2E2E2E2E2E2E2E2E2E2E2E2E2E2E2E2E2E2E2E2E2E2E2E2E2E2E2E2E2E2E2E2E2E2E2E2E20FE2E2E2E2E2E2E2E2F5E2E2E2E2E2E2E2E2E2E2E2E2F5E2E2E2E2E2E2E2E2E2E2E2E2E2E2E2E2E2E2E2
310
E2E2E2E2E2E2E2E2E2E2E2E2E2E2E2E2E2E2E2E2E2E2E2E2E2E2E2E2E2E2E2E2E2E2E2E2E2E2E2E2E2E2E2E2E2E2F5E2E2E2E2E2E2E2E2E2E2E2E2E2E2E2E2E2E2E2E2E2E2E2E2E2E2E2E2E2F5E2E2E2E2E2E2E20FE2E2E2E2E2E2E2E2E2E2E2E2E2E2E2E2E2E2E2E2E2E2E2E2E2E2E2E2E2E2E2E2E2E2E2E2E2E2E2E2E2E2
310
E2E2E2E2E2E2E2E2E2E2E20FE2E2E2E2E2E2E2E2F5E2E2E2E2E2E2E2E2E2E2E2E2F5E2E2E2E2E2E2E2E2E2E2E2E2E2E2E2E2E2E2E2E2E2E2E2E2E2E2E2E2E2E2E2E2E2E2E2E2E2E2E2E2E2E2E2E2E2E2E2E2E2E2E2E2E2E2E2E2E2E2E2E2E2E2E2E2E2F5E2E2E2E2E2E2E2E2E2E2E2E2E2E2E2E2E2E2E2E2E2E2E2E2E2E2E2
310
E2E2F5E2E2E2E2E2E2E20FE2E2E2E2E2E2E2E2E2E2E2E2E2E2E2E2E2E2E2E2E2E2E2E2E2E2E2E2E2E2E2E2E2E2E2E2E2E2E2E2E2E2E2E2E2E2E2E2E2E2E2E2E20FE2E2E2E2E2E2E2E2F5E2E2E2E2E2E2E2E2E2E2E2E2F5E2E2E2E2E2E2E2E2E2E2E2E2E2E2E2E2E2E2E2E2E2E2E2E2E2E2E2E2E2E2E2E2E2E2E2E2E2E2E2E2
310
E2E2E2E2E2E2E2E2E2E2E2E2E2E2E2E2E2E2E2E2E2E2E2E2E2F5E2E2E2E2E2E2E2E2E2E2E2E2E2E2E2E2E2E2E2E2E2E2E2E2E2E2E2E2E2F5E2E2E2E2E2E2E20FE2E2E2E2E2E2E2E2E2E2E2E2E2E2E2E2E2E2E2E2E2E2E2E2E2E2E2E2E2E2E2E2E2E2E2E2E2E2E2E2E2E2E2E2E2E2E2E2E2E2E2E2E20FE2E2E2E2E2E2E2E2E2
310
F5E2E2E2E2E2E2E2E2E2E2E2F5E2E2E2E2E2E2E2E2E2E2E2E2E2E2E2E2E2E2E2E2E2E2E2E2E2E2E2E2E2E2E2E2E2E2E2E2E2E2E2E2E2E2E2E2E2E2E2E2E2E2E2E2E2E2E2E2E2E2E2E2E2E2E2E2E2F5E2E2E2E2E2E2E2E2E2E2E2E2E2E2E2E2E2E2E2E2E2E2E2E2E2E2E2E2E2F5E2E2E2E2E2E2E20FE2E2E2E2E2E2E2E2E2E2
310
E2E2E2E2E2E2E2E2E2E2E2E2E2E2E2E2E2E2E2E2E2E2E2E2E2E2E2E2E2E2E2E2E2E2E2E2E2E2E2E2E2E2E20FE2E2E2E2E2E2E2E2E2F5E2F5F5F5E2E2E2E2E2E2E2F5E2E2E2E2E2E2E2E2E2E2E2E2E2E2E2E2E2E2E2E2E2E2E2E2E2E2E2E2E2E2E2E2E2E2E2E2E2E2E2E2E2E2E2E2E2E2E2E2E2E2E2E2E2E2E2E2E2E2E2E2E2
310
E2E2E2E2F5E2E2E2E2E2E2E2E2E2E2E2E2E2E2E2E2E2E2E2E2E2E2E2E2E2E2E2E2E2F5E2E2E2E2E2E2E20FE2E2E2E2E2E2E2E2E2E2E2E2E2E2E2E2E2E2E2E2E2E2E2E2E2E2E2E2E2E2E2E2E2E2E2E2E2E2E2E2E2E2E2E2E2E2E2E2E2E2E2E2E20FE2E2E2E2E2E2E2E2E2F5E2F5F5F5E2E2E2E2E2E2E2F5E2E2E2E2E2E2E2E2
310
E2E2E2E2E2E2E2E2E2E2E2E2E2E2E2E2E2E2E2E2E2E2E2E2E2E2E2E2E2E2E2E2E2E2E2E2E2E2E2E2E2E2E2E2E2E2E2E2E2E2E2E2E2E2E2E2E2F5E2E2E2E2E2E2E2E2E2E2E2E2E2E2E2E2E2E2E2E2E2E2E2E2E2E2E2E2E2F5E2E2E2E2E2E2E20FE2E2E2E2E2E2E2E2E2E2E2E2E2E2E2E2E2E2E2E2E2E2E2E2E2E2E2E2E2E2E2
310
E2E2E2E2E2E2E2E2E2E2E2E2E2E2E2E2E2E2E2E2E2E20FE2E2E2E2E2E2E2E2E2F5E2F5F5F5E2E2E2E2E2E2E2F5E2E2E2E2E2E2E2E2E2E2E2E2E2E2E2E2E2E2E2E2E2E2E2E2E2E2E2E2E2E2E2E2E2E2E2E2E2E2E2E2E2E2E2E2E2E2E2E2E2E2E2E2E2E2E2E2E2E2E2E2E2E2E2E2E2F5E2E2E2E2E2E2E2F5F5F5F5F5F5F5F5F5
310
F5F5F5F5F5F5E2E2E2E2E2E2E2F5E2E2E2E2E2E2E20FE2E2E2E2E2E2E2E2E2E2E2E2E2E2E2E2E2E2E2E2E2E2E2E2E2E2E2E2E2E2E2E2E2E2E2E2E2E2E2E2E2E2E2E2E2E2E2E2E2E2E2E2E20FE2E2E2E2E2E2E2E2E2F5F5F5F5F5F5F5F5F5F5F5F5F5E2E2E2E2E2E2E2E2E2E2E2E2E2E2E2E2E2E2E2E2E2E2E2E2E2E2E2E2E2
310
E2E2E2E2E2E2E2E2E2E2E2E2E2E2E2E2E2E2E2E2E2E2E2E2E2E2E2E2E2E2E2E2E2E2E2E2F5F5F5F5F5F5F5F5E2E2E2E2E2E2E2E2E2E2E2E2E2E2E2F5F5F5F5F5F5F5F5E2E2E2E2E2E2E20FE2E2E2E2E2E2E2E2E2E2E2E2E2E2E2E2E2E2E2E2E2E2E2E2E2E2E2E2E2E2E2E2E2E2E2E2E2E2E2E2E2E2E2E2E2E2E2E2E2E2E2E2
310
E20FE2E2E2E2E2E2E2E2E2F5E2E2E2E2E2E2E2E2E2E2E2F5E2E2E2E2E2E2E2E2E2E2E2E2E2E2E2E2E2E2E2E2E2E2E2E2E2E2E2E2E2E2E2E2E2E2E2E2E2E2E2E2E2E2E2E2E2E2E2E2E2E2E2E2E2E2E2E2E2E2E2E2E2E2E2E2E2E2F5E2E2E2E2E2E2E2E2E2E2E2E2E2E2E2E2E2E2E2E2E2E2E2E2E2E2E2E2F5E2E2E2E2E2E2E2
310
0FE2E2E2E2E2E2E2E2E2E2E2E2E2E2E2E2E2E2E2E2E2E2E2E2E2E2E2E2E2E2E2E2E2E2E2E2E2E2E2E2E2E2E2E2E2E2E2E2E2E2E2E2E20FE2E2E2E2E2E2E2E2E2F5E2E2E2E2E2F5F5F5F5F5F5F5E2E2E2E2E2E2E2E2E2E2E2E2E2E2E2E2E2E2E2E2E2E2E2E2E2E2E2E2E2E2E2E2E2E2E2E2E2E2E2E2E2E2E2E2E2E2E2E2E2E2
310
E2E2E2E2E2E2E2E2E2E2E2E2E2E2E2E2F5F5F5F5F5F5F5F5F5F5F5F5F5F5F5F5F5F5F5F5F5F5F5F5F5F5F5F5F5F5E2E2E2E2E2E2E20FE2E2E2E2E2E2E2E2E2E2E2E2E2E2E2E2E2E2E2E2E2E2E2E2E2E2E2E2E2E2E2E2E2E2E2E2E2E2E2E2E2E2E2E2E2E2E2E2E2E2E2E2E20FE2E2E2E2E2E2E2E2E2F5F5F5F5F5F5E2E2E2E2
310
E2E2E2E2E2E2E2E2E2E2E2E2E2E2E2E2E2E2E2E2E2E2E2E2E2E2E2E2E2E2E2E2E2E2E2E2E2E2E2E2E2E2E2E2E2E2E2E2E2E2E2E2E2E2E2E2E2E2E2E2E2E2E2E2E2E2E2E2E2F5F5F5F5F5F5F5F5F5F5F5F5F5F5F5F5F5F5F5F5F5F5F5F5F5F5F5F5F5F5E2E2E2E2E2E2E20FE2E2E2E2E2E2E2E2E2E2E2E2E2E2E2E2E2E2E2E2
310
E2E2E2E2E2E2E2E2E2E2E2E2E2E2E2E2E2E2E2E2E2E2E2E2E2E2E2E2E2E2E2E2E20FE2E2E2E2E2E2E2E2E2E2E2E2E2E2E2E2E2E2E2E2E2E2E2E2E2E2E2E2E2E2E2E2E2E2E2E2E2E2E2E2E2E2E2E2E2E2E2E2E2E2E2E2E2E2E2E2E2E2E2E2E2E2E2E2E2E2E2E2E2E2E2E2E2E2E2E2E2E2E2E2E2E2E2E2E2E2E2E2E2E2E2E2E2
310
E2E2E2E2E2E2E2E2E2E2E2E2E2E2E2E2E2E2E2E2E2E2E2E2E2E2E2E2E2E2E2E20FE2E2E2E2E2E2E2E2E2E2E2E2E2E2E2E2E2E2E2E2E2E2E2E2E2E2E2E2E2E2E2E2E2E2E2E2E2E2E2E2E2E2E2E2E2E2E2E2E2E2E2E2E20FE2E2E2E2E2E2E2E2E2E2E2E2E2E2E2E2E2E2E2E2E2E2E2E2E2E2E2E2E2E2E2E2E2E2E2E2E2E2E2E2
310
E2E2E2E2E2E2E2E2E2E2E2E2E2E2E2E2E2E2E2E2E2E2E2E2E2E2E2E2E2E2E2E2E2E2E2E2E2E2E2E2E2E2E2E2E2E2E2E2E2E2E2E2E2E2E2E2E2E2E2E2E2E2E2E2E2E2E2E2E2E2E2E2E2E2E2E2E2E2E2E2E2E2E2E2E20FE2E2E2E2E2E2E2E2E2E2E2E2E2E2E2E2E2E2E2E2E2E2E2E2E2E2E2E2E2E2E2E2E2E2E2E2E2E2E2E2E2
310
E2E2E2E2E2E2E2E2E2E2E2E20FE2E2E2E2E2E2E2E2E2E2E2E2E2E2E2E2E2E2E2E2E2E2E2E2E2E2E2E2E2E2E2E2E2E2E2E2E2E2E2E2E2E2E2E2E2E2E2E2E2E2E2E2E2E2E2E2E2E2E2E2E2E2E2E2E2E2E2E2E2E2E2E2E2E2E2E2E2E2E2E2E2E2E2E2E2E2E2E2E2E2E2E2E2E2E2E2E2E2E2E2E2E2E2E2E2E2E2E2E2E2E2E2E2E2
310
E2E2E2E2E2E2E2E2E2E2E20FE2E2E2E2E2E2E2E2E2E2E2E2E2E2E2E2E2E2E2E2E2E2E2E2E2E2E2E2E2E2E2E2E2E2E2E2E2E2E2E2E2E2E2E2E2E2E2E2E2E2E2E2E20FE2E2E2E2E2E2E2E2E2E2E2E2E2E2E2E2E2E2E2E2E2E2E2E2E2E2E2E2E2E2E2E2E2E2E2E2E2E2E2E2E2E2E2E2E2E2E2E2E2E2E2E2E2E2E2E2E2E2E2E2E2
310
E2E2E2E2E2E2E2E2E2E2E2E2E2E2E2E2E2E2E2E2E2E2E2E2E2E2E2E2E2E2E2E2E2E2E2E2E2E2E2E2E2E2E2E2E2E2E2E2E2E2E2E2E2E2E2E2E2E2E2E2E2E2E2E20FE2E2E2E2E2E2E2E2E2E2E2E2E2E2E2E2E2E2E2E2E2E2E2E2E2E2E2E2E2E2E2E2E2E2E2E2E2E2E2E2E2E2E2E2E2E2E2E2E2E2E2E2E20FE2E2E2E2E2E2E2E2
310
E2E2E2E2E2E2E2E2E2E2E2E2E2E2E2E2E2E2E2E2E2E2E2E2E2E2E2E2E2E2E2E2E2E2E2E2E2E2E2E2E2E2E2E2E2E2E2E2E2E2E2E2E2E2E2E2E2E2E2E2E2E2E2E2E2E2E2E2E2E2E2E2E2E2E2E2E2E2E2E2E2E2E2E2E2E2E2E2E2E2E2E2E2E2E2E2E2E2E2E2E2E2E2E2E2E2E2E2E2E2E2E2E2E2E2E2E20FE2E2E2E2E2E2E2E2E2
310
E2E2E2E2E2E2E2E2E2E2E2E2E2E2E2E2E2E2E2E2E2E2E2E2E2E2E2E2E2E2E2E2E2E2E2E2E2E2E2E2E2E2E2E20FE2E2E2E2E2E2E2E2E2E2E2E2E2E2E2E2E2E2E2E2E2E2E2E2E2E2E2E2E2E2E2E2E2E2E2E2E2E2E2E2E2E2E2E2E2E2E2E2E2E2E2E2E2E2E2E2E2E2E2E2E2E2E2E2E2E2E2E2E2E2E2E2E2E2E2E2E2E2E2E2E2E2
310
E2E2E2E2E2E2E2E2E2E2E2E2E2E2E2E2E2E2E2E2E2E2E2E2E2E2E2E2E2E2E2E2E2E2E2E2E2E2E2E2E2E2E20FE2E2E2E2E2E2E2E2E2E2E2E2E2E2E2E2E2E2E2E2E2E2E2E2E2E2E2E2E2E2E2E2E2E2E2E2E2E2E2E2E2E2E2E2E2E2E2E2E2E2E2E2E20FE2E2E2E2E2E2E2E2E2E2E2E2E2E2E2E2E2E2E2E2E2E2E2E2E2E2E2E2E2
310
E2E2E2E2E2E2E2E2E2E2E2E2E2E2E2E2E2E2E2E2E2E2E2E2E2E2E2E2E2E2E2E2E2E2E2E2E2E2E2E2E2E2E2E2E2E2E2E2E2E2E2E2E2E2E2E2E2E2E2E2E2E2E2E2E2E2E2E2E2E2E2E2E2E2E2E2E2E2E2E2E2E2E2E2E2E2E2E2E2E2E2E2E2E2E2E20FE2E2E2E2E2E2E2E2E2E2E2E2E2E2E2E2E2E2E2E2E2E2E2E2E2E2E2E2E2E2
310
E2E2E2E2E2E2E2E2E2E2E2E2E2E2E2E2E2E2E2E2E2E2E20FE2E2E2E2E2E2E2E2E2E2E2E2E2E2E2E2E2E2E2E2E2E2E2E2E2E2E2E2E2E2E2E2E2E2E2E2E2E2E2E2E2E2E2E2E2E2E2E2E2E2E2E2E2E2E2E2E2E2E2E2E2E2E2E2E2E2E2E2E2E2E2E2E2E2E2E2E2E2E2E2E2E2E2E2E2E2E2E2E2E2E2E2E2E2E2E2E2E2E2E2E2E2E2
310
E2E2E2E2E2E2E2E2E2E2E2E2E2E2E2E2E2E2E2E2E2E20FE2E2E2E2E2E2E2E2E2E2E2E2E2E2E2E2E2E2E2E2E2E2E2E2E2E2E2E2E2E2E2E2E2E2E2E2E2E2E2E2E2E2E2E2E2E2E2E2E2E2E2E2E20FE2E2E2E2E2E2E2E2E2E2E2E2E2E2E2E2E2E2E2E2E2E2E2E2E2E2E2E2E2E2E2E2E2E2E2E2E2E2E2E2E2E2E2E2E2E2E2E2E2E2
310
E2E2E2E2E2E2E2E2E2E2E2E2E2E2E2E2E2E2E2E2E2E2E2E2E2E2E2E2E2E2E2E2E2E2E2E2E2E2E2E2E2E2E2E2E2E2E2E2E2E2E2E2E2E2E2E2E2E2E2E2E2E2E2E2E2E2E2E2E2E2E2E2E2E2E20FE2E2E2E2E2E2E2E2E2E2E2E2E2E2E2E2E2E2E2E2E2E2E2E2E2E2E2E2E2E2E2E2E2E2E2E2E2E2E2E2E2E2E2E2E2E2E2E2E2E2E2
310
E2E20FE2E2E2E2E2E2E2E2E2E2E2E2E2E2E2E2E2E2E2E2E2E2E2E2E2E2E2E2E2E2E2E2E2E2E2E2E2E2E2E2E2E2E2E2E2E2E2E2E2E2E2E2E2E2E2E2E2E2E2E2E2E2E2E2E2E2E2E2E2E2E2E2E2E2E2E2E2E2E2E2E2E2E2E2E2E2E2E2E2E2E2E2E2E2E2E2E2E2E2E2E2E2E2E2E2E2E2E2E2E2E2E2E2E2E2E2E2E2E2E2E2E2E2E2
310
E20FE2E2E2E2E2E2E2E2E2E2E2E2E2E2E2E2E2E2E2E2E2E2E2E2E2E2E2E2E2E2E2E2E2E2E2E2E2E2E2E2E2E2E2E2E2E2E2E2E2E2E2E2E20FE2E2E2E2E2E2E2E2E2E2E2E2E2E2E2E2E2E2E2E2E2E2E2E2E2E2E2E2E2E2E2E2E2E2E2E2E2E2E2E2E2E2E2E2E2E2E2E2E2E2E2E2E2E2E2E2E2E2E2E2E2E2E2E2E2E2E2E2E2E2E2
310
E2E2E2E2E2E2E2E2E2E2E2E2E2E2E2E2E2E2E2E2E2E2E2E2E2E2E2E2E2E2E2E2E2E2E2E2E2E2E2E2E2E2E2E2E2E2E2E2E2E2E2E2E2E20FE2E2E2E2E2E2E2E2E2E2E2E2E2E2E2E2E2E2E2E2E2E2E2E2E2E2E2E2E2E2E2E2E2E2E2E2E2E2E2E2E2E2E2E2E2E2E2E2E2E2E2E2E20FE2E2E2E2E2E2E2E2E2E2E2E2E2E2E2E2E2E2
310
E2E2E2E2E2E2E2E2E2E2E2E2E2E2E2E2E2E2E2E2E2E2E2E2E2E2E2E2E2E2E2E2E2E2E2E2E2E2E2E2E2E2E2E2E2E2E2E2E2E2E2E2E2E2E2E2E2E2E2E2E2E2E2E2E2E2E2E2E2E2E2E2E2E2E2E2E2E2E2E2E2E2E2E2E2E2E2E2E2E2E2E2E2E2E2E2E2E2E2E2E2E2E2E2E2E2E20FE2E2E2E2E2E2E2E2E2E2E2E2E2E2E2E2E2E2E2
310
E2E2E2E2E2E2E2E2E2E2E2E2E2E2E2E2E2E2E2E2E2E2E2E2E2E2E2E2E2E2E2E2E2E20FE2E2E2E2E2E2E2E2E2E2E2E2E2E2E2E2E2E2E2E2E2E2E2E2E2E2E2E2E2E2E2E2E2E2E2E2E2E2E2E2E2E2E2E2E2E2E2E2E2E2E2E2E2E2E2E2E2E2E2E2E2E2E2E2E2E2E2E2E2E2E2E2E2E2E2E2E2E2E2E2E2E2E2E2E2E2E2E2E2E2E2E2
310
E2E2E2E2E2E2E2E2E2E2E2E2E2E2E2E2E2E2E2E2E2E2E2E2E2E2E2E2E2E2E2E2E20FE2E2E2E2E2E2E2E2E2E2E2E2E2E2E2E2E2E2E2E2E2E2E2E2E2E2E2E2E2E2E2E2E2E2E2E2E2E2E2E2E2E2E2E2E2E2E2E2E2E2E2E2E20FE2E2E2E2E2E2E2E2E2E2E2E2E2E2E2E2E2E2E2E2E2E2E2E2E2E2E2E2E2E2E2E2E2E2E2E2E2E2E2
310
E2E2E2E2E2E2E2E2E2E2E2E2E2E2E2E2E2E2E2E2E2E2E2E2E2E2E2E2E2E2E2E2E2E2E2E2E2E2E2E2E2E2E2E2E2E2E2E2E2E2E2E2E2E2E2E2E2E2E2E2E2E2E2E2E2E2E2E2E2E2E2E2E2E2E2E2E2E2E2E2E2E2E2E2E2E20FE2E2E2E2E2E2E2E2E2E2E2E2E2E2E2E2E2E2E2E2E2E2E2E2E2E2E2E2E2E2E2E2E2E2E2E2E2E2E2E2
310
E2E2E2E2E2E2E2E2E2E2E2E2E20FE2E2E2E2E2E2E2E2E2E2E2E2E2E2E2E2E2E2E2E2E2E2E2E2E2E2E2E2E2E2E2E2E2E2E2E2E2E2E2E2E2E2E2E2E2E2E2E2E2E2E2E2E2E2E2E2E2E2E2E2E2E2E2E2E2E2E2E2E2E2E2E2E2E2E2E2E2E2E2E2E2E2E2E2E2E2E2E2E2E2E2E2E2E2E2E2E2E2E2E2E2E2E2E2E2E2E2E2E2E2E2E2E2
310
E2E2E2E2E2E2E2E2E2E2E2E20FE2E2E2E2E2E2E2E2E2E2E2E2E2E2E2E2E2E2E2E2E2E2E2E2E2E2E2E2E2E2E2E2E2E2E2E2E2E2E2E2E2E2E2E2E2E2E2E2E2E2E2E2E20FE2E2E2E2E2E2E2E2E2E2E2E2E2E2E2E2E2E2E2E2E2E2E2E2E2E2E2E2E2E2E2E2E2E2E2E2E2E2E2E2E2E2E2E2E2E2E2E2E2E2E2E2E2E2E2E2E2E2E2E2
310
E2E2E2E2E2E2E2E2E2E2E2E2E2E2E2E2E2E2E2E2E2E2E2E2E2E2E2E2E2E2E2E2E2E2E2E2E2E2E2E2E2E2E2E2E2E2E2E2E2E2E2E2E2E2E2E2E2E2E2E2E2E2E2E2E20FE2E2E2E2E2E2E2E2E2E2E2E2E2E2E2E2E2E2E2E2E2E2E2E2E2E2E2E2E2E2E2E2E2E2E2E2E2E2E2E2E2E2E2E2E2E2E2E2E2E2E2E2E20FE2E2E2E2E2E2E2
310
E2E2E2E2E2E2E2E2E2E2E2E2E2E2E2E2E2E2E2E2E2E2E2E2E2E2E2E2E2E2E2E2E2E2E2E2E2E2E2E2E2E2E2E2E2E2E2E2E2E2E2E2E2E2E2E2E2E2E2E2E2E2E2E2E2E2E2E2E2E2E2E2E2E2E2E2E2E2E2E2E2E2E2E2E2E2E2E2E2E2E2E2E2E2E2E2E2E2E2E2E2E2E2E2E2E2E2E2E2E2E2E2E2E2E2E2E2E20FE2E2E2E2E2E2E2E2
310
E2E2E2E2E2E2E2E2E2E2E2E2E2E2E2E2E2E2E2E2E2E2E2E2E2E2E2E2E2E2E2E2E2E2E2E2E2E2E2E2E2E2E2E2E20FE2E2E2E2E2E2E2E2E2E2E2E2E2E2E2E2E2E2E2E2E2E2E2E2E2E2E2E2E2E2E2E2E2E2E2E2E2E2E2E2E2E2E2E2E2E2E2E2E2E2E2E2E2E2E2E2E2E2E2E2E2E2E2E2E2E2E2E2E2E2E2E2E2E2E2E2E2E2E2E2E2
310
E2E2E2E2E2E2E2E2E2E2E2E2E2E2E2E2E2E2E2E2E2E2E2E2E2E2E2E2E2E2E2E2E2E2E2E2E2E2E2E2E2E2E2E20FE2E2E2E2E2E2E2E2E2E2E2E2E2E2E2E2E2E2E2E2E2E2E2E2E2E2E2E2E2E2E2E2E2E2E2E2E2E2E2E2E2E2E2E2E2E2E2E2E2E2E2E2E20FE2E2E2E2E2E2E2E2E2E2E2E2E2E2E2E2E2E2E2E2E2E2E2E2E2E2E2E2
310
E2E2E2E2E2E2E2E2E2E2E2E2E2E2E2E2E2E2E2E2E2E2E2E2E2E2E2E2E2E2E2E2E2E2E2E2E2E2E2E2E2E2E2E2E2E2E2E2E2E2E2E2E2E2E2E2E2E2E2E2E2E2E2E2E2E2E2E2E2E2E2E2E2E2E2E2E2E2E2E2E2E2E2E2E2E2E2E2E2E2E2E2E2E2E2E2E20FE2E2E2E2E2E2E2E2E2E2E2E2E2E2E2E2E2E2E2E2E2E2E2E2E2E2E2E2E2
310
E2E2E2E2E2E2E2E2E2E2E2E2E2E2E2E2E2E2E2E2E2E2E2E20FE2E2E2E2E2E2E2E2E2E2E2E2E2E2E2E2E2E2E2E2E2E2E2E2E2E2E2E2E2E2E2E2E2E2E2E2E2E2E2E2E2E2E2E2E2E2E2E2E2E2E2E2E2E2E2E2E2E2E2E2E2E2E2E2E2E2E2E2E2E2E2E2E2E2E2E2E2E2E2E2E2E2E2E2E2E2E2E2E2E2E2E2E2E2E2E2E2E2E2E2E2E2
310
E2E2E2E2E2E2E2E2E2E2E2E2E2E2E2E2E2E2E2E2E2E2E20FE2E2E2E2E2E2E2E2E2E2E2E2E2E2E2E2E2E2E2E2E2E2E2E2E2E2E2E2E2E2E2E2E2E2E2E2E2E2E2E2E2E2E2E2E2E2E2E2E2E2E2E2E20FE2E2E2E2E2E2E2E2E2E2F5F5F5F5F5F5F5F5F5F5F5F5F5F5E2E2E2E2E2E2E2E2E2E2E2E2E2E2E2E2E2E2E2E2E2E2E2E2E2
310
E2E2E2E2E2E2E2E2E2E2E2E2E2E2E2E2E2E2E2E2E2E2E2E2E2E2E2E2E2E2E2E2E2E2E2E2E2E2E2E2E2E2E2E2E2E2E2E2E2E2E2E2E2E2E2E2E2E2E2E2E2E2E2E2E2E2E2E2E2E2E2E2E2E2E2E20FE2E2E2E2E2E2E2E2E2E2E2E2E2E2E2E2E2E2E2E2E2E2E2E2E2E2E2E2E2E2E2E2E2E2E2E2E2E2E2E2E2E2E2E2E2E2E2E2E2E2
310
E2E2E20FE2E2E2E2E2E2E2E2E2F5F5F5F5F5F5F5F5F5F5E2E2E2E2E2F5F5F5F5F5F5F5F5F5F5E2E2E2E2E2E2E2E2E2E2E2E2E2E2E2E2E2E2E2E2E2E2E2E2E2E2E2E2E2E2E2E2E2E2E2E2E2E2E2E2E2E2E2E2E2E2E2E2E2E2E2E2E2E2E2E2E2E2E2E2E2E2E2E2E2E2E2E2E2E2E2E2E2E2E2E2E2E2E2E2E2E2E2E2E2E2E2E2E2
310
E2E20FE2E2E2E2E2E2E2E2E2E2E2E2E2E2E2E2E2E2E2E2E2E2E2E2E2E2E2E2E2E2E2E2E2E2E2E2E2E2E2E2E2E2E2E2E2E2E2E2E2E2E2E2E20FE2E2E2E2E2E2E2E2E2F5E2E2E2E2E2E2E2F5F5E2E2E2E2E2E2E2E2E2E2E2E2E2E2E2F5F5F5F5F5F5F5F5F5F5E2E2E2E2E2E2E2E2E2E2E2E2E2E2E2E2E2E2E2E2E2E2E2E2E2E2
310
E2E2E2E2E2E2E2E2E2E2E2E2E2E2E2E2E2E2E2E2E2E2E2E2E2E2E2E2E2E2E2E2E2E2E2E2E2E2E2E2E2E2E2E2E2E2E2E2E2E2E2E2E2E2E20FE2E2E2E2E2E2E2E2E2E2E2E2E2E2E2E2E2E2E2E2E2E2E2E2E2E2E2E2E2E2E2E2E2E2E2E2E2E2E2E2E2E2E2E2E2E2E2E2E2E2E2E2E20FE2E2E2E2E2E2E2E2E2F5E2E2E2E2E2E2E2
310
E2F5F5E2E2E2E2E2E2E2E2E2E2E2E2E2E2E2E2E2E2E2E2E2E2E2E2F5F5F5F5F5F5E2E2E2E2E2E2E2E2E2E2E2E2E2E2E2E2E2E2E2E2E2E2E2E2E2E2E2E2E2E2E2E2E2E2E2E2E2E2E2E2E2E2E2E2E2E2E2E2E2E2E2E2E2E2E2E2E2E2E2E2E2E2E2E2E2E2E2E2E2E2E2E2E2E2E20FE2E2E2E2E2E2E2E2E2E2E2E2E2E2E2E2E2E2
310
E2E2E2E2E2E2E2E2E2E2E2E2E2E2E2E2E2E2E2E2E2E2E2E2E2E2E2E2E2E2E2E2E2E2E20FE2E2E2E2E2E2E2E2E2F5E2E2E2E2E2E2E2E2E2F5F5E2E2E2E2E2E2E2E2E2E2E2E2E2E2E2E2E2E2E2E2E2E2E2E2E2E2E2E2E2F5F5F5E2E2E2E2E2E2E2E2E2E2E2E2E2E2E2E2E2E2E2E2E2E2E2E2E2E2E2E2E2E2E2E2E2E2E2E2E2E2
310
E2E2E2E2E2E2E2E2E2E2E2E2E2E2E2E2E2E2E2E2E2E2E2E2E2E2E2E2E2E2E2E2E2E20FE2E2E2E2E2E2E2E2E2E2E2E2E2E2E2E2E2E2E2E2E2E2E2E2E2E2E2E2E2E2E2E2E2E2E2E2E2E2E2E2E2E2E2E2E2E2E2E2E2E2E2E2E20FE2E2E2E2E2E2E2E2E2F5E2E2E2E2E2E2E2E2E2E2F5E2E2E2E2E2E2E2E2E2E2E2E2E2E2E2E2E2
310
E2E2E2E2E2E2E2E2E2E2E2E2E2E2E2F5F5E2E2E2E2E2E2E2E2E2E2E2E2E2E2E2E2E2E2E2E2E2E2E2E2E2E2E2E2E2E2E2E2E2E2E2E2E2E2E2E2E2E2E2E2E2E2E2E2E2E2E2E2E2E2E2E2E2E2E2E2E2E2E2E2E2E2E2E2E2E20FE2E2E2E2E2E2E2E2E2E2E2E2E2E2E2E2E2E2E2E2E2E2E2E2E2E2E2E2E2E2E2E2E2E2E2E2E2E2E2
310
E2E2E2E2E2E2E2E2E2E2E2E2E2E20FE2E2E2E2E2E2E2E2E2F5E2E2E2E2E2E2E2E2E2E2F5E2E2E2E2E2E2E2E2E2E2E2E2E2E2E2E2F5F5F5F5F5F5F5F5F5F5F5F5E2E2E2E2E2E2F5E2E2E2E2E2E2E2E2E2E2E2E2E2E2E2E2E2E2E2E2E2E2E2E2E2E2E2E2E2E2E2E2E2E2E2E2E2E2E2E2E2E2E2E2E2E2E2E2E2E2E2E2E2E2E2E2
310
E2E2E2E2E2E2E2E2E2E2E2E2E20FE2E2E2E2E2E2E2E2E2E2E2E2E2E2E2E2E2E2E2E2E2E2E2E2E2E2E2E2E2E2E2E2E2E2E2E2E2E2E2E2E2E2E2E2E2E2E2E2E2E2E2E2E20FE2E2E2E2E2E2E2E2E2F5E2E2E2E2E2E2E2E2E2E2F5F5E2E2E2E2E2E2E2E2E2E2E2E2E2F5F5E2E2E2E2E2E2E2E2E2E2E2E2F5F5F5E2E2E2E2F5E2E2
310
E2E2E2E2E2E2E2E2E2E2E2E2E2E2E2E2E2E2E2E2E2E2E2E2E2E2E2E2E2E2E2E2E2E2E2E2E2E2E2E2E2E2E2E2E2E2E2E2E2E2E2E2E2E2E2E2E2E2E2E2E2E2E2E2E2E20FE2E2E2E2E2E2E2E2E2E2E2E2E2E2E2E2E2E2E2E2E2E2E2E2E2E2E2E2E2E2E2E2E2E2E2E2E2E2E2E2E2E2E2E2E2E2E2E2E2E2E2E2E20FE2E2E2E2E2E2
310
E2E2E2F5E2E2E2E2E2E2E2E2E2E2F5F5E2E2E2E2E2E2E2E2E2E2E2E2F5E2E2E2E2E2E2E2E2E2E2E2E2E2E2E2E2E2F5F5E2E2E2F5F5E2E2E2E2E2E2E2E2E2E2E2E2E2E2E2E2E2E2E2E2E2E2E2E2E2E2E2E2E2E2E2E2E2E2E2E2E2E2E2E2E2E2E2E2E2E2E2E2E2E2E2E2E2E2E2E2E2E2E2E2E2E2E2E2E2E20FE2E2E2E2E2E2E2
310
E2E2E2E2E2E2E2E2E2E2E2E2E2E2E2E2E2E2E2E2E2E2E2E2E2E2E2E2E2E2E2E2E2E2E2E2E2E2E2E2E2E2E2E2E2E20FE2E2E2E2E2E2E2E2E2F5E2E2E2E2E2E2E2E2E2E2F5F5E2E2E2E2F5F5E2E2E2E2E2F5F5E2E2E2E2F5F5F5F5F5F5F5E2E2E2E2E2E2E2E2F5E2E2E2E2F5E2E2E2E2E2E2E2E2E2E2E2E2E2E2E2E2E2E2E2E2
310
E2E2E2E2E2E2E2E2E2E2E2E2E2E2E2E2E2E2E2E2E2E2E2E2E2E2E2E2E2E2E2E2E2E2E2E2E2E2E2E2E2E2E2E2E20FE2E2E2E2E2E2E2E2E2E2E2E2E2E2E2E2E2E2E2E2E2E2E2E2E2E2E2E2E2E2E2E2E2E2E2E2E2E2E2E2E2E2E2E2E2E2E2E2E2E2E2E2E20FE2E2E2E2E2E2E2E2E2F5E2E2E2E2E2E2E2E2E2E2E2F5E2E2E2F5F5
310
F5F5E2E2E2E2F5E2E2E2F5F5E2E2E2E2E2E2E2F5F5F5E2E2E2E2E2E2F5F5E2E2F5E2E2E2E2E2E2E2E2E2E2E2E2E2E2E2E2E2E2E2E2E2E2E2E2E2E2E2E2E2E2E2E2E2E2E2E2E2E2E2E2E2E2E2E2E2E2E2E2E2E2E2E2E2E2E2E2E2E2E2E2E2E2E2E2E20FE2E2E2E2E2E2E2E2E2E2E2E2E2E2E2E2E2E2E2E2E2E2E2E2E2E2E2E2
310
E2E2E2E2E2E2E2E2E2E2E2E2E2E2E2E2E2E2E2E2E2E2E2E2E20FE2E2E2E2E2E2E2E2E2F5E2E2E2E2E2E2E2E2E2E2E2F5E2E2E2E2F5F5F5E2E2E2F5E2E2E2F5E2E2E2E2E2E2E2E2E2E2E2E2F5E2E2E2E2E2E2F5E2E2E2F5E2E2E2E2E2E2E2E2E2E2E2E2E2E2E2E2E2E2E2E2E2E2E2E2E2E2E2E2E2E2E2E2E2E2E2E2E2E2E2E2
310
E2E2E2E2E2E2E2E2E2E2E2E2E2E2E2E2E2E2E2E2E2E2E2E20FE2E2E2E2E2E2E2E2E2E2E2E2E2E2E2E2E2E2E2E2E2E2E2E2E2E2E2E2E2E2E2E2E2E2E2E2E2E2E2E2E2E2E2E2E2E2E2E2E2E2E2E2E20FE2E2E2E2E2E2E2E2E2F5E2E2E2E2E2E2E2E2E2E2E2F5F5E2E2E2E2F5E2E2E2E2F5E2F5F5E2E2E2E2E2E2E2E2E2E2E2E2
310
E2F5F5E2E2E2E2E2E2F5E2E2F5F5E2E2E2E2E2E2E2E2E2E2E2E2E2E2E2E2E2E2E2E2E2E2E2E2E2E2E2E2E2E2E2E2E2E2E2E2E2E2E2E2E2E2E2E2E2E2E2E2E2E2E2E2E2E2E2E2E2E2E2E2E2E2E20FE2E2E2E2E2E2E2E2E2E2E2E2E2E2E2E2E2E2E2E2E2E2E2E2E2E2E2E2E2E2E2E2E2E2E2E2E2E2E2E2E2E2E2E2E2E2E2E2E2
310
E2E2E2E20FE2E2E2E2E2E2E2E2E2F5E2E2E2E2E2E2E2E2E2E2E2F5F5E2E2E2E2E2E2E2E2F5E2E2F5E2F5F5F5F5F5E2E2E2E2E2E2E2E2E2E2F5E2E2E2E2E2F5F5E2E2F5E2E2E2E2E2E2E2E2E2E2E2E2E2E2E2E2E2E2E2E2E2E2E2E2E2E2E2E2E2E2E2E2E2E2E2E2E2E2E2E2E2E2E2E2E2E2E2E2E2E2E2E2E2E2E2E2E2E2E2E2
310
E2E2E20FE2E2E2E2E2E2E2E2E2E2E2E2E2E2E2E2E2E2E2E2E2E2E2E2E2E2E2E2E2E2E2E2E2E2E2E2E2E2E2E2E2E2E2E2E2E2E2E2E2E2E2E2E20FE2E2E2E2E2E2E2E2F5F5E2E2E2E2E2E2E2E2E2E2E2F5F5E2E2E2E2E2E2E2E2F5E2F5F5F5E2E2E2E2E2F5F5E2E2E2E2E2E2E2E2F5E2E2E2E2E2E2F5E2E2F5E2E2E2E2E2E2E2
310
E2E2E2E2E2E2E2E2E2E2E2E2E2E2E2E2E2E2E2E2E2E2E2E2E2E2E2E2E2E2E2E2E2E2E2E2E2E2E2E2E2E2E2E2E2E2E2E2E2E2E2E2E2E2E2E20FE2E2E2E2E2E2E2E2E2E2E2E2E2E2E2E2E2E2E2E2E2E2E2E2E2E2E2E2E2E2E2E2E2E2E2E2E2E2E2E2E2E2E2E2E2E2E2E2E2E2E2E2E20FE2E2E2E2E2E2E2E2F5F5E2E2E2E2E2E2
310
E2E2E2E2E2F5F5E2E2E2E2E2E2E2E2F5E2F5E2F5E2E2E2E2E2E2F5E2E2E2E2E2E2E2E2F5F5E2E2E2E2E2F5E2E2F5E2E2E2E2E2E2E2E2E2E2E2E2E2E2E2E2E2E2E2E2E2E2E2E2E2E2E2E2E2E2E2E2E2E2E2E2E2E2E2E2E2E2E2E2E2E2E2E2E2E2E2E2E2E2E2E2E2E2E2E2E2E2E20FE2E2E2E2E2E2E2E2E2E2E2E2E2E2E2E2E2
310
E2E2E2E2E2E2E2E2E2E2E2E2E2E2E2E2E2E2E2E2E2E2E2E2E2E2E2E2E2E2E2E2E2E2E2E20FE2E2E2E2E2E2E2E2F5F5E2E2E2E2E2E2E2E2E2E2E2F5F5E2E2E2E2E2E2E2E2F5E2F5E2F5E2E2E2E2E2E2F5E2E2E2E2E2E2E2E2F5F5E2E2E2E2E2F5E2E2F5E2E2E2E2E2E2E2E2E2E2E2E2E2E2E2E2E2E2E2E2E2E2E2E2E2E2E2E2
310
E2E2E2E2E2E2E2E2E2E2E2E2E2E2E2E2E2E2E2E2E2E2E2E2E2E2E2E2E2E2E2E2E2E2E20FE2E2E2E2E2E2E2E2E2E2E2E2E2E2E2E2E2E2E2E2E2E2E2E2E2E2E2E2E2E2E2E2E2E2E2E2E2E2E2E2E2E2E2E2E2E2E2E2E2E2E2E2E20FE2E2E2E2E2E2E2E2E2F5E2E2E2E2E2E2E2E2E2E2E2F5F5E2E2E2E2E2E2E2E2F5E2E2F5F5E2
310
E2E2E2F5F5F5E2E2E2E2E2E2E2E2F5E2E2E2E2E2E2F5E2E2F5E2E2E2E2E2E2E2E2E2E2E2E2E2E2E2E2E2E2E2E2E2E2E2E2E2E2E2E2E2E2E2E2E2E2E2E2E2E2E2E2E2E2E2E2E2E2E2E2E2E2E2E2E2E2E2E2E2E2E2E2E2E2E20FE2E2E2E2E2E2E2E2E2E2E2E2E2E2E2E2E2E2E2E2E2E2E2E2E2E2E2E2E2E2E2E2E2E2E2E2E2E2
310
E2E2E2E2E2E2E2E2E2E2E2E2E2E2E20FE2E2E2E2E2E2E2E2E2F5E2E2E2E2E2E2E2E2E2E2E2F5F5E2E2E2E2E2E2E2E2F5E2E2F5E2F5F5F5F5E2E2E2E2E2E2E2E2E2E2E2F5E2E2E2E2E2F5F5E2E2F5E2E2E2E2E2E2E2E2E2E2E2E2E2E2E2E2E2E2E2E2E2E2E2E2E2E2E2E2E2E2E2E2E2E2E2E2E2E2E2E2E2E2E2E2E2E2E2E2E2
310
E2E2E2E2E2E2E2E2E2E2E2E2E2E20FE2E2E2E2E2E2E2E2E2E2E2E2E2E2E2E2E2E2E2E2E2E2E2E2E2E2E2E2E2E2E2E2E2E2E2E2E2E2E2E2E2E2E2E2E2E2E2E2E2E2E2E2E20FE2E2E2E2E2E2E2E2E2F5E2E2E2E2E2E2E2E2E2E2E2F5F5E2E2E2E2F5E2E2E2E2F5E2F5F5E2E2E2E2E2E2E2E2E2E2E2E2E2F5F5E2E2E2E2E2E2F5
310
E2E2F5F5E2E2E2E2E2E2E2E2E2E2E2E2E2E2E2E2E2E2E2E2E2E2E2E2E2E2E2E2E2E2E2E2E2E2E2E2E2E2E2E2E2E2E2E2E2E2E2E2E2E2E2E2E2E2E2E2E2E2E2E2E2E2E20FE2E2E2E2E2E2E2E2E2E2E2E2E2E2E2E2E2E2E2E2E2E2E2E2E2E2E2E2E2E2E2E2E2E2E2E2E2E2E2E2E2E2E2E2E2E2E2E2E2E2E2E2E20FE2E2E2E2E2
310
E2E2E2E2F5E2E2E2E2E2E2E2E2E2E2E2F5E2E2E2E2F5F5F5E2E2E2F5E2E2E2F5E2E2E2E2E2E2E2E2E2E2E2F5F5E2E2E2E2E2E2F5E2E2E2F5E2E2E2E2E2E2E2E2E2E2E2E2E2E2E2E2E2E2E2E2E2E2E2E2E2E2E2E2E2E2E2E2E2E2E2E2E2E2E2E2E2E2E2E2E2E2E2E2E2E2E2E2E2E2E2E2E2E2E2E2E2E2E2E20FE2E2E2E2E2E2
310
E2E2E2E2E2E2E2E2E2E2E2E2E2E2E2E2E2E2E2E2E2E2E2E2E2E2E2E2E2E2E2E2E2E2E2E2E2E2E2E2E2E2E2E2E2E2E20FE2E2E2E2E2E2E2E2E2F5E2E2E2E2E2E2E2E2E2E2E2F5E2E2E2F5F5F5F5E2E2E2E2F5E2E2E2F5F5F5E2E2E2E2E2E2F5F5E2E2E2E2E2E2E2F5E2E2E2F5E2E2E2E2E2E2E2E2E2E2E2E2E2E2E2E2E2E2E2
310
E2E2E2E2E2E2E2E2E2E2E2E2E2E2E2E2E2E2E2E2E2E2E2E2E2E2E2E2E2E2E2E2E2E2E2E2E2E2E2E2E2E2E2E2E2E20FE2E2E2E2E2E2E2E2E2E2E2E2E2E2E2E2E2E2E2E2E2E2E2E2E2E2E2E2E2E2E2E2E2E2E2E2E2E2E2E2E2E2E2E2E2E2E2E2E2E2E2E2E20FE2E2E2E2E2E2E2E2E2F5E2E2E2E2E2E2E2E2E2E2F5F5E2E2E2E2
310
F5F5E2E2E2E2E2F5F5E2E2E2E2E2F5F5F5F5F5F5E2E2E2E2E2E2E2E2F5E2E2E2E2F5E2E2E2E2E2E2E2E2E2E2E2E2E2E2E2E2E2E2E2E2E2E2E2E2E2E2E2E2E2E2E2E2E2E2E2E2E2E2E2E2E2E2E2E2E2E2E2E2E2E2E2E2E2E2E2E2E2E2E2E2E2E2E2E2E20FE2E2E2E2E2E2E2E2E2E2E2E2E2E2E2E2E2E2E2E2E2E2E2E2E2E2E2
310
E2E2E2E2E2E2E2E2E2E2E2E2E2E2E2E2E2E2E2E2E2E2E2E2E2E20FE2E2E2E2E2E2E2E2E2F5E2E2E2E2E2E2E2E2E2E2F5F5E2E2E2E2E2E2E2E2E2E2E2E2F5E2E2E2E2E2E2E2E2E2E2E2E2E2E2E2E2E2F5F5E2E2E2F5F5E2E2E2E2E2E2E2E2E2E2E2E2E2E2E2E2E2E2E2E2E2E2E2E2E2E2E2E2E2E2E2E2E2E2E2E2E2E2E2E2E2
310
E2E2E2E2E2E2E2E2E2E2E2E2E2E2E2E2E2E2E2E2E2E2E2E2E20FE2E2E2E2E2E2E2E2E2E2E2E2E2E2E2E2E2E2E2E2E2E2E2E2E2E2E2E2E2E2E2E2E2E2E2E2E2E2E2E2E2E2E2E2E2E2E2E2E2E2E2E2E20FE2E2E2E2E2E2E2E2E2F5E2E2E2E2E2E2E2E2E2E2F5F5E2E2E2E2E2E2E2E2E2E2E2E2E2F5F5F5E2E2E2E2E2E2E2E2E2
310
E2E2F5F5F5E2E2E2E2F5E2E2E2E2E2E2E2E2E2E2E2E2E2E2E2E2E2E2E2E2E2E2E2E2E2E2E2E2E2E2E2E2E2E2E2E2E2E2E2E2E2E2E2E2E2E2E2E2E2E2E2E2E2E2E2E2E2E2E2E2E2E2E2E2E2E2E2E20FE2E2E2E2E2E2E2E2E2E2E2E2E2E2E2E2E2E2E2E2E2E2E2E2E2E2E2E2E2E2E2E2E2E2E2E2E2E2E2E2E2E2E2E2E2E2E2E2
310
E2E2E2E2E20FE2E2E2E2E2E2E2E2E2F5E2E2E2E2E2E2E2E2E2E2F5E2E2E2E2E2E2E2E2E2E2E2E2E2E2E2E2E2F5F5F5F5F5F5F5F5F5F5F5E2E2E2E2E2E2F5E2E2E2E2E2E2E2E2E2E2E2E2E2E2E2E2E2E2E2E2E2E2E2E2E2E2E2E2E2E2E2E2E2E2E2E2E2E2E2E2E2E2E2E2E2E2E2E2E2E2E2E2E2E2E2E2E2E2E2E2E2E2E2E2E2
310
E2E2E2E20FE2E2E2E2E2E2E2E2E2E2E2E2E2E2E2E2E2E2E2E2E2E2E2E2E2E2E2E2E2E2E2E2E2E2E2E2E2E2E2E2E2E2E2E2E2E2E2E2E2E2E2E2E20FE2E2E2E2E2E2E2E2E2F5E2E2E2E2E2E2E2E2E2E2F5E2E2E2E2E2E2E2E2E2E2E2E2E2E2E2E2E2E2E2E2E2E2E2E2E2E2E2E2E2E2E2E2F5F5E2E2E2E2E2E2E2E2E2E2E2E2E2
310
E2E2E2E2E2E2E2E2E2E2E2E2E2E2E2E2E2E2E2E2E2E2E2E2E2E2E2E2E2E2E2E2E2E2E2E2E2E2E2E2E2E2E2E2E2E2E2E2E2E2E2E2E2E2E2E2E20FE2E2E2E2E2E2E2E2E2E2E2E2E2E2E2E2E2E2E2E2E2E2E2E2E2E2E2E2E2E2E2E2E2E2E2E2E2E2E2E2E2E2E2E2E2E2E2E2E2E2E2E2E20FE2E2E2E2E2E2E2E2E2F5E2E2E2E2E2
310
E2E2E2E2F5F5E2E2E2E2E2E2E2E2E2E2E2E2E2E2E2E2E2E2E2E2E2E2E2E2E2E2E2E2E2F5F5F5E2E2E2E2E2E2E2E2E2E2E2E2E2E2E2E2E2E2E2E2E2E2E2E2E2E2E2E2E2E2E2E2E2E2E2E2E2E2E2E2E2E2E2E2E2E2E2E2E2E2E2E2E2E2E2E2E2E2E2E2E2E2E2E2E2E2E2E2E2E2E2E20FE2E2E2E2E2E2E2E2E2E2E2E2E2E2E2E2
310
E2E2E2E2E2E2E2E2E2E2E2E2E2E2E2E2E2E2E2E2E2E2E2E2E2E2E2E2E2E2E2E2E2E2E2E2E20FE2E2E2E2E2E2E2E2E2F5E2E2E2E2E2E2E2E2F5F5E2E2E2E2E2E2E2E2E2E2E2E2E2E2E2E2E2E2E2E2E2E2E2E2F5F5F5F5F5F5E2E2E2E2E2E2E2E2E2E2E2E2E2E2E2E2E2E2E2E2E2E2E2E2E2E2E2E2E2E2E2E2E2E2E2E2E2E2E2
310
E2E2E2E2E2E2E2E2E2E2E2E2E2E2E2E2E2E2E2E2E2E2E2E2E2E2E2E2E2E2E2E2E2E2E2E20FE2E2E2E2E2E2E2E2E2E2E2E2E2E2E2E2E2E2E2E2E2E2E2E2E2E2E2E2E2E2E2E2E2E2E2E2E2E2E2E2E2E2E2E2E2E2E2E2E2E2E2E2E20FE2E2E2E2E2E2E2E2E2F5E2E2E2E2E2E2E2F5F5E2E2E2E2E2E2E2E2E2E2E2E2E2E2E2F5F5
310
F5F5F5F5F5F5F5F5E2E2E2E2E2E2E2E2E2E2E2E2E2E2E2E2E2E2E2E2E2E2E2E2E2E2E2E2E2E2E2E2E2E2E2E2E2E2E2E2E2E2E2E2E2E2E2E2E2E2E2E2E2E2E2E2E2E2E2E2E2E2E2E2E2E2E2E2E2E2E2E2E2E2E2E2E2E2E2E2E20FE2E2E2E2E2E2E2E2E2E2E2E2E2E2E2E2E2E2E2E2E2E2E2E2E2E2E2E2E2E2E2E2E2E2E2E2E2
310
E2E2E2E2E2E2E2E2E2E2E2E2E2E2E2E20FE2E2E2E2E2E2E2E2E2F5F5F5F5F5F5F5F5F5F5E2E2E2E2E2F5F5F5F5F5F5F5F5F5F5E2E2E2E2E2E2E2E2E2E2E2E2E2E2E2E2E2E2E2E2E2E2E2E2E2E2E2E2E2E2E2E2E2E2E2E2E2E2E2E2E2E2E2E2E2E2E2E2E2E2E2E2E2E2E2E2E2E2E2E2E2E2E2E2E2E2E2E2E2E2E2E2E2E2E2E2
310
E2E2E2E2E2E2E2E2E2E2E2E2E2E2E20FE2E2E2E2E2E2E2E2E2E2E2E2E2E2E2E2E2E2E2E2E2E2E2E2E2E2E2E2E2E2E2E2E2E2E2E2E2E2E2E2E2E2E2E2E2E2E2E2E2E2E2E2E20FE2E2E2E2E2E2E2E2E2E2F5F5F5F5F5F5F5F5F5F5F5F5F5F5E2E2E2E2E2E2E2E2E2E2E2E2E2E2E2E2E2E2E2E2E2E2E2E2E2E2E2E2E2E2E2E2E2
310
E2E2E2E2E2E2E2E2E2E2E2E2E2E2E2E2E2E2E2E2E2E2E2E2E2E2E2E2E2E2E2E2E2E2E2E2E2E2E2E2E2E2E2E2E2E2E2E2E2E2E2E2E2E2E2E2E2E2E2E2E2E2E2E2E2E2E2E20FE2E2E2E2E2E2E2E2E2E2E2E2E2E2E2E2E2E2E2E2E2E2E2E2E2E2E2E2E2E2E2E2E2E2E2E2E2E2E2E2E2E2E2E2E2E2E2E2E2E2E2E2E20FE2E2E2E2
310
E2E2E2E2E2E2E2E2E2E2E2E2E2E2E2E2E2E2E2E2E2E2E2E2E2E2E2E2E2E2E2E2E2E2E2E2E2E2E2E2E2E2E2E2E2E2E2E2E2E2E2E2E2E2E2E2E2E2E2E2E2E2E2E2E2E2E2E2E2E2E2E2E2E2E2E2E2E2E2E2E2E2E2E2E2E2E2E2E2E2E2E2E2E2E2E2E2E2E2E2E2E2E2E2E2E2E2E2E2E2E2E2E2E2E2E2E2E2E2E2E20FE2E2E2E2E2
310
E2E2E2E2E2E2E2E2E2E2E2E2E2E2E2E2E2E2E2E2E2E2E2E2E2E2E2E2E2E2E2E2E2E2E2E2E2E2E2E2E2E2E2E2E2E2E2E20FE2E2E2E2E2E2E2E2E2E2E2E2E2E2E2E2E2E2E2E2E2E2E2E2E2E2E2E2E2E2E2E2E2E2E2E2E2E2E2E2E2E2E2E2E2E2E2E2E2E2E2E2E2E2E2E2E2E2E2E2E2E2E2E2E2E2E2E2E2E2E2E2E2E2E2E2E2E2
310
E2E2E2E2E2E2E2E2E2E2E2E2E2E2E2E2E2E2E2E2E2E2E2E2E2E2E2E2E2E2E2E2E2E2E2E2E2E2E2E2E2E2E2E2E2E2E20FE2E2E2E2E2E2E2E2E2E2E2E2E2E2E2E2E2E2E2E2E2E2E2E2E2E2E2E2E2E2E2E2E2E2E2E2E2E2E2E2E2E2E2E2E2E2E2E2E2E2E2E2E20FE2E2E2E2E2E2E2E2E2E2E2E2E2E2E2E2E2E2E2E2E2E2E2E2E2
310
E2E2E2E2E2E2E2E2E2E2E2E2E2E2E2E2E2E2E2E2E2E2E2E2E2E2E2E2E2E2E2E2E2E2E2E2E2E2E2E2E2E2E2E2E2E2E2E2E2E2E2E2E2E2E2E2E2E2E2E2E2E2E2E2E2E2E2E2E2E2E2E2E2E2E2E2E2E2E2E2E2E2E2E2E2E2E2E2E2E2E2E2E2E2E2E2E2E2E2E20FE2E2E2E2E2E2E2E2E2E2E2E2E2E2E2E2E2E2E2E2E2E2E2E2E2E2
310
E2E2E2E2E2E2E2E2E2E2E2E2E2E2E2E2E2E2E2E2E2E2E2E2E2E2E20FE2E2E2E2E2E2E2E2E2E2E2E2E2E2E2E2E2E2E2E2E2E2E2E2E2E2E2E2E2E2E2E2E2E2E2E2E2E2E2E2E2E2E2E2E2E2E2E2E2E2E2E2E2E2E2E2E2E2E2E2E2E2E2E2E2E2E2E2E2E2E2E2E2E2E2E2E2E2E2E2E2E2E2E2E2E2E2E2E2E2E2E2E2E2E2E2E2E2E2
310
E2E2E2E2E2E2E2E2E2E2E2E2E2E2E2E2E2E2E2E2E2E2E2E2E2E20FE2E2E2E2E2E2E2E2E2E2E2E2E2E2E2E2E2E2E2E2E2E2E2E2E2E2E2E2E2E2E2E2E2E2E2E2E2E2E2E2E2E2E2E2E2E2E2E2E2E2E2E2E20FE2E2E2E2E2E2E2E2E2E2E2E2E2E2E2E2E2E2E2E2E2E2E2E2E2E2E2E2E2E2E2E2E2E2E2E2E2E2E2E2E2E2E2E2E2E2
310
E2E2E2E2E2E2E2E2E2E2E2E2E2E2E2E2E2E2E2E2E2E2E2E2E2E2E2E2E2E2E2E2E2E2E2E2E2E2E2E2E2E2E2E2E2E2E2E2E2E2E2E2E2E2E2E2E2E2E2E2E2E2E2E2E2E2E2E2E2E2E2E2E2E2E2E2E2E2E20FE2E2E2E2E2E2E2E2E2E2E2E2E2E2E2E2E2E2E2E2E2E2E2E2E2E2E2E2E2E2E2E2E2E2E2E2E2E2E2E2E2E2E2E2E2E2E2
310
E2E2E2E2E2E20FE2E2E2E2E2E2E2E2E2E2E2E2E2E2E2E2E2E2E2E2E2E2E2E2E2E2E2E2E2E2E2E2E2E2E2E2E2E2E2E2E2E2E2E2E2E2E2E2E2E2E2E2E2E2E2E2E2E2E2E2E2E2E2E2E2E2E2E2E2E2E2E2E2E2E2E2E2E2E2E2E2E2E2E2E2E2E2E2E2E2E2E2E2E2E2E2E2E2E2E2E2E2E2E2E2E2E2E2E2E2E2E2E2E2E2E2E2E2E2E2
310
E2E2E2E2E20FE2E2E2E2E2E2E2E2E2E2E2E2E2E2E2E2E2E2E2E2E2E2E2E2E2E2E2E2E2E2E2E2E2E2E2E2E2E2E2E2E2E2E2E2E2E2E2E2E2E2E2E2E20FE2E2E2E2E2E2E2E2E2E2E2E2E2E2E2E2E2E2E2E2E2E2E2E2E2E2E2E2E2E2E2E2E2E2E2E2E2E2E2E2E2E2E2E2E2E2E2E2E2E2E2E2E2E2E2E2E2E2E2E2E2E2E2E2E2E2E2
310
E2E2E2E2E2E2E2E2E2E2E2E2E2E2E2E2E2E2E2E2E2E2E2E2E2E2E2E2E2E2E2E2E2E2E2E2E2E2E2E2E2E2E2E2E2E2E2E2E2E2E2E2E2E2E2E2E2E20FE2E2E2E2E2E2E2E2E2E2E2E2E2E2E2E2E2E2E2E2E2E2E2E2E2E2E2E2E2E2E2E2E2E2E2E2E2E2E2E2E2E2E2E2E2E2E2E2E2E2E2E2E20FE2E2E2E2E2E2E2E2E2E2E2E2E2E2
310
E2E2E2E2E2E2E2E2E2E2E2E2E2E2E2E2E2E2E2E2E2E2E2E2E2E2E2E2E2E2E2E2E2E2E2E2E2E2E2E2E2E2E2E2E2E2E2E2E2E2E2E2E2E2E2E2E2E2E2E2E2E2E2E2E2E2E2E2E2E2E2E2E2E2E2E2E2E2E2E2E2E2E2E2E2E2E2E2E2E2E2E2E2E2E2E2E2E2E2E2E2E2E2E2E2E2E2E2E2E2E20FE2E2E2E2E2E2E2E2E2E2E2E2E2E2E2
310
E2E2E2E2E2E2E2E2E2E2E2E2E2E2E2E2E2E2E2E2E2E2E2E2E2E2E2E2E2E2E2E2E2E2E2E2E2E20FE2E2E2E2E2E2E2E2E2E2E2E2E2E2E2E2E2E2E2E2E2E2E2E2E2E2E2E2E2E2E2E2E2E2E2E2E2E2E2E2E2E2E2E2E2E2E2E2E2E2E2E2E2E2E2E2E2E2E2E2E2E2E2E2E2E2E2E2E2E2E2E2E2E2E2E2E2E2E2E2E2E2E2E2E2E2E2E2
310
E2E2E2E2E2E2E2E2E2E2E2E2E2E2E2E2E2E2E2E2E2E2E2E2E2E2E2E2E2E2E2E2E2E2E2E2E20FE2E2E2E2E2E2E2E2E2E2E2E2E2E2E2E2E2E2E2E2E2E2E2E2E2E2E2E2E2E2E2E2E2E2E2E2E2E2E2E2E2E2E2E2E2E2E2E2E2E2E2E2E2
  0
XRECORD
  5
ED49
102
{ACAD_REACTORS
330
ED48
102
}
330
ED48
100
AcDbXrecord
280
     1
102
MATERIAL
148
0.0
149
0.0
149
0.0
 93
        0
 94
       63
282
     0
 72
     1
 77
     1
171
     1
175
     1
179
     1
273
     0
  0
XRECORD
  5
ED47
102
{ACAD_REACTORS
330
ED46
102
}
330
ED46
100
AcDbXrecord
280
     1
102
MATERIAL
148
0.0
149
0.0
149
0.0
 93
        0
 94
       63
282
     0
 72
     1
 77
     1
171
     1
175
     1
179
     1
273
     0
  0
XRECORD
  5
ED3D
102
{ACAD_REACTORS
330
ED3C
102
}
330
ED3C
100
AcDbXrecord
280
     1
102
MATERIAL
148
0.0
149
0.0
149
0.0
 93
        0
 94
       63
282
     0
 72
     1
 77
     1
171
     1
175
     1
179
     1
273
     0
  0
XRECORD
  5
ED44
102
{ACAD_REACTORS
330
ED43
102
}
330
ED43
100
AcDbXrecord
280
     1
102
SHADEPLOT
 70
     0
102
SHADEPLOTRESLEVEL
 70
     2
102
SHADEPLOTCUSTOMDPI
 70
   300
  0
XRECORD
  5
ED3B
102
{ACAD_REACTORS
330
ED3A
102
}
330
ED3A
100
AcDbXrecord
280
     1
102
ACAD_ROUNDTRIP_PRE2007_TABLESTYLE
 90
        4
 91
        0
  1

 92
        4
 93
        0
  2

 94
        4
 95
        0
  3

  0
ENDSEC
  0
EOF
