  0
SECTION
  2
HEADER
  9
$ACADVER
  1
AC1015
  9
$ACADMAINTVER
 70
    20
  9
$DWGCODEPAGE
  3
ANSI_1252
  9
$INSBASE
 10
0.0
 20
0.0
 30
0.0
  9
$EXTMIN
 10
4.200489148163455
 20
2.127610871932148
 30
0.0
  9
$EXTMAX
 10
71.39242002671368
 20
65.65350724483694
 30
0.0
  9
$LIMMIN
 10
0.0
 20
0.0
  9
$LIMMAX
 10
12.0
 20
9.0
  9
$ORTHOMODE
 70
     0
  9
$REGENMODE
 70
     1
  9
$FILLMODE
 70
     1
  9
$QTEXTMODE
 70
     0
  9
$MIRRTEXT
 70
     0
  9
$LTSCALE
 40
1.0
  9
$ATTMODE
 70
     1
  9
$TEXTSIZE
 40
0.2
  9
$TRACEWID
 40
0.05
  9
$TEXTSTYLE
  7
Standard
  9
$CLAYER
  8
0
  9
$CELTYPE
  6
ByLayer
  9
$CECOLOR
 62
   256
  9
$CELTSCALE
 40
1.0
  9
$DISPSILH
 70
     0
  9
$DIMSCALE
 40
1.0
  9
$DIMASZ
 40
0.18
  9
$DIMEXO
 40
0.0625
  9
$DIMDLI
 40
0.38
  9
$DIMRND
 40
0.0
  9
$DIMDLE
 40
0.0
  9
$DIMEXE
 40
0.18
  9
$DIMTP
 40
0.0
  9
$DIMTM
 40
0.0
  9
$DIMTXT
 40
0.18
  9
$DIMCEN
 40
0.09
  9
$DIMTSZ
 40
0.0
  9
$DIMTOL
 70
     0
  9
$DIMLIM
 70
     0
  9
$DIMTIH
 70
     1
  9
$DIMTOH
 70
     1
  9
$DIMSE1
 70
     0
  9
$DIMSE2
 70
     0
  9
$DIMTAD
 70
     0
  9
$DIMZIN
 70
     0
  9
$DIMBLK
  1

  9
$DIMASO
 70
     1
  9
$DIMSHO
 70
     1
  9
$DIMPOST
  1

  9
$DIMAPOST
  1

  9
$DIMALT
 70
     1
  9
$DIMALTD
 70
     2
  9
$DIMALTF
 40
25.4
  9
$DIMLFAC
 40
1.0
  9
$DIMTOFL
 70
     0
  9
$DIMTVP
 40
0.0
  9
$DIMTIX
 70
     0
  9
$DIMSOXD
 70
     0
  9
$DIMSAH
 70
     0
  9
$DIMBLK1
  1

  9
$DIMBLK2
  1

  9
$DIMSTYLE
  2
Standard
  9
$DIMCLRD
 70
     0
  9
$DIMCLRE
 70
     0
  9
$DIMCLRT
 70
     0
  9
$DIMTFAC
 40
1.0
  9
$DIMGAP
 40
0.09
  9
$DIMJUST
 70
     0
  9
$DIMSD1
 70
     0
  9
$DIMSD2
 70
     0
  9
$DIMTOLJ
 70
     1
  9
$DIMTZIN
 70
     0
  9
$DIMALTZ
 70
     0
  9
$DIMALTTZ
 70
     0
  9
$DIMUPT
 70
     0
  9
$DIMDEC
 70
     4
  9
$DIMTDEC
 70
     4
  9
$DIMALTU
 70
     2
  9
$DIMALTTD
 70
     2
  9
$DIMTXSTY
  7
Standard
  9
$DIMAUNIT
 70
     0
  9
$DIMADEC
 70
     0
  9
$DIMALTRND
 40
0.0
  9
$DIMAZIN
 70
     0
  9
$DIMDSEP
 70
    46
  9
$DIMATFIT
 70
     3
  9
$DIMFRAC
 70
     0
  9
$DIMLDRBLK
  1

  9
$DIMLUNIT
 70
     2
  9
$DIMLWD
 70
    -2
  9
$DIMLWE
 70
    -2
  9
$DIMTMOVE
 70
     0
  9
$LUNITS
 70
     2
  9
$LUPREC
 70
     4
  9
$SKETCHINC
 40
0.1
  9
$FILLETRAD
 40
0.0
  9
$AUNITS
 70
     0
  9
$AUPREC
 70
     0
  9
$MENU
  1
.
  9
$ELEVATION
 40
0.0
  9
$PELEVATION
 40
0.0
  9
$THICKNESS
 40
0.0
  9
$LIMCHECK
 70
     0
  9
$CHAMFERA
 40
0.0
  9
$CHAMFERB
 40
0.0
  9
$CHAMFERC
 40
0.0
  9
$CHAMFERD
 40
0.0
  9
$SKPOLY
 70
     0
  9
$TDCREATE
 40
2454617.709509595
  9
$TDUCREATE
 40
2454617.876176262
  9
$TDUPDATE
 40
2456127.579336135
  9
$TDUUPDATE
 40
2456127.746002801
  9
$TDINDWG
 40
0.0520285069
  9
$TDUSRTIMER
 40
0.0520285069
  9
$USRTIMER
 70
     1
  9
$ANGBASE
 50
0.0
  9
$ANGDIR
 70
     0
  9
$PDMODE
 70
     0
  9
$PDSIZE
 40
0.0
  9
$PLINEWID
 40
0.0
  9
$SPLFRAME
 70
     0
  9
$SPLINETYPE
 70
     6
  9
$SPLINESEGS
 70
     8
  9
$HANDSEED
  5
1AF2
  9
$SURFTAB1
 70
     6
  9
$SURFTAB2
 70
     6
  9
$SURFTYPE
 70
     6
  9
$SURFU
 70
     6
  9
$SURFV
 70
     6
  9
$UCSBASE
  2

  9
$UCSNAME
  2

  9
$UCSORG
 10
0.0
 20
0.0
 30
0.0
  9
$UCSXDIR
 10
1.0
 20
0.0
 30
0.0
  9
$UCSYDIR
 10
0.0
 20
1.0
 30
0.0
  9
$UCSORTHOREF
  2

  9
$UCSORTHOVIEW
 70
     0
  9
$UCSORGTOP
 10
0.0
 20
0.0
 30
0.0
  9
$UCSORGBOTTOM
 10
0.0
 20
0.0
 30
0.0
  9
$UCSORGLEFT
 10
0.0
 20
0.0
 30
0.0
  9
$UCSORGRIGHT
 10
0.0
 20
0.0
 30
0.0
  9
$UCSORGFRONT
 10
0.0
 20
0.0
 30
0.0
  9
$UCSORGBACK
 10
0.0
 20
0.0
 30
0.0
  9
$PUCSBASE
  2

  9
$PUCSNAME
  2

  9
$PUCSORG
 10
0.0
 20
0.0
 30
0.0
  9
$PUCSXDIR
 10
1.0
 20
0.0
 30
0.0
  9
$PUCSYDIR
 10
0.0
 20
1.0
 30
0.0
  9
$PUCSORTHOREF
  2

  9
$PUCSORTHOVIEW
 70
     0
  9
$PUCSORGTOP
 10
0.0
 20
0.0
 30
0.0
  9
$PUCSORGBOTTOM
 10
0.0
 20
0.0
 30
0.0
  9
$PUCSORGLEFT
 10
0.0
 20
0.0
 30
0.0
  9
$PUCSORGRIGHT
 10
0.0
 20
0.0
 30
0.0
  9
$PUCSORGFRONT
 10
0.0
 20
0.0
 30
0.0
  9
$PUCSORGBACK
 10
0.0
 20
0.0
 30
0.0
  9
$USERI1
 70
     0
  9
$USERI2
 70
     0
  9
$USERI3
 70
     0
  9
$USERI4
 70
     0
  9
$USERI5
 70
     0
  9
$USERR1
 40
0.0
  9
$USERR2
 40
0.0
  9
$USERR3
 40
0.0
  9
$USERR4
 40
0.0
  9
$USERR5
 40
0.0
  9
$WORLDVIEW
 70
     1
  9
$SHADEDGE
 70
     3
  9
$SHADEDIF
 70
    70
  9
$TILEMODE
 70
     1
  9
$MAXACTVP
 70
    64
  9
$PINSBASE
 10
0.0
 20
0.0
 30
0.0
  9
$PLIMCHECK
 70
     0
  9
$PEXTMIN
 10
1.000000000000000E+20
 20
1.000000000000000E+20
 30
1.000000000000000E+20
  9
$PEXTMAX
 10
-1.000000000000000E+20
 20
-1.000000000000000E+20
 30
-1.000000000000000E+20
  9
$PLIMMIN
 10
-20.0
 20
-7.5
  9
$PLIMMAX
 10
277.0
 20
202.5
  9
$UNITMODE
 70
     0
  9
$VISRETAIN
 70
     1
  9
$PLINEGEN
 70
     0
  9
$PSLTSCALE
 70
     1
  9
$TREEDEPTH
 70
  3020
  9
$CMLSTYLE
  2
Standard
  9
$CMLJUST
 70
     0
  9
$CMLSCALE
 40
1.0
  9
$PROXYGRAPHICS
 70
     1
  9
$MEASUREMENT
 70
     0
  9
$CELWEIGHT
370
    -1
  9
$ENDCAPS
280
     0
  9
$JOINSTYLE
280
     0
  9
$LWDISPLAY
290
     0
  9
$INSUNITS
 70
     1
  9
$HYPERLINKBASE
  1

  9
$STYLESHEET
  1

  9
$XEDIT
290
     1
  9
$CEPSNTYPE
380
     0
  9
$PSTYLEMODE
290
     1
  9
$FINGERPRINTGUID
  2
{F581CD9C-7017-4B5B-83EA-6F013C9C94BB}
  9
$VERSIONGUID
  2
{015CD5AA-56BC-4FA2-A439-C567348C546B}
  9
$EXTNAMES
290
     1
  9
$PSVPSCALE
 40
0.0
  9
$OLESTARTUP
290
     0
  0
ENDSEC
  0
SECTION
  2
CLASSES
  0
CLASS
  1
ACDBDICTIONARYWDFLT
  2
AcDbDictionaryWithDefault
  3
ObjectDBX Classes
 90
        0
280
     0
281
     0
  0
CLASS
  1
ACDBPLACEHOLDER
  2
AcDbPlaceHolder
  3
ObjectDBX Classes
 90
        0
280
     0
281
     0
  0
CLASS
  1
LAYOUT
  2
AcDbLayout
  3
ObjectDBX Classes
 90
        0
280
     0
281
     0
  0
CLASS
  1
DICTIONARYVAR
  2
AcDbDictionaryVar
  3
ObjectDBX Classes
 90
        0
280
     0
281
     0
  0
CLASS
  1
TABLESTYLE
  2
AcDbTableStyle
  3
ObjectDBX Classes
 90
     4095
280
     0
281
     0
  0
CLASS
  1
SORTENTSTABLE
  2
AcDbSortentsTable
  3
ObjectDBX Classes
 90
        0
280
     0
281
     0
  0
CLASS
  1
DIMASSOC
  2
AcDbDimAssoc
  3
"AcDbDimAssoc|Product Desc:     AcDim ARX App For Dimension|Company:          Autodesk, Inc.|WEB Address:      www.autodesk.com"
 90
    32768
280
     0
281
     0
  0
CLASS
  1
MATERIAL
  2
AcDbMaterial
  3
ObjectDBX Classes
 90
     1153
280
     0
281
     0
  0
CLASS
  1
VISUALSTYLE
  2
AcDbVisualStyle
  3
ObjectDBX Classes
 90
     4095
280
     0
281
     0
  0
CLASS
  1
LARGE_RADIAL_DIMENSION
  2
AcDbRadialDimensionLarge
  3
ObjectDBX Classes
 90
    33793
280
     0
281
     1
  0
CLASS
  1
SCALE
  2
AcDbScale
  3
ObjectDBX Classes
 90
     1153
280
     0
281
     0
  0
CLASS
  1
MLEADERSTYLE
  2
AcDbMLeaderStyle
  3
ACDB_MLEADERSTYLE_CLASS
 90
     4095
280
     0
281
     0
  0
CLASS
  1
CELLSTYLEMAP
  2
AcDbCellStyleMap
  3
ObjectDBX Classes
 90
     1152
280
     0
281
     0
  0
ENDSEC
  0
SECTION
  2
TABLES
  0
TABLE
  2
VPORT
  5
8
330
0
100
AcDbSymbolTable
 70
     1
  0
VPORT
  5
1A7B
330
8
100
AcDbSymbolTableRecord
100
AcDbViewportTableRecord
  2
*Active
 70
     0
 10
0.0
 20
0.0
 11
1.0
 21
1.0
 12
67.66522191522205
 22
33.92577127034929
 13
0.0
 23
0.0
 14
0.5
 24
0.5
 15
0.5
 25
0.5
 16
0.0
 26
0.0
 36
1.0
 17
0.0
 27
0.0
 37
0.0
 40
53.91609060763814
 41
2.457627118644067
 42
50.0
 43
0.0
 44
0.0
 50
0.0
 51
0.0
 71
     0
 72
  1000
 73
     1
 74
     3
 75
     0
 76
     0
 77
     0
 78
     0
281
     0
 65
     1
110
0.0
120
0.0
130
0.0
111
1.0
121
0.0
131
0.0
112
0.0
122
1.0
132
0.0
 79
     0
146
0.0
1001
ACAD_NAV_VCDISPLAY
1070
     3
  0
ENDTAB
  0
TABLE
  2
LTYPE
  5
5
330
0
100
AcDbSymbolTable
 70
     5
  0
LTYPE
  5
14
330
5
100
AcDbSymbolTableRecord
100
AcDbLinetypeTableRecord
  2
ByBlock
 70
     0
  3

 72
    65
 73
     0
 40
0.0
  0
LTYPE
  5
15
330
5
100
AcDbSymbolTableRecord
100
AcDbLinetypeTableRecord
  2
ByLayer
 70
     0
  3

 72
    65
 73
     0
 40
0.0
  0
LTYPE
  5
16
330
5
100
AcDbSymbolTableRecord
100
AcDbLinetypeTableRecord
  2
Continuous
 70
     0
  3
Solid line
 72
    65
 73
     0
 40
0.0
  0
LTYPE
  5
B2A
330
5
100
AcDbSymbolTableRecord
100
AcDbLinetypeTableRecord
  2
DASHED
 70
     0
  3
-- -- -- -- -- -- -- -- -- --
 72
    65
 73
     2
 40
3.0
 49
2.0
 74
     4
 75
     0
340
0
 46
1.0
 50
0.0
 44
0.0
 45
0.0
 49
-1.0
 74
     4
 75
     0
340
0
 46
1.0
 50
0.0
 44
0.0
 45
0.0
  0
LTYPE
  5
B2B
330
5
100
AcDbSymbolTableRecord
100
AcDbLinetypeTableRecord
  2
CENTER
 70
     0
  3
--- - --- - --- - --- - --- -
 72
    65
 73
     4
 40
6.0
 49
3.0
 74
     4
 75
     0
340
0
 46
1.0
 50
0.0
 44
0.0
 45
0.0
 49
-1.0
 74
     4
 75
     0
340
0
 46
1.0
 50
0.0
 44
0.0
 45
0.0
 49
1.0
 74
     4
 75
     0
340
0
 46
1.0
 50
0.0
 44
0.0
 45
0.0
 49
-1.0
 74
     4
 75
     0
340
0
 46
1.0
 50
0.0
 44
0.0
 45
0.0
  0
LTYPE
  5
B2C
330
5
100
AcDbSymbolTableRecord
100
AcDbLinetypeTableRecord
  2
PHANTOM
 70
     0
  3
----- - - ----- - - ----- - -
 72
    65
 73
     6
 40
12.0
 49
7.0
 74
     4
 75
     0
340
0
 46
1.0
 50
0.0
 44
0.0
 45
0.0
 49
-1.0
 74
     4
 75
     0
340
0
 46
1.0
 50
0.0
 44
0.0
 45
0.0
 49
1.0
 74
     4
 75
     0
340
0
 46
1.0
 50
0.0
 44
0.0
 45
0.0
 49
-1.0
 74
     4
 75
     0
340
0
 46
1.0
 50
0.0
 44
0.0
 45
0.0
 49
1.0
 74
     4
 75
     0
340
0
 46
1.0
 50
0.0
 44
0.0
 45
0.0
 49
-1.0
 74
     4
 75
     0
340
0
 46
1.0
 50
0.0
 44
0.0
 45
0.0
  0
LTYPE
  5
B2D
330
5
100
AcDbSymbolTableRecord
100
AcDbLinetypeTableRecord
  2
HIDDEN2
 70
     0
  3
Hidden (.5x) _ _ _ _ _ _ _ _ _ _ _ _ _ _ _ _ _
 72
    65
 73
     2
 40
0.1875
 49
0.125
 74
     0
 49
-0.0625
 74
     0
  0
ENDTAB
  0
TABLE
  2
LAYER
  5
2
102
{ACAD_XDICTIONARY
360
1D0
102
}
330
0
100
AcDbSymbolTable
 70
    10
  0
LAYER
  5
10
330
2
100
AcDbSymbolTableRecord
100
AcDbLayerTableRecord
  2
0
 70
     0
 62
     7
  6
Continuous
370
    -3
390
F
  0
LAYER
  5
200
330
2
100
AcDbSymbolTableRecord
100
AcDbLayerTableRecord
  2
Defpoints
 70
     0
 62
     7
  6
Continuous
290
     0
370
    -3
390
F
  0
LAYER
  5
B2E
330
2
100
AcDbSymbolTableRecord
100
AcDbLayerTableRecord
  2
GRS. GAMBAR
 70
     0
 62
     7
  6
Continuous
370
    30
390
F
1001
AcAecLayerStandard
1000

1000

  0
LAYER
  5
B2F
330
2
100
AcDbSymbolTableRecord
100
AcDbLayerTableRecord
  2
GRS. CENTER
 70
     0
 62
     7
  6
CENTER
370
    25
390
F
1001
AcAecLayerStandard
1000

1000

  0
LAYER
  5
B30
330
2
100
AcDbSymbolTableRecord
100
AcDbLayerTableRecord
  2
GRS. BAYANG
 70
     0
 62
     7
  6
DASHED
370
    20
390
F
1001
AcAecLayerStandard
1000

1000

  0
LAYER
  5
B31
330
2
100
AcDbSymbolTableRecord
100
AcDbLayerTableRecord
  2
GRS. DIMENSI
 70
     0
 62
     7
  6
Continuous
370
    18
390
F
1001
AcAecLayerStandard
1000

1000

  0
LAYER
  5
B32
330
2
100
AcDbSymbolTableRecord
100
AcDbLayerTableRecord
  2
GRS. AIR
 70
     0
 62
     7
  6
PHANTOM
370
    20
390
F
1001
AcAecLayerStandard
1000

1000

  0
LAYER
  5
B33
330
2
100
AcDbSymbolTableRecord
100
AcDbLayerTableRecord
  2
GRS. ARSIR
 70
     0
 62
     7
  6
HIDDEN2
370
    18
390
F
1001
AcAecLayerStandard
1000

1000

  0
LAYER
  5
1895
330
2
100
AcDbSymbolTableRecord
100
AcDbLayerTableRecord
  2
PIC06
 70
     0
 62
     7
  6
Continuous
370
    -3
390
F
  0
LAYER
  5
1896
330
2
100
AcDbSymbolTableRecord
100
AcDbLayerTableRecord
  2
DIM
 70
     0
 62
     7
  6
Continuous
370
    -3
390
F
  0
ENDTAB
  0
TABLE
  2
STYLE
  5
3
330
0
100
AcDbSymbolTable
 70
     3
  0
STYLE
  5
11
330
3
100
AcDbSymbolTableRecord
100
AcDbTextStyleTableRecord
  2
Standard
 70
     0
 40
0.0
 41
1.0
 50
0.0
 71
     0
 42
0.2
  3
txt
  4

  0
STYLE
  5
B34
330
3
100
AcDbSymbolTableRecord
100
AcDbTextStyleTableRecord
  2
Arial Reguler
 70
     0
 40
0.0
 41
1.0
 50
0.0
 71
     0
 42
3.0
  3
ARIAL.TTF
  4

1001
ACAD
1000
Arial
1071
       34
  0
STYLE
  5
B35
330
3
100
AcDbSymbolTableRecord
100
AcDbTextStyleTableRecord
  2
ROMANS1
 70
     0
 40
0.0
 41
0.8
 50
0.0
 71
     0
 42
45.97429599538005
  3
romans.shx
  4

  0
ENDTAB
  0
TABLE
  2
VIEW
  5
6
330
0
100
AcDbSymbolTable
 70
     0
  0
ENDTAB
  0
TABLE
  2
UCS
  5
7
330
0
100
AcDbSymbolTable
 70
     0
  0
ENDTAB
  0
TABLE
  2
APPID
  5
9
330
0
100
AcDbSymbolTable
 70
    19
  0
APPID
  5
12
330
9
100
AcDbSymbolTableRecord
100
AcDbRegAppTableRecord
  2
ACAD
 70
     0
  0
APPID
  5
1CA
330
9
100
AcDbSymbolTableRecord
100
AcDbRegAppTableRecord
  2
ACAD_PSEXT
 70
     0
  0
APPID
  5
1CB
330
9
100
AcDbSymbolTableRecord
100
AcDbRegAppTableRecord
  2
ACAD_DSTYLE_DIMEXT_LENGTH
 70
     0
  0
APPID
  5
1CC
330
9
100
AcDbSymbolTableRecord
100
AcDbRegAppTableRecord
  2
ACAD_DSTYLE_DIMEXT_ENABLED
 70
     0
  0
APPID
  5
1CD
330
9
100
AcDbSymbolTableRecord
100
AcDbRegAppTableRecord
  2
ACAD_DSTYLE_DIMJOGGED_JOGANGLE_SYMBOL
 70
     0
  0
APPID
  5
1CE
330
9
100
AcDbSymbolTableRecord
100
AcDbRegAppTableRecord
  2
ACAD_DSTYLE_DIMARC_LENGTH_SYMBOL
 70
     0
  0
APPID
  5
1CF
330
9
100
AcDbSymbolTableRecord
100
AcDbRegAppTableRecord
  2
DCO15
 70
     0
  0
APPID
  5
2A8
330
9
100
AcDbSymbolTableRecord
100
AcDbRegAppTableRecord
  2
ACAD_DSTYLE_DIMTEXT_FILL
 70
     0
  0
APPID
  5
2AB
330
9
100
AcDbSymbolTableRecord
100
AcDbRegAppTableRecord
  2
ACAD_DSTYLE_DIM_LINETYPE
 70
     0
  0
APPID
  5
2AC
330
9
100
AcDbSymbolTableRecord
100
AcDbRegAppTableRecord
  2
ACAD_DSTYLE_DIM_EXT1_LINETYPE
 70
     0
  0
APPID
  5
2AD
330
9
100
AcDbSymbolTableRecord
100
AcDbRegAppTableRecord
  2
ACAD_DSTYLE_DIM_EXT2_LINETYPE
 70
     0
  0
APPID
  5
B38
330
9
100
AcDbSymbolTableRecord
100
AcDbRegAppTableRecord
  2
AcDbBlockRepETag
 70
     0
  0
APPID
  5
B39
330
9
100
AcDbSymbolTableRecord
100
AcDbRegAppTableRecord
  2
AcAecLayerStandard
 70
     0
  0
APPID
  5
B3A
330
9
100
AcDbSymbolTableRecord
100
AcDbRegAppTableRecord
  2
ACAD_DSTYLE_DIMJAG
 70
     0
  0
APPID
  5
B3B
330
9
100
AcDbSymbolTableRecord
100
AcDbRegAppTableRecord
  2
ACAD_DSTYLE_DIMTALN
 70
     0
  0
APPID
  5
B3C
330
9
100
AcDbSymbolTableRecord
100
AcDbRegAppTableRecord
  2
ACAD_DSTYLE_DIMBREAK
 70
     0
  0
APPID
  5
B3D
330
9
100
AcDbSymbolTableRecord
100
AcDbRegAppTableRecord
  2
ACAD_DSTYLE_DIMRADIAL_EXTENSION
 70
     0
  0
APPID
  5
1AA8
330
9
100
AcDbSymbolTableRecord
100
AcDbRegAppTableRecord
  2
ACAD_NAV_VCDISPLAY
 70
     0
  0
APPID
  5
1AF1
330
9
100
AcDbSymbolTableRecord
100
AcDbRegAppTableRecord
  2
ACAD_MLEADERVER
 70
     0
  0
ENDTAB
  0
TABLE
  2
DIMSTYLE
  5
A
330
0
100
AcDbSymbolTable
 70
     3
100
AcDbDimStyleTable
 71
     1
340
27
  0
DIMSTYLE
105
27
330
A
100
AcDbSymbolTableRecord
100
AcDbDimStyleTableRecord
  2
Standard
 70
     0
170
     1
340
11
1001
ACAD_DSTYLE_DIMJOGGED_JOGANGLE_SYMBOL
1070
   384
1040
0.7853981633974483
1001
ACAD_DSTYLE_DIMEXT_LENGTH
1070
   378
1040
0.18
  0
DIMSTYLE
105
B36
330
A
100
AcDbSymbolTableRecord
100
AcDbDimStyleTableRecord
  2
DIM-3
 70
     0
 40
3.0
 41
2.25
 42
1.0
 43
5.0
 44
1.0
 46
3.0
 73
     0
 74
     0
 77
     1
 78
     8
140
2.5
141
2.0
145
1.0
147
1.0
171
     4
172
     1
271
     0
272
     0
274
     4
340
11
341
987
342
987
1001
ACAD_DSTYLE_DIMBREAK
1070
   391
1040
0.125
1001
ACAD_DSTYLE_DIMJAG
1070
   388
1040
1.5
1001
ACAD_DSTYLE_DIMTALN
1070
   392
1070
     0
  0
DIMSTYLE
105
B37
330
A
100
AcDbSymbolTableRecord
100
AcDbDimStyleTableRecord
  2
DIM-1-1
 70
     0
 40
3.0
 41
2.25
 42
1.0
 43
5.0
 44
1.0
 46
3.0
 73
     0
 74
     0
 77
     1
 78
     8
140
2.5
141
2.0
144
0.3333333333333333
145
1.0
147
1.0
171
     4
172
     1
271
     0
272
     0
274
     4
340
11
341
987
342
987
1001
ACAD_DSTYLE_DIMBREAK
1070
   391
1040
0.125
1001
ACAD_DSTYLE_DIMJAG
1070
   388
1040
1.5
1001
ACAD_DSTYLE_DIMTALN
1070
   392
1070
     0
  0
ENDTAB
  0
TABLE
  2
BLOCK_RECORD
  5
1
330
0
100
AcDbSymbolTable
 70
     6
  0
BLOCK_RECORD
  5
1F
102
{ACAD_XDICTIONARY
360
1A54
102
}
330
1
100
AcDbSymbolTableRecord
100
AcDbBlockTableRecord
  2
*Model_Space
340
22
  0
BLOCK_RECORD
  5
58
330
1
100
AcDbSymbolTableRecord
100
AcDbBlockTableRecord
  2
*Paper_Space
340
59
  0
BLOCK_RECORD
  5
962
330
1
100
AcDbSymbolTableRecord
100
AcDbBlockTableRecord
  2
MARK1_1
340
0
  0
BLOCK_RECORD
  5
967
330
1
100
AcDbSymbolTableRecord
100
AcDbBlockTableRecord
  2
MARK25_2
340
0
  0
BLOCK_RECORD
  5
97C
330
1
100
AcDbSymbolTableRecord
100
AcDbBlockTableRecord
  2
MARK4_3
340
0
  0
BLOCK_RECORD
  5
981
330
1
100
AcDbSymbolTableRecord
100
AcDbBlockTableRecord
  2
MARK16_5
340
0
  0
BLOCK_RECORD
  5
987
330
1
100
AcDbSymbolTableRecord
100
AcDbBlockTableRecord
  2
_Open30
340
0
  0
BLOCK_RECORD
  5
1989
330
1
100
AcDbSymbolTableRecord
100
AcDbBlockTableRecord
  2
BOTTOM
340
0
310
2800000020000000200000000100080000000000000400000000000000000000000000000000000000000000000080000080000000808000800000008000800080800000C0C0C000C0DCC000F0CAA6000020400000206000002080000020A0000020C0000020E00000400000004020000040400000406000004080000040A0
310
000040C0000040E00000600000006020000060400000606000006080000060A0000060C0000060E00000800000008020000080400000806000008080000080A0000080C0000080E00000A0000000A0200000A0400000A0600000A0800000A0A00000A0C00000A0E00000C0000000C0200000C0400000C0600000C0800000C0
310
A00000C0C00000C0E00000E0000000E0200000E0400000E0600000E0800000E0A00000E0C00000E0E00040000000400020004000400040006000400080004000A0004000C0004000E00040200000402020004020400040206000402080004020A0004020C0004020E000404000004040200040404000404060004040800040
310
40A0004040C0004040E00040600000406020004060400040606000406080004060A0004060C0004060E00040800000408020004080400040806000408080004080A0004080C0004080E00040A0000040A0200040A0400040A0600040A0800040A0A00040A0C00040A0E00040C0000040C0200040C0400040C0600040C08000
310
40C0A00040C0C00040C0E00040E0000040E0200040E0400040E0600040E0800040E0A00040E0C00040E0E00080000000800020008000400080006000800080008000A0008000C0008000E00080200000802020008020400080206000802080008020A0008020C0008020E00080400000804020008040400080406000804080
310
008040A0008040C0008040E00080600000806020008060400080606000806080008060A0008060C0008060E00080800000808020008080400080806000808080008080A0008080C0008080E00080A0000080A0200080A0400080A0600080A0800080A0A00080A0C00080A0E00080C0000080C0200080C0400080C0600080C0
310
800080C0A00080C0C00080C0E00080E0000080E0200080E0400080E0600080E0800080E0A00080E0C00080E0E000C0000000C0002000C0004000C0006000C0008000C000A000C000C000C000E000C0200000C0202000C0204000C0206000C0208000C020A000C020C000C020E000C0400000C0402000C0404000C0406000C0
310
408000C040A000C040C000C040E000C0600000C0602000C0604000C0606000C0608000C060A000C060C000C060E000C0800000C0802000C0804000C0806000C0808000C080A000C080C000C080E000C0A00000C0A02000C0A04000C0A06000C0A08000C0A0A000C0A0C000C0A0E000C0C00000C0C02000C0C04000C0C06000
310
C0C08000C0C0A000F0FBFF00A4A0A000808080000000FF0000FF000000FFFF00FF000000FF00FF00FFFF0000FFFFFF0000000000000000000000000000000000000000000000000000000000000000000000000000000000000000000000000000000000000000000000000000000000000000000000000000000000000000
310
00000000000000000000000000000000000000000000000000000000000000000000000000000000000000000000000000000000000000000000000000000000000000000000000000000000000000000000000000000000000000000000000000000000000000000000000000000000000000000000000000000000000000
310
0000000000000000000000000000000000000000FFFFFFFFFFFFFFFFFFFFFFFFFFFFFFFFFFFFFFFFFFFFFFFFFF00000000000000FFFFFFFFFFFFFFFFFFFFFFFFFFFFFFFF0000000000000000FF00000000000000FFFFFF000000FF0000FF0000000000FF0000000000000000FF00000000000000FFFF0000000000FFFF0000
310
00000000FF0000000000000000FF00000000000000FF0000FFFFFFFF0000000000000000FF0000000000000000FF00000000000000FF0000FF0000000000000000000000FF00000000000000FF0000000000000000FF0000FF0000000000000000FFFFFFFF00000000000000FF0000000000000000FF0000FF000000000000
310
FFFF000000FF00000000000000FF0000000000000000FF0000FF00000000FFFF00FFFFFF00FF00000000000000FF0000000000000000FFFF0000FF0000FF00FFFF0000FF0000FF000000000000FF0000000000000000FFFF000000FFFF0000FF000000FF0000FF00000000000000FF00000000000000FF00FF0000000000FF
310
000000FF000000FF00000000000000FF00000000000000FF00FF000000FFFF00000000FF000000000000000000000000FF0000000000FF000000FFFFFF0000000000FF0000000000000000000000000000FF00000000FF00000000000000000000FF00000000000000000000000000000000FF000000FFFFFFFFFFFFFFFFFF
310
FFFFFFFFFFFFFF000000000000000000000000FF000000FFFFFFFFFFFFFFFFFFFFFFFFFFFFFFFFFFFFFFFFFFFFFFFFFFFFFFFFFFFF000000FFFFFFFFFFFFFF00000000000000000000000000000000000000000000000000000000000000000000000000000000000000000000000000000000000000000000000000000000
310
00000000000000000000000000000000000000000000000000000000000000000000000000000000000000000000000000000000000000000000000000000000000000000000000000000000000000000000000000000000000000000000000000000000000000000000000000000000000000000000000000000000000000
310
0000000000000000000000000000000000000000000000000000000000000000000000000000000000000000000000000000000000000000
1001
ACAD
1000
DesignCenter Data
1002
{
1070
     1
1070
     1
1002
}
  0
ENDTAB
  0
ENDSEC
  0
SECTION
  2
BLOCKS
  0
BLOCK
  5
20
330
1F
100
AcDbEntity
  8
0
100
AcDbBlockBegin
  2
*Model_Space
 70
     0
 10
0.0
 20
0.0
 30
0.0
  3
*Model_Space
  1

  0
ENDBLK
  5
21
330
1F
100
AcDbEntity
  8
0
100
AcDbBlockEnd
  0
BLOCK
  5
5A
330
58
100
AcDbEntity
 67
     1
  8
0
100
AcDbBlockBegin
  2
*Paper_Space
 70
     0
 10
0.0
 20
0.0
 30
0.0
  3
*Paper_Space
  1

  0
ENDBLK
  5
5B
330
58
100
AcDbEntity
 67
     1
  8
0
100
AcDbBlockEnd
  0
BLOCK
  5
963
330
962
100
AcDbEntity
  8
0
100
AcDbBlockBegin
  2
MARK1_1
 70
     0
 10
0.0
 20
0.0
 30
0.0
  3
MARK1_1
  1

  0
LINE
  5
964
330
962
100
AcDbEntity
  8
0
  6
Continuous
 62
     0
100
AcDbLine
 10
1.0
 20
-0.25
 30
0.0
 11
0.0
 21
0.0
 31
0.0
  0
LINE
  5
965
330
962
100
AcDbEntity
  8
0
  6
Continuous
 62
     0
100
AcDbLine
 10
0.0
 20
0.0
 30
0.0
 11
1.0
 21
0.25
 31
0.0
  0
ENDBLK
  5
966
330
962
100
AcDbEntity
  8
0
100
AcDbBlockEnd
  0
BLOCK
  5
968
330
967
100
AcDbEntity
  8
0
100
AcDbBlockBegin
  2
MARK25_2
 70
     0
 10
0.0
 20
0.0
 30
0.0
  3
MARK25_2
  1

  0
LINE
  5
969
330
967
100
AcDbEntity
  8
0
  6
Continuous
 62
     0
100
AcDbLine
 10
0.0
 20
0.0
 30
0.0
 11
-0.5
 21
0.0
 31
0.0
  0
LINE
  5
96A
330
967
100
AcDbEntity
  8
0
  6
Continuous
 62
     0
100
AcDbLine
 10
-0.5
 20
0.9375
 30
0.0
 11
-0.65625
 21
0.3125
 31
0.0
  0
LINE
  5
96B
330
967
100
AcDbEntity
  8
0
  6
Continuous
 62
     0
100
AcDbLine
 10
-0.5
 20
0.84375
 30
0.0
 11
-0.625
 21
0.375
 31
0.0
  0
LINE
  5
96C
330
967
100
AcDbEntity
  8
0
  6
Continuous
 62
     0
100
AcDbLine
 10
-0.5
 20
0.75
 30
0.0
 11
-0.578125
 21
0.4375
 31
0.0
  0
LINE
  5
96D
330
967
100
AcDbEntity
  8
0
  6
Continuous
 62
     0
100
AcDbLine
 10
-0.5
 20
0.65625
 30
0.0
 11
-0.53125
 21
0.5
 31
0.0
  0
LINE
  5
96E
330
967
100
AcDbEntity
  8
0
  6
Continuous
 62
     0
100
AcDbLine
 10
-0.46875
 20
0.5
 30
0.0
 11
-0.5
 21
0.65625
 31
0.0
  0
LINE
  5
96F
330
967
100
AcDbEntity
  8
0
  6
Continuous
 62
     0
100
AcDbLine
 10
-0.421875
 20
0.4375
 30
0.0
 11
-0.5
 21
0.75
 31
0.0
  0
LINE
  5
970
330
967
100
AcDbEntity
  8
0
  6
Continuous
 62
     0
100
AcDbLine
 10
-0.375
 20
0.375
 30
0.0
 11
-0.5
 21
0.84375
 31
0.0
  0
LINE
  5
971
330
967
100
AcDbEntity
  8
0
  6
Continuous
 62
     0
100
AcDbLine
 10
-0.34375
 20
0.3125
 30
0.0
 11
-0.5
 21
0.9375
 31
0.0
  0
LINE
  5
972
330
967
100
AcDbEntity
  8
0
  6
Continuous
 62
     0
100
AcDbLine
 10
-0.53125
 20
0.5
 30
0.0
 11
-0.46875
 21
0.5
 31
0.0
  0
LINE
  5
973
330
967
100
AcDbEntity
  8
0
  6
Continuous
 62
     0
100
AcDbLine
 10
-0.578125
 20
0.4375
 30
0.0
 11
-0.421875
 21
0.4375
 31
0.0
  0
LINE
  5
974
330
967
100
AcDbEntity
  8
0
  6
Continuous
 62
     0
100
AcDbLine
 10
-0.625
 20
0.375
 30
0.0
 11
-0.375
 21
0.375
 31
0.0
  0
LINE
  5
975
330
967
100
AcDbEntity
  8
0
  6
Continuous
 62
     0
100
AcDbLine
 10
-0.65625
 20
0.3125
 30
0.0
 11
-0.34375
 21
0.3125
 31
0.0
  0
LINE
  5
976
330
967
100
AcDbEntity
  8
0
  6
Continuous
 62
     0
100
AcDbLine
 10
0.0
 20
0.015625
 30
0.0
 11
-0.484375
 21
0.015625
 31
0.0
  0
LINE
  5
977
330
967
100
AcDbEntity
  8
0
  6
Continuous
 62
     0
100
AcDbLine
 10
-0.484375
 20
0.015625
 30
0.0
 11
-0.484375
 21
0.3125
 31
0.0
  0
LINE
  5
978
330
967
100
AcDbEntity
  8
0
  6
Continuous
 62
     0
100
AcDbLine
 10
0.0
 20
-0.015625
 30
0.0
 11
-0.515625
 21
-0.015625
 31
0.0
  0
LINE
  5
979
330
967
100
AcDbEntity
  8
0
  6
Continuous
 62
     0
100
AcDbLine
 10
-0.515625
 20
-0.015625
 30
0.0
 11
-0.515625
 21
0.3125
 31
0.0
  0
LINE
  5
97A
330
967
100
AcDbEntity
  8
0
  6
Continuous
 62
     0
100
AcDbLine
 10
-0.5
 20
0.0
 30
0.0
 11
-0.5
 21
0.3125
 31
0.0
  0
ENDBLK
  5
97B
330
967
100
AcDbEntity
  8
0
100
AcDbBlockEnd
  0
BLOCK
  5
97D
330
97C
100
AcDbEntity
  8
0
100
AcDbBlockBegin
  2
MARK4_3
 70
     0
 10
0.0
 20
0.0
 30
0.0
  3
MARK4_3
  1

  0
CIRCLE
  5
97E
330
97C
100
AcDbEntity
  8
0
  6
Continuous
 62
     0
100
AcDbCircle
 10
0.0
 20
0.0
 30
0.0
 40
0.125
  0
CIRCLE
  5
97F
330
97C
100
AcDbEntity
  8
0
  6
Continuous
 62
     0
100
AcDbCircle
 10
0.0
 20
0.0
 30
0.0
 40
0.0625
  0
ENDBLK
  5
980
330
97C
100
AcDbEntity
  8
0
100
AcDbBlockEnd
  0
BLOCK
  5
982
330
981
100
AcDbEntity
  8
0
100
AcDbBlockBegin
  2
MARK16_5
 70
     0
 10
0.0
 20
0.0
 30
0.0
  3
MARK16_5
  1

  0
CIRCLE
  5
983
330
981
100
AcDbEntity
  8
0
  6
Continuous
 62
     0
100
AcDbCircle
 10
0.0
 20
0.0
 30
0.0
 40
0.5
  0
CIRCLE
  5
984
330
981
100
AcDbEntity
  8
0
  6
Continuous
 62
     0
100
AcDbCircle
 10
0.0
 20
0.0
 30
0.0
 40
0.15625
  0
CIRCLE
  5
985
330
981
100
AcDbEntity
  8
0
  6
Continuous
 62
     0
100
AcDbCircle
 10
0.0
 20
0.0
 30
0.0
 40
0.3125
  0
ENDBLK
  5
986
330
981
100
AcDbEntity
  8
0
100
AcDbBlockEnd
  0
BLOCK
  5
988
330
987
100
AcDbEntity
  8
0
100
AcDbBlockBegin
  2
_Open30
 70
     0
 10
0.0
 20
0.0
 30
0.0
  3
_Open30
  1

  0
LINE
  5
989
330
987
100
AcDbEntity
  8
0
  6
ByBlock
 62
     0
370
    -2
100
AcDbLine
 10
-1.0
 20
0.26794919
 30
0.0
 11
0.0
 21
0.0
 31
0.0
  0
LINE
  5
98A
330
987
100
AcDbEntity
  8
0
  6
ByBlock
 62
     0
370
    -2
100
AcDbLine
 10
0.0
 20
0.0
 30
0.0
 11
-1.0
 21
-0.26794919
 31
0.0
  0
LINE
  5
98B
330
987
100
AcDbEntity
  8
0
  6
ByBlock
 62
     0
370
    -2
100
AcDbLine
 10
0.0
 20
0.0
 30
0.0
 11
-1.0
 21
0.0
 31
0.0
  0
ENDBLK
  5
98C
330
987
100
AcDbEntity
  8
0
100
AcDbBlockEnd
  0
BLOCK
  5
198A
330
1989
100
AcDbEntity
  8
0
100
AcDbBlockBegin
  2
BOTTOM
 70
     0
 10
0.0
 20
0.0
 30
0.0
  3
BOTTOM
  1

  0
LINE
  5
198C
330
1989
100
AcDbEntity
  8
GRS. DIMENSI
100
AcDbLine
 10
5.79681619955329
 20
-19.83195452804386
 30
0.0
 11
5.79681619955329
 21
-19.5796504707838
 31
0.0
  0
LINE
  5
198D
330
1989
100
AcDbEntity
  8
GRS. DIMENSI
100
AcDbLine
 10
5.797167914359192
 20
-19.57353692446986
 30
0.0
 11
5.797169152650212
 21
-19.9410339777362
 31
0.0
1001
AcDbBlockRepETag
1070
     1
1071
     1557
1005
0
  0
ARC
  5
198E
330
1989
100
AcDbEntity
  8
GRS. GAMBAR
100
AcDbCircle
 10
6.23019584565111
 20
-21.67161683582185
 30
0.0
 40
0.4330266930001587
100
AcDbArc
 50
180.0
 51
194.7333375941937
1001
AcDbBlockRepETag
1070
     1
1071
     1562
1005
0
  0
LINE
  5
198F
330
1989
100
AcDbEntity
  8
GRS. GAMBAR
100
AcDbLine
 10
5.811407096388393
 20
-21.78174449057747
 30
0.0
 11
5.91748988219615
 21
-22.18515158469358
 31
0.0
1001
AcDbBlockRepETag
1070
     1
1071
     1568
1005
0
  0
LINE
  5
1990
330
1989
100
AcDbEntity
  8
GRS. BAYANG
  6
Continuous
100
AcDbLine
 10
18.586136159131
 20
-24.07446335519058
 30
0.0
 11
20.48213607544631
 21
-24.07446335519058
 31
0.0
1001
AcDbBlockRepETag
1070
     1
1071
       17
1005
0
  0
ARC
  5
1991
330
1989
100
AcDbEntity
  8
GRS. GAMBAR
100
AcDbCircle
 10
10.12736526598291
 20
-16.9886914513745
 30
0.0
 40
4.330230905647332
100
AcDbArc
 50
97.09345411152938
 51
105.4339094333384
1001
AcDbBlockRepETag
1070
     1
1071
       44
1005
0
  0
LINE
  5
1992
330
1989
100
AcDbEntity
  8
GRS. BAYANG
100
AcDbLine
 10
20.91065189250503
 20
-20.07762773215597
 30
0.0
 11
21.23295767832735
 21
-14.74920152449829
 31
0.0
1001
AcDbBlockRepETag
1070
     1
1071
       79
1005
0
  0
ARC
  5
1993
330
1989
100
AcDbEntity
  8
GRS. BAYANG
  6
Continuous
100
AcDbCircle
 10
20.48213607544631
 20
-23.87763379194234
 30
0.0
 40
0.196828349889902
100
AcDbArc
 50
270.0
 51
356.5294636442644
1001
AcDbBlockRepETag
1070
     1
1071
       81
1005
0
  0
LINE
  5
1994
330
1989
100
AcDbEntity
  8
GRS. GAMBAR
100
AcDbLine
 10
17.41078905412189
 20
-17.38234083826535
 30
0.0
 11
18.42959067750257
 21
-17.38235115532666
 31
0.0
1001
AcDbBlockRepETag
1070
     1
1071
      169
1005
0
  0
LINE
  5
1995
330
1989
100
AcDbEntity
  8
GRS. GAMBAR
100
AcDbLine
 10
14.99832594929933
 20
-16.25738843273939
 30
0.0
 11
13.16831638498422
 21
-14.07646795998539
 31
0.0
1001
AcDbBlockRepETag
1070
     1
1071
      174
1005
0
  0
ARC
  5
1996
330
1989
100
AcDbEntity
  8
GRS. GAMBAR
100
AcDbCircle
 10
17.41079416820253
 20
-14.23308724003095
 30
0.0
 40
3.149253598238455
100
AcDbArc
 50
219.9999999998917
 51
269.999906957074
1001
AcDbBlockRepETag
1070
     1
1071
      192
1005
0
  0
ARC
  5
1997
330
1989
100
AcDbEntity
  8
GRS. GAMBAR
100
AcDbCircle
 10
10.94868578113914
 20
-8.485680896503367
 30
0.0
 40
0.157462679911921
100
AcDbArc
 50
4.957111737776452
 51
174.3982837005112
1001
AcDbBlockRepETag
1070
     1
1071
      257
1005
0
  0
LINE
  5
1998
330
1989
100
AcDbEntity
  8
GRS. GAMBAR
100
AcDbLine
 10
10.94868578113914
 20
-8.32821821659138
 30
0.0
 11
10.53499151937126
 21
-8.32821821659138
 31
0.0
1001
AcDbBlockRepETag
1070
     1
1071
      258
1005
0
  0
ARC
  5
1999
330
1989
100
AcDbEntity
  8
GRS. GAMBAR
100
AcDbCircle
 10
10.64477682475353
 20
-8.800604346323666
 30
0.0
 40
0.118097009933943
100
AcDbArc
 50
270.0
 51
354.3982837005112
1001
AcDbBlockRepETag
1070
     1
1071
      259
1005
0
  0
ARC
  5
199A
330
1989
100
AcDbEntity
  8
GRS. GAMBAR
100
AcDbCircle
 10
10.53499151937126
 20
-9.509188315930828
 30
0.0
 40
1.18097009933942
100
AcDbArc
 50
90.0
 51
100.4752288968435
1001
AcDbBlockRepETag
1070
     1
1071
      260
1005
0
  0
ARC
  5
199B
330
1989
100
AcDbEntity
  8
GRS. GAMBAR
100
AcDbCircle
 10
9.24671556673968
 20
-2.541462819824801
 30
0.0
 40
5.904850496697104
100
AcDbArc
 50
270.0
 51
280.4752288968436
1001
AcDbBlockRepETag
1070
     1
1071
      261
1005
0
  0
LINE
  5
199C
330
1989
100
AcDbEntity
  8
GRS. GAMBAR
100
AcDbLine
 10
6.393374817416656
 20
-8.446313316521923
 30
0.0
 11
9.24671556673968
 21
-8.446313316521923
 31
0.0
1001
AcDbBlockRepETag
1070
     1
1071
      262
1005
0
  0
ARC
  5
199D
330
1989
100
AcDbEntity
  8
GRS. GAMBAR
100
AcDbCircle
 10
6.406215436448292
 20
-8.367581976565929
 30
0.0
 40
0.0787313399559614
100
AcDbArc
 50
210.0000000001347
 51
270.0
1001
AcDbBlockRepETag
1070
     1
1071
      265
1005
0
  0
LINE
  5
199E
330
1989
100
AcDbEntity
  8
GRS. GAMBAR
100
AcDbLine
 10
10.73415976142064
 20
-8.918701356257656
 30
0.0
 11
6.607572397711578
 21
-8.918701356257656
 31
0.0
1001
AcDbBlockRepETag
1070
     1
1071
      268
1005
0
  0
LINE
  5
199F
330
1989
100
AcDbEntity
  8
GRS. GAMBAR
100
AcDbLine
 10
11.70563783773605
 20
-8.918701356257656
 30
0.0
 11
32.72493458842689
 21
-8.918701356257656
 31
0.0
1001
AcDbBlockRepETag
1070
     1
1071
      329
1005
0
  0
LINE
  5
19A0
330
1989
100
AcDbEntity
  8
GRS. GAMBAR
100
AcDbLine
 10
17.44382909846024
 20
-19.58682981236814
 30
0.0
 11
20.94033927167709
 21
-19.58682981236814
 31
0.0
1001
AcDbBlockRepETag
1070
     1
1071
      366
1005
0
  0
LINE
  5
19A1
330
1989
100
AcDbEntity
  8
GRS. GAMBAR
100
AcDbLine
 10
10.76243211156122
 20
-8.810809111956587
 30
0.0
 11
10.7918120653959
 21
-8.472074542326254
 31
0.0
1001
AcDbBlockRepETag
1070
     1
1071
      392
1005
0
  0
LINE
  5
19A2
330
1989
100
AcDbEntity
  8
GRS. GAMBAR
100
AcDbLine
 10
5.403498333086986
 20
-25.05862216773801
 30
0.0
 11
29.53759847056699
 21
-25.05862216773801
 31
0.0
1001
AcDbBlockRepETag
1070
     1
1071
      404
1005
0
  0
ARC
  5
19A3
330
1989
100
AcDbEntity
  8
GRS. GAMBAR
100
AcDbCircle
 10
29.53485605505603
 20
-24.94052515780402
 30
0.0
 40
0.1180970099338837
100
AcDbArc
 50
270.0
 51
5.876701568009996
1001
AcDbBlockRepETag
1070
     1
1071
      732
1005
0
  0
LINE
  5
19A4
330
1989
100
AcDbEntity
  8
GRS. GAMBAR
100
AcDbLine
 10
20.90899247856578
 20
-20.0914449972671
 30
0.0
 11
20.6786327219487
 21
-23.88955062104935
 31
0.0
1001
AcDbBlockRepETag
1070
     1
1071
      758
1005
0
  0
LINE
  5
19A5
330
1989
100
AcDbEntity
  8
GRS. GAMBAR
100
AcDbLine
 10
8.080367400084696
 20
-19.96392931836112
 30
0.0
 11
8.080367400084696
 21
-17.0674154782132
 31
0.0
1001
AcDbBlockRepETag
1070
     1
1071
      765
1005
0
  0
ARC
  5
19A6
330
1989
100
AcDbEntity
  8
GRS. GAMBAR
100
AcDbCircle
 10
10.12738223893973
 20
-17.0674154782132
 30
0.0
 40
2.047014838854987
100
AcDbArc
 50
89.99732732127213
 51
180.0
1001
AcDbBlockRepETag
1070
     1
1071
      765
1005
0
  0
ARC
  5
19A7
330
1989
100
AcDbEntity
  8
GRS. GAMBAR
100
AcDbCircle
 10
10.12739245037141
 20
-16.84850703197003
 30
0.0
 40
1.828106392373651
100
AcDbArc
 50
40.00000000001595
 51
89.99732732127213
1001
AcDbBlockRepETag
1070
     1
1071
      765
1005
0
  0
LINE
  5
19A8
330
1989
100
AcDbEntity
  8
GRS. GAMBAR
100
AcDbLine
 10
11.52780319367957
 20
-15.67342289376358
 30
0.0
 11
13.28232686679325
 21
-17.76438278448847
 31
0.0
1001
AcDbBlockRepETag
1070
     1
1071
      765
1005
0
  0
ARC
  5
19A9
330
1989
100
AcDbEntity
  8
GRS. GAMBAR
100
AcDbCircle
 10
17.44383454440071
 20
-14.27246322706662
 30
0.0
 40
5.43246245696112
100
AcDbArc
 50
220.000000000016
 51
270.0
1001
AcDbBlockRepETag
1070
     1
1071
      765
1005
0
  0
LINE
  5
19AA
330
1989
100
AcDbEntity
  8
GRS. GAMBAR
100
AcDbLine
 10
17.44383454440071
 20
-19.70492568402767
 30
0.0
 11
18.03703435406464
 21
-19.70492568402767
 31
0.0
1001
AcDbBlockRepETag
1070
     1
1071
      765
1005
0
  0
ARC
  5
19AB
330
1989
100
AcDbEntity
  8
GRS. GAMBAR
100
AcDbCircle
 10
18.03703435406453
 20
-18.91761228446853
 30
0.0
 40
0.787313399559158
100
AcDbArc
 50
270.0
 51
301.7883306169874
1001
AcDbBlockRepETag
1070
     1
1071
      765
1005
0
  0
LINE
  5
19AC
330
1989
100
AcDbEntity
  8
GRS. GAMBAR
100
AcDbLine
 10
4.970489683255891
 20
-10.29432699558163
 30
0.0
 11
4.970489683255891
 21
-9.39108939599339
 31
0.0
1001
AcDbBlockRepETag
1070
     1
1071
      949
1005
0
  0
ARC
  5
19AD
330
1989
100
AcDbEntity
  8
GRS. GAMBAR
100
AcDbCircle
 10
5.442877722991738
 20
-9.39108939599339
 30
0.0
 40
0.4723880397357684
100
AcDbArc
 50
90.0
 51
180.0
1001
AcDbBlockRepETag
1070
     1
1071
      950
1005
0
  0
LINE
  5
19AE
330
1989
100
AcDbEntity
  8
GRS. GAMBAR
100
AcDbLine
 10
5.442877722991738
 20
-8.918701356257656
 30
0.0
 11
5.774066122676572
 21
-8.918701356257656
 31
0.0
1001
AcDbBlockRepETag
1070
     1
1071
      951
1005
0
  0
ARC
  5
19AF
330
1989
100
AcDbEntity
  8
GRS. GAMBAR
100
AcDbCircle
 10
5.774066122676572
 20
-8.682507336389903
 30
0.0
 40
0.236194019867741
100
AcDbArc
 50
270.0
 51
356.6357029766835
1001
AcDbBlockRepETag
1070
     1
1071
      952
1005
0
  0
LINE
  5
19B0
330
1989
100
AcDbEntity
  8
GRS. GAMBAR
100
AcDbLine
 10
6.009853083399548
 20
-8.696368222880437
 30
0.0
 11
6.022781798218034
 21
-8.476438395506079
 31
0.0
1001
AcDbBlockRepETag
1070
     1
1071
      953
1005
0
  0
ARC
  5
19B1
330
1989
100
AcDbEntity
  8
GRS. GAMBAR
100
AcDbCircle
 10
6.179973105367139
 20
-8.485678986500033
 30
0.0
 40
0.1574626799122083
100
AcDbArc
 50
90.0
 51
176.635702976514
1001
AcDbBlockRepETag
1070
     1
1071
      954
1005
0
  0
LINE
  5
19B2
330
1989
100
AcDbEntity
  8
GRS. GAMBAR
100
AcDbLine
 10
6.179973105367139
 20
-8.328216306587933
 30
0.0
 11
6.201665415020556
 21
-8.328216306587933
 31
0.0
1001
AcDbBlockRepETag
1070
     1
1071
      955
1005
0
  0
ARC
  5
19B3
330
1989
100
AcDbEntity
  8
GRS. GAMBAR
100
AcDbCircle
 10
6.201665415020556
 20
-8.485678986500033
 30
0.0
 40
0.157462679912066
100
AcDbArc
 50
29.99999999999165
 51
90.0
1001
AcDbBlockRepETag
1070
     1
1071
      956
1005
0
  0
ARC
  5
19B4
330
1989
100
AcDbEntity
  8
GRS. GAMBAR
100
AcDbCircle
 10
6.201665415020556
 20
-8.485678986500147
 30
0.0
 40
0.1574626799121836
100
AcDbArc
 50
3.364297023485947
 51
30.00000000013465
1001
AcDbBlockRepETag
1070
     1
1071
      957
1005
0
  0
LINE
  5
19B5
330
1989
100
AcDbEntity
  8
GRS. GAMBAR
100
AcDbLine
 10
6.358856722169662
 20
-8.476438395506079
 30
0.0
 11
6.371785436988034
 21
-8.696368222880437
 31
0.0
1001
AcDbBlockRepETag
1070
     1
1071
      958
1005
0
  0
ARC
  5
19B6
330
1989
100
AcDbEntity
  8
GRS. GAMBAR
100
AcDbCircle
 10
6.60757239771101
 20
-8.682507336389562
 30
0.0
 40
0.2361940198677385
100
AcDbArc
 50
183.3642970234859
 51
270.0
1001
AcDbBlockRepETag
1070
     1
1071
      959
1005
0
  0
LINE
  5
19B7
330
1989
100
AcDbEntity
  8
GRS. GAMBAR
100
AcDbLine
 10
10.34390128887298
 20
-8.918701356257656
 30
0.0
 11
10.64477682475353
 21
-8.918701356257656
 31
0.0
1001
AcDbBlockRepETag
1070
     1
1071
     1017
1005
0
  0
ARC
  5
19B8
330
1989
100
AcDbEntity
  8
GRS. GAMBAR
100
AcDbCircle
 10
10.73415976142064
 20
-8.682507336389789
 30
0.0
 40
0.2361940198678841
100
AcDbArc
 50
270.0
 51
355.9143832200483
1001
AcDbBlockRepETag
1070
     1
1071
     1019
1005
0
  0
ARC
  5
19B9
330
1989
100
AcDbEntity
  8
GRS. GAMBAR
100
AcDbCircle
 10
11.15091289893826
 20
-8.663849708374641
 30
0.0
 40
0.1781707218748021
100
AcDbArc
 50
14.04827924560619
 51
175.9143832200483
1001
AcDbBlockRepETag
1070
     1
1071
     1021
1005
0
  0
ARC
  5
19BA
330
1989
100
AcDbEntity
  8
GRS. GAMBAR
100
AcDbCircle
 10
11.70563783773605
 20
-8.525044656477689
 30
0.0
 40
0.3936566997800574
100
AcDbArc
 50
194.0482792456062
 51
270.0
1001
AcDbBlockRepETag
1070
     1
1071
     1022
1005
0
  0
LINE
  5
19BB
330
1989
100
AcDbEntity
  8
GRS. GAMBAR
100
AcDbLine
 10
11.70563783773605
 20
-8.918701356257656
 30
0.0
 11
16.40416904038943
 21
-8.918701356257656
 31
0.0
1001
AcDbBlockRepETag
1070
     1
1071
     1023
1005
0
  0
LINE
  5
19BC
330
1989
100
AcDbEntity
  8
GRS. GAMBAR
100
AcDbLine
 10
15.52048142861281
 20
-10.72472270911532
 30
0.0
 11
15.52048142861281
 21
-11.00968083094949
 31
0.0
1001
AcDbBlockRepETag
1070
     1
1071
     1033
1005
0
  0
ARC
  5
19BD
330
1989
100
AcDbEntity
  8
GRS. GAMBAR
100
AcDbCircle
 10
15.59922142861285
 20
-10.72472270911532
 30
0.0
 40
0.07874
100
AcDbArc
 50
93.57674034111855
 51
180.0
1001
AcDbBlockRepETag
1070
     1
1071
     1033
1005
0
  0
ARC
  5
19BE
330
1989
100
AcDbEntity
  8
GRS. GAMBAR
100
AcDbCircle
 10
16.50462317806296
 20
-11.00968083094949
 30
0.0
 40
0.98414174945009
100
AcDbArc
 50
180.0
 51
219.9999999998917
1001
AcDbBlockRepETag
1070
     1
1071
     1034
1005
0
  0
LINE
  5
19BF
330
1989
100
AcDbEntity
  8
GRS. GAMBAR
100
AcDbLine
 10
15.75072685965517
 20
-11.64227495367095
 30
0.0
 11
17.5961778105717
 21
-13.84159775438229
 31
0.0
1001
AcDbBlockRepETag
1070
     1
1071
     1035
1005
0
  0
ARC
  5
19C0
330
1989
100
AcDbEntity
  8
GRS. GAMBAR
100
AcDbCircle
 10
13.37435842749187
 20
-17.38412484162177
 30
0.0
 40
5.511193796916693
100
AcDbArc
 50
4.960147640792335
 51
39.99999999989167
1001
AcDbBlockRepETag
1070
     1
1071
     1036
1005
0
  0
ARC
  5
19C1
330
1989
100
AcDbEntity
  8
GRS. GAMBAR
100
AcDbCircle
 10
18.42959067750257
 20
-16.94539221857155
 30
0.0
 40
0.4369589367551157
100
AcDbArc
 50
270.0
 51
4.960147640792335
1001
AcDbBlockRepETag
1070
     1
1071
     1037
1005
0
  0
ARC
  5
19C2
330
1989
100
AcDbEntity
  8
GRS. GAMBAR
100
AcDbCircle
 10
10.12738944700845
 20
-16.62810863207755
 30
0.0
 40
3.969648191160294
100
AcDbArc
 50
39.99999999989167
 51
90.0
1001
AcDbBlockRepETag
1070
     1
1071
     1046
1005
0
  0
ARC
  5
19C3
330
1989
100
AcDbEntity
  8
GRS. GAMBAR
100
AcDbCircle
 10
10.1273894470072
 20
-16.9886913465474
 30
0.0
 40
4.330230905629785
100
AcDbArc
 50
90.0
 51
97.09345411152938
1001
AcDbBlockRepETag
1070
     1
1071
     1047
1005
0
  0
ARC
  5
19C4
330
1989
100
AcDbEntity
  8
GRS. GAMBAR
100
AcDbCircle
 10
10.12738944700891
 20
-16.98869134656479
 30
0.0
 40
4.330230905647233
100
AcDbArc
 50
105.4339104832706
 51
179.9999997648983
1001
AcDbBlockRepETag
1070
     1
1071
     1051
1005
0
  0
LINE
  5
19C5
330
1989
100
AcDbEntity
  8
GRS. GAMBAR
100
AcDbLine
 10
5.797159196626125
 20
-16.98630914326838
 30
0.0
 11
5.797174976328051
 21
-21.66937104388899
 31
0.0
1001
AcDbBlockRepETag
1070
     1
1071
     1053
1005
0
  0
LINE
  5
19C6
330
1989
100
AcDbEntity
  8
GRS. GAMBAR
100
AcDbLine
 10
5.442877722990601
 20
-22.34206379938121
 30
0.0
 11
5.442877722991738
 21
-16.78206017855996
 31
0.0
1001
AcDbBlockRepETag
1070
     1
1071
     1054
1005
0
  0
ARC
  5
19C7
330
1989
100
AcDbEntity
  8
GRS. GAMBAR
100
AcDbCircle
 10
10.12738944700675
 20
-16.79184134656441
 30
0.0
 40
4.684521935446663
100
AcDbArc
 50
171.2422361553925
 51
179.8803677173169
1001
AcDbBlockRepETag
1070
     1
1071
     1055
1005
0
  0
LINE
  5
19C8
330
1989
100
AcDbEntity
  8
GRS. BAYANG
  6
Continuous
100
AcDbLine
 10
15.52940897631902
 20
-24.07445215503071
 30
0.0
 11
18.58448914472933
 21
-24.07445215503083
 31
0.0
1001
AcDbBlockRepETag
1070
     1
1071
     1373
1005
0
  0
ARC
  5
19C9
330
1989
100
AcDbEntity
  8
GRS. BAYANG
  6
Continuous
100
AcDbCircle
 10
5.893493488598892
 20
-24.66495489069189
 30
0.0
 40
0.5905027356612278
100
AcDbArc
 50
90.0
 51
176.52704881778
1001
AcDbBlockRepETag
1070
     1
1071
     1374
1005
0
  0
ARC
  5
19CA
330
1989
100
AcDbEntity
  8
GRS. GAMBAR
100
AcDbCircle
 10
11.28603203363377
 20
-25.24879878032459
 30
0.0
 40
4.0874921874812
100
AcDbArc
 50
19.89601448234745
 51
89.87227855922133
1001
AcDbBlockRepETag
1070
     1
1071
     1403
1005
0
  0
ARC
  5
19CB
330
1989
100
AcDbEntity
  8
GRS. GAMBAR
100
AcDbCircle
 10
15.80617330620146
 20
-24.97985185308858
 30
0.0
 40
0.0787321260000288
100
AcDbArc
 50
270.0
 51
352.4076202130266
1001
AcDbBlockRepETag
1070
     1
1071
     1425
1005
0
  0
ARC
  5
19CC
330
1989
100
AcDbEntity
  8
GRS. GAMBAR
100
AcDbCircle
 10
16.05008594637502
 20
-23.4007463821398
 30
0.0
 40
1.027743225639935
100
AcDbArc
 50
206.4031248560714
 51
220.9590564471392
1001
AcDbBlockRepETag
1070
     1
1071
     1430
1005
0
  0
LINE
  5
19CD
330
1989
100
AcDbEntity
  8
GRS. BAYANG
  6
Continuous
100
AcDbLine
 10
5.893493488598892
 20
-24.07445215503071
 30
0.0
 11
7.317173223941949
 21
-24.0744521550306
 31
0.0
1001
AcDbBlockRepETag
1070
     1
1071
     1433
1005
0
  0
LINE
  5
19CE
330
1989
100
AcDbEntity
  8
GRS. BAYANG
  6
Continuous
100
AcDbLine
 10
7.317173223941949
 20
-24.0744521550306
 30
0.0
 11
10.83693488812571
 21
-24.0744521550306
 31
0.0
1001
AcDbBlockRepETag
1070
     1
1071
     1434
1005
0
  0
LINE
  5
19CF
330
1989
100
AcDbEntity
  8
GRS. BAYANG
  6
Continuous
100
AcDbLine
 10
12.01091423455932
 20
-24.07445215503071
 30
0.0
 11
15.61919708571065
 21
-24.07445215503071
 31
0.0
1001
AcDbBlockRepETag
1070
     1
1071
     1435
1005
0
  0
LINE
  5
19D0
330
1989
100
AcDbEntity
  8
GRS. GAMBAR
100
AcDbLine
 10
5.442877722991056
 20
-22.34206379937313
 30
0.0
 11
5.285614603066164
 21
-24.9333686190854
 31
0.0
1001
AcDbBlockRepETag
1070
     1
1071
     1564
1005
0
  0
ARC
  5
19D1
330
1989
100
AcDbEntity
  8
GRS. GAMBAR
100
AcDbCircle
 10
5.403498333086986
 20
-24.94052162060587
 30
0.0
 40
0.1181005471322456
100
AcDbArc
 50
176.52704881778
 51
270.0
1001
AcDbBlockRepETag
1070
     1
1071
     1567
1005
0
  0
ARC
  5
19D2
330
1989
100
AcDbEntity
  8
GRS. GAMBAR
100
AcDbCircle
 10
5.993633295893346
 20
-22.16512839104325
 30
0.0
 40
0.0787321260000288
100
AcDbArc
 50
194.7333369998631
 51
270.0
1001
AcDbBlockRepETag
1070
     1
1071
     1569
1005
0
  0
ARC
  5
19D3
330
1989
100
AcDbEntity
  8
GRS. GAMBAR
100
AcDbCircle
 10
9.064171704722411
 20
-21.328119469169
 30
0.0
 40
2.90220206105292
100
AcDbArc
 50
213.473438163363
 51
251.1367134271748
1001
AcDbBlockRepETag
1070
     1
1071
     1577
1005
0
  0
LINE
  5
19D4
330
1989
100
AcDbEntity
  8
GRS. GAMBAR
100
AcDbLine
 10
6.293312892892231
 20
-22.32259263939318
 30
0.0
 11
6.643324225513538
 21
-22.92883001324355
 31
0.0
1001
AcDbBlockRepETag
1070
     1
1071
     1579
1005
0
  0
LINE
  5
19D5
330
1989
100
AcDbEntity
  8
GRS. GAMBAR
100
AcDbLine
 10
5.993633295893346
 20
-22.24386051704335
 30
0.0
 11
6.156944852579613
 21
-22.24386051704335
 31
0.0
1001
AcDbBlockRepETag
1070
     1
1071
     1581
1005
0
  0
ARC
  5
19D6
330
1989
100
AcDbEntity
  8
GRS. GAMBAR
100
AcDbCircle
 10
6.156944852579613
 20
-22.4013247690433
 30
0.0
 40
0.1574642520000576
100
AcDbArc
 50
30.00000153362729
 51
90.0
1001
AcDbBlockRepETag
1070
     1
1071
     1582
1005
0
  0
ARC
  5
19D7
330
1989
100
AcDbEntity
  8
GRS. GAMBAR
100
AcDbCircle
 10
11.37870854490018
 20
-25.02012305681944
 30
0.0
 40
1.495242848311494
100
AcDbArc
 50
39.23133698470562
 51
93.20376647759792
1001
AcDbBlockRepETag
1070
     1
1071
     1583
1005
0
  0
ARC
  5
19D8
330
1989
100
AcDbEntity
  8
GRS. GAMBAR
100
AcDbCircle
 10
11.33370495048643
 20
-25.16261023397715
 30
0.0
 40
1.281678750393791
100
AcDbArc
 50
58.10415451028703
 51
91.72409071605166
1001
AcDbBlockRepETag
1070
     1
1071
     1584
1005
0
  0
ARC
  5
19D9
330
1989
100
AcDbEntity
  8
GRS. GAMBAR
100
AcDbCircle
 10
9.396504741548938
 20
-21.94791241325288
 30
0.0
 40
2.165133465000792
100
AcDbArc
 50
280.8343001609452
 51
294.0789569999342
1001
AcDbBlockRepETag
1070
     1
1071
     1585
1005
0
  0
LINE
  5
19DA
330
1989
100
AcDbEntity
  8
GRS. GAMBAR
100
AcDbLine
 10
10.27823200109537
 20
-23.92537624294403
 30
0.0
 11
11.05422622759238
 21
-23.57859921616466
 31
0.0
1001
AcDbBlockRepETag
1070
     1
1071
     1587
1005
0
  0
LINE
  5
19DB
330
1989
100
AcDbEntity
  8
GRS. GAMBAR
100
AcDbLine
 10
10.83693488812571
 20
-24.0744521550306
 30
0.0
 11
11.29514369879598
 21
-23.88151170182698
 31
0.0
1001
AcDbBlockRepETag
1070
     1
1071
     1588
1005
0
  0
ARC
  5
19DC
330
1989
100
AcDbEntity
  8
GRS. GAMBAR
100
AcDbCircle
 10
11.29514368496336
 20
-24.11770805013157
 30
0.0
 40
0.5904909450002162
100
AcDbArc
 50
90.0
 51
114.0789569999341
1001
AcDbBlockRepETag
1070
     1
1071
     1589
1005
0
  0
LINE
  5
19DD
330
1989
100
AcDbEntity
  8
GRS. GAMBAR
100
AcDbLine
 10
10.97319496234911
 20
-8.651155570046853
 30
0.0
 11
10.9697535413859
 21
-8.699335463530246
 31
0.0
  0
LINE
  5
19DE
330
1989
100
AcDbEntity
  8
GRS. GAMBAR
100
AcDbLine
 10
11.10721153345991
 20
-8.491121607624563
 30
0.0
 11
11.10555949688228
 21
-8.472074542326254
 31
0.0
1001
AcDbBlockRepETag
1070
     1
1071
      392
1005
0
  0
ARC
  5
19DF
330
1989
100
AcDbEntity
  8
GRS. GAMBAR
100
AcDbCircle
 10
15.59972526460069
 20
-10.84303172694683
 30
0.0
 40
0.07874
100
AcDbArc
 50
93.57674034111855
 51
181.9115325590359
  0
LINE
  5
19E0
330
1989
100
AcDbEntity
  8
GRS. GAMBAR
100
AcDbLine
 10
8.970152032013857
 20
-21.68444402886939
 30
0.0
 11
8.170032454864099
 21
-20.29856946385757
 31
0.0
  0
ARC
  5
19E1
330
1989
100
AcDbEntity
  8
GRS. GAMBAR
100
AcDbCircle
 10
8.749657400084629
 20
-19.96392931836112
 30
0.0
 40
0.6692900000000001
100
AcDbArc
 50
180.0
 51
209.9995201323248
1001
AcDbBlockRepETag
1070
     1
1071
      765
1005
0
  0
ARC
  5
19E2
330
1989
100
AcDbEntity
  8
GRS. GAMBAR
100
AcDbCircle
 10
11.29514369879598
 20
-24.03503934752689
 30
0.0
 40
2.873722599001052
100
AcDbArc
 50
90.0
 51
113.9412140002791
1001
AcDbBlockRepETag
1070
     1
1071
     1409
1005
0
  0
LINE
  5
19E3
330
1989
100
AcDbEntity
  8
GRS. GAMBAR
100
AcDbLine
 10
9.280285363767802
 20
-21.78538981273778
 30
0.0
 11
10.12898956912408
 21
-21.40856523402078
 31
0.0
1001
AcDbBlockRepETag
1070
     1
1071
     1467
1005
0
  0
ARC
  5
19E4
330
1989
100
AcDbEntity
  8
GRS. GAMBAR
100
AcDbCircle
 10
9.181331912263544
 20
-21.56252162639976
 30
0.0
 40
0.2438483423077277
100
AcDbArc
 50
209.9995201323248
 51
293.9412160657719
  0
LINE
  5
19E5
330
1989
100
AcDbEntity
  8
GRS. GAMBAR
100
AcDbLine
 10
10.83693488812571
 20
-24.0744521550306
 30
0.0
 11
12.01091423455921
 21
-24.07445215503071
 31
0.0
  0
ARC
  5
19E6
330
1989
100
AcDbEntity
  8
GRS. GAMBAR
100
AcDbCircle
 10
31.93641122308418
 20
-16.35785216773797
 30
0.0
 40
3.1496
100
AcDbArc
 50
124.9930726139029
 51
185.87670156801
  0
ARC
  5
19E7
330
1989
100
AcDbEntity
  8
GRS. GAMBAR
100
AcDbCircle
 10
25.38884779528064
 20
-7.004555826399837
 30
0.0
 40
8.267699999999999
100
AcDbArc
 50
304.993072613903
 51
315.9106894291742
  0
LINE
  5
19E8
330
1989
100
AcDbEntity
  8
GRS. GAMBAR
100
AcDbLine
 10
29.65233241015233
 20
-24.92843343548623
 30
0.0
 11
28.80336383925578
 21
-16.68033356361332
 31
0.0
  0
ARC
  5
19E9
330
1989
100
AcDbEntity
  8
GRS. GAMBAR
100
AcDbCircle
 10
32.72493458842689
 20
-9.233661356257698
 30
0.0
 40
0.31496
100
AcDbArc
 50
351.7425441245135
 51
90.0
  0
ARC
  5
19EA
330
1989
100
AcDbEntity
  8
GRS. GAMBAR
100
AcDbCircle
 10
26.80273496503173
 20
-8.374196407433146
 30
0.0
 40
6.2992
100
AcDbArc
 50
315.9106894291742
 51
351.7425441245135
  0
LINE
  5
19EB
330
1989
100
AcDbEntity
  8
GRS. CENTER
100
AcDbLine
 10
14.12427004747144
 20
-25.33856591077392
 30
0.0
 11
14.12427004747144
 21
-23.67696192445158
 31
0.0
  0
LINE
  5
19EC
330
1989
100
AcDbEntity
  8
GRS. GAMBAR
100
AcDbLine
 10
4.970489683255891
 20
-10.3724565431296
 30
0.0
 11
19.77932612870381
 21
-10.79854231709498
 31
0.0
  0
ARC
  5
19ED
330
1989
100
AcDbEntity
  8
GRS. GAMBAR
100
AcDbCircle
 10
5.442929683255897
 20
-10.29432699558163
 30
0.0
 40
0.4724400000000001
100
AcDbArc
 50
180.0
 51
198.9351583433468
  0
ARC
  5
19EE
330
1989
100
AcDbEntity
  8
GRS. GAMBAR
100
AcDbCircle
 10
-6.175809350159624
 20
-14.28027751045067
 30
0.0
 40
11.811
100
AcDbArc
 50
351.2422361553925
 51
18.93515834334682
  0
ENDBLK
  5
198B
330
1989
100
AcDbEntity
  8
0
100
AcDbBlockEnd
  0
ENDSEC
  0
SECTION
  2
ENTITIES
  0
LINE
  5
812
330
1F
100
AcDbEntity
  8
0
100
AcDbLine
 10
68.34118357606302
 20
18.66334109419294
 30
0.0
 11
54.99448708047784
 21
18.66334109419294
 31
0.0
  0
LINE
  5
813
330
1F
100
AcDbEntity
  8
0
100
AcDbLine
 10
66.59622118992705
 20
2.127610871932148
 30
0.0
 11
56.73961700435556
 21
2.127610871932148
 31
0.0
  0
LINE
  5
814
330
1F
100
AcDbEntity
  8
0
100
AcDbLine
 10
21.44491209355569
 20
55.07555939442228
 30
0.0
 11
21.44491209355569
 21
56.78229313240465
 31
0.0
  0
LINE
  5
815
330
1F
100
AcDbEntity
  8
0
100
AcDbLine
 10
18.68844376877895
 20
54.55094874911812
 30
0.0
 11
19.55675552172677
 21
54.55094874911812
 31
0.0
  0
LINE
  5
816
330
1F
100
AcDbEntity
  8
0
100
AcDbLine
 10
18.68844376877895
 20
57.30690377770883
 30
0.0
 11
19.55675552172677
 21
57.30690377770883
 31
0.0
  0
LINE
  5
817
330
1F
100
AcDbEntity
  8
0
100
AcDbLine
 10
18.38420969585461
 20
54.78439576395543
 30
0.0
 11
18.11848934218614
 21
55.77607762436728
 31
0.0
  0
LINE
  5
818
330
1F
100
AcDbEntity
  8
0
100
AcDbLine
 10
18.38420969585461
 20
57.07345676287147
 30
0.0
 11
18.11848934218614
 21
56.08177490245971
 31
0.0
  0
LINE
  5
819
330
1F
100
AcDbEntity
  8
0
100
AcDbLine
 10
21.24803828185527
 20
55.23146779543951
 30
0.0
 11
21.24803828185527
 21
56.62638339773657
 31
0.0
  0
LINE
  5
81A
330
1F
100
AcDbEntity
  8
0
100
AcDbLine
 10
67.29249536116803
 20
13.04198616109855
 30
0.0
 11
67.29249536116803
 21
13.73412283123188
 31
0.0
  0
LINE
  5
81B
330
1F
100
AcDbEntity
  8
0
100
AcDbLine
 10
55.45701648159827
 20
18.77076006208685
 30
0.0
 11
55.48433891318165
 21
19.0713068094095
 31
0.0
  0
LINE
  5
81C
330
1F
100
AcDbEntity
  8
0
100
AcDbLine
 10
57.29175761241579
 20
19.09641974153785
 30
0.0
 11
66.0439130441486
 21
19.09641974153785
 31
0.0
  0
LINE
  5
81D
330
1F
100
AcDbEntity
  8
0
100
AcDbLine
 10
56.00330389779294
 20
19.2145320999111
 30
0.0
 11
55.6411753069256
 21
19.2145320999111
 31
0.0
  0
LINE
  5
81E
330
1F
100
AcDbEntity
  8
0
100
AcDbLine
 10
61.38737791470994
 20
19.21453181155735
 30
0.0
 11
61.94829274183085
 21
19.2145320999111
 31
0.0
  0
LINE
  5
81F
330
1F
100
AcDbEntity
  8
0
100
AcDbLine
 10
66.05011937601158
 20
11.11099981948841
 30
0.0
 11
66.59622118992705
 21
2.127610871932148
 31
0.0
  0
LINE
  5
820
330
1F
100
AcDbEntity
  8
0
100
AcDbLine
 10
57.29287454070162
 20
11.43356045109026
 30
0.0
 11
56.73961700435556
 21
2.127610871932148
 31
0.0
  0
LINE
  5
821
330
1F
100
AcDbEntity
  8
0
100
AcDbLine
 10
67.87865417494249
 20
18.77076006208685
 30
0.0
 11
67.85133174335914
 21
19.0713068094095
 31
0.0
  0
LINE
  5
822
330
1F
100
AcDbEntity
  8
0
100
AcDbLine
 10
67.33236675874785
 20
19.2145320999111
 30
0.0
 11
67.69449534963886
 21
19.2145320999111
 31
0.0
  0
LINE
  5
823
330
1F
100
AcDbEntity
  8
0
100
AcDbLine
 10
4.633585878361955
 20
2.520286593035833
 30
0.0
 11
28.80725096068314
 21
2.520286593035833
 31
0.0
  0
LINE
  5
824
330
1F
100
AcDbEntity
  8
0
100
AcDbLine
 10
4.672959067481585
 20
5.260988332511146
 30
0.0
 11
4.672959067481585
 21
11.19163603447549
 31
0.0
  0
LINE
  5
825
330
1F
100
AcDbEntity
  8
0
100
AcDbLine
 10
4.672959067481585
 20
19.05601681529664
 30
0.0
 11
5.00419050993075
 21
19.05601681529664
 31
0.0
  0
LINE
  5
826
330
1F
100
AcDbEntity
  8
0
100
AcDbLine
 10
16.64242580376004
 20
10.78815294305745
 30
0.0
 11
17.38971577609051
 21
10.78815172952445
 31
0.0
  0
LINE
  5
827
330
1F
100
AcDbEntity
  8
0
100
AcDbLine
 10
19.49208588545998
 20
3.465184246465085
 30
0.0
 11
4.565422657607014
 21
3.465184246465098
 31
0.0
  0
LINE
  5
828
330
1F
100
AcDbEntity
  8
0
100
AcDbLine
 10
8.148077994174697
 20
5.985075468231627
 30
0.0
 11
7.400458370101957
 21
7.280015688267254
 31
0.0
  0
LINE
  5
82A
330
1F
100
AcDbEntity
  8
0
100
AcDbLine
 10
7.310791524939972
 20
11.10311915693479
 30
0.0
 11
7.310791524939972
 21
7.614662515696678
 31
0.0
  0
LINE
  5
82B
330
1F
100
AcDbEntity
  8
0
100
AcDbLine
 10
17.66135983532886
 20
10.78814262466076
 30
0.0
 11
17.15072613013375
 21
10.78814262466076
 31
0.0
  0
LINE
  5
82C
330
1F
100
AcDbEntity
  8
0
100
AcDbLine
 10
14.22964916407103
 20
11.91325155259589
 30
0.0
 11
12.39940176324244
 21
14.09445546787226
 31
0.0
  0
LINE
  5
82D
330
1F
100
AcDbEntity
  8
0
100
AcDbLine
 10
10.7586753632451
 20
12.49729298645557
 30
0.0
 11
12.51342706238036
 21
10.40606134490359
 31
0.0
  0
LINE
  5
82E
330
1F
100
AcDbEntity
  8
0
100
AcDbLine
 10
4.671512984531219
 20
5.213288796461596
 30
0.0
 11
4.515680219669818
 21
2.645552668290576
 31
0.0
  0
LINE
  5
82F
330
1F
100
AcDbEntity
  8
0
100
AcDbLine
 10
16.67547558877847
 20
8.465266243414959
 30
0.0
 11
17.26875249344276
 21
8.465266243414959
 31
0.0
  0
LINE
  5
830
330
1F
100
AcDbEntity
  8
0
100
AcDbLine
 10
4.200509634012248
 20
17.87432477739408
 30
0.0
 11
4.200509634012248
 21
18.58356738182732
 31
0.0
  0
LINE
  5
833
330
1F
100
AcDbEntity
  8
0
100
AcDbLine
 10
12.38963453435961
 20
19.09538760142106
 30
0.0
 11
12.5982997008001
 21
19.09538760142106
 31
0.0
  0
LINE
  5
834
330
1F
100
AcDbEntity
  8
0
100
AcDbLine
 10
12.69672666611113
 20
19.09538760142106
 30
0.0
 11
12.81483902448435
 21
19.09538760142106
 31
0.0
  0
LINE
  5
835
330
1F
100
AcDbEntity
  8
0
100
AcDbLine
 10
16.94402863781305
 20
14.19088636789983
 30
0.0
 11
14.98214785992103
 21
16.52896483318237
 31
0.0
  0
LINE
  5
836
330
1F
100
AcDbEntity
  8
0
100
AcDbLine
 10
10.20055318423972
 20
19.2754112178219
 30
0.0
 11
10.20399505245835
 21
19.32359737300059
 31
0.0
  0
LINE
  5
837
330
1F
100
AcDbEntity
  8
0
100
AcDbLine
 10
5.623579692913678
 20
19.52846624876594
 30
0.0
 11
8.477291275605082
 21
19.52846624876594
 31
0.0
  0
LINE
  5
838
330
1F
100
AcDbEntity
  8
0
100
AcDbLine
 10
9.964928785402847
 20
19.05601681529664
 30
0.0
 11
5.83780511130449
 21
19.05601681529664
 31
0.0
  0
LINE
  5
839
330
1F
100
AcDbEntity
  8
0
100
AcDbLine
 10
28.05150066256466
 20
11.41843711181731
 30
0.0
 11
28.92536147689471
 21
2.637739287240207
 31
0.0
  0
LINE
  5
83B
330
1F
100
AcDbEntity
  8
0
100
AcDbLine
 10
10.936533119521
 20
19.05601681529664
 30
0.0
 11
31.95691523731837
 21
19.05601681529664
 31
0.0
  0
LINE
  5
83C
330
1F
100
AcDbEntity
  8
0
100
AcDbLine
 10
4.633575739232624
 20
2.520286593035833
 30
0.0
 11
28.80725096068314
 21
2.520286593035833
 31
0.0
  0
LINE
  5
83D
330
1F
100
AcDbEntity
  8
0
100
AcDbLine
 10
19.49208588545998
 20
3.465184246465085
 30
0.0
 11
19.88047620071718
 21
10.08842288278022
 31
0.0
  0
ARC
  5
83E
330
1F
100
AcDbEntity
  8
0
100
AcDbCircle
 10
68.4025800125376
 20
11.32580352843916
 30
0.0
 40
2.362247167370229
100
AcDbArc
 50
138.1787799201063
 51
185.2172229590092
  0
CIRCLE
  5
83F
330
1F
100
AcDbEntity
  8
0
100
AcDbCircle
 10
13.76759354923924
 20
58.68488129199239
 30
0.0
 40
0.2755955028472618
  0
CIRCLE
  5
840
330
1F
100
AcDbEntity
  8
0
100
AcDbCircle
 10
13.76759354923924
 20
53.17297123483458
 30
0.0
 40
0.2755955028472618
  0
ARC
  5
841
330
1F
100
AcDbEntity
  8
0
100
AcDbCircle
 10
21.63273486373616
 20
49.33431958786975
 30
0.0
 40
13.58290826504253
100
AcDbArc
 50
48.1113810674112
 51
83.90049566268173
  0
ARC
  5
842
330
1F
100
AcDbEntity
  8
0
100
AcDbCircle
 10
27.54736869216926
 20
55.92892626340166
 30
0.0
 40
4.724490304780014
100
AcDbArc
 50
312.1939405140929
 51
48.11134267219318
  0
ARC
  5
843
330
1F
100
AcDbEntity
  8
0
100
AcDbCircle
 10
21.63273486373616
 20
62.52353293895722
 30
0.0
 40
13.58290826504253
100
AcDbArc
 50
277.2310498359934
 51
311.9948042281952
  0
ARC
  5
844
330
1F
100
AcDbEntity
  8
0
100
AcDbCircle
 10
27.54737493132997
 20
55.92891950571438
 30
0.0
 40
3.149662889811227
100
AcDbArc
 50
311.9318406863113
 51
48.05381297448676
  0
ARC
  5
845
330
1F
100
AcDbEntity
  8
0
100
AcDbCircle
 10
21.63273486373616
 20
49.33431958786975
 30
0.0
 40
12.00807682013691
100
AcDbArc
 50
48.1113810674112
 51
90.55115889121095
  0
ARC
  5
846
330
1F
100
AcDbEntity
  8
0
100
AcDbCircle
 10
21.24803323192047
 20
55.92892626340166
 30
0.0
 40
5.3150561265594
100
AcDbArc
 50
123.5054464099984
 51
236.4945535900015
  0
ARC
  5
847
330
1F
100
AcDbEntity
  8
0
100
AcDbCircle
 10
21.57403293773076
 20
55.43649614472057
 30
0.0
 40
5.90561791842558
100
AcDbArc
 50
90.55115889121095
 51
123.5054464096999
  0
ARC
  5
848
330
1F
100
AcDbEntity
  8
0
100
AcDbCircle
 10
21.63273486373616
 20
62.52353293895722
 30
0.0
 40
12.00807682013691
100
AcDbArc
 50
269.448841108789
 51
311.8886189325881
  0
ARC
  5
849
330
1F
100
AcDbEntity
  8
0
100
AcDbCircle
 10
21.57403293773076
 20
56.42135638210639
 30
0.0
 40
5.90561791842558
100
AcDbArc
 50
236.4945535903001
 51
269.448841108789
  0
ARC
  5
84A
330
1F
100
AcDbEntity
  8
0
100
AcDbCircle
 10
21.57403293773076
 20
55.43649614472057
 30
0.0
 40
5.826876346153129
100
AcDbArc
 50
90.55115889121095
 51
123.5054464099984
  0
ARC
  5
84B
330
1F
100
AcDbEntity
  8
0
100
AcDbCircle
 10
21.24803323192047
 20
55.92892626340166
 30
0.0
 40
5.236314554310573
100
AcDbArc
 50
123.5054464101019
 51
236.494553590105
  0
ARC
  5
84C
330
1F
100
AcDbEntity
  8
0
100
AcDbCircle
 10
21.57403293773076
 20
56.42135638210639
 30
0.0
 40
5.826876346153129
100
AcDbArc
 50
236.4945535901966
 51
269.448841108789
  0
ARC
  5
84D
330
1F
100
AcDbEntity
  8
0
100
AcDbCircle
 10
21.63273486373616
 20
49.33431958786975
 30
0.0
 40
11.92933524788808
100
AcDbArc
 50
71.90263360588303
 51
90.55115889121095
  0
ARC
  5
84E
330
1F
100
AcDbEntity
  8
0
100
AcDbCircle
 10
21.63273486373616
 20
62.52353293895722
 30
0.0
 40
11.92933524788808
100
AcDbArc
 50
269.448841108789
 51
288.0973663941169
  0
ARC
  5
84F
330
1F
100
AcDbEntity
  8
0
100
AcDbCircle
 10
27.46863335908115
 20
55.92892626340166
 30
0.0
 40
2.95280895921279
100
AcDbArc
 50
316.8058170584969
 51
43.1941829415031
  0
ARC
  5
850
330
1F
100
AcDbEntity
  8
0
100
AcDbCircle
 10
22.15861461206903
 20
50.94350117284661
 30
0.0
 40
10.2364043918983
100
AcDbArc
 50
43.19418294141327
 51
71.90263360601329
  0
ARC
  5
851
330
1F
100
AcDbEntity
  8
0
100
AcDbCircle
 10
22.15861461206903
 20
60.9143513539804
 30
0.0
 40
10.23640439192192
100
AcDbArc
 50
288.0973663939867
 51
316.8058170584969
  0
ARC
  5
852
330
1F
100
AcDbEntity
  8
0
100
AcDbCircle
 10
19.55675552172677
 20
52.58240944299199
 30
0.0
 40
4.724494334716841
100
AcDbArc
 50
68.06524265961691
 51
90.0
  0
ARC
  5
853
330
1F
100
AcDbEntity
  8
0
100
AcDbCircle
 10
21.24805816295724
 20
56.78229313240465
 30
0.0
 40
0.19685393062206
100
AcDbArc
 50
0.0
 51
68.06524265850237
  0
ARC
  5
854
330
1F
100
AcDbEntity
  8
0
100
AcDbCircle
 10
19.55675552172677
 20
59.27544308383499
 30
0.0
 40
4.724494334716841
100
AcDbArc
 50
270.0
 51
291.9347573403829
  0
ARC
  5
855
330
1F
100
AcDbEntity
  8
0
100
AcDbCircle
 10
21.24805816295724
 20
55.07555939442228
 30
0.0
 40
0.19685393062206
100
AcDbArc
 50
291.9347573414977
 51
0.0
  0
ARC
  5
856
330
1F
100
AcDbEntity
  8
0
100
AcDbCircle
 10
18.68892822895175
 20
55.92892626340166
 30
0.0
 40
0.5905617918425575
100
AcDbArc
 50
164.9999999983061
 51
195.0000000016937
  0
ARC
  5
857
330
1F
100
AcDbEntity
  8
0
100
AcDbCircle
 10
18.68844376877895
 20
54.8659150380898
 30
0.0
 40
0.314966288971674
100
AcDbArc
 50
195.0000000026971
 51
270.0
  0
ARC
  5
858
330
1F
100
AcDbEntity
  8
0
100
AcDbCircle
 10
18.68844376877895
 20
56.99193748873714
 30
0.0
 40
0.314966288971674
100
AcDbArc
 50
90.0
 51
164.9999999973028
  0
ARC
  5
859
330
1F
100
AcDbEntity
  8
0
100
AcDbCircle
 10
21.12992592350567
 20
55.23146779543951
 30
0.0
 40
0.118112358373236
100
AcDbArc
 50
285.0809879153826
 51
0.0
  0
ARC
  5
85A
330
1F
100
AcDbEntity
  8
0
100
AcDbCircle
 10
21.12992592350567
 20
56.62638339773657
 30
0.0
 40
0.118112358373236
100
AcDbArc
 50
0.0
 51
74.91897421939372
  0
ARC
  5
85B
330
1F
100
AcDbEntity
  8
0
100
AcDbCircle
 10
61.42868089565503
 20
13.61419192116504
 30
0.0
 40
5.905617918401955
100
AcDbArc
 50
322.5380373017111
 51
351.6431676654038
  0
ARC
  5
85C
330
1F
100
AcDbEntity
  8
0
100
AcDbCircle
 10
65.32395605504189
 20
13.04198616109855
 30
0.0
 40
1.968539306126111
100
AcDbArc
 50
351.6431676658044
 51
0.0
  0
ARC
  5
85D
330
1F
100
AcDbEntity
  8
0
100
AcDbCircle
 10
66.47071072259099
 20
2.245723230305386
 30
0.0
 40
0.118112358373236
100
AcDbArc
 50
270.0
 51
4.470937671201297
  0
ARC
  5
85E
330
1F
100
AcDbEntity
  8
0
100
AcDbCircle
 10
54.93308795733149
 20
11.32576916804334
 30
0.0
 40
2.362247167370229
100
AcDbArc
 50
355.5290623289047
 51
41.90638286998913
  0
ARC
  5
85F
330
1F
100
AcDbEntity
  8
0
100
AcDbCircle
 10
56.86495993394986
 20
2.245723230305386
 30
0.0
 40
0.118112358373236
100
AcDbArc
 50
175.5290623289048
 51
270.0
  0
ARC
  5
860
330
1F
100
AcDbEntity
  8
0
100
AcDbCircle
 10
18.49208325326454
 20
47.16892635112155
 30
0.0
 40
9.842696530677805
100
AcDbArc
 50
73.73979529170822
 51
90.0
  0
CIRCLE
  5
861
330
1F
100
AcDbEntity
  8
0
100
AcDbCircle
 10
13.76759354923924
 20
58.68488129199239
 30
0.0
 40
0.275594924840544
  0
CIRCLE
  5
862
330
1F
100
AcDbEntity
  8
0
100
AcDbCircle
 10
13.76759354923924
 20
53.17297123483458
 30
0.0
 40
0.275594924840544
  0
ARC
  5
863
330
1F
100
AcDbEntity
  8
0
100
AcDbCircle
 10
21.63273486373616
 20
49.33431958786975
 30
0.0
 40
13.58290826504253
100
AcDbArc
 50
48.1113810674112
 51
96.11328507777953
  0
ARC
  5
864
330
1F
100
AcDbEntity
  8
0
100
AcDbCircle
 10
27.54736869216926
 20
55.92892626340166
 30
0.0
 40
4.724490304780014
100
AcDbArc
 50
312.1939405140929
 51
48.11134267219318
  0
ARC
  5
865
330
1F
100
AcDbEntity
  8
0
100
AcDbCircle
 10
21.63273486373616
 20
62.52353293895722
 30
0.0
 40
13.58290980767723
100
AcDbArc
 50
265.1847633227859
 51
311.888614062607
  0
ARC
  5
866
330
1F
100
AcDbEntity
  8
0
100
AcDbCircle
 10
41.15010432588764
 20
-132.8944928425874
 30
0.0
 40
196.853931044256
100
AcDbArc
 50
96.11328238640028
 51
98.79833985212265
  0
ARC
  5
867
330
1F
100
AcDbEntity
  8
0
100
AcDbCircle
 10
41.15010432588764
 20
244.7523433737099
 30
0.0
 40
196.8539306133907
100
AcDbArc
 50
261.2016600954153
 51
263.9762766675153
  0
ARC
  5
868
330
1F
100
AcDbEntity
  8
0
100
AcDbCircle
 10
6.172131265548514
 20
56.61791502055526
 30
0.0
 40
1.968539306126111
100
AcDbArc
 50
155.8903364571508
 51
179.4839487216018
  0
ARC
  5
869
330
1F
100
AcDbEntity
  8
0
100
AcDbCircle
 10
6.172131265548514
 20
55.23993750627169
 30
0.0
 40
1.968539306126111
100
AcDbArc
 50
180.5160512783981
 51
204.1096635428579
  0
ARC
  5
86A
330
1F
100
AcDbEntity
  8
0
100
AcDbCircle
 10
55.33938918630219
 20
18.78145345256619
 30
0.0
 40
0.118112358373236
100
AcDbArc
 50
270.0
 51
354.8055710511925
  0
ARC
  5
86B
330
1F
100
AcDbEntity
  8
0
100
AcDbCircle
 10
55.6411753069256
 20
19.05704895543708
 30
0.0
 40
0.157483144497648
100
AcDbArc
 50
90.0
 51
174.8055710938046
  0
ARC
  5
86C
330
1F
100
AcDbEntity
  8
0
100
AcDbCircle
 10
57.29175761241579
 20
25.00203765993977
 30
0.0
 40
5.905617918401955
100
AcDbArc
 50
259.5246861568107
 51
270.0
  0
ARC
  5
86D
330
1F
100
AcDbEntity
  8
0
100
AcDbCircle
 10
56.00330389779294
 20
18.033408516226
 30
0.0
 40
1.181123583685115
100
AcDbArc
 50
79.52468615639334
 51
90.0
  0
ARC
  5
86E
330
1F
100
AcDbEntity
  8
0
100
AcDbCircle
 10
60.09892575970603
 20
25.00203765993977
 30
0.0
 40
5.905617918401955
100
AcDbArc
 50
270.0
 51
280.4753010202182
  0
ARC
  5
86F
330
1F
100
AcDbEntity
  8
0
100
AcDbCircle
 10
61.38737791470994
 20
18.03340822787221
 30
0.0
 40
1.181123583685115
100
AcDbArc
 50
90.0
 51
100.475301019882
  0
ARC
  5
870
330
1F
100
AcDbEntity
  8
0
100
AcDbCircle
 10
54.99448708047784
 20
18.34837480522128
 30
0.0
 40
0.314966288971674
100
AcDbArc
 50
90.0
 51
178.5934394246965
  0
ARC
  5
871
330
1F
100
AcDbEntity
  8
0
100
AcDbCircle
 10
62.55140032336125
 20
18.16282201031188
 30
0.0
 40
7.874157224528071
100
AcDbArc
 50
178.5934394246965
 51
221.9063828699891
  0
ARC
  5
872
330
1F
100
AcDbEntity
  8
0
100
AcDbCircle
 10
68.34118357606302
 20
18.34837480522128
 30
0.0
 40
0.314966288971674
100
AcDbArc
 50
1.406560575303462
 51
90.0
  0
ARC
  5
873
330
1F
100
AcDbEntity
  8
0
100
AcDbCircle
 10
60.78427033317952
 20
18.16282201031188
 30
0.0
 40
7.874157224528071
100
AcDbArc
 50
318.0936171300109
 51
1.406560575902912
  0
ARC
  5
874
330
1F
100
AcDbEntity
  8
0
100
AcDbCircle
 10
82.6666233737937
 20
55.92892621743327
 30
0.0
 40
78.46613422563025
100
AcDbArc
 50
179.4839486879935
 51
180.5160513120064
  0
ARC
  5
875
330
1F
100
AcDbEntity
  8
0
100
AcDbCircle
 10
60.09892575970603
 20
25.00203765993977
 30
0.0
 40
5.905617918401955
100
AcDbArc
 50
280.4753010202182
 51
281.4783409545177
  0
ARC
  5
876
330
1F
100
AcDbEntity
  8
0
100
AcDbCircle
 10
67.69449534963886
 20
19.05704895543708
 30
0.0
 40
0.157483144474026
100
AcDbArc
 50
5.194428907006387
 51
90.0
  0
ARC
  5
877
330
1F
100
AcDbEntity
  8
0
100
AcDbCircle
 10
66.0439130441486
 20
25.00203765993977
 30
0.0
 40
5.905617918401955
100
AcDbArc
 50
270.0
 51
280.4753138431893
  0
ARC
  5
878
330
1F
100
AcDbEntity
  8
0
100
AcDbCircle
 10
67.33236675874785
 20
18.033408516226
 30
0.0
 40
1.181123583685115
100
AcDbArc
 50
90.0
 51
100.4753138423896
  0
ARC
  5
879
330
1F
100
AcDbEntity
  8
0
100
AcDbCircle
 10
63.2367448968584
 20
25.00203765993977
 30
0.0
 40
5.905617918401955
100
AcDbArc
 50
259.5246989797818
 51
270.0
  0
ARC
  5
87A
330
1F
100
AcDbEntity
  8
0
100
AcDbCircle
 10
61.94829274183085
 20
18.03340822787221
 30
0.0
 40
1.18112387203887
100
AcDbArc
 50
79.52470156522192
 51
90.0
  0
ARC
  5
87B
330
1F
100
AcDbEntity
  8
0
100
AcDbCircle
 10
63.2367448968584
 20
25.00203765993977
 30
0.0
 40
5.905617918401955
100
AcDbArc
 50
258.5216590454822
 51
259.5246989797818
  0
ARC
  5
87C
330
1F
100
AcDbEntity
  8
0
100
AcDbCircle
 10
18.49208325326454
 20
64.68892617570539
 30
0.0
 40
9.842696530677805
100
AcDbArc
 50
270.0
 51
286.2602047082919
  0
ARC
  5
87D
330
1F
100
AcDbEntity
  8
0
100
AcDbCircle
 10
31.95691523731837
 20
18.74105052632497
 30
0.0
 40
0.314966288971674
100
AcDbArc
 50
349.4838229369899
 51
90.0
  0
ARC
  5
87E
330
1F
100
AcDbEntity
  8
0
100
AcDbCircle
 10
4.633585878361955
 20
2.638398951409057
 30
0.0
 40
0.118112358373236
100
AcDbArc
 50
180.0
 51
270.0
  0
ARC
  5
87F
330
1F
100
AcDbEntity
  8
0
100
AcDbCircle
 10
28.80725096068314
 20
2.638398951409057
 30
0.0
 40
0.118112358373236
100
AcDbArc
 50
270.0
 51
7.206082023297697
  0
ARC
  5
880
330
1F
100
AcDbEntity
  8
0
100
AcDbCircle
 10
26.07307254686977
 20
19.83327472820291
 30
0.0
 40
6.299325779622455
100
AcDbArc
 50
316.9193995227873
 51
349.4838229361942
  0
ARC
  5
881
330
1F
100
AcDbEntity
  8
0
100
AcDbCircle
 10
7.613635318325678
 20
6.339917235790224
 30
0.0
 40
2.944697489871676
100
AcDbArc
 50
182.9946541008928
 51
257.4853182172197
  0
ARC
  5
882
330
1F
100
AcDbEntity
  8
0
100
AcDbCircle
 10
7.98009488903132
 20
7.614662515696678
 30
0.0
 40
0.6693033640913823
100
AcDbArc
 50
180.0
 51
209.9995201308036
  0
ARC
  5
883
330
1F
100
AcDbEntity
  8
0
100
AcDbCircle
 10
8.557234054144416
 20
6.221296758205411
 30
0.0
 40
0.4724501870583658
100
AcDbArc
 50
209.9994673716947
 51
269.9998944719892
  0
ARC
  5
884
330
1F
100
AcDbEntity
  8
0
100
AcDbCircle
 10
17.26875249344276
 20
9.252681965879574
 30
0.0
 40
0.7874157224646181
100
AcDbArc
 50
270.0
 51
301.7883306171027
  0
ARC
  5
885
330
1F
100
AcDbEntity
  8
0
100
AcDbCircle
 10
9.358082616074014
 20
11.32205612885525
 30
0.0
 40
1.828343981548816
100
AcDbArc
 50
40.00000000049772
 51
90.0
  0
ARC
  5
886
330
1F
100
AcDbEntity
  8
0
100
AcDbCircle
 10
16.64243091851362
 20
13.93781583286868
 30
0.0
 40
3.149662889811227
100
AcDbArc
 50
220.0000000001013
 51
269.9999069571131
  0
ARC
  5
88C
330
1F
100
AcDbEntity
  8
0
100
AcDbCircle
 10
9.358072403314892
 20
11.10311915693479
 30
0.0
 40
2.047280878374936
100
AcDbArc
 50
90.0
 51
180.0
  0
ARC
  5
88D
330
1F
100
AcDbEntity
  8
0
100
AcDbCircle
 10
16.67547558877847
 20
13.89843472834759
 30
0.0
 40
5.433168484932637
100
AcDbArc
 50
220.0000000002179
 51
270.0
  0
ARC
  5
88E
330
1F
100
AcDbEntity
  8
0
100
AcDbCircle
 10
24.63526407296495
 20
21.17783926447002
 30
0.0
 40
8.267865085772188
100
AcDbArc
 50
304.947795703292
 51
316.9193995225977
  0
ARC
  5
88F
330
1F
100
AcDbEntity
  8
0
100
AcDbCircle
 10
9.358079612324116
 20
11.54248317275619
 30
0.0
 40
3.970164105018113
100
AcDbArc
 50
39.99999999998514
 51
90.0
  0
ARC
  5
890
330
1F
100
AcDbEntity
  8
0
100
AcDbCircle
 10
8.764936093534785
 20
15.94833292462961
 30
0.0
 40
0.4724494334693217
100
AcDbArc
 50
239.9660768059152
 51
277.0934556748861
  0
ARC
  5
891
330
1F
100
AcDbEntity
  8
0
100
AcDbCircle
 10
8.508763593361107
 20
15.50523520703154
 30
0.0
 40
0.039370786124412
100
AcDbArc
 50
59.96607681929496
 51
139.6261858927037
  0
ARC
  5
892
330
1F
100
AcDbEntity
  8
0
100
AcDbCircle
 10
9.358079612324116
 20
11.18185359526875
 30
0.0
 40
4.330793682505547
100
AcDbArc
 50
90.0
 51
97.09345567501239
  0
ARC
  5
893
330
1F
100
AcDbEntity
  8
0
100
AcDbCircle
 10
-6.924824912659985
 20
13.82706266963529
 30
0.0
 40
11.81123583680391
100
AcDbArc
 50
350.7727292189945
 51
19.2373820795994
  0
ARC
  5
894
330
1F
100
AcDbEntity
  8
0
100
AcDbCircle
 10
4.672959067481585
 20
17.87432477739408
 30
0.0
 40
0.4724494334693217
100
AcDbArc
 50
180.0
 51
199.2373820799915
  0
ARC
  5
895
330
1F
100
AcDbEntity
  8
0
100
AcDbCircle
 10
9.641002539198792
 20
10.58891889754488
 30
0.0
 40
5.088194875244925
100
AcDbArc
 50
103.0646464059546
 51
164.681756308326
  0
ARC
  5
896
330
1F
100
AcDbEntity
  8
0
100
AcDbCircle
 10
12.60547058393074
 20
10.7863687078464
 30
0.0
 40
5.511910057181459
100
AcDbArc
 50
4.960147640798322
 51
39.99999999998514
  0
ARC
  5
897
330
1F
100
AcDbEntity
  8
0
100
AcDbCircle
 10
31.17556491651818
 20
11.8191849835798
 30
0.0
 40
3.149662889834848
100
AcDbArc
 50
124.9477986856054
 51
187.3098520216003
  0
ARC
  5
898
330
1F
100
AcDbEntity
  8
0
100
AcDbCircle
 10
10.38173608610155
 20
19.31090158488828
 30
0.0
 40
0.178193877776886
100
AcDbArc
 50
14.0482792455935
 51
175.914383211296
  0
ARC
  5
899
330
1F
100
AcDbEntity
  8
0
100
AcDbCircle
 10
4.672959067481585
 20
18.58356738182732
 30
0.0
 40
0.4724494334693217
100
AcDbArc
 50
90.0
 51
180.0
  0
ARC
  5
89A
330
1F
100
AcDbEntity
  8
0
100
AcDbCircle
 10
9.358079612324116
 20
11.18185359526875
 30
0.0
 40
4.685130757601633
100
AcDbArc
 50
170.7727292185927
 51
179.8803677172982
  0
ARC
  5
89B
330
1F
100
AcDbEntity
  8
0
100
AcDbCircle
 10
28.61269181738486
 20
2.59902816528465
 30
0.0
 40
0.078741572248824
100
AcDbArc
 50
185.6833994930931
 51
270.0
  0
ARC
  5
89C
330
1F
100
AcDbEntity
  8
0
100
AcDbCircle
 10
15.78648363612096
 20
17.19070583661219
 30
0.0
 40
1.041564782661404
100
AcDbArc
 50
174.8136442862863
 51
219.4447242553142
  0
ARC
  5
89D
330
1F
100
AcDbEntity
  8
0
100
AcDbCircle
 10
10.936533119521
 20
19.44972467651712
 30
0.0
 40
0.3937078612204981
100
AcDbArc
 50
194.0482792474897
 51
270.0
  0
ARC
  5
89E
330
1F
100
AcDbEntity
  8
0
100
AcDbCircle
 10
9.964928785402847
 20
19.29224153204309
 30
0.0
 40
0.2362247167464718
100
AcDbArc
 50
270.0
 51
355.9143832155074
  0
ARC
  5
89F
330
1F
100
AcDbEntity
  8
0
100
AcDbCircle
 10
5.840451259974187
 20
19.29896653813455
 30
0.0
 40
0.2429641330110375
100
AcDbArc
 50
174.1815634242759
 51
269.3759731269154
  0
ARC
  5
8A0
330
1F
100
AcDbEntity
  8
0
100
AcDbCircle
 10
5.001544361248035
 20
19.29896653816747
 30
0.0
 40
0.2429641330441168
100
AcDbArc
 50
270.6240268760697
 51
5.818436567122932
  0
ARC
  5
8A1
330
1F
100
AcDbEntity
  8
0
100
AcDbCircle
 10
9.358079612324116
 20
9.213314238402588
 30
0.0
 40
4.685130757601633
100
AcDbArc
 50
179.8803677172982
 51
180.0
  0
ARC
  5
8A2
330
1F
100
AcDbEntity
  8
0
100
AcDbCircle
 10
5.42099781062943
 20
19.31090158488828
 30
0.0
 40
0.178193877776886
100
AcDbArc
 50
4.085616779995731
 51
175.9143832200042
  0
ARC
  5
8A3
330
1F
100
AcDbEntity
  8
0
100
AcDbCircle
 10
19.68398328842819
 20
10.10033948526192
 30
0.0
 40
0.19685393062206
100
AcDbArc
 50
356.5294635901063
 51
55.40690204509544
  0
ARC
  5
8A4
330
1F
100
AcDbEntity
  8
0
100
AcDbCircle
 10
3.885543345016955
 20
5.260988332511146
 30
0.0
 40
0.7874157224646181
100
AcDbArc
 50
356.5270488129101
 51
0.0
  0
ARC
  5
8A5
330
1F
100
AcDbEntity
  8
0
100
AcDbCircle
 10
17.66135983532883
 20
11.22515835062759
 30
0.0
 40
0.4370157259668305
100
AcDbArc
 50
270.0000000000033
 51
4.960147642893731
  0
ARC
  5
8A6
330
1F
100
AcDbEntity
  8
0
100
AcDbCircle
 10
19.68398328842819
 20
10.10033948526192
 30
0.0
 40
0.19685393062206
100
AcDbArc
 50
356.5294635901063
 51
55.40690204509544
  0
LINE
  5
8A7
330
1F
100
AcDbEntity
  8
0
100
AcDbLine
 10
54.17738631140891
 20
19.2145319557345
 30
0.0
 11
69.15828539738545
 21
19.2145319557345
 31
0.0
  0
LINE
  5
8A8
330
1F
100
AcDbEntity
  8
0
100
AcDbLine
 10
52.06136404047768
 20
30.82891386191632
 30
0.0
 11
71.27430766834034
 21
30.82891386191632
 31
0.0
  0
LINE
  5
8A9
330
1F
100
AcDbEntity
  8
0
100
AcDbLine
 10
4.293390592260735
 20
30.70976950760293
 30
0.0
 11
4.293390592260735
 21
30.98536501047381
 31
0.0
  0
LINE
  5
8AA
330
1F
100
AcDbEntity
  8
0
100
AcDbLine
 10
4.293390592260735
 20
30.70976950760293
 30
0.0
 11
4.411502950633988
 21
30.70976950760293
 31
0.0
  0
LINE
  5
8AB
330
1F
100
AcDbEntity
  8
0
100
AcDbLine
 10
53.58229687918072
 20
31.84814477305675
 30
0.0
 11
53.51835872252184
 21
30.95549093929709
 31
0.0
  0
LINE
  5
8AC
330
1F
100
AcDbEntity
  8
0
100
AcDbLine
 10
52.24290273527357
 20
32.34417730742276
 30
0.0
 11
53.60745481150253
 21
32.19929281449153
 31
0.0
  0
LINE
  5
8AD
330
1F
100
AcDbEntity
  8
0
100
AcDbLine
 10
10.6604341240144
 20
19.52846624876594
 30
0.0
 11
5.098168831401848
 21
19.52846624876594
 31
0.0
  0
LINE
  5
8AE
330
1F
100
AcDbEntity
  8
0
100
AcDbLine
 10
51.97474831100869
 20
30.73442397522724
 30
0.0
 11
52.07971082681553
 21
30.81316554747606
 31
0.0
  0
LINE
  5
8AF
330
1F
100
AcDbEntity
  8
0
100
AcDbLine
 10
51.94325168210442
 20
30.67143071744233
 30
0.0
 11
61.66783585440903
 21
30.67143071744233
 31
0.0
  0
LINE
  5
8B0
330
1F
100
AcDbEntity
  8
0
100
AcDbLine
 10
11.34861971712861
 20
31.04835826825873
 30
0.0
 11
11.24362964177056
 21
31.12709984050754
 31
0.0
  0
LINE
  5
8B1
330
1F
100
AcDbEntity
  8
0
100
AcDbLine
 10
4.324887221165012
 20
31.04835826825873
 30
0.0
 11
4.42984973697186
 21
31.12709984050754
 31
0.0
  0
LINE
  5
8B2
330
1F
100
AcDbEntity
  8
0
100
AcDbLine
 10
4.411502950633988
 20
30.70976950760293
 30
0.0
 11
4.662964161608228
 21
20.5074602164828
 31
0.0
  0
LINE
  5
8B3
330
1F
100
AcDbEntity
  8
0
100
AcDbLine
 10
52.64000251871022
 20
29.35250938232174
 30
0.0
 11
52.64000251871022
 21
29.9430711741643
 31
0.0
  0
LINE
  5
8B4
330
1F
100
AcDbEntity
  8
0
100
AcDbLine
 10
52.42107894958185
 20
29.35250938232174
 30
0.0
 11
52.42107894958185
 21
29.9430711741643
 31
0.0
  0
LINE
  5
8B5
330
1F
100
AcDbEntity
  8
0
100
AcDbLine
 10
52.46044973570629
 20
29.31313859619736
 30
0.0
 11
52.60063173258579
 21
29.31313859619736
 31
0.0
  0
LINE
  5
8B6
330
1F
100
AcDbEntity
  8
0
100
AcDbLine
 10
52.46044973570629
 20
29.98244196028874
 30
0.0
 11
52.60063173258579
 21
29.98244196028874
 31
0.0
  0
LINE
  5
8BB
330
1F
100
AcDbEntity
  8
0
100
AcDbLine
 10
52.01952970439847
 20
32.01688957745621
 30
0.0
 11
51.94355310548584
 21
30.95545906069948
 31
0.0
  0
LINE
  5
8BC
330
1F
100
AcDbEntity
  8
0
100
AcDbLine
 10
11.34074281952026
 20
31.1428481549478
 30
0.0
 11
10.90766409708097
 21
31.1428481549478
 31
0.0
  0
LINE
  5
8BD
330
1F
100
AcDbEntity
  8
0
100
AcDbLine
 10
10.90766409708097
 20
31.1428481549478
 30
0.0
 11
10.51395623586047
 21
31.1428481549478
 31
0.0
  0
LINE
  5
8BE
330
1F
100
AcDbEntity
  8
0
100
AcDbLine
 10
10.51395623586047
 20
31.1428481549478
 30
0.0
 11
4.411502950633988
 21
31.1428481549478
 31
0.0
  0
LINE
  5
8BF
330
1F
100
AcDbEntity
  8
0
100
AcDbLine
 10
54.17738631140891
 20
19.2145319557345
 30
0.0
 11
53.5180709908296
 21
19.2145319557345
 31
0.0
  0
ARC
  5
8C0
330
1F
100
AcDbEntity
  8
0
100
AcDbCircle
 10
54.17738631140891
 20
20.00196342649046
 30
0.0
 40
0.7874250599341318
100
AcDbArc
 50
202.3408367076984
 51
270.0
  0
ARC
  5
8C1
330
1F
100
AcDbEntity
  8
0
100
AcDbCircle
 10
6.20053976008937
 20
47.4642072470452
 30
0.0
 40
1.259837075021597
100
AcDbArc
 50
187.8816931406051
 51
276.4558623461013
  0
ARC
  5
8C2
330
1F
100
AcDbEntity
  8
0
100
AcDbCircle
 10
10.61321746870844
 20
48.04343025247085
 30
0.0
 40
0.4330764998452679
100
AcDbArc
 50
299.4780576773998
 51
354.218919634485
  0
ARC
  5
8C3
330
1F
100
AcDbEntity
  8
0
100
AcDbCircle
 10
5.098168831401848
 20
19.84343253773764
 30
0.0
 40
0.3149365257241138
100
AcDbArc
 50
198.8992847649998
 51
270.0
  0
ARC
  5
8C4
330
1F
100
AcDbEntity
  8
0
100
AcDbCircle
 10
61.66783585440903
 20
-164.4893986094963
 30
0.0
 40
196.8538002489113
100
AcDbArc
 50
90.0
 51
92.24411751251595
  0
ARC
  5
8C5
330
1F
100
AcDbEntity
  8
0
100
AcDbCircle
 10
52.06136404047768
 20
30.94702622028957
 30
0.0
 40
0.118112358373236
100
AcDbArc
 50
175.8912564968988
 51
270.0
  0
ARC
  5
8C6
330
1F
100
AcDbEntity
  8
0
100
AcDbCircle
 10
52.41223648640069
 20
31.98877722109053
 30
0.0
 40
0.3937117234883638
100
AcDbArc
 50
92.69960348832091
 51
175.9054020505006
  0
ARC
  5
8C7
330
1F
100
AcDbEntity
  8
0
100
AcDbCircle
 10
53.63619548538328
 20
30.94702622028957
 30
0.0
 40
0.118112358373236
100
AcDbArc
 50
175.8912564968988
 51
270.0
  0
ARC
  5
8C8
330
1F
100
AcDbEntity
  8
0
100
AcDbCircle
 10
53.97498109995247
 20
31.81999466098701
 30
0.0
 40
0.393733313618412
100
AcDbArc
 50
92.24069126539466
 51
175.8996868656945
  0
ARC
  5
8C9
330
1F
100
AcDbEntity
  8
0
100
AcDbCircle
 10
4.825211171215882
 20
32.52082566925499
 30
0.0
 40
0.3937227608206197
100
AcDbArc
 50
88.88849016901867
 51
171.4023758875977
  0
ARC
  5
8CA
330
1F
100
AcDbEntity
  8
0
100
AcDbCircle
 10
4.411502950633988
 20
31.26096051332105
 30
0.0
 40
0.118112358373236
100
AcDbArc
 50
176.1973566318985
 51
270.0
  0
ARC
  5
8CB
330
1F
100
AcDbEntity
  8
0
100
AcDbCircle
 10
6.20053976008937
 20
64.39364527978638
 30
0.0
 40
1.259861965050557
100
AcDbArc
 50
83.54413765389869
 51
172.1200804854032
  0
ARC
  5
8CC
330
1F
100
AcDbEntity
  8
0
100
AcDbCircle
 10
5.01425860342023
 20
57.94864759150836
 30
0.0
 40
11.81120085252742
100
AcDbArc
 50
276.4554326670961
 51
299.4774955408922
  0
ARC
  5
8CD
330
1F
100
AcDbEntity
  8
0
100
AcDbCircle
 10
61.66783585440903
 20
-164.2531738928206
 30
0.0
 40
196.8537731302647
100
AcDbArc
 50
90.0
 51
92.70030851321946
  0
ARC
  5
8CE
330
1F
100
AcDbEntity
  8
0
100
AcDbCircle
 10
67.35085105795445
 20
55.92892626341583
 30
0.0
 40
62.99323192614243
100
AcDbArc
 50
172.1189496801102
 51
187.8810857915098
  0
ARC
  5
8CF
330
1F
100
AcDbEntity
  8
0
100
AcDbCircle
 10
169.7995424573743
 20
38.44401131378545
 30
0.0
 40
118.1124930816831
100
AcDbArc
 50
183.7756739048972
 51
185.3897010835983
  0
ARC
  5
8D0
330
1F
100
AcDbEntity
  8
0
100
AcDbCircle
 10
52.02199325435328
 20
30.67143071744233
 30
0.0
 40
0.078741572248824
100
AcDbArc
 50
126.8698976458171
 51
183.7550090056008
  0
ARC
  5
8D1
330
1F
100
AcDbEntity
  8
0
100
AcDbCircle
 10
52.12695577016007
 20
30.75017228966756
 30
0.0
 40
0.078741572248824
100
AcDbArc
 50
90.0
 51
126.8698976458171
  0
ARC
  5
8D2
330
1F
100
AcDbEntity
  8
0
100
AcDbCircle
 10
55.75017047544061
 20
20.00196342649046
 30
0.0
 40
0.7874067267345777
100
AcDbArc
 50
202.5924948812045
 51
270.0
  0
ARC
  5
8D3
330
1F
100
AcDbEntity
  8
0
100
AcDbCircle
 10
10.6604341240144
 20
19.84343253773764
 30
0.0
 40
0.314966288971674
100
AcDbArc
 50
270.0
 51
339.4045543316902
  0
ARC
  5
8D4
330
1F
100
AcDbEntity
  8
0
100
AcDbCircle
 10
11.30137477378407
 20
30.98536501047381
 30
0.0
 40
0.078741572248824
100
AcDbArc
 50
359.9427042361945
 51
53.13010235418285
  0
ARC
  5
8D5
330
1F
100
AcDbEntity
  8
0
100
AcDbCircle
 10
11.19638469842603
 20
31.06410658269898
 30
0.0
 40
0.078741572248824
100
AcDbArc
 50
53.13010235418285
 51
90.0
  0
ARC
  5
8D6
330
1F
100
AcDbEntity
  8
0
100
AcDbCircle
 10
4.372132164509551
 20
30.98536501047381
 30
0.0
 40
0.078741572248824
100
AcDbArc
 50
126.8698976458862
 51
180.0
  0
ARC
  5
8D7
330
1F
100
AcDbEntity
  8
0
100
AcDbCircle
 10
4.477094680316398
 20
31.06410658269898
 30
0.0
 40
0.078741572248824
100
AcDbArc
 50
90.0
 51
126.8698976458171
  0
ARC
  5
8D8
330
1F
100
AcDbEntity
  8
0
100
AcDbCircle
 10
116.4484657778591
 20
33.48498520610954
 30
0.0
 40
62.99324685586061
100
AcDbArc
 50
182.5599322458973
 51
193.093417788028
  0
ARC
  5
8D9
330
1F
100
AcDbEntity
  8
0
100
AcDbCircle
 10
114.9239895684082
 20
33.26671356785052
 30
0.0
 40
62.99325872199435
100
AcDbArc
 50
185.3897168425046
 51
192.0254813563964
  0
ARC
  5
8DA
330
1F
100
AcDbEntity
  8
0
100
AcDbCircle
 10
7.221277843852489
 20
20.5705164675511
 30
0.0
 40
2.559094032415869
100
AcDbArc
 50
181.4119166625988
 51
198.9037510528998
  0
ARC
  5
8DB
330
1F
100
AcDbEntity
  8
0
100
AcDbCircle
 10
8.559742837200602
 20
20.63289554107621
 30
0.0
 40
2.559102457202171
100
AcDbArc
 50
339.4035023617071
 51
357.1671099259984
  0
ARC
  5
8DC
330
1F
100
AcDbEntity
  8
0
100
AcDbCircle
 10
-205.1590947250018
 20
31.20616985840651
 30
0.0
 40
216.5393236891794
100
AcDbArc
 50
357.1677252096058
 51
359.941554728201
  0
ARC
  5
8DD
330
1F
100
AcDbEntity
  8
0
100
AcDbCircle
 10
55.81605721860383
 20
20.67545703576827
 30
0.0
 40
2.559101097968667
100
AcDbArc
 50
192.0254788060012
 51
202.3426583475981
  0
ARC
  5
8DE
330
1F
100
AcDbEntity
  8
0
100
AcDbCircle
 10
57.58458316665515
 20
19.79815586476782
 30
0.0
 40
2.559101097968667
100
AcDbArc
 50
193.0896346521021
 51
193.1827749096956
  0
ARC
  5
8DF
330
1F
100
AcDbEntity
  8
0
100
AcDbCircle
 10
57.38592675129162
 20
20.68254570337832
 30
0.0
 40
2.559101097968667
100
AcDbArc
 50
192.2302707444999
 51
202.5911313419977
  0
ARC
  5
8E0
330
1F
100
AcDbEntity
  8
0
100
AcDbCircle
 10
5.01425860342023
 20
57.94864759150836
 30
0.0
 40
11.81120085252742
100
AcDbArc
 50
299.4774955408922
 51
300.5706615079895
  0
ARC
  5
8E1
330
1F
100
AcDbEntity
  8
0
100
AcDbCircle
 10
-67.29723748160551
 20
55.92892626341583
 30
0.0
 40
78.74156529228675
100
AcDbArc
 50
354.0592472783807
 51
354.2206339535961
  0
ARC
  5
8E2
330
1F
100
AcDbEntity
  8
0
100
AcDbCircle
 10
52.46044973570629
 20
29.35250938232174
 30
0.0
 40
0.039370786124412
100
AcDbArc
 50
180.0
 51
270.0
  0
ARC
  5
8E3
330
1F
100
AcDbEntity
  8
0
100
AcDbCircle
 10
52.60063173258579
 20
29.35250938232174
 30
0.0
 40
0.039370786124412
100
AcDbArc
 50
270.0
 51
0.0
  0
ARC
  5
8E4
330
1F
100
AcDbEntity
  8
0
100
AcDbCircle
 10
52.60063173258579
 20
29.9430711741643
 30
0.0
 40
0.039370786124412
100
AcDbArc
 50
0.0
 51
90.0
  0
ARC
  5
8E5
330
1F
100
AcDbEntity
  8
0
100
AcDbCircle
 10
52.46044973570629
 20
29.9430711741643
 30
0.0
 40
0.039370786124412
100
AcDbArc
 50
90.0
 51
180.0
  0
ARC
  5
8EA
330
1F
100
AcDbEntity
  8
0
100
AcDbCircle
 10
11.34074281952026
 20
31.26096051332105
 30
0.0
 40
0.118112358373236
100
AcDbArc
 50
270.0
 51
0.0
  0
ARC
  5
8EB
330
1F
100
AcDbEntity
  8
0
100
AcDbCircle
 10
0.7763535265930415
 20
-163.8976562036412
 30
0.0
 40
196.8539306133907
100
AcDbArc
 50
87.03791843988847
 51
88.81910498661396
  0
ARC
  5
8EC
330
1F
100
AcDbEntity
  8
0
100
AcDbCircle
 10
-4.220731731704645
 20
29.79681325720413
 30
0.0
 40
15.74831444907976
100
AcDbArc
 50
5.375018907794824
 51
9.382855762606274
  0
ARC
  5
8ED
330
1F
100
AcDbEntity
  8
0
100
AcDbCircle
 10
10.92844539631359
 20
32.30008627701024
 30
0.0
 40
0.3937078612204981
100
AcDbArc
 50
9.382855762698598
 51
87.03791843988847
  0
ARC
  5
8EE
330
1F
100
AcDbEntity
  8
0
100
AcDbCircle
 10
-67.29723748160551
 20
55.92892626341583
 30
0.0
 40
78.74156529228675
100
AcDbArc
 50
354.2206339535961
 51
0.0
  0
ARC
  5
8EF
330
1F
100
AcDbEntity
  8
0
100
AcDbCircle
 10
20.00741308662533
 20
30.22629625401591
 30
0.0
 40
15.74832953645116
100
AcDbArc
 50
171.3980503491925
 51
176.2043906960954
  0
ARC
  5
8F0
330
1F
100
AcDbEntity
  8
0
100
AcDbCircle
 10
114.9239895684082
 20
33.26671356785052
 30
0.0
 40
62.99325872199435
100
AcDbArc
 50
192.0254813563964
 51
192.8896700871042
  0
ARC
  5
8F1
330
1F
100
AcDbEntity
  8
0
100
AcDbCircle
 10
10.61321746870844
 20
63.81442227436078
 30
0.0
 40
0.4330764998452679
100
AcDbArc
 50
5.781080365514951
 51
60.52194232260053
  0
ARC
  5
8F2
330
1F
100
AcDbEntity
  8
0
100
AcDbCircle
 10
5.01425860342023
 20
53.90920493532327
 30
0.0
 40
11.81120085252742
100
AcDbArc
 50
60.52250445910786
 51
83.54456733290383
  0
ARC
  5
8F3
330
1F
100
AcDbEntity
  8
0
100
AcDbCircle
 10
5.01425860342023
 20
53.90920493532327
 30
0.0
 40
11.81120085252742
100
AcDbArc
 50
59.42933849201041
 51
60.52250445910786
  0
ARC
  5
8F4
330
1F
100
AcDbEntity
  8
0
100
AcDbCircle
 10
-67.29723748160551
 20
55.92892626341583
 30
0.0
 40
78.74156529228675
100
AcDbArc
 50
5.779366046403818
 51
5.940752721619302
  0
ARC
  5
8F5
330
1F
100
AcDbEntity
  8
0
100
AcDbCircle
 10
-67.29723748160551
 20
55.92892626341583
 30
0.0
 40
78.74156529228675
100
AcDbArc
 50
0.0
 51
5.779366046403818
  0
LINE
  5
8F6
330
1F
100
AcDbEntity
  8
0
100
AcDbLine
 10
71.27430766834042
 20
30.82891386191632
 30
0.0
 11
52.06136404047779
 21
30.82891386191632
 31
0.0
  0
LINE
  5
8F7
330
1F
100
AcDbEntity
  8
0
100
AcDbLine
 10
69.75337482963737
 20
31.84814477305675
 30
0.0
 11
69.81731298629624
 21
30.95549093929709
 31
0.0
  0
LINE
  5
8F8
330
1F
100
AcDbEntity
  8
0
100
AcDbLine
 10
71.09276897354451
 20
32.34417730742276
 30
0.0
 11
69.72821689731556
 21
32.19929281449153
 31
0.0
  0
LINE
  5
8F9
330
1F
100
AcDbEntity
  8
0
100
AcDbLine
 10
71.36092339780941
 20
30.73442397522724
 30
0.0
 11
71.25596088200254
 21
30.81316554747606
 31
0.0
  0
LINE
  5
8FA
330
1F
100
AcDbEntity
  8
0
100
AcDbLine
 10
71.39242002671368
 20
30.67143071744233
 30
0.0
 11
61.66783585440906
 21
30.67143071744233
 31
0.0
  0
LINE
  5
8FB
330
1F
100
AcDbEntity
  8
0
100
AcDbLine
 10
71.31614200441962
 20
32.01688957745621
 30
0.0
 11
71.39211860333226
 21
30.95545906069948
 31
0.0
  0
ARC
  5
8FC
330
1F
100
AcDbEntity
  8
0
100
AcDbCircle
 10
61.66783585440906
 20
-164.4893986094963
 30
0.0
 40
196.8538002489111
100
AcDbArc
 50
87.75588248748405
 51
90.0
  0
ARC
  5
8FD
330
1F
100
AcDbEntity
  8
0
100
AcDbCircle
 10
71.27430766834042
 20
30.94702622028957
 30
0.0
 40
0.118112358373236
100
AcDbArc
 50
270.0
 51
4.108743503101196
  0
ARC
  5
8FE
330
1F
100
AcDbEntity
  8
0
100
AcDbCircle
 10
70.9234352224174
 20
31.98877722109053
 30
0.0
 40
0.3937117234883637
100
AcDbArc
 50
4.094597949499232
 51
87.30039651167905
  0
ARC
  5
8FF
330
1F
100
AcDbEntity
  8
0
100
AcDbCircle
 10
69.69947622343481
 20
30.94702622028957
 30
0.0
 40
0.118112358373236
100
AcDbArc
 50
270.0
 51
4.108743503101196
  0
ARC
  5
900
330
1F
100
AcDbEntity
  8
0
100
AcDbCircle
 10
69.36069060886564
 20
31.81999466098701
 30
0.0
 40
0.393733313618412
100
AcDbArc
 50
4.100313134305368
 51
87.75930873460536
  0
ARC
  5
901
330
1F
100
AcDbEntity
  8
0
100
AcDbCircle
 10
61.66783585440906
 20
-164.2531738928206
 30
0.0
 40
196.8537731302647
100
AcDbArc
 50
87.29969148678049
 51
90.0
  0
ARC
  5
902
330
1F
100
AcDbEntity
  8
0
100
AcDbCircle
 10
-46.46387074855617
 20
38.44401131378545
 30
0.0
 40
118.1124930816831
100
AcDbArc
 50
354.6102989164017
 51
356.2243260951029
  0
ARC
  5
903
330
1F
100
AcDbEntity
  8
0
100
AcDbCircle
 10
71.31367845446479
 20
30.67143071744233
 30
0.0
 40
0.078741572248824
100
AcDbArc
 50
356.2449909943991
 51
53.13010235418285
  0
ARC
  5
904
330
1F
100
AcDbEntity
  8
0
100
AcDbCircle
 10
71.20871593865802
 20
30.75017228966756
 30
0.0
 40
0.078741572248824
100
AcDbArc
 50
53.13010235418285
 51
90.0
  0
ARC
  5
905
330
1F
100
AcDbEntity
  8
0
100
AcDbCircle
 10
6.887205930958983
 20
33.48498520610954
 30
0.0
 40
62.99324685586061
100
AcDbArc
 50
346.9065822119719
 51
357.4400677541027
  0
ARC
  5
906
330
1F
100
AcDbEntity
  8
0
100
AcDbCircle
 10
8.411682140409922
 20
33.26671356785052
 30
0.0
 40
62.99325872199434
100
AcDbArc
 50
347.9745186436036
 51
354.6102831574954
  0
LINE
  5
907
330
1F
100
AcDbEntity
  8
0
100
AcDbLine
 10
69.15828539740916
 20
19.2145319557345
 30
0.0
 11
69.81760071798847
 21
19.2145319557345
 31
0.0
  0
ARC
  5
908
330
1F
100
AcDbEntity
  8
0
100
AcDbCircle
 10
69.15828539740916
 20
20.00196342649046
 30
0.0
 40
0.7874250599341318
100
AcDbArc
 50
270.0
 51
337.6591632923022
  0
ARC
  5
909
330
1F
100
AcDbEntity
  8
0
100
AcDbCircle
 10
67.58550123337745
 20
20.00196342649046
 30
0.0
 40
0.7874067267345777
100
AcDbArc
 50
270.0
 51
337.4075051187956
  0
ARC
  5
90A
330
1F
100
AcDbEntity
  8
0
100
AcDbCircle
 10
67.51961449021424
 20
20.67545703576827
 30
0.0
 40
2.559101097968667
100
AcDbArc
 50
337.6573416524018
 51
347.9745211939987
  0
ARC
  5
90B
330
1F
100
AcDbEntity
  8
0
100
AcDbCircle
 10
65.75108854216292
 20
19.79815586476782
 30
0.0
 40
2.559101097968667
100
AcDbArc
 50
346.8172250903035
 51
346.9103653478978
  0
ARC
  5
90C
330
1F
100
AcDbEntity
  8
0
100
AcDbCircle
 10
65.94974495752643
 20
20.68254570337832
 30
0.0
 40
2.559101097968667
100
AcDbArc
 50
337.4088686580021
 51
347.7697292554993
  0
ARC
  5
90D
330
1F
100
AcDbEntity
  8
0
100
AcDbCircle
 10
8.411682140409865
 20
33.26671356785052
 30
0.0
 40
62.99325872199435
100
AcDbArc
 50
347.1103299128959
 51
347.9745186436036
  0
LINE
  5
1A51
330
1F
100
AcDbEntity
  8
GRS. GAMBAR
100
AcDbLine
 10
4.20132503107044
 20
17.79383709166125
 30
0.0
 11
19.01016147651836
 21
17.36775131769587
 31
0.0
  0
ARC
  5
1A56
330
1F
100
AcDbEntity
  8
GRS. GAMBAR
100
AcDbCircle
 10
10.51611957890874
 20
2.285438357125627
 30
0.0
 40
4.0874921874812
100
AcDbArc
 50
19.89601448234742
 51
89.87227855922133
1001
AcDbBlockRepETag
1070
     1
1071
     1403
1005
0
  0
ARC
  5
1A57
330
1F
100
AcDbEntity
  8
GRS. GAMBAR
100
AcDbCircle
 10
15.28017349164998
 20
4.133490755310418
 30
0.0
 40
1.027743225639935
100
AcDbArc
 50
206.4031248560713
 51
220.9590564471391
1001
AcDbBlockRepETag
1070
     1
1071
     1430
1005
0
  0
ARC
  5
1A58
330
1F
100
AcDbEntity
  8
GRS. GAMBAR
100
AcDbCircle
 10
10.60879609017514
 20
2.514114080630776
 30
0.0
 40
1.495242848311494
100
AcDbArc
 50
39.2313369847056
 51
93.20376647759792
1001
AcDbBlockRepETag
1070
     1
1071
     1583
1005
0
  0
ARC
  5
1A5A
330
1F
100
AcDbEntity
  8
GRS. GAMBAR
100
AcDbCircle
 10
8.626592286823903
 20
5.586324724197339
 30
0.0
 40
2.165133465000792
100
AcDbArc
 50
280.8343001609452
 51
294.0789569999342
1001
AcDbBlockRepETag
1070
     1
1071
     1585
1005
0
  0
LINE
  5
1A5B
330
1F
100
AcDbEntity
  8
GRS. GAMBAR
100
AcDbLine
 10
9.508319546370341
 20
3.608860894506193
 30
0.0
 11
10.28431377286734
 21
3.955637921285557
 31
0.0
1001
AcDbBlockRepETag
1070
     1
1071
     1587
1005
0
  0
ARC
  5
1A5D
330
1F
100
AcDbEntity
  8
GRS. GAMBAR
100
AcDbCircle
 10
10.52523123023833
 20
3.41652908731865
 30
0.0
 40
0.5904909450002162
100
AcDbArc
 50
90.0
 51
114.0789569999341
1001
AcDbBlockRepETag
1070
     1
1071
     1589
1005
0
  0
ARC
  5
1A5E
330
1F
100
AcDbEntity
  8
GRS. GAMBAR
100
AcDbCircle
 10
10.52523124407095
 20
3.499197789923329
 30
0.0
 40
2.873722599001052
100
AcDbArc
 50
90.0
 51
113.9412140002791
1001
AcDbBlockRepETag
1070
     1
1071
     1409
1005
0
  0
LINE
  5
1A5F
330
1F
100
AcDbEntity
  8
GRS. GAMBAR
100
AcDbLine
 10
8.510372909042768
 20
5.748847324712443
 30
0.0
 11
9.359077114399052
 21
6.125671903429434
 31
0.0
1001
AcDbBlockRepETag
1070
     1
1071
     1467
1005
0
  0
LINE
  5
1A60
330
1F
100
AcDbEntity
  8
GRS. GAMBAR
100
AcDbLine
 10
10.06702243340067
 20
3.45978498241962
 30
0.0
 11
11.24100177983417
 21
3.459784982419506
 31
0.0
  0
SPLINE
  5
1A6C
330
1F
100
AcDbEntity
  8
0
  6
Continuous
 62
     7
370
    25
100
AcDbSpline
210
0.0
220
0.0
230
1.0
 70
  1064
 71
     3
 72
    42
 73
    38
 74
    36
 42
0.0000000001
 43
0.0000000001
 44
0.0000000001
 12
0.0407834484149962
 22
-0.9991680090632312
 32
0.0
 13
0.8450620088060725
 23
0.5346683095832833
 33
0.0
 40
0.0
 40
0.0
 40
0.0
 40
0.0
 40
0.0827771422413747
 40
0.1598935371559527
 40
0.2306294189010753
 40
0.2946575419080823
 40
0.3510321370483587
 40
0.4003541165415275
 40
0.4448007815913984
 40
0.4866723771692402
 40
0.5282771358175527
 40
0.5703582897238631
 40
0.6124443173403812
 40
0.6541357549595456
 40
0.6953060373794275
 40
0.737572756560002
 40
0.7828886837257462
 40
0.8332030464746669
 40
0.8903075290710999
 40
0.9559182316496402
 40
1.029957470376692
 40
1.107491208468712
 40
1.184561796274551
 40
1.261210513311695
 40
1.339054602686275
 40
1.421034632913698
 40
1.510272399522166
 40
1.609725682332383
 40
1.720716378006567
 40
1.843662066028006
 40
1.979704091573274
 40
2.130999426357566
 40
2.300214305513668
 40
2.490152193448678
 40
2.704417548650011
 40
2.947557828953656
 40
3.225319799690007
 40
3.225319799690007
 40
3.225319799690007
 40
3.225319799690007
 10
7.470212628035795
 20
29.95533880492951
 30
0.0
 10
7.471337940472642
 20
29.92776938079309
 30
0.0
 10
7.477059651139669
 20
29.87459085067874
 30
0.0
 10
7.495113299816094
 20
29.79966344231991
 30
0.0
 10
7.520110724971676
 20
29.73341886082402
 30
0.0
 10
7.549592915667304
 20
29.67677312017695
 30
0.0
 10
7.581309819234642
 20
29.62978808618338
 30
0.0
 10
7.613587806246819
 20
29.59142420598681
 30
0.0
 10
7.646094791417112
 20
29.55989820988501
 30
0.0
 10
7.679492073646734
 20
29.5332670576571
 30
0.0
 10
7.71480751290924
 20
29.51069079853639
 30
0.0
 10
7.752059636617227
 20
29.49130830041936
 30
0.0
 10
7.791016864427128
 20
29.47566066019137
 30
0.0
 10
7.829872949349499
 20
29.46068179474161
 30
0.0
 10
7.869014460862207
 20
29.44626233316125
 30
0.0
 10
7.909513077246958
 20
29.43205340239519
 30
0.0
 10
7.953140558337167
 20
29.417571274419
 30
0.0
 10
8.001773600399445
 20
29.40249770185671
 30
0.0
 10
8.057249202494279
 20
29.38669620056663
 30
0.0
 10
8.120763071618371
 20
29.37031593425285
 30
0.0
 10
8.191329582530807
 20
29.35410823173276
 30
0.0
 10
8.266055997568795
 20
29.33907713405591
 30
0.0
 10
8.341982827510479
 20
29.32572593208204
 30
0.0
 10
8.418328589846197
 20
29.31429132542854
 30
0.0
 10
8.496596655963369
 20
29.30485203494439
 30
0.0
 10
8.579286627534774
 20
29.29731293241083
 30
0.0
 10
8.669367546782272
 20
29.29195751159088
 30
0.0
 10
8.769253488625
 20
29.28949710414281
 30
0.0
 10
8.880403250649143
 20
29.29107266760281
 30
0.0
 10
9.003569096480472
 20
29.29813963722112
 30
0.0
 10
9.139632465292617
 20
29.3124920620563
 30
0.0
 10
9.290000880948449
 20
29.33642863926642
 30
0.0
 10
9.456291761838201
 20
29.37296125342728
 30
0.0
 10
9.640070957393817
 20
29.42602244979742
 30
0.0
 10
9.842763785620554
 20
29.50063062487613
 30
0.0
 10
10.06555615408997
 20
29.60332418728044
 30
0.0
 10
10.21653881542596
 20
29.68966300909318
 30
0.0
 10
10.29478084507943
 20
29.73916651687989
 30
0.0
 11
7.470212628035795
 21
29.95533880492951
 31
0.0
 11
7.479083310144204
 21
29.8730383415251
 31
0.0
 11
7.497209546920629
 21
29.79808250182634
 31
0.0
 11
7.522248601503605
 21
29.73192654433308
 31
0.0
 11
7.551884372713146
 21
29.67516985661598
 31
0.0
 11
7.58347293354879
 21
29.62847662582646
 31
0.0
 11
7.615276046009483
 21
29.59077755821283
 31
0.0
 11
7.647202086496662
 21
29.55985452516518
 31
0.0
 11
7.679985903450841
 21
29.53380741664716
 31
0.0
 11
7.714982098325407
 21
29.51130803251146
 31
0.0
 11
7.752338937842495
 21
29.49193562803032
 31
0.0
 11
7.79116959539985
 21
29.47570560171482
 31
0.0
 11
7.830073447060811
 21
29.46071672928577
 31
0.0
 11
7.868706720086692
 21
29.44648780206546
 31
0.0
 11
7.9085913334861
 21
29.4324987647766
 31
0.0
 11
7.951602924052139
 21
29.41823214878434
 31
0.0
 11
7.999663335508074
 21
29.40334148226077
 31
0.0
 11
8.0545803051277
 21
29.38768746103927
 31
0.0
 11
8.118107267530803
 21
29.37128351819968
 31
0.0
 11
8.190263191396269
 21
29.35469040148212
 31
0.0
 11
8.266265807616917
 21
29.33935798907771
 31
0.0
 11
8.342174243251491
 21
29.32602438850438
 31
0.0
 11
8.417983313963731
 21
29.31471021062055
 31
0.0
 11
8.495266581382082
 21
29.30538289440949
 31
0.0
 11
8.576908424580295
 21
29.29794415827439
 31
0.0
 11
8.66598890181055
 21
29.2926481630235
 31
0.0
 11
8.765412043437635
 21
29.29019982262037
 31
0.0
 11
8.876391587280494
 21
29.29177315496611
 31
0.0
 11
8.999135367496336
 21
29.29881635178219
 31
0.0
 11
9.134427336145989
 21
29.31308225285295
 31
0.0
 11
9.283843135437081
 21
29.33685613031741
 31
0.0
 11
9.449120057305179
 21
29.37314957911496
 31
0.0
 11
9.631615110652973
 21
29.42579895495931
 31
0.0
 11
9.832712396881305
 21
29.49975518465738
 31
0.0
 11
10.05356583146883
 21
29.60144567751206
 31
0.0
 11
10.29478084507943
 21
29.73916651687989
 31
0.0
  0
SPLINE
  5
1A6D
330
1F
100
AcDbEntity
  8
0
  6
Continuous
 62
     7
370
    25
100
AcDbSpline
210
0.0
220
0.0
230
1.0
 70
  1064
 71
     3
 72
    36
 73
    32
 74
    30
 42
0.0000000001
 43
0.0000000001
 44
0.0000000001
 12
-0.9997445968974481
 22
0.022599579074821
 32
0.0
 13
0.0406741830382041
 23
-0.9991724630083512
 33
0.0
 40
0.0
 40
0.0
 40
0.0
 40
0.0
 40
0.1476242325429929
 40
0.2791130116478107
 40
0.3964452179161499
 40
0.5015316611471241
 40
0.5961689317314561
 40
0.6818919887132778
 40
0.7593782253096211
 40
0.8292956203500448
 40
0.8922644845779601
 40
0.9482816581892233
 40
0.9972801072605568
 40
1.040601906803794
 40
1.080460526260013
 40
1.119115672313367
 40
1.157945643923749
 40
1.196699176618999
 40
1.235284913774204
 40
1.274100478743498
 40
1.313282840894907
 40
1.352512622434095
 40
1.39166191964948
 40
1.430641123746464
 40
1.469952153614805
 40
1.510268565981031
 40
1.551791163807669
 40
1.594232935904038
 40
1.637255339241094
 40
1.680411290042107
 40
1.723261788657005
 40
1.723261788657005
 40
1.723261788657005
 40
1.723261788657005
 10
8.766622879587856
 20
30.83827305430043
 30
0.0
 10
8.717427369969193
 20
30.83938513613933
 30
0.0
 10
8.624238768298392
 20
30.83691213371654
 30
0.0
 10
8.492890672225497
 20
30.82099883615697
 30
0.0
 10
8.377234495805687
 20
30.79714363421501
 30
0.0
 10
8.275499156700639
 20
30.76821380219196
 30
0.0
 10
8.185806977681966
 20
30.73627734981638
 30
0.0
 10
8.106605563861251
 20
30.70278550195701
 30
0.0
 10
8.03666191796762
 20
30.66885465582998
 30
0.0
 10
7.975019817953178
 20
30.63537773325747
 30
0.0
 10
7.920942391144684
 20
30.6030898105212
 30
0.0
 10
7.873916284849564
 20
30.57267355524504
 30
0.0
 10
7.833251825839012
 20
30.54453193442066
 30
0.0
 10
7.797690373471586
 20
30.51851235275085
 30
0.0
 10
7.765485384792473
 20
30.49376487017543
 30
0.0
 10
7.735006227420006
 20
30.46924495907296
 30
0.0
 10
7.705359410570432
 20
30.44429398634043
 30
0.0
 10
7.676273127417706
 20
30.41872473113335
 30
0.0
 10
7.647827335176678
 20
30.39245623383616
 30
0.0
 10
7.619623232896951
 20
30.36571369789503
 30
0.0
 10
7.592903687430941
 20
30.33714206728695
 30
0.0
 10
7.568807878603839
 20
30.30617261249621
 30
0.0
 10
7.547355737735637
 20
30.27341173632597
 30
0.0
 10
7.528531076368239
 20
30.23904446410815
 30
0.0
 10
7.512170333700378
 20
30.20301382049521
 30
0.0
 10
7.498207715774655
 20
30.16508280474151
 30
0.0
 10
7.48674878427516
 20
30.12523413116091
 30
0.0
 10
7.478023021160934
 20
30.08377695945633
 30
0.0
 10
7.47221070724357
 20
30.04126188129809
 30
0.0
 10
7.469449517057884
 20
29.99830590274945
 30
0.0
 10
7.469631658361149
 20
29.96961048434357
 30
0.0
 10
7.470212628035795
 20
29.95533880492951
 30
0.0
 11
8.766622879587856
 21
30.83827305430043
 31
0.0
 11
8.619051399658445
 21
30.83432687319066
 31
0.0
 11
8.488514241887031
 21
30.81853606980906
 31
0.0
 11
8.373599202578105
 21
30.79484260302127
 31
0.0
 11
8.272514426214428
 21
30.76611929300236
 31
0.0
 11
8.183356161774526
 21
30.73438576395631
 31
0.0
 11
8.104397009737084
 21
30.70101070129215
 31
0.0
 11
8.034676622280557
 21
30.66719969073677
 31
0.0
 11
7.97323188432253
 21
30.63383824133018
 31
0.0
 11
7.919163171696226
 21
30.60156360458416
 31
0.0
 11
7.872124995722487
 21
30.57114430576814
 31
0.0
 11
7.831828143752744
 21
30.54326937558483
 31
0.0
 11
7.796864881312529
 21
30.51768913721219
 31
0.0
 11
7.76526012773499
 21
30.49340232811221
 31
0.0
 11
7.735142102610069
 21
30.46917166821652
 31
0.0
 11
7.705430725659851
 21
30.44417165271682
 31
0.0
 11
7.676337589476105
 21
30.41857036908971
 31
0.0
 11
7.647940823695506
 21
30.392445997231
 31
0.0
 11
7.619982264653543
 21
30.36552078487932
 31
0.0
 11
7.593364135933342
 21
30.33676782455871
 31
0.0
 11
7.569226723520358
 21
30.30584273633542
 31
0.0
 11
7.547766024787705
 21
30.27309970833915
 31
0.0
 11
7.52901803477377
 21
30.23892528482577
 31
0.0
 11
7.512749381043676
 21
30.20313858373277
 31
0.0
 11
7.498804501389685
 21
30.16531063853984
 31
0.0
 11
7.487315837143313
 21
30.12540905055005
 31
0.0
 11
7.478558731107085
 21
30.0838805409145
 31
0.0
 11
7.472727700265267
 21
30.04125512281428
 31
0.0
 11
7.469952243854521
 21
29.99818851241537
 31
0.0
 11
7.470212628035795
 21
29.95533880492951
 31
0.0
  0
SPLINE
  5
1A6E
330
1F
100
AcDbEntity
  8
0
  6
Continuous
 62
     7
370
    25
100
AcDbSpline
210
0.0
220
0.0
230
1.0
 70
  1064
 71
     3
 72
    51
 73
    47
 74
    45
 42
0.0000000001
 43
0.0000000001
 44
0.0000000001
 12
-0.0475170825197597
 22
0.9988704254650905
 32
0.0
 13
-0.7300189882222408
 23
0.6834268628280397
 33
0.0
 40
0.0
 40
0.0
 40
0.0
 40
0.0
 40
0.0170274754386519
 40
0.0335794946323075
 40
0.0497328656707671
 40
0.065593794467438
 40
0.0814063775057174
 40
0.09739100634373
 40
0.1131825680755492
 40
0.1279918759466175
 40
0.1419318698730977
 40
0.1555103692924404
 40
0.1691450466794548
 40
0.1831893901347442
 40
0.1975849985136147
 40
0.2118858495840052
 40
0.2260179877436556
 40
0.2401300039362516
 40
0.2547634382205871
 40
0.2705617052428241
 40
0.2881169065883618
 40
0.3077722079606926
 40
0.329608319636626
 40
0.3537050808994061
 40
0.3801355856889427
 40
0.4089646368000234
 40
0.4402593502846788
 40
0.4741449512202946
 40
0.510923342123116
 40
0.5509334342914213
 40
0.5945259363387368
 40
0.6420694526593769
 40
0.693942830011333
 40
0.750622973842201
 40
0.8126332757141991
 40
0.8805882063656101
 40
0.9551728931960109
 40
1.037184503926496
 40
1.12754979493397
 40
1.227342458311693
 40
1.337819895014005
 40
1.460464080506198
 40
1.597030238013593
 40
1.749610162156526
 40
1.920714120409252
 40
2.113049876738699
 40
2.113049876738699
 40
2.113049876738699
 40
2.113049876738699
 10
10.64481112657492
 20
30.06680264580575
 30
0.0
 10
10.64454142792308
 20
30.07247205968442
 30
0.0
 10
10.64335679287275
 20
30.08363277597439
 30
0.0
 10
10.63970116748701
 20
30.0998385600602
 30
0.0
 10
10.63430831148326
 20
30.11514310160746
 30
0.0
 10
10.62722910791644
 20
30.12947169094528
 30
0.0
 10
10.61841672636107
 20
30.14274569463377
 30
0.0
 10
10.60786479049056
 20
30.15466162788513
 30
0.0
 10
10.59589624019763
 20
30.16466582799671
 30
0.0
 10
10.58302249689317
 20
30.17218366471924
 30
0.0
 10
10.56993928768261
 20
30.17756129817564
 30
0.0
 10
10.55668435574847
 20
30.18122090813273
 30
0.0
 10
10.5430359396213
 20
30.18320088682422
 30
0.0
 10
10.52896838904268
 20
30.18333747524782
 30
0.0
 10
10.51479377922287
 20
30.18181991306471
 30
0.0
 10
10.50055718303404
 20
30.18076582836231
 30
0.0
 10
10.48641380124438
 20
30.17972116991536
 30
0.0
 10
10.47215122885613
 20
30.17879432343788
 30
0.0
 10
10.45732838205672
 20
30.17793003603176
 30
0.0
 10
10.4413530008629
 20
30.17712194415357
 30
0.0
 10
10.42369898080817
 20
30.17637511927198
 30
0.0
 10
10.40402722787144
 20
30.17572434594652
 30
0.0
 10
10.38216981313089
 20
30.17522406833262
 30
0.0
 10
10.35804978402453
 20
30.17494196100732
 30
0.0
 10
10.33159695228668
 20
30.17495803218752
 30
0.0
 10
10.30274743684254
 20
30.17536401138638
 30
0.0
 10
10.27142268592545
 20
30.17626361792267
 30
0.0
 10
10.23746864396728
 20
30.1777773501796
 30
0.0
 10
10.20064551845172
 20
30.18005200991777
 30
0.0
 10
10.16064528334566
 20
30.18327034411224
 30
0.0
 10
10.11714711501038
 20
30.18765481191216
 30
0.0
 10
10.06982960276293
 20
30.19347343390352
 30
0.0
 10
10.01834661699362
 20
30.20105101549667
 30
0.0
 10
9.96232378926707
 20
30.21078077165531
 30
0.0
 10
9.901340496104216
 20
30.22314447366795
 30
0.0
 10
9.834949511685275
 20
30.23872520452024
 30
0.0
 10
9.762670183768022
 20
30.25823151364757
 30
0.0
 10
9.683996781090225
 20
30.2825282436828
 30
0.0
 10
9.598401727201737
 20
30.31267316114156
 30
0.0
 10
9.505345145656079
 20
30.34994748109798
 30
0.0
 10
9.404295902531629
 20
30.39591565611017
 30
0.0
 10
9.294757794213989
 20
30.45248804126959
 30
0.0
 10
9.176307768665925
 20
30.52198892492732
 30
0.0
 10
9.048643308867864
 20
30.60723845177375
 30
0.0
 10
8.91177043178356
 20
30.71159913010178
 30
0.0
 10
8.820491246001703
 20
30.79142954256328
 30
0.0
 10
8.773688327923508
 20
30.83524535008257
 30
0.0
 11
10.64481112657492
 21
30.06680264580575
 31
0.0
 11
10.64300995928212
 21
30.08373458946846
 31
0.0
 11
10.63935743124372
 21
30.09987857839053
 31
0.0
 11
10.63397446537735
 21
30.11510864977538
 31
0.0
 11
10.62692894287394
 21
30.12931884593684
 31
0.0
 11
10.61815897769767
 21
30.14247656204373
 31
0.0
 11
10.6075390698879
 21
30.15442335731279
 31
0.0
 11
10.59538215987751
 21
30.16450219459341
 31
0.0
 11
10.58261820542199
 21
30.17201199261183
 31
0.0
 11
10.56973578629728
 21
30.17733803318299
 31
0.0
 11
10.55664335205571
 21
30.18093856260396
 31
0.0
 11
10.54314770403513
 21
30.18288070367828
 31
0.0
 11
10.52910460379504
 21
30.18306756923687
 31
0.0
 11
10.51475681139683
 21
30.18189522376918
 31
0.0
 11
10.50050092319335
 21
30.18076208967853
 31
0.0
 11
10.48640568901871
 21
30.17974145138544
 31
0.0
 11
10.47232372771802
 21
30.17882092602133
 31
0.0
 11
10.4577150155537
 21
30.17797067437971
 31
0.0
 11
10.44193694381326
 21
30.17717211751926
 31
0.0
 11
10.4243974306714
 21
30.17643011143503
 31
0.0
 11
10.40475288428021
 21
30.1757799813546
 31
0.0
 11
10.38292249688581
 21
30.17528002202209
 31
0.0
 11
10.35882738384268
 21
30.17499818732915
 31
0.0
 11
10.33239688395312
 21
30.17501428136086
 31
0.0
 11
10.30357068631016
 21
30.17541988882442
 31
0.0
 11
10.27228886605096
 21
30.17631811672266
 31
0.0
 11
10.23843688166968
 21
30.17782712441579
 31
0.0
 11
10.20172844775899
 21
30.18009448350188
 31
0.0
 11
10.1618471975523
 21
30.18330280974272
 31
0.0
 11
10.11847440728658
 21
30.18767399943329
 31
0.0
 11
10.07128623269952
 21
30.19347590629843
 31
0.0
 11
10.01996560082031
 21
30.20102839075173
 31
0.0
 11
9.964121157935068
 21
30.21072565343377
 31
0.0
 11
9.903346784736612
 21
30.223044464277
 31
0.0
 11
9.837188408982427
 21
30.23856676814614
 31
0.0
 11
9.765178659813244
 21
30.25799539481352
 31
0.0
 11
9.686816924037856
 21
30.28218925066324
 31
0.0
 11
9.601579493310936
 21
30.31219702002284
 31
0.0
 11
9.508936776997842
 21
30.34929018351898
 31
0.0
 11
9.408367417429388
 21
30.395018379813
 31
0.0
 11
9.299384950824759
 21
30.45127154157138
 31
0.0
 11
9.181576232542255
 21
30.52034701676314
 31
0.0
 11
9.054654188691046
 21
30.60503130123255
 31
0.0
 11
8.918537428025246
 21
30.70870768232101
 31
0.0
 11
8.773688327923508
 21
30.83524535008257
 31
0.0
  0
SPLINE
  5
1A6F
330
1F
100
AcDbEntity
  8
0
  6
Continuous
 62
     7
370
    25
100
AcDbSpline
210
0.0
220
0.0
230
1.0
 70
  1064
 71
     3
 72
    25
 73
    21
 74
    19
 42
0.0000000001
 43
0.0000000001
 44
0.0000000001
 12
0.8450620088045152
 22
0.5346683095857445
 32
0.0
 13
-0.0475170776836197
 23
0.9988704256951493
 33
0.0
 40
0.0
 40
0.0
 40
0.0
 40
0.0
 40
0.044181994078763
 40
0.0848350118865245
 40
0.122326991320475
 40
0.156995591675815
 40
0.189106760570521
 40
0.2186788362801768
 40
0.2456759846136129
 40
0.2703107693447999
 40
0.2933081981420867
 40
0.3154465978542358
 40
0.3374662184118897
 40
0.3595370571107816
 40
0.3815717117379504
 40
0.4037104734208718
 40
0.4262930365351835
 40
0.4494986431862469
 40
0.473235662708113
 40
0.4975073909600189
 40
0.4975073909600189
 40
0.4975073909600189
 40
0.4975073909600189
 10
10.29478084507943
 20
29.73916651687989
 30
0.0
 10
10.30722635330249
 20
29.74704075424263
 30
0.0
 10
10.33101649223471
 20
29.76232976415789
 30
0.0
 10
10.36503637325387
 20
29.78481035110146
 30
0.0
 10
10.39616733727401
 20
29.80590597259931
 30
0.0
 10
10.42472497042926
 20
29.82571943499159
 30
0.0
 10
10.45092364624365
 20
29.84429854649617
 30
0.0
 10
10.4748710051244
 20
29.86162915199903
 30
0.0
 10
10.49665758608331
 20
29.87769279190858
 30
0.0
 10
10.51655837770262
 20
29.8926194748479
 30
0.0
 10
10.53505780277264
 20
29.9067146158926
 30
0.0
 10
10.55275892702134
 20
29.92041652793229
 30
0.0
 10
10.57013584702505
 20
29.93403717315048
 30
0.0
 10
10.587323337837
 20
29.94782335219617
 30
0.0
 10
10.60469521649732
 20
29.96150670070083
 30
0.0
 10
10.61972690239764
 20
29.97809542557801
 30
0.0
 10
10.63162052737366
 20
29.99751518359664
 30
0.0
 10
10.63995935826598
 20
30.01926857059008
 30
0.0
 10
10.64464895832084
 20
30.04264214732861
 30
0.0
 10
10.64519556710721
 20
30.05872120862864
 30
0.0
 10
10.64481112657492
 20
30.06680264580575
 30
0.0
 11
10.29478084507943
 21
29.73916651687989
 31
0.0
 11
10.33195268291521
 21
29.76304753596799
 31
0.0
 11
10.36586988843871
 21
29.78545938610034
 31
0.0
 11
10.39690606008068
 21
29.80649280169757
 31
0.0
 11
10.42538992362958
 21
29.82625593322893
 31
0.0
 11
10.45158286328066
 21
29.84483164533424
 31
0.0
 11
10.47553933784817
 21
29.86216932072841
 31
0.0
 11
10.49726834732152
 21
29.87819106112841
 31
0.0
 11
10.51697569147424
 21
29.89297257678811
 31
0.0
 11
10.53526726791867
 21
29.90691172893105
 31
0.0
 11
10.55277683362462
 21
29.92045882642845
 31
0.0
 11
10.5700954322169
 21
29.93405771727669
 31
0.0
 11
10.58735832169392
 21
29.94780961052004
 31
0.0
 11
10.60426050799967
 21
29.96194616252626
 31
0.0
 11
10.61907812511842
 21
29.97839496162453
 31
0.0
 11
10.63089714288432
 21
29.9976376998876
 31
0.0
 11
10.63927515487873
 21
30.01927815032343
 31
0.0
 11
10.64397451291003
 21
30.04254534031009
 31
0.0
 11
10.64481112657492
 21
30.06680264580575
 31
0.0
  0
VIEWPORT
  5
220
102
{ACAD_XDICTIONARY
360
1AB5
102
}
330
58
100
AcDbEntity
 67
     1
  8
0
100
AcDbViewport
 10
133.1884465048756
 20
109.1175889154594
 30
0.0
 40
445.1415534398289
 41
249.3387543209733
 68
     1
 69
     1
 12
133.1884465048756
 22
109.1175889154594
 13
0.0
 23
0.0
 14
0.5
 24
0.5
 15
0.5
 25
0.5
 16
0.0
 26
0.0
 36
1.0
 17
0.0
 27
0.0
 37
0.0
 42
50.0
 43
0.0
 44
0.0
 45
249.3387543209733
 50
0.0
 51
0.0
 72
  1000
 90
    32800
  1

281
     0
 71
     1
 74
     0
110
0.0
120
0.0
130
0.0
111
1.0
121
0.0
131
0.0
112
0.0
122
1.0
132
0.0
 79
     0
146
0.0
  0
ENDSEC
  0
SECTION
  2
OBJECTS
  0
DICTIONARY
  5
C
330
0
100
AcDbDictionary
281
     1
  3
ACAD_2007HEADERVARS_RT
350
1AAF
  3
ACAD_CIP_PREVIOUS_PRODUCT_INFO
350
1AA2
  3
ACAD_COLOR
350
73
  3
ACAD_GROUP
350
D
  3
ACAD_LAYOUT
350
1A
  3
ACAD_MATERIAL
350
72
  3
ACAD_MLEADERSTYLE
350
1A99
  3
ACAD_MLINESTYLE
350
17
  3
ACAD_PLOTSETTINGS
350
19
  3
ACAD_PLOTSTYLENAME
350
E
  3
ACAD_SCALELIST
350
1A87
  3
ACAD_TABLESTYLE
350
86
  3
ACAD_VISUALSTYLE
350
934
  3
ACDB_RECOMPOSE_DATA
350
1AAD
  3
AcDbVariableDictionary
350
66
  3
ASE_INDEX_DICTIONARY
350
1AA3
  3
DWGPROPS
350
1AAE
  0
DICTIONARY
  5
1D0
330
2
100
AcDbDictionary
280
     1
281
     1
  3
ACAD_LAYERSTATES
360
1D1
  0
DICTIONARY
  5
1A54
330
1F
100
AcDbDictionary
280
     1
281
     1
  3
ACAD_SORTENTS
360
1A55
  0
DICTIONARY
  5
1AB5
330
220
100
AcDbDictionary
280
     1
281
     1
  3
ACAD_XREC_ROUNDTRIP
360
1AB6
  0
DICTIONARY
  5
1AAF
102
{ACAD_REACTORS
330
C
102
}
330
C
100
AcDbDictionary
281
     1
  3
DIMFXL
350
1AB0
  0
XRECORD
  5
1AA2
102
{ACAD_REACTORS
330
C
102
}
330
C
100
AcDbXrecord
280
     1
300
ACD
300
2012
300
85730ACD_2012_0F
  0
DICTIONARY
  5
73
102
{ACAD_REACTORS
330
C
102
}
330
C
100
AcDbDictionary
281
     1
  0
DICTIONARY
  5
D
102
{ACAD_REACTORS
330
C
102
}
330
C
100
AcDbDictionary
281
     1
  0
DICTIONARY
  5
1A
102
{ACAD_REACTORS
330
C
102
}
330
C
100
AcDbDictionary
281
     1
  3
Layout1
350
59
  3
Model
350
22
  0
DICTIONARY
  5
72
102
{ACAD_REACTORS
330
C
102
}
330
C
100
AcDbDictionary
281
     1
  3
ByBlock
350
932
  3
ByLayer
350
931
  3
Global
350
933
  0
DICTIONARY
  5
1A99
102
{ACAD_REACTORS
330
C
102
}
330
C
100
AcDbDictionary
281
     1
  3
Standard
350
1A9A
  0
DICTIONARY
  5
17
102
{ACAD_REACTORS
330
C
102
}
330
C
100
AcDbDictionary
281
     1
  3
Standard
350
18
  0
DICTIONARY
  5
19
102
{ACAD_REACTORS
330
C
102
}
330
C
100
AcDbDictionary
281
     1
  0
ACDBDICTIONARYWDFLT
  5
E
102
{ACAD_REACTORS
330
C
102
}
330
C
100
AcDbDictionary
281
     1
  3
Normal
350
F
100
AcDbDictionaryWithDefault
340
F
  0
DICTIONARY
  5
1A87
102
{ACAD_REACTORS
330
C
102
}
330
C
100
AcDbDictionary
281
     1
  3
A0
350
1A88
  3
A1
350
1A89
  3
A2
350
1A8A
  3
A3
350
1A8B
  3
A4
350
1A8C
  3
A5
350
1A8D
  3
A6
350
1A8E
  3
A7
350
1A8F
  3
A8
350
1A90
  3
A9
350
1A91
  3
B0
350
1A92
  3
B1
350
1A93
  3
B2
350
1A94
  3
B3
350
1A95
  3
B4
350
1A96
  3
B5
350
1A97
  3
B6
350
1A98
  0
DICTIONARY
  5
86
102
{ACAD_REACTORS
330
C
102
}
330
C
100
AcDbDictionary
281
     1
  3
Standard
350
87
  0
DICTIONARY
  5
934
102
{ACAD_REACTORS
330
C
102
}
330
C
100
AcDbDictionary
281
     1
  3
2dWireframe
350
93A
  3
3D Hidden
350
93C
  3
3dWireframe
350
93B
  3
Basic
350
939
  3
Brighten
350
940
  3
ColorChange
350
944
  3
Conceptual
350
93D
  3
Dim
350
93F
  3
EdgeColorOff
350
1A86
  3
Facepattern
350
943
  3
Flat
350
935
  3
FlatWithEdges
350
936
  3
Gouraud
350
937
  3
GouraudWithEdges
350
938
  3
Hidden
350
1A7E
  3
JitterOff
350
1A84
  3
Linepattern
350
942
  3
OverhangOff
350
1A85
  3
Realistic
350
93E
  3
Shaded
350
1A83
  3
Shaded with edges
350
1A82
  3
Shades of Gray
350
1A7F
  3
Sketchy
350
1A80
  3
Thicken
350
941
  3
Wireframe
350
1A7D
  3
X-Ray
350
1A81
  0
XRECORD
  5
1AAD
102
{ACAD_REACTORS
330
C
102
}
330
C
100
AcDbXrecord
280
     1
 90
        1
330
87
  0
DICTIONARY
  5
66
102
{ACAD_REACTORS
330
C
102
}
330
C
100
AcDbDictionary
281
     1
  3
CANNOSCALE
350
1AA6
  3
CMLEADERSTYLE
350
1AA5
  3
CTABLESTYLE
350
1FB
  3
DIMASSOC
350
67
  3
HIDETEXT
350
6B
  3
INDEXCTL
350
94B
  3
SORTENTS
350
94A
  3
XCLIPFRAME
350
1AA7
  0
DICTIONARY
  5
1AA3
102
{ACAD_REACTORS
330
C
102
}
330
C
100
AcDbDictionary
281
     1
  3
ASEBlockHierarchyIndexRecord
350
1AA4
1001
DCO15
1040
1756025350.642
  0
XRECORD
  5
1AAE
102
{ACAD_REACTORS
330
C
102
}
330
C
100
AcDbXrecord
280
     1
  1
DWGPROPS COOKIE
  2

  3

  4

  6

  7

  8
jgayle
  9

300
=
301
=
302
=
303
=
304
=
305
=
306
=
307
=
308
=
309
=
 40
0.0520282638888889
 41
2454617.709509595
 42
2456127.579336135
  1

 90
        0
  0
DICTIONARY
  5
1D1
102
{ACAD_REACTORS
330
1D0
102
}
330
1D0
100
AcDbDictionary
281
     1
  0
SORTENTSTABLE
  5
1A55
102
{ACAD_REACTORS
330
1A54
102
}
330
1A54
100
AcDbSortentsTable
330
1F
331
83E
  5
83E
331
8B4
  5
8B4
331
875
  5
875
331
836
  5
836
331
8EF
  5
8EF
331
8B0
  5
8B0
331
8EB
  5
8EB
331
8AC
  5
8AC
331
871
  5
871
331
8A8
  5
8A8
331
86D
  5
86D
331
82E
  5
82E
331
869
  5
869
331
8E3
  5
8E3
331
8A4
  5
8A4
331
82A
  5
82A
331
865
  5
865
331
826
  5
826
331
8A0
  5
8A0
331
8DF
  5
8DF
331
861
  5
861
331
89C
  5
89C
331
8DB
  5
8DB
331
822
  5
822
331
898
  5
898
331
90A
  5
90A
331
906
  5
906
331
902
  5
902
331
1A51
  5
1A50
331
85D
  5
85D
331
81E
  5
81E
331
8D7
  5
8D7
331
859
  5
859
331
8D3
  5
8D3
331
894
  5
894
331
81A
  5
81A
331
8CF
  5
8CF
331
816
  5
816
331
855
  5
855
331
890
  5
890
331
812
  5
812
331
851
  5
851
331
8CB
  5
8CB
331
88C
  5
88C
331
8FE
  5
8FE
331
8FA
  5
8FA
331
8F6
  5
8F6
331
8F2
  5
8F2
331
8C7
  5
8C7
331
84D
  5
84D
331
849
  5
849
331
8C3
  5
8C3
331
884
  5
884
331
880
  5
880
331
8BF
  5
8BF
331
845
  5
845
331
841
  5
841
331
87C
  5
87C
331
8BB
  5
8BB
331
878
  5
878
331
83D
  5
83D
331
839
  5
839
331
8B3
  5
8B3
331
874
  5
874
331
8EE
  5
8EE
331
8AF
  5
8AF
331
835
  5
835
331
870
  5
870
331
8EA
  5
8EA
331
8AB
  5
8AB
331
86C
  5
86C
331
8A7
  5
8A7
331
82D
  5
82D
331
868
  5
868
331
8E2
  5
8E2
331
8A3
  5
8A3
331
8DE
  5
8DE
331
89F
  5
89F
331
825
  5
825
331
864
  5
864
331
821
  5
821
331
860
  5
860
331
8DA
  5
8DA
331
89B
  5
89B
331
90D
  5
90D
331
909
  5
909
331
905
  5
905
331
901
  5
901
331
85C
  5
85C
331
8D6
  5
8D6
331
897
  5
897
331
81D
  5
81D
331
858
  5
858
331
819
  5
819
331
8D2
  5
8D2
331
893
  5
893
331
854
  5
854
331
88F
  5
88F
331
8CE
  5
8CE
331
815
  5
815
331
850
  5
850
331
8CA
  5
8CA
331
8FD
  5
8FD
331
8F9
  5
8F9
331
8F5
  5
8F5
331
8F1
  5
8F1
331
8C6
  5
8C6
331
84C
  5
84C
331
848
  5
848
331
8C2
  5
8C2
331
883
  5
883
331
8BE
  5
8BE
331
87F
  5
87F
331
844
  5
844
331
840
  5
840
331
87B
  5
87B
331
8B6
  5
8B6
331
83C
  5
83C
331
877
  5
877
331
838
  5
838
331
8B2
  5
8B2
331
873
  5
873
331
8ED
  5
8ED
331
8AE
  5
8AE
331
834
  5
834
331
830
  5
830
331
8AA
  5
8AA
331
86F
  5
86F
331
86B
  5
86B
331
8E5
  5
8E5
331
8A6
  5
8A6
331
82C
  5
82C
331
867
  5
867
331
828
  5
828
331
8A2
  5
8A2
331
8E1
  5
8E1
331
863
  5
863
331
89E
  5
89E
331
8DD
  5
8DD
331
824
  5
824
331
820
  5
820
331
89A
  5
89A
331
8D9
  5
8D9
331
90C
  5
90C
331
908
  5
908
331
904
  5
904
331
900
  5
900
331
85F
  5
85F
331
85B
  5
85B
331
8D5
  5
8D5
331
896
  5
896
331
81C
  5
81C
331
818
  5
818
331
857
  5
857
331
8D1
  5
8D1
331
892
  5
892
331
8CD
  5
8CD
331
88E
  5
88E
331
814
  5
814
331
853
  5
853
331
8C9
  5
8C9
331
8FC
  5
8FC
331
8F8
  5
8F8
331
8F4
  5
8F4
331
8F0
  5
8F0
331
84F
  5
84F
331
8C5
  5
8C5
331
886
  5
886
331
84B
  5
84B
331
847
  5
847
331
8C1
  5
8C1
331
882
  5
882
331
87E
  5
87E
331
8BD
  5
8BD
331
843
  5
843
331
87A
  5
87A
331
83F
  5
83F
331
8B5
  5
8B5
331
83B
  5
83B
331
876
  5
876
331
837
  5
837
331
8B1
  5
8B1
331
872
  5
872
331
8EC
  5
8EC
331
8AD
  5
8AD
331
833
  5
833
331
8A9
  5
8A9
331
86E
  5
86E
331
82F
  5
82F
331
86A
  5
86A
331
8E4
  5
8E4
331
8A5
  5
8A5
331
82B
  5
82B
331
827
  5
827
331
866
  5
866
331
8E0
  5
8E0
331
8A1
  5
8A1
331
8DC
  5
8DC
331
89D
  5
89D
331
823
  5
823
331
862
  5
862
331
8D8
  5
8D8
331
899
  5
899
331
90B
  5
90B
331
907
  5
907
331
903
  5
903
331
85E
  5
85E
331
81F
  5
81F
331
85A
  5
85A
331
8D4
  5
8D4
331
895
  5
895
331
81B
  5
81B
331
856
  5
856
331
817
  5
817
331
891
  5
891
331
8D0
  5
8D0
331
852
  5
852
331
88D
  5
88D
331
8CC
  5
8CC
331
813
  5
813
331
8C8
  5
8C8
331
8FF
  5
8FF
331
8FB
  5
8FB
331
8F7
  5
8F7
331
8F3
  5
8F3
331
84E
  5
84E
331
8C4
  5
8C4
331
885
  5
885
331
84A
  5
84A
331
846
  5
846
331
8C0
  5
8C0
331
881
  5
881
331
8BC
  5
8BC
331
87D
  5
87D
331
842
  5
842
331
879
  5
879
  0
XRECORD
  5
1AB6
102
{ACAD_REACTORS
330
1AB5
102
}
330
1AB5
100
AcDbXrecord
280
     1
102
SHADEPLOT
 70
     0
  0
XRECORD
  5
1AB0
102
{ACAD_REACTORS
330
1AAF
102
}
330
1AAF
100
AcDbXrecord
280
     1
 40
0.18
  0
LAYOUT
  5
59
102
{ACAD_XDICTIONARY
360
227
102
}
102
{ACAD_REACTORS
330
1A
102
}
330
1A
100
AcDbPlotSettings
  1

  2
none_device
  4
ISO_A4_(210.00_x_297.00_MM)
  6

 40
7.5
 41
20.0
 42
7.5
 43
20.0
 44
210.0
 45
297.0
 46
0.0
 47
0.0
 48
0.0
 49
0.0
140
0.0
141
0.0
142
1.0
143
1.0
 70
   688
 72
     1
 73
     1
 74
     5
  7

 75
    16
147
1.0
148
0.0
149
0.0
100
AcDbLayout
  1
Layout1
 70
     1
 71
     1
 10
-20.0
 20
-7.5
 11
277.0
 21
202.5
 12
0.0
 22
0.0
 32
0.0
 14
1.000000000000000E+20
 24
1.000000000000000E+20
 34
1.000000000000000E+20
 15
-1.000000000000000E+20
 25
-1.000000000000000E+20
 35
-1.000000000000000E+20
146
0.0
 13
0.0
 23
0.0
 33
0.0
 16
1.0
 26
0.0
 36
0.0
 17
0.0
 27
1.0
 37
0.0
 76
     0
330
58
331
220
1001
ACAD_PSEXT
1000
None
1000
None
1000
Not applicable
1000
The layout will not be plotted unless a new plotter configuration name is selected.
1070
     0
  0
LAYOUT
  5
22
102
{ACAD_XDICTIONARY
360
1AB1
102
}
102
{ACAD_REACTORS
330
1A
102
}
330
1A
100
AcDbPlotSettings
  1

  2
none_device
  4
ANSI_A_(8.50_x_11.00_Inches)
  6

 40
6.349999904632567
 41
19.04999923706055
 42
6.350006103515625
 43
19.04998779296875
 44
215.8999938964844
 45
279.3999938964844
 46
0.0
 47
0.0
 48
0.0
 49
0.0
140
0.0
141
0.0
142
1.0
143
2.584895464708373
 70
 11952
 72
     0
 73
     1
 74
     0
  7

 75
     0
147
0.3868628397755418
148
0.0
149
0.0
100
AcDbLayout
  1
Model
 70
     1
 71
     0
 10
0.0
 20
0.0
 11
12.0
 21
9.0
 12
0.0
 22
0.0
 32
0.0
 14
0.0
 24
0.0
 34
0.0
 15
0.0
 25
0.0
 35
0.0
146
0.0
 13
0.0
 23
0.0
 33
0.0
 16
1.0
 26
0.0
 36
0.0
 17
0.0
 27
1.0
 37
0.0
 76
     0
330
1F
331
1A7B
  0
MATERIAL
  5
932
102
{ACAD_XDICTIONARY
360
1AB9
102
}
102
{ACAD_REACTORS
330
72
102
}
330
72
100
AcDbMaterial
  1
ByBlock
 73
     1
 78
     1
172
     1
176
     1
270
     1
274
     1
  0
MATERIAL
  5
931
102
{ACAD_XDICTIONARY
360
1AB7
102
}
102
{ACAD_REACTORS
330
72
102
}
330
72
100
AcDbMaterial
  1
ByLayer
 73
     1
 78
     1
172
     1
176
     1
270
     1
274
     1
  0
MATERIAL
  5
933
102
{ACAD_XDICTIONARY
360
1ABB
102
}
102
{ACAD_REACTORS
330
72
102
}
330
72
100
AcDbMaterial
  1
Global
 73
     1
 78
     1
172
     1
176
     1
270
     1
274
     1
  0
MLEADERSTYLE
  5
1A9A
102
{ACAD_XDICTIONARY
360
1AAB
102
}
102
{ACAD_REACTORS
330
1A99
102
}
330
1A99
100
AcDbMLeaderStyle
170
     2
171
     1
172
     0
 90
        2
 40
0.0
 41
0.0
173
     1
 91
-1056964608
340
14
 92
       -2
290
     1
 42
0.09
291
     1
 43
0.36
  3
Standard
 44
0.18
300

342
11
174
     1
178
     6
175
     1
176
     0
 93
-1056964608
 45
0.18
292
     0
297
     0
 46
0.18
 94
-1056964608
 47
1.0
 49
1.0
140
1.0
293
     1
141
0.0
294
     1
177
     0
142
1.0
295
     0
296
     0
143
0.125
1001
ACAD_MLEADERVER
1070
     2
  0
MLINESTYLE
  5
18
102
{ACAD_REACTORS
330
17
102
}
330
17
100
AcDbMlineStyle
  2
STANDARD
 70
     0
  3

 62
   256
 51
90.0
 52
90.0
 71
     2
 49
0.5
 62
   256
  6
BYLAYER
 49
-0.5
 62
   256
  6
BYLAYER
  0
ACDBPLACEHOLDER
  5
F
102
{ACAD_REACTORS
330
E
102
}
330
E
  0
SCALE
  5
1A88
102
{ACAD_REACTORS
330
1A87
102
}
330
1A87
100
AcDbScale
 70
     0
300
1:1
140
1.0
141
1.0
290
     1
  0
SCALE
  5
1A89
102
{ACAD_REACTORS
330
1A87
102
}
330
1A87
100
AcDbScale
 70
     0
300
1/128" = 1'-0"
140
0.0078125
141
12.0
290
     0
  0
SCALE
  5
1A8A
102
{ACAD_REACTORS
330
1A87
102
}
330
1A87
100
AcDbScale
 70
     0
300
1/64" = 1'-0"
140
0.015625
141
12.0
290
     0
  0
SCALE
  5
1A8B
102
{ACAD_REACTORS
330
1A87
102
}
330
1A87
100
AcDbScale
 70
     0
300
1/32" = 1'-0"
140
0.03125
141
12.0
290
     0
  0
SCALE
  5
1A8C
102
{ACAD_REACTORS
330
1A87
102
}
330
1A87
100
AcDbScale
 70
     0
300
1/16" = 1'-0"
140
0.0625
141
12.0
290
     0
  0
SCALE
  5
1A8D
102
{ACAD_REACTORS
330
1A87
102
}
330
1A87
100
AcDbScale
 70
     0
300
3/32" = 1'-0"
140
0.09375
141
12.0
290
     0
  0
SCALE
  5
1A8E
102
{ACAD_REACTORS
330
1A87
102
}
330
1A87
100
AcDbScale
 70
     0
300
1/8" = 1'-0"
140
0.125
141
12.0
290
     0
  0
SCALE
  5
1A8F
102
{ACAD_REACTORS
330
1A87
102
}
330
1A87
100
AcDbScale
 70
     0
300
3/16" = 1'-0"
140
0.1875
141
12.0
290
     0
  0
SCALE
  5
1A90
102
{ACAD_REACTORS
330
1A87
102
}
330
1A87
100
AcDbScale
 70
     0
300
1/4" = 1'-0"
140
0.25
141
12.0
290
     0
  0
SCALE
  5
1A91
102
{ACAD_REACTORS
330
1A87
102
}
330
1A87
100
AcDbScale
 70
     0
300
3/8" = 1'-0"
140
0.375
141
12.0
290
     0
  0
SCALE
  5
1A92
102
{ACAD_REACTORS
330
1A87
102
}
330
1A87
100
AcDbScale
 70
     0
300
1/2" = 1'-0"
140
0.5
141
12.0
290
     0
  0
SCALE
  5
1A93
102
{ACAD_REACTORS
330
1A87
102
}
330
1A87
100
AcDbScale
 70
     0
300
3/4" = 1'-0"
140
0.75
141
12.0
290
     0
  0
SCALE
  5
1A94
102
{ACAD_REACTORS
330
1A87
102
}
330
1A87
100
AcDbScale
 70
     0
300
1" = 1'-0"
140
1.0
141
12.0
290
     0
  0
SCALE
  5
1A95
102
{ACAD_REACTORS
330
1A87
102
}
330
1A87
100
AcDbScale
 70
     0
300
1-1/2" = 1'-0"
140
1.5
141
12.0
290
     0
  0
SCALE
  5
1A96
102
{ACAD_REACTORS
330
1A87
102
}
330
1A87
100
AcDbScale
 70
     0
300
3" = 1'-0"
140
3.0
141
12.0
290
     0
  0
SCALE
  5
1A97
102
{ACAD_REACTORS
330
1A87
102
}
330
1A87
100
AcDbScale
 70
     0
300
6" = 1'-0"
140
6.0
141
12.0
290
     0
  0
SCALE
  5
1A98
102
{ACAD_REACTORS
330
1A87
102
}
330
1A87
100
AcDbScale
 70
     0
300
1'-0" = 1'-0"
140
12.0
141
12.0
290
     0
  0
TABLESTYLE
  5
87
102
{ACAD_XDICTIONARY
360
1AA9
102
}
102
{ACAD_REACTORS
330
86
102
}
330
86
100
AcDbTableStyle
  3
Standard
 70
     0
 71
     0
 40
0.06
 41
0.06
280
     0
281
     0
  7
Standard
140
0.18
170
     2
 62
     0
 63
     7
283
     0
274
    -2
284
     1
 64
     0
275
    -2
285
     1
 65
     0
276
    -2
286
     1
 66
     0
277
    -2
287
     1
 67
     0
278
    -2
288
     1
 68
     0
279
    -2
289
     1
 69
     0
  7
Standard
140
0.25
170
     5
 62
     0
 63
     7
283
     0
274
    -2
284
     1
 64
     0
275
    -2
285
     1
 65
     0
276
    -2
286
     1
 66
     0
277
    -2
287
     1
 67
     0
278
    -2
288
     1
 68
     0
279
    -2
289
     1
 69
     0
  7
Standard
140
0.18
170
     5
 62
     0
 63
     7
283
     0
274
    -2
284
     1
 64
     0
275
    -2
285
     1
 65
     0
276
    -2
286
     1
 66
     0
277
    -2
287
     1
 67
     0
278
    -2
288
     1
 68
     0
279
    -2
289
     1
 69
     0
  0
VISUALSTYLE
  5
93A
102
{ACAD_XDICTIONARY
360
1AC7
102
}
102
{ACAD_REACTORS
330
934
102
}
330
934
100
AcDbVisualStyle
  2

 70
     4
 71
     0
 72
     2
 73
     0
 90
        0
 40
-0.6
 41
-30.0
 62
     5
 63
     7
 74
     1
 91
        4
 64
     7
 65
   257
 75
     1
175
     1
 42
1.0
 92
        0
 66
   257
 43
1.0
 76
     1
 77
     6
 78
     2
 67
     7
 79
     5
170
     0
171
     0
290
     0
174
     0
 93
        1
 44
0.0
173
     0
291
     0
 45
0.0
1001
ACAD
1000
AcDbSavedByObjectVersion
1070
     0
  0
VISUALSTYLE
  5
93C
102
{ACAD_XDICTIONARY
360
1ACB
102
}
102
{ACAD_REACTORS
330
934
102
}
330
934
100
AcDbVisualStyle
  2

 70
     6
 71
     1
 72
     2
 73
     2
 90
        0
 40
-0.6
 41
-30.0
 62
     5
 63
     7
 74
     2
 91
        2
 64
     7
 65
   257
 75
     2
175
     1
 42
40.0
 92
        0
 66
   257
 43
1.0
 76
     1
 77
     6
 78
     2
 67
     7
 79
     3
170
     0
171
     0
290
     0
174
     0
 93
        1
 44
0.0
173
     0
291
     0
 45
0.0
1001
ACAD
1000
AcDbSavedByObjectVersion
1070
     0
  0
VISUALSTYLE
  5
93B
102
{ACAD_XDICTIONARY
360
1AC9
102
}
102
{ACAD_REACTORS
330
934
102
}
330
934
100
AcDbVisualStyle
  2

 70
     5
 71
     0
 72
     2
 73
     0
 90
        0
 40
-0.6
 41
-30.0
 62
     5
 63
     7
 74
     1
 91
        4
 64
     7
 65
   257
 75
     1
175
     1
 42
1.0
 92
        0
 66
   257
 43
1.0
 76
     1
 77
     6
 78
     2
 67
     7
 79
     5
170
     0
171
     0
290
     0
174
     0
 93
        1
 44
0.0
173
     0
291
     0
 45
0.0
1001
ACAD
1000
AcDbSavedByObjectVersion
1070
     0
  0
VISUALSTYLE
  5
939
102
{ACAD_XDICTIONARY
360
1AC5
102
}
102
{ACAD_REACTORS
330
934
102
}
330
934
100
AcDbVisualStyle
  2

 70
     7
 71
     1
 72
     0
 73
     1
 90
        0
 40
-0.6
 41
-30.0
 62
     5
 63
     7
 74
     0
 91
        4
 64
     7
 65
   257
 75
     1
175
     1
 42
1.0
 92
        8
 66
     7
 43
1.0
 76
     1
 77
     6
 78
     2
 67
     7
 79
     5
170
     0
171
     0
290
     0
174
     0
 93
        1
 44
0.0
173
     0
291
     1
 45
0.0
1001
ACAD
1000
AcDbSavedByObjectVersion
1070
     0
  0
VISUALSTYLE
  5
940
102
{ACAD_XDICTIONARY
360
1AD3
102
}
102
{ACAD_REACTORS
330
934
102
}
330
934
100
AcDbVisualStyle
  2

 70
    12
 71
     2
 72
     2
 73
     0
 90
        0
 40
-0.6
 41
-30.0
 62
     5
 63
     7
 74
     1
 91
        4
 64
     7
 65
   257
 75
     1
175
     1
 42
1.0
 92
        8
 66
     7
 43
1.0
 76
     1
 77
     6
 78
     2
 67
     7
 79
     5
170
     0
171
     0
290
     0
174
     0
 93
        1
 44
50.0
173
     0
291
     1
 45
0.0
1001
ACAD
1000
AcDbSavedByObjectVersion
1070
     0
  0
VISUALSTYLE
  5
944
102
{ACAD_XDICTIONARY
360
1ADB
102
}
102
{ACAD_REACTORS
330
934
102
}
330
934
100
AcDbVisualStyle
  2

 70
    16
 71
     2
 72
     2
 73
     3
 90
        0
 40
-0.6
 41
-30.0
 62
     5
 63
     8
 74
     1
 91
        4
 64
     7
 65
   257
 75
     1
175
     1
 42
1.0
 92
        8
 66
     8
 43
1.0
 76
     1
 77
     6
 78
     2
 67
     7
 79
     5
170
     0
171
     0
290
     0
174
     0
 93
        1
 44
0.0
173
     0
291
     1
 45
0.0
1001
ACAD
1000
AcDbSavedByObjectVersion
1070
     0
  0
VISUALSTYLE
  5
93D
102
{ACAD_XDICTIONARY
360
1ACD
102
}
102
{ACAD_REACTORS
330
934
102
}
330
934
100
AcDbVisualStyle
  2

 70
     9
 71
     3
 72
     2
 73
     0
 90
        0
 40
-0.6
 41
-30.0
 62
     5
 63
     7
 74
     2
 91
        2
 64
     7
 65
   257
 75
     1
175
     1
 42
40.0
 92
        8
 66
     7
 43
1.0
 76
     1
 77
     6
 78
     2
 67
     7
 79
     3
170
     0
171
     0
290
     0
174
     0
 93
        1
 44
0.0
173
     0
291
     0
 45
0.0
1001
ACAD
1000
AcDbSavedByObjectVersion
1070
     0
  0
VISUALSTYLE
  5
93F
102
{ACAD_XDICTIONARY
360
1AD1
102
}
102
{ACAD_REACTORS
330
934
102
}
330
934
100
AcDbVisualStyle
  2

 70
    11
 71
     2
 72
     2
 73
     0
 90
        0
 40
-0.6
 41
-30.0
 62
     5
 63
     7
 74
     1
 91
        4
 64
     7
 65
   257
 75
     1
175
     1
 42
1.0
 92
        8
 66
     7
 43
1.0
 76
     1
 77
     6
 78
     2
 67
     7
 79
     5
170
     0
171
     0
290
     0
174
     0
 93
        1
 44
-50.0
173
     0
291
     1
 45
0.0
1001
ACAD
1000
AcDbSavedByObjectVersion
1070
     0
  0
VISUALSTYLE
  5
1A86
102
{ACAD_XDICTIONARY
360
1AEF
102
}
102
{ACAD_REACTORS
330
934
102
}
330
934
100
AcDbVisualStyle
  2
EdgeColorOff
 70
    22
 71
     2
 72
     2
 73
     0
 90
        0
 40
-0.6
 41
-30.0
 62
     5
 63
     7
 74
     1
 91
        4
 64
     7
 65
   257
 75
     1
175
     1
 42
1.0
 92
        8
 66
     7
 43
1.0
 76
     1
 77
     6
 78
     2
 67
     7
 79
     5
170
     0
171
     0
290
     0
174
     0
 93
        1
 44
0.0
173
     0
291
     1
 45
0.0
1001
ACAD
1000
AcDbSavedByObjectVersion
1070
     0
  0
VISUALSTYLE
  5
943
102
{ACAD_XDICTIONARY
360
1AD9
102
}
102
{ACAD_REACTORS
330
934
102
}
330
934
100
AcDbVisualStyle
  2

 70
    15
 71
     2
 72
     2
 73
     0
 90
        0
 40
-0.6
 41
-30.0
 62
     5
 63
     7
 74
     1
 91
        4
 64
     7
 65
   257
 75
     1
175
     1
 42
1.0
 92
        8
 66
     7
 43
1.0
 76
     1
 77
     6
 78
     2
 67
     7
 79
     5
170
     0
171
     0
290
     0
174
     0
 93
        1
 44
0.0
173
     0
291
     1
 45
0.0
1001
ACAD
1000
AcDbSavedByObjectVersion
1070
     0
  0
VISUALSTYLE
  5
935
102
{ACAD_XDICTIONARY
360
1ABD
102
}
102
{ACAD_REACTORS
330
934
102
}
330
934
100
AcDbVisualStyle
  2

 70
     0
 71
     2
 72
     1
 73
     1
 90
        2
 40
-0.6
 41
30.0
 62
     5
 63
     7
 74
     0
 91
        4
 64
     7
 65
   257
 75
     1
175
     1
 42
1.0
 92
        8
 66
     7
 43
1.0
 76
     1
 77
     6
 78
     2
 67
     7
 79
     5
170
     0
171
     0
290
     0
174
     0
 93
       13
 44
0.0
173
     0
291
     1
 45
0.0
1001
ACAD
1000
AcDbSavedByObjectVersion
1070
     0
  0
VISUALSTYLE
  5
936
102
{ACAD_XDICTIONARY
360
1ABF
102
}
102
{ACAD_REACTORS
330
934
102
}
330
934
100
AcDbVisualStyle
  2

 70
     1
 71
     2
 72
     1
 73
     1
 90
        2
 40
-0.6
 41
30.0
 62
     5
 63
     7
 74
     1
 91
        4
 64
     7
 65
   257
 75
     1
175
     1
 42
1.0
 92
        0
 66
   257
 43
1.0
 76
     1
 77
     6
 78
     2
 67
     7
 79
     5
170
     0
171
     0
290
     0
174
     0
 93
       13
 44
0.0
173
     0
291
     1
 45
0.0
1001
ACAD
1000
AcDbSavedByObjectVersion
1070
     0
  0
VISUALSTYLE
  5
937
102
{ACAD_XDICTIONARY
360
1AC1
102
}
102
{ACAD_REACTORS
330
934
102
}
330
934
100
AcDbVisualStyle
  2

 70
     2
 71
     2
 72
     2
 73
     1
 90
        2
 40
-0.6
 41
30.0
 62
     5
 63
     7
 74
     0
 91
        4
 64
     7
 65
   257
 75
     1
175
     1
 42
1.0
 92
        0
 66
     7
 43
1.0
 76
     1
 77
     6
 78
     2
 67
     7
 79
     5
170
     0
171
     0
290
     0
174
     0
 93
       13
 44
0.0
173
     0
291
     1
 45
0.0
1001
ACAD
1000
AcDbSavedByObjectVersion
1070
     0
  0
VISUALSTYLE
  5
938
102
{ACAD_XDICTIONARY
360
1AC3
102
}
102
{ACAD_REACTORS
330
934
102
}
330
934
100
AcDbVisualStyle
  2

 70
     3
 71
     2
 72
     2
 73
     1
 90
        2
 40
-0.6
 41
30.0
 62
     5
 63
     7
 74
     1
 91
        4
 64
     7
 65
   257
 75
     1
175
     1
 42
1.0
 92
        0
 66
   257
 43
1.0
 76
     1
 77
     6
 78
     2
 67
     7
 79
     5
170
     0
171
     0
290
     0
174
     0
 93
       13
 44
0.0
173
     0
291
     1
 45
0.0
1001
ACAD
1000
AcDbSavedByObjectVersion
1070
     0
  0
VISUALSTYLE
  5
1A7E
102
{ACAD_XDICTIONARY
360
1ADF
102
}
102
{ACAD_REACTORS
330
934
102
}
330
934
100
AcDbVisualStyle
  2
Hidden
 70
     6
 71
     1
 72
     2
 73
     2
 90
        0
 40
-0.6
 41
-30.0
 62
     5
 63
     7
 74
     2
 91
        2
 64
     7
 65
   257
 75
     2
175
     1
 42
40.0
 92
        0
 66
   257
 43
1.0
 76
     1
 77
     6
 78
     2
 67
     7
 79
     3
170
     0
171
     0
290
     0
174
     0
 93
        1
 44
0.0
173
     0
291
     0
 45
0.0
1001
ACAD
1000
AcDbSavedByObjectVersion
1070
     0
  0
VISUALSTYLE
  5
1A84
102
{ACAD_XDICTIONARY
360
1AEB
102
}
102
{ACAD_REACTORS
330
934
102
}
330
934
100
AcDbVisualStyle
  2
JitterOff
 70
    20
 71
     2
 72
     2
 73
     0
 90
        0
 40
-0.6
 41
-30.0
 62
     5
 63
     7
 74
     1
 91
        4
 64
     7
 65
   257
 75
     1
175
     1
 42
1.0
 92
       10
 66
     7
 43
1.0
 76
     1
 77
     6
 78
     2
 67
     7
 79
     5
170
     0
171
     0
290
     0
174
     0
 93
        1
 44
0.0
173
     0
291
     1
 45
0.0
1001
ACAD
1000
AcDbSavedByObjectVersion
1070
     0
  0
VISUALSTYLE
  5
942
102
{ACAD_XDICTIONARY
360
1AD7
102
}
102
{ACAD_REACTORS
330
934
102
}
330
934
100
AcDbVisualStyle
  2

 70
    14
 71
     2
 72
     2
 73
     0
 90
        0
 40
-0.6
 41
-30.0
 62
     5
 63
     7
 74
     1
 91
        4
 64
     7
 65
   257
 75
     7
175
     7
 42
1.0
 92
        8
 66
     7
 43
1.0
 76
     1
 77
     6
 78
     2
 67
     7
 79
     5
170
     0
171
     0
290
     0
174
     0
 93
        1
 44
0.0
173
     0
291
     1
 45
0.0
1001
ACAD
1000
AcDbSavedByObjectVersion
1070
     0
  0
VISUALSTYLE
  5
1A85
102
{ACAD_XDICTIONARY
360
1AED
102
}
102
{ACAD_REACTORS
330
934
102
}
330
934
100
AcDbVisualStyle
  2
OverhangOff
 70
    21
 71
     2
 72
     2
 73
     0
 90
        0
 40
-0.6
 41
-30.0
 62
     5
 63
     7
 74
     1
 91
        4
 64
     7
 65
   257
 75
     1
175
     1
 42
1.0
 92
        9
 66
     7
 43
1.0
 76
     1
 77
     6
 78
     2
 67
     7
 79
     5
170
     0
171
     0
290
     0
174
     0
 93
        1
 44
0.0
173
     0
291
     1
 45
0.0
1001
ACAD
1000
AcDbSavedByObjectVersion
1070
     0
  0
VISUALSTYLE
  5
93E
102
{ACAD_XDICTIONARY
360
1ACF
102
}
102
{ACAD_REACTORS
330
934
102
}
330
934
100
AcDbVisualStyle
  2

 70
     8
 71
     2
 72
     2
 73
     0
 90
        0
 40
-0.6
 41
-30.0
 62
     5
 63
     7
 74
     1
 91
        0
 64
     7
 65
   257
 75
     1
175
     1
 42
1.0
 92
        8
 66
     8
 43
1.0
 76
     1
 77
     6
 78
     2
 67
     7
 79
     5
170
     0
171
     0
290
     0
174
     0
 93
       13
 44
0.0
173
     0
291
     0
 45
0.0
1001
ACAD
1000
AcDbSavedByObjectVersion
1070
     0
  0
VISUALSTYLE
  5
1A83
102
{ACAD_XDICTIONARY
360
1AE9
102
}
102
{ACAD_REACTORS
330
934
102
}
330
934
100
AcDbVisualStyle
  2
Shaded
 70
    27
 71
     2
 72
     2
 73
     1
 90
        2
 40
-0.6
 41
30.0
 62
     5
 63
     7
 74
     0
 91
        4
 64
     7
 65
   257
 75
     1
175
     1
 42
1.0
 92
        8
 66
   257
 43
1.0
 76
     1
 77
     6
 78
     2
 67
     8
 79
     3
170
     0
171
     0
290
     0
174
     0
 93
        5
 44
0.0
173
     0
291
     0
 45
0.0
1001
ACAD
1000
AcDbSavedByObjectVersion
1070
     0
  0
VISUALSTYLE
  5
1A82
102
{ACAD_XDICTIONARY
360
1AE7
102
}
102
{ACAD_REACTORS
330
934
102
}
330
934
100
AcDbVisualStyle
  2
Shaded with edges
 70
    26
 71
     2
 72
     2
 73
     1
 90
        2
 40
-0.6
 41
30.0
 62
     5
 63
     7
 74
     1
 91
       10
 64
     7
 65
   257
 75
     2
175
     1
 42
1.0
 92
        8
 66
   257
 43
1.0
 76
     1
 77
     6
 78
     2
 67
     7
 79
     3
170
     0
171
     0
290
     0
174
     0
 93
        5
 44
0.0
173
     0
291
     0
 45
0.0
1001
ACAD
1000
AcDbSavedByObjectVersion
1070
     0
  0
VISUALSTYLE
  5
1A7F
102
{ACAD_XDICTIONARY
360
1AE1
102
}
102
{ACAD_REACTORS
330
934
102
}
330
934
100
AcDbVisualStyle
  2
Shades of Gray
 70
    23
 71
     2
 72
     2
 73
     3
 90
        0
 40
-0.6
 41
-30.0
 62
     5
 63
     7
 74
     2
 91
        2
 64
     7
 65
     7
 75
     1
175
     1
 42
40.0
 92
        8
 66
     7
 43
1.0
 76
     1
 77
     6
 78
     2
 67
     7
 79
     3
170
     0
171
     0
290
     0
174
     0
 93
        1
 44
0.0
173
     0
291
     0
 45
0.0
1001
ACAD
1000
AcDbSavedByObjectVersion
1070
     0
  0
VISUALSTYLE
  5
1A80
102
{ACAD_XDICTIONARY
360
1AE3
102
}
102
{ACAD_REACTORS
330
934
102
}
330
934
100
AcDbVisualStyle
  2
Sketchy
 70
    24
 71
     1
 72
     2
 73
     2
 90
        0
 40
-0.6
 41
-30.0
 62
     5
 63
     7
 74
     2
 91
        2
 64
     7
 65
     7
 75
     1
175
     1
 42
40.0
 92
       11
 66
     7
 43
1.0
 76
     1
 77
     6
 78
     2
 67
     7
 79
     6
170
     0
171
     0
290
     0
174
     0
 93
        1
 44
0.0
173
     0
291
     0
 45
0.0
1001
ACAD
1000
AcDbSavedByObjectVersion
1070
     0
  0
VISUALSTYLE
  5
941
102
{ACAD_XDICTIONARY
360
1AD5
102
}
102
{ACAD_REACTORS
330
934
102
}
330
934
100
AcDbVisualStyle
  2

 70
    13
 71
     2
 72
     2
 73
     0
 90
        0
 40
-0.6
 41
-30.0
 62
     5
 63
     7
 74
     1
 91
        4
 64
     7
 65
   257
 75
     1
175
     1
 42
1.0
 92
       12
 66
     7
 43
1.0
 76
     1
 77
     6
 78
     2
 67
     7
 79
     5
170
     0
171
     0
290
     0
174
     0
 93
        1
 44
0.0
173
     0
291
     1
 45
0.0
1001
ACAD
1000
AcDbSavedByObjectVersion
1070
     0
  0
VISUALSTYLE
  5
1A7D
102
{ACAD_XDICTIONARY
360
1ADD
102
}
102
{ACAD_REACTORS
330
934
102
}
330
934
100
AcDbVisualStyle
  2
Wireframe
 70
     5
 71
     0
 72
     2
 73
     0
 90
        0
 40
-0.6
 41
-30.0
 62
     5
 63
     7
 74
     1
 91
        4
 64
     7
 65
   257
 75
     1
175
     1
 42
1.0
 92
        0
 66
   257
 43
1.0
 76
     1
 77
     6
 78
     2
 67
     7
 79
     3
170
     0
171
     0
290
     0
174
     0
 93
        1
 44
0.0
173
     0
291
     0
 45
0.0
1001
ACAD
1000
AcDbSavedByObjectVersion
1070
     0
  0
VISUALSTYLE
  5
1A81
102
{ACAD_XDICTIONARY
360
1AE5
102
}
102
{ACAD_REACTORS
330
934
102
}
330
934
100
AcDbVisualStyle
  2
X-Ray
 70
    25
 71
     2
 72
     2
 73
     1
 90
        1
 40
0.5
 41
-30.0
 62
     5
 63
     7
 74
     1
 91
        0
 64
     7
 65
   257
 75
     1
175
     1
 42
1.0
 92
        8
 66
     7
 43
1.0
 76
     1
 77
     6
 78
     2
 67
     7
 79
     3
170
     0
171
     0
290
     0
174
     0
 93
       13
 44
0.0
173
     0
291
     0
 45
0.0
1001
ACAD
1000
AcDbSavedByObjectVersion
1070
     0
  0
DICTIONARYVAR
  5
1AA6
102
{ACAD_REACTORS
330
66
102
}
330
66
100
DictionaryVariables
280
     0
  1
1:1
  0
DICTIONARYVAR
  5
1AA5
102
{ACAD_REACTORS
330
66
102
}
330
66
100
DictionaryVariables
280
     0
  1
STANDARD
  0
DICTIONARYVAR
  5
1FB
102
{ACAD_REACTORS
330
66
102
}
330
66
100
DictionaryVariables
280
     0
  1
STANDARD
  0
DICTIONARYVAR
  5
67
102
{ACAD_REACTORS
330
66
102
}
330
66
100
DictionaryVariables
280
     0
  1
2
  0
DICTIONARYVAR
  5
6B
102
{ACAD_REACTORS
330
66
102
}
330
66
100
DictionaryVariables
280
     0
  1
1
  0
DICTIONARYVAR
  5
94B
102
{ACAD_REACTORS
330
66
102
}
330
66
100
DictionaryVariables
280
     0
  1
0
  0
DICTIONARYVAR
  5
94A
102
{ACAD_REACTORS
330
66
102
}
330
66
100
DictionaryVariables
280
     0
  1
127
  0
DICTIONARYVAR
  5
1AA7
102
{ACAD_REACTORS
330
66
102
}
330
66
100
DictionaryVariables
280
     0
  1
0
  0
XRECORD
  5
1AA4
102
{ACAD_REACTORS
330
1AA3
102
}
330
1AA3
100
AcDbXrecord
280
     1
  0
DICTIONARY
  5
227
330
59
100
AcDbDictionary
280
     1
281
     1
  3
ACAD_XREC_ROUNDTRIP
360
1AB3
  3
ADSK_XREC_LAYOUTTHUMBNAIL
360
228
  0
DICTIONARY
  5
1AB1
330
22
100
AcDbDictionary
280
     1
281
     1
  3
ACAD_XREC_ROUNDTRIP
360
1AB2
  0
DICTIONARY
  5
1AB9
330
932
100
AcDbDictionary
280
     1
281
     1
  3
ACAD_XREC_ROUNDTRIP
360
1ABA
  0
DICTIONARY
  5
1AB7
330
931
100
AcDbDictionary
280
     1
281
     1
  3
ACAD_XREC_ROUNDTRIP
360
1AB8
  0
DICTIONARY
  5
1ABB
330
933
100
AcDbDictionary
280
     1
281
     1
  3
ACAD_XREC_ROUNDTRIP
360
1ABC
  0
DICTIONARY
  5
1AAB
330
1A9A
100
AcDbDictionary
280
     1
281
     1
  3
ACAD_XREC_ROUNDTRIP
360
1AAC
  0
DICTIONARY
  5
1AA9
330
87
100
AcDbDictionary
280
     1
281
     1
  3
ACAD_ROUNDTRIP_2008_TABLESTYLE_CELLSTYLEMAP
360
1AAA
  3
ACAD_XREC_ROUNDTRIP
360
1AB4
  0
DICTIONARY
  5
1AC7
330
93A
100
AcDbDictionary
280
     1
281
     1
  3
ACAD_XREC_ROUNDTRIP
360
1AC8
  0
DICTIONARY
  5
1ACB
330
93C
100
AcDbDictionary
280
     1
281
     1
  3
ACAD_XREC_ROUNDTRIP
360
1ACC
  0
DICTIONARY
  5
1AC9
330
93B
100
AcDbDictionary
280
     1
281
     1
  3
ACAD_XREC_ROUNDTRIP
360
1ACA
  0
DICTIONARY
  5
1AC5
330
939
100
AcDbDictionary
280
     1
281
     1
  3
ACAD_XREC_ROUNDTRIP
360
1AC6
  0
DICTIONARY
  5
1AD3
330
940
100
AcDbDictionary
280
     1
281
     1
  3
ACAD_XREC_ROUNDTRIP
360
1AD4
  0
DICTIONARY
  5
1ADB
330
944
100
AcDbDictionary
280
     1
281
     1
  3
ACAD_XREC_ROUNDTRIP
360
1ADC
  0
DICTIONARY
  5
1ACD
330
93D
100
AcDbDictionary
280
     1
281
     1
  3
ACAD_XREC_ROUNDTRIP
360
1ACE
  0
DICTIONARY
  5
1AD1
330
93F
100
AcDbDictionary
280
     1
281
     1
  3
ACAD_XREC_ROUNDTRIP
360
1AD2
  0
DICTIONARY
  5
1AEF
330
1A86
100
AcDbDictionary
280
     1
281
     1
  3
ACAD_XREC_ROUNDTRIP
360
1AF0
  0
DICTIONARY
  5
1AD9
330
943
100
AcDbDictionary
280
     1
281
     1
  3
ACAD_XREC_ROUNDTRIP
360
1ADA
  0
DICTIONARY
  5
1ABD
330
935
100
AcDbDictionary
280
     1
281
     1
  3
ACAD_XREC_ROUNDTRIP
360
1ABE
  0
DICTIONARY
  5
1ABF
330
936
100
AcDbDictionary
280
     1
281
     1
  3
ACAD_XREC_ROUNDTRIP
360
1AC0
  0
DICTIONARY
  5
1AC1
330
937
100
AcDbDictionary
280
     1
281
     1
  3
ACAD_XREC_ROUNDTRIP
360
1AC2
  0
DICTIONARY
  5
1AC3
330
938
100
AcDbDictionary
280
     1
281
     1
  3
ACAD_XREC_ROUNDTRIP
360
1AC4
  0
DICTIONARY
  5
1ADF
330
1A7E
100
AcDbDictionary
280
     1
281
     1
  3
ACAD_XREC_ROUNDTRIP
360
1AE0
  0
DICTIONARY
  5
1AEB
330
1A84
100
AcDbDictionary
280
     1
281
     1
  3
ACAD_XREC_ROUNDTRIP
360
1AEC
  0
DICTIONARY
  5
1AD7
330
942
100
AcDbDictionary
280
     1
281
     1
  3
ACAD_XREC_ROUNDTRIP
360
1AD8
  0
DICTIONARY
  5
1AED
330
1A85
100
AcDbDictionary
280
     1
281
     1
  3
ACAD_XREC_ROUNDTRIP
360
1AEE
  0
DICTIONARY
  5
1ACF
330
93E
100
AcDbDictionary
280
     1
281
     1
  3
ACAD_XREC_ROUNDTRIP
360
1AD0
  0
DICTIONARY
  5
1AE9
330
1A83
100
AcDbDictionary
280
     1
281
     1
  3
ACAD_XREC_ROUNDTRIP
360
1AEA
  0
DICTIONARY
  5
1AE7
330
1A82
100
AcDbDictionary
280
     1
281
     1
  3
ACAD_XREC_ROUNDTRIP
360
1AE8
  0
DICTIONARY
  5
1AE1
330
1A7F
100
AcDbDictionary
280
     1
281
     1
  3
ACAD_XREC_ROUNDTRIP
360
1AE2
  0
DICTIONARY
  5
1AE3
330
1A80
100
AcDbDictionary
280
     1
281
     1
  3
ACAD_XREC_ROUNDTRIP
360
1AE4
  0
DICTIONARY
  5
1AD5
330
941
100
AcDbDictionary
280
     1
281
     1
  3
ACAD_XREC_ROUNDTRIP
360
1AD6
  0
DICTIONARY
  5
1ADD
330
1A7D
100
AcDbDictionary
280
     1
281
     1
  3
ACAD_XREC_ROUNDTRIP
360
1ADE
  0
DICTIONARY
  5
1AE5
330
1A81
100
AcDbDictionary
280
     1
281
     1
  3
ACAD_XREC_ROUNDTRIP
360
1AE6
  0
XRECORD
  5
1AB3
102
{ACAD_REACTORS
330
227
102
}
330
227
100
AcDbXrecord
280
     1
102
SHADEPLOT
 70
     0
102
SHADEPLOTRESLEVEL
 70
     2
102
SHADEPLOTCUSTOMDPI
 70
   300
  0
XRECORD
  5
228
102
{ACAD_REACTORS
330
227
102
}
330
227
100
AcDbXrecord
280
     1
310
28000000B40000007F00000001000800000000004C59000000000000000000000001000000000000FFFFFF0000000000FFFFFF000000000000000000000000000000000000000000000000000000000000000000330000006600000099000000CC000000FF00000000330000333300006633000099330000CC330000FF3300
310
0000660000336600006666000099660000CC660000FF66000000990000339900006699000099990000CC990000FF99000000CC000033CC000066CC000099CC0000CCCC0000FFCC000000FF000033FF000066FF000099FF0000CCFF0000FFFF000000003300330033006600330099003300CC003300FF003300003333003333
310
33006633330099333300CC333300FF33330000663300336633006666330099663300CC663300FF66330000993300339933006699330099993300CC993300FF99330000CC330033CC330066CC330099CC3300CCCC3300FFCC330000FF330033FF330066FF330099FF3300CCFF3300FFFF330000006600330066006600660099
310
006600CC006600FF00660000336600333366006633660099336600CC336600FF33660000666600336666006666660099666600CC666600FF66660000996600339966006699660099996600CC996600FF99660000CC660033CC660066CC660099CC6600CCCC6600FFCC660000FF660033FF660066FF660099FF6600CCFF6600
310
FFFF660000009900330099006600990099009900CC009900FF00990000339900333399006633990099339900CC339900FF33990000669900336699006666990099669900CC669900FF66990000999900339999006699990099999900CC999900FF99990000CC990033CC990066CC990099CC9900CCCC9900FFCC990000FF99
310
0033FF990066FF990099FF9900CCFF9900FFFF99000000CC003300CC006600CC009900CC00CC00CC00FF00CC000033CC003333CC006633CC009933CC00CC33CC00FF33CC000066CC003366CC006666CC009966CC00CC66CC00FF66CC000099CC003399CC006699CC009999CC00CC99CC00FF99CC0000CCCC0033CCCC0066CC
310
CC0099CCCC00CCCCCC00FFCCCC0000FFCC0033FFCC0066FFCC0099FFCC00CCFFCC00FFFFCC000000FF003300FF006600FF009900FF00CC00FF00FF00FF000033FF003333FF006633FF009933FF00CC33FF00FF33FF000066FF003366FF006666FF009966FF00CC66FF00FF66FF000099FF003399FF006699FF009999FF00CC
310
99FF00FF99FF0000CCFF0033CCFF0066CCFF0099CCFF00CCCCFF00FFCCFF0000FFFF0033FFFF0066FFFF0099FFFF00CCFFFF00FFFFFF00000000000D0D0D001A1A1A00282828003535350043434300505050005D5D5D006B6B6B00787878008686860093939300A1A1A100AEAEAE00BBBBBB00C9C9C900D6D6D600E4E4E400
310
F1F1F100FFFFFF0000000000000000000000000000000000000000000000000000000000000000000000000000000000E2E2E2E2E2E2E2E2E2E2E2E2E2E2E2E2E2E2E2E2E2E2E2E2E2E2E2E2E2E2E2E2E2E2E2E2E2E2E2E2E2E2E2E2E2E2E2E2E2E2E2E2E2E2E2E2E2E2E2E2E2E2E2E2E2E2E2E2E2E2E2E2E2E2E2E2E2E2E2
310
E2E2E2E2E2E2E2E2E2E2E2E2E2E2E2E2E2E2E2E2E2E2E2E2E2E2E2E2E2E2E2E2E2E2E2E2E2E2E2E2E2E2E2E2E2E2E2E2E2E2E2E2E2E2E2E2E2E2E2E2E2E2E2E2E2E2E2E2E2E2E2E2E2E2E2E2E2E2E2E2E2E2E2E2E2E2E2E2E2E2E2E2E2E2E2E2E2E2E2E2E2E2F5F5F5F5F5F5F5F5F5F5F5F5F5F5F5F5F5F5F5F5F5F5F5F5F5
310
F5F5F5F5F5F5F5F5F5F5F5F5F5F5F5F5F5F5F5F5F5F5F5F5F5F5F5F5F5F5F5F5F5F5F5F5F5F5F5F5F5F5F5F5F5F5F5F5F5F5F5F5F5F5F5F5F5F5F5F5F5F5F5F5F5F5F5F5F5F5F5F5F5F5F5F5F5F5F5F5F5F5F5F5F5F5F5F5F5F5F5F5F5F5F5F5F5F5F5F5F5F5F5F5F5F5F5F5F5F5F5F5F5F5F5F5F5F5F5F5F5F5F5F5F5F5F5
310
F5F5F5F5F5F5F5F5F5F5F5F5F5F5F5F5F5F5F5F5F5F5F5F5F5E2E2E2F5F5F5F5F5F5F5F5F5F5F5F5F5F5F5F5F5F5F5F5F5F5F5F5F5F5F5F5F5F5F5F5F5F5F5F5F5F5F5F5F5F5F5F5F5F5F5F5F5F5F5F5F5F5F5F5F5F5F5F5F5F5F5F5F5F5F5F5F5F5F5F5F5F5F5F5F5F5F5F5F5F5F5F5F5F5F5F5F5F5F5F5F5F5F5F5F5F5F5
310
F5F5F5F5F5F5F5F5F5F5F5F5F5F5F5F5F5F5F5F5F5F5F5F5F5F5F5F5F5F5F5F5F5F5F5F5F5F5F5F5F5F5F5F5F5F5F5F5F5F5F5F5F5F5F5F5F5F5F5F5F5F5F5F5F5F5F5F5F5F5F5F5F5F5F5F5F5F5E2E2E2F5F5F5F5F5F5F5F5F5F5F5F5F5F5F5F5F5F5F5F5F5F5F5F5F5F5F5F5F5F5F5F5F5F5F5F5F5F5F5F5F5F5F5F5F5F5
310
F5F5F5F5F5F5F5F5F5F5F5F5F5F5F5F5F5F5F5F5F5F5F5F5F5F5F5F5F5F5F5F5F5F5F5F5F5F5F5F5F5F5F5F5F5F5F5F5F5F5F5F5F5F5F5F5F5F5F5F5F5F5F5F5F5F5F5F5F5F5F5F5F5F5F5F5F5F5F5F5F5F5F5F5F5F5F5F5F5F5F5F5F5F5F5F5F5F5F5F5F5F5F5F5F5F5F5F5F5F5F5F5F5F5F5F5F5F5F5F5F5F5F5F5F5F5F5
310
F5F5F5F5E2E2E2F5F5F5F5F5F5F5F5F5F5F5F5F5F5F5F5F5F5F5F5F5F5F5F5F5F5F5F5F5F5F5F5F5F5F5F5F5F5F5F5F5F5F5F5F5F5F5F5F5F5F5F5F5F5F5F5F5F5F5F5F5F5F5F5F5F5F5F5F5F5F5F5F5F5F5F5F5F5F5F5F5F5F5F5F5F5F5F5F5F5F5F5F5F5F5F5F5F5F5F5F5F5F5F5F5F5F5F5F5F5F5F5F5F5F5F5F5F5F5F5
310
F5F5F5F5F5F5F5F5F5F5F5F5F5F5F5F5F5F5F5F5F5F5F5F5F5F5F5F5F5F5F5F5F5F5F5F5F5F5F5F5F5F5F5F5F5F5F5F5F5F5F5F5F5F5F5F5F5E2E2E2F5F5F5F5F5F5F5F5F5F5F5E2E2E2E2E2E2E2E2E2F5F5F5F5F5F5F5F5F5E2E2E2E2E2E2E2E2E2E2E2E2E2E2E2E2F5F5F5F5F5F5F5F5F5F5E2E2E2E2E2E2E2E2E2E2E2E2
310
E2E2E2E2F5F5F5F5F5F5F5F5F5E2E2E2E2E2E2E2E2E2E2E2E2E2E2E2E2E2F5F5F5F5F5F5F5F5F5E2E2E2E2E2E2E2E2E2E2E2E2E2E2E2E2F5F5F5F5F5F5F5F5F5F5E2E2E2E2E2E2E2E2E2E2E2E2E2E2E2E2F5F5F5F5F5F5F5F5F5E2E2E2E2E2E2E2E2E2F5F5F5F5F5F5F5F5F5F5F5E2E2E2F5F5F5F5F5F5F5F5F5F5F5E2F5F5
310
F5F5F5F5F5F5F5F5F5F5F5F5F5F5F5F5F5F5F5F5F5F5F5F5F5F5F5F5F5F5F5F5F5F5F5F5F5F5F5F5F5F5F5F5F5F5F5F5F5F5F5F5F5F5F5F5F5F5F5F5F5F5F5F5F5F5F5F5F5F5F5F5F5F5F5F5F5F5F5F5F5F5F5F5F5F5F5F5F5F5F5F5F5F5F5F5F5F5F5F5F5F5F5F5F5F5F5F5F5F5F5F5F5F5F5F5F5F5F5F5F5F5F5F5F5F5F5
310
F5F5F5F5F5F5F5F5F5F5F5F5F5F5F5F5F5F5F5F5F5F5F5F5E2F5F5F5F5F5F5F5F5F5F5F5E2E2E2F5F5F5F5F5F5F5F5F5F5F5E2F5F5F5F5F5F5F5F5F5F5F5F5F5F5F5F5F5F5F5F5F5F5F5F5F5F5F5F5F5F5F5F5F5F5F5F5F5F5F5F5F5F5F5F5F5F5F5F5F5F5F5F5F5F5F5F5F5F5F5F5F5F5F5F5F5F5F5F5F5F5F5F5F5F5F5F5
310
F5F5F5F5F5F5F5F5F5F5F5F5F5F5F5F5F5F5F5F5F5F5F5F5F5F5F5F5F5F5F5F5F5F5F5F5F5F5F5F5F5F5F5F5F5F5F5F5F5F5F5F5F5F5F5F5F5F5F5F5F5F5F5F5F5F5F5F5F5F5F5F5F5F5F5F5F5E2F5F5F5F5F5F5F5F5F5F5F5E2E2E2F5F5F5F5F5F5F5F5F5F5F5E2F5F5F5F5F5F5F5F5F5F5F5F5F5F5F5F5F5F5F5F5F5F5F5
310
F5F5F5F5F5F5F5F5F5F5F5F5F5F5F5F5F5F5F5F5F5F5F5F5F5F5F5F5F5F5F5F5F5F5F5F5F5F5F5F5F5F5F5F5F5F5F5F5F5F5F5F5F5F5F5F5F5F5F5F5F5F5F5F5F5F5F5F5F5F5F5F5F5F5F5F5F5F5F5F5F5F5F5F5F5F5F5F5F5F5F5F5F5F5F5F5F5F5F5F5F5F5F5F5F5F5F5F5F5F5F5F5F5F5F5F5F5F5F5F5F5F5F5F5F5F5F5
310
F5F5F5E2F5F5F5F5F5F5F5F5F5F5F5E2E2E2F5F5F5F5F5F5F5F5F5F5F5E2F5F5F5F5F5F5F5F5F5F5F5F5F5F5F5F5F5F5F5F5F5F5F5F5F5F5F5F5F5F5F5F5F5F5F5F5F5F5F5F5F5F5F5F5F5F5F5F5F5F5F5F5F5F5F5F5F5F5F5F5F5F5F5F5F5F5F5F5F5F5F5F5F5F5F5F5F5F5F5F5F5F5F5F5F5F5F5F5F5F5F5F5F5F5F5F5F5
310
F5F5F5F5F5F5F5F5F5F5F5F5F5F5F5F5F5F5F5F5F5F5F5F5F5F5F5F5F5F5F5F5F5F5F5F5F5F5F5F5F5F5F5F5F5F5F5F5F5F5F5F5F5F5F5F5E2F5F5F5F5F5F5F5F5F5F5F5E2E2E2F5F5F5F5F5F5F5F5F5F5F5E2F5F5F5F5F5F5F5F5F5F5F5F5F5F5F5F5F5F5F5F5F5F5F5F5F5F5F5F5F5F5F5F5F5F5F5F5F5F5F5F5F5F5F5F5
310
F5F5F5F5F5F5F5F5F5F5F5F5F5F5F5F5F5F5F5F5F5F5F5F5F5F5F5F5F5F5F5F5F5F5F5F5F5F5F5F5F5F5F5F5F5F5F5F5F5F5F5F5F5F5F5F5F5F5F5F5F5F5F5F5F5F5F5F5F5F5F5F5F5F5F5F5F5F5F5F5F5F5F5F5F5F5F5F5F5F5F5F5F5F5F5F5F5F5F5F5F5F5F5F5F5F5F5F5F5E2F5F5F5F5F5F5F5F5F5F5F5E2E2E2F5F5F5
310
F5F5F5F5F5F5F5F5E2F5F5F5F5F5F5F5F5F5F5F5F5F5F5F5F5F5F5F5F5F5F5F5F5F5F5F5F5F5F5F5F5F5F5F5F5F5F5F5F5F5F5F5F5F5F5F5F5F5F5F5F5F5F5F5F5F5F5F5F5F5F5F5F5F5F5F5F5F5F5F5F5F5F5F5F5F5F5F5F5F5F5F5F5F5F5F5F5F5F5F5F5F5F5F5F5F5F5F5F5F5F5F5F5F5F5F5F5F5F5F5F5F5F5F5F5F5F5
310
F5F5F5F5F5F5F5F5F5F5F5F5F5F5F5F5F5F5F5F5F5F5F5F5F5F5F5F5F5F5F5F5F5F5F5E2F5F5F5F5F5F5F5F5F5F5F5E2E2E2F5F5F5F5F5F5F5F5F5F5F5E2F5F5F5F5F5F5F5F5F5F5F5F5F5F5F5F5F5F5F5F5F5F5F5F5F5F5F5F5F5F5F5F5F5F5F5F5F5F5F5F5F5F5F5F5F5F5F5F5F5F5F5F5F5F5F5F5F5F5F5F5F5F5F5F5F5
310
F5F5F5F5F5F5F5F5F5F5F5F5F5F5F5F5F5F5F5F5F5F5F5F5F5F5F5F5F5F5F5F5F5F5F5F5F5F5F5F5F5F5F5F5F5F5F5F5F5F5F5F5F5F5F5F5F5F5F5F5F5F5F5F5F5F5F5F5F5F5F5F5F5F5F5F5F5F5F5F5F5F5F5F5F5F5F5F5E2F5F5F5F5F5F5F5F5F5F5F5E2E2E2F5F5F5F5F5F5F5F5F5F5F5F5F5F5F5F5F5F5F5F5F5F5F5F5
310
F5F5F5F5F5F5F5F5F5F5F5F5F5F5F5F5F5F5F5F5F5F5F5F5F5F5F5F5F5F5F5F5F5F5F5F5F5F5F5F5F5F5F5F5F5F5F5F5F5F5F5F5F5F5F5F5F5F5F5F5F5F5F5F5F5F5F5F5F5F5F5F5F5F5F5F5F5F5F5F5F5F5F5F5F5F5F5F5F5F5F5F5F5F5F5F5F5F5F5F5F5F5F5F5F5F5F5F5F5F5F5F5F5F5F5F5F5F5F5F5F5F5F5F5F5F5F5
310
F5F5F5F5F5F5F5F5F5F5F5F5F5F5F5F5F5F5F5F5F5F5F5F5F5F5E2E2E2F5F5F5F5F5F5F5F5F5F5F5F5F5F5F5F5F5F5F5F5F5F5F5F5F5F5F5F5F5F5F5F5F5F5F5F5F5F5F5F5F5F5F5F5F5F5F5F5F5F5F5F5F5F5F5F5F5F5F5F5F5F5F5F5F5F5F5F5F5F5F5F5F5F5F5F5F5F5F5F5F5F5F5F5F5F5F5F5F5F5F5F5F5F5F5F5F5F5
310
F5F5F5F5F5F5F5F5F5F5F5F5F5F5F5F5F5F5F5F5F5F5F5F5F5F5F5F5F5F5F5F5F5F5F5F5F5F5F5F5F5F5F5F5F5F5F5F5F5F5F5F5F5F5F5F5F5F5F5F5F5F5F5F5F5F5F5F5F5F5F5F5F5F5F5F5F5F5F5E2E2E2F5F5F5F5F5F5F5F5F5F5F5F5F5F5F5F5F5F5F5F5F5F5F5F5F5F5F5F5F5F5F5F5F5F5F5F5F5F5F5F5F5F5F5F5F5
310
F5F5F5F5F5F5F5F5F5F5F5F5F5F5F5F5F5F5F5F5F5F5F5F5F5F5F5F5F5F5F5F5F5F5F5F5F5F5F5F5F5F5F5F5F5F5F5F5F5F5F5F5F5F5F5F5F5F5F5F5F5F5F5F5F5F5F5F5F5F5F5F5F5F5F5F5F5F5F5F5F5F5F5F5F5F5F5F5F5F5F5F5F5F5F5F5F5F5F5F5F5F5F5F5F5F5F5F5F5F5F5F5F5F5F5F5F5F5F5F5F5F5F5F5F5F5F5
310
F5F5F5F5F5E2E2E2F5F5F5F5F5F5F5F5F5F5F5F5F5F5F5F5F5F5F5F5F5F5F5F5F5F5F5F5F5F5F5F5F5F5F5F5F5F5F5F5F5F5F5F5F5F5F5F5F5F5F5F5F5F5F5F5F5F5F5F5F5F5F5F5F5F5F5F5F5F5F5F5F5F5F5F5F5F5F5F5F5F5F5F5F5F5F5F5F5F5F5F5F5F5F5F5F5F5F5F5F5F5F5F5F5F5F5F5F5F5F5F5F5F5F5F5F5F5F5
310
F5F5F5F5F5F5F5F5F5F5F5F5F5F5F5F5F5F5F5F5F5F5F5F5F5F5F5F5F5F5F5F5F5F5F5F5F5F5F5F5F5F5F5F5F5F5F5F5F5F5F5F5F5F5F5F5F5F5E2E2E2F5F5F5F5F5F5F5F5F5F5F5F5F5F5F5F5F5F5F5F5F5F5F5F5F5F5F5F5F5F5F5F5F5F5F5F5F5F5F5F5F5F5F5F5F5F5F5F5F5F5F5F5F5F5F5F5F5F5F5F5F5F5F5F5F5F5
310
F5F5F5F5F5F5F5F5F5F5F5F5F5F5F5F5F5F5F5F5F5F5F5F5F5F5F5F5F5F5F5F5F5F5F5F5F5F5F5F5F5F5F5F5F5F5F5F5F5F5F5F5F5F5F5F5F5F5F5F5F5F5F5F5F5F5F5F5F5F5F5F5F5F5F5F5F5F5F5F5F5F5F5F5F5F5F5F5F5F5F5F5F5F5F5F5F5F5F5F5F5F5F5F5F5F5F5F5F5F5F5E2E2E2F5F5F5F5F5F5F5F5F5F5F5F5F5
310
F5F5F5F5F5F5F5F5F5F5F5F5F5F5F5F5F5F5F5F5F5F5F5F5F5F5F5F5F5F5F5F5F5F5F5F5F5F5F5F5F5F5F5F5F5F5F5F5F5F5F5F5F5F5F5F5F5F5F5F5F5F5F5F5F5F5F5F5F5F5F5F5F5F5F5F5F5F5F5F5F5F5F5F5F5F5F5F5F5F5F5F5F5F5F5F5F5F5F5F5F5F5F5F5F5F5F5F5F5F5F5F5F5F5F5F5F5F5F5F5F5F5F5F5F5F5F5
310
F5F5F5F5F5F5F5F5F5F5F5F5F5F5F5F5F5F5F5F5F5F5F5F5F5F5F5F5F5F5F5F5F5F5F5F5F5E2E2E2F5F5F5F5F5F5F5F5F5F5F5F5F5F5F5F5F5F5F5F5F5F5F5F5F5F5F5F5F5F5F5F5F5F5F5F5F5F5F5F5F5F5F5F5F5F5F5F5F5F5F5F5F5F5F5F5F5F5F5F5F5F5F5F5F5F5F5F5F5F5F5F5F5F5F5F5F5F5F5F5F5F5F5F5F5F5F5
310
F5F5F5F5F5F5F5F5F5F5F5F5F5F5F5F5F5F5F5F5F5F5F5F5F5F5F5F5F5F5F5F5F5F5F5F5F5F5F5F5F5F5F5F5F5F5F5F5F5F5F5F5F5F5F5F5F5F5F5F5F5F5F5F5F5F5F5F5F5F5F5F5F5F5F5F5F5F5F5F5F5F5F5F5F5F5F5F5F5F5E2E2E2F5F5F5F5F5F5F5F5F5F5F5F5F5F5F5F5F5F5F5F5F5F5F5F5F5F5F5F5F5F5F5F5F5F5
310
F5F5F5F5F5F5F5F5F5F5F5F5F5F5F5F5F5F5F5F5F5F5F5F5F5F5F5F5F5F5F5F5F5F5F5F5F5F5F5F5F5F5F5F5F5F5F5F5F5F5F5F5F5F5F5F5F5F5F5F5F5F5F5F5F5F5F5F5F5F5F5F5F5F5F5F5F5F5F5F5F5F5F5F5F5F5F5F5F5F5F5F5F5F5F5F5F5F5F5F5F5F5F5F5F5F5F5F5F5F5F5F5F5F5F5F5F5F5F5F5F5F5F5F5F5F5F5
310
F5F5F5F5F5F5F5F5F5F5F5F5F5F5F5F5E2E2E2F5F5F5F5F5F5F5F5F5F5F5E2F5F5F5F5F5F5F5F5F5F5F5F5F5F5F5F5F5F5F5F5F5F5F5F5F5F5F5F5F5F5F5F5F5F5F5F5F5F5F5F5F5F5F5F5F5F5F5F5F5F5F5F5F5F5F5F5F5F5F5F5F5F5F5F5F5F5F5F5F5F5F5F5F5F5F5F5F5F5F5F5F5F5F5F5F5F5F5F5F5F5F5F5F5F5F5F5
310
F5F5F5F5F5F5F5F5F5F5F5F5F5F5F5F5F5F5F5F5F5F5F5F5F5F5F5F5F5F5F5F5F5F5F5F5F5F5F5F5F5F5F5F5F5F5F5F5F5F5F5F5F5F5F5F5F5E2F5F5F5F5F5F5F5F5F5F5F5E2E2E2F5F5F5F5F5F5F5F5F5F5F5E2F5F5F5F5F5F5F5F5F5F5F5F5F5F5F5F5F5F5F5F5F5F5F5F5F5F5F5F5F5F5F5F5F5F5F5F5F5F5F5F5F5F5F5
310
F5F5F5F5F5F5F5F5F5F5F5F5F5F5F5F5F5F5F5F5F5F5F5F5F5F5F5F5F5F5F5F5F5F5F5F5F5F5F5F5F5F5F5F5F5F5F5F5F5F5F5F5F5F5F5F5F5F5F5F5F5F5F5F5F5F5F5F5F5F5F5F5F5F5F5F5F5F5F5F5F5F5F5F5F5F5F5F5F5F5F5F5F5F5F5F5F5F5F5F5F5F5F5F5F5F5F5F5F5F5E2F5F5F5F5F5F5F5F5F5F5F5E2E2E2F5F5
310
F5F5F5F5F5F5F5F5F5E2F5F5F5F5F5F5F5F5F5F5F5F5F5F5F5F5F5F5F5F5F5F5F5F5F5F5F5F5F5F5F5F5F5F5F5F5F5F5F5F5F5F5F5F5F5F5F5F5F5F5F5F5F5F5F5F5F5F5F5F5F5F5F5F5F5F5F5F5F5F5F5F5F5F5F5F5F5F5F5F5F5F5F5F5F5F5F5F5F5F5F5F5F5F5F5F5F5F5F5F5F5F5F5F5F5F5F5F5F5F5F5F5F5F5F5F5F5
310
F5F5F5F5F5F5F5F5F5F5F5F5F5F5F5F5F5F5F5F5F5F5F5F5F5F5F5F5F5F5F5F5F5F5F5F5E2F5F5F5F5F5F5F5F5F5F5F5E2E2E2F5F5F5F5F5F5F5F5F5F5F5E2F5F5F5F5F5F5F5F5F5F5F5F5F5F5F5F5F5F5F5F5F5F5F5F5F5F5F5F5F5F5F5F5F5F5F5F5F5F5F5F5F5F5F5F5F5F5F5F5F5F5F5F5F5F5F5F5F5F5F5F5F5F5F5F5
310
F5F5F5F5F5F5F5F5F5F5F5F5F5F5F5F5F5F5F5F5F5F5F5F5F5F5F5F5F5F5F5F5F5F5F5F5F5F5F5F5F5F5F5F5F5F5F5F5F5F5F5F5F5F5F5F5F5F5F5F5F5F5F5F5F5F5F5F5F5F5F5F5F5F5F5F5F5F5F5F5F5F5F5F5F5F5F5F5F5E2F5F5F5F5F5F5F5F5F5F5F5E2E2E2F5F5F5F5F5F5F5F5F5F5F5E2F5F5F5F5F5F5F5F5F5F5F5
310
F5F5F5F5F5F5F5F5F5F5F5F5F5F5F5F5F5F5F5F5F5F5F5F5F5F5F5F5F5F5F5F5F5F5F5F5F5F5F5F5F5F5F5F5F5F5F5F5F5F5F5F5F5F5F5F5F5F5F5F5F5F5F5F5F5F5F5F5F5F5F5F5F5F5F5F5F5F5F5F5F5F5F5F5F5F5F5F5F5F5F5F5F5F5F5F5F5F5F5F5F5F5F5F5F5F5F5F5F5F5F5F5F5F5F5F5F5F5F5F5F5F5F5F5F5F5F5
310
F5F5F5F5F5F5F5F5F5F5F5F5F5F5F5E2F5F5F5F5F5F5F5F5F5F5F5E2E2E2F5F5F5F5F5F5F5F5F5F5F5E2F5F5F5F5F5F5F5F5F5F5F5F5F5F5F5F5F5F5F5F5F5F5F5F5F5F5F5F5F5F5F5F5F5F5F5F5F5F5F5F5F5F5F5F5F5F5F5F5F5F5F5F5F5F5F5F5F5F5F5F5F5F5F5F5F5F5F5F5F5F5F5F5F5F5F5F5F5F5F5F5F5F5F5F5F5
310
F5F5F5F5F5F5F5F5F5F5F5F5F5F5F5F5F5F5F5F5F5F5F5F5F5F5F5F5F5F5F5F5F5F5F5F5F5F5F5F5F5F5F5F5F5F5F5F5F5F5F5F5F5F5F5F5F5F5F5F5F5F5F5F5F5F5F5F5E2F5F5F5F5F5F5F5F5F5F5F5E2E2E2F5F5F5F5F5F5F5F5F5F5F5E2F5F5F5F5F5F5F5F5F5F5F5F5F5F5F5F5F5F5F5F5F5F5F5F5F5F5F5F5F5F5F5F5
310
F5F5F5F5F5F5F5F5F5F5F5F5F5F5F5F5F5F5F5F5F5F5F5F5F5F5F5F5F5F5F5F5F5F5F5F5F5F5F5F5F5F5F5F5F5F5F5F5F5F5F5F5F5F5F5F5F5F5F5F5F5F5F5F5F5F5F5F5F5F5F5F5F5F5F5F5F5F5F5F5F5F5F5F5F5F5F5F5F5F5F5F5F5F5F5F5F5F5F5F5F5F5F5F5F5F5F5F5F5F5F5F5F5F5F5F5F5F5F5F5F5E2F5F5F5F5F5
310
F5F5F5F5F5F5E2E2E2F5F5F5F5F5F5F5F5F5F5F5E2F5F5F5F5F5F5F5F5F5F5F5F5F5F5F5F5F5F5F5F5F5F5F5F5F5F5F5F5F5F5F5F5F5F5F5F5F5F5F5F5F5F5F5F5F5F5F5F5F5F5F5F5F5F5F5F5F5F5F5F5F5F5F5F5F5F5F5F5F5F5F5F5F5F5F5F5F5F5F5F5F5F5F5F5F5F5F5F5F5F5F5F5F5F5F5F5F5F5F5F5F5F5F5F5F5F5
310
F5F5F5F5F5F5F5F5F5F5F5F5F5F5F5F5F5F5F5F5F5F5F5F5F5F5F5F5F5F5F5F5F5F5F5F5F5F5F5F5F5F5F5F5F5F5F5E2F5F5F5F5F5F5F5F5F5F5F5E2E2E2F5F5F5F5F5F5F5F5F5F5F5E2F5F5F5F5F5F5F5F5F5F5F5F5F5F5F5F5F5F5F5F5F5F5F5F5F5F5F5F5F5F5F5F5F5F5F5F5F5F5F5F5F5F5F5F5F5F5F5F5F5F5F5F5F5
310
F5F5F5F5F5F5F5F5F5F5F5F5F5F5F5F5F5F5F5F5F5F5F5F5F5F5F5F5F5F5F5F5F5F5F5F5F5F5F5F5F5F5F5F5F5F5F5F5F5F5F5F5F5F5F5F5F5F5F5F5F5F5F5F5F5F5F5F5F5F5F5F5F5F5F5F5F5F5F5F5F5F5F5F5F5F5F5F5F5F5F5F5F5F5F5F5F5F5F5F5E2F5F5F5F5F5F5F5F5F5F5F5E2E2E2F5F5F5F5F5F5F5F5F5F5F5E2
310
F5F5F5F5F5F5F5F5F5F5F5F5F5F5F5F5F5F5F5F5F5F5F5F5F5F5F5F5F5F5F5F5F5F5F5F5F5F5F5F5F5F5F5F5F5F5F5F5F5F5F5F5F5F5F5F5F5F5F5F5F5F5F5F5F5F5F5F5F5F5F5F5F5F5F5F5F5F5F5F5F5F5F5F5F5F5F5F5F5F5F5F5F5F5F5F5F5F5F5F5F5F5F5F5F5F5F5F5F5F5F5F5F5F5F5F5F5F5F5F5F5F5F5F5F5F5F5
310
F5F5F5F5F5F5F5F5F5F5F5F5F5F5F5F5F5F5F5F5F5F5F5F5F5F5E2F5F5F5F5F5F5F5F5F5F5F5E2E2E2F5F5F5F5F5F5F5F5F5F5F5E2F5F5F5F5F5F5F5F5F5F5F5F5F5F5F5F5F5F5F5F5F5F5F5F5F5F5F5F5F5F5F5F5F5F5F5F5F5F5F5F5F5F5F5F5F5F5F5F5F5F5F5F5F5F5F5F5F5F5F5F5F5F5F5F5F5F5F5F5F5F5F5F5F5F5
310
F5F5F5F5F5F5F5F5F5F5F5F5F5F5F5F5F5F5F5F5F5F5F5F5F5F5F5F5F5F5F5F5F5F5F5F5F5F5F5F5F5F5F5F5F5F5F5F5F5F5F5F5F5F5F5F5F5F5F5F5F5F5F5F5F5F5F5F5F5F5F5F5F5F5F5F5F5F5F5E2F5F5F5F5F5F5F5F5F5F5F5E2E2E2F5F5F5F5F5F5F5F5F5F5F5E2F5F5F5F5F5F5F5F5F5F5F5F5F5F5F5F5F5F5F5F5F5
310
F5F5F5F5F5F5F5F5F5F5F5F5F5F5F5F5F5F5F5F5F5F5F5F5F5F5F5F5F5F5F5F5F5F5F5F5F5F5F5F5F5F5F5F5F5F5F5F5F5F5F5F5F5F5F5F5F5F5F5F5F5F5F5F5F5F5F5F5F5F5F5F5F5F5F5F5F5F5F5F5F5F5F5F5F5F5F5F5F5F5F5F5F5F5F5F5F5F5F5F5F5F5F5F5F5F5F5F5F5F5F5F5F5F5F5F5F5F5F5F5F5F5F5F5F5F5F5
310
F5F5F5F5F5E2F5F5F5F5F5F5F5F5F5F5F5E2E2E2F5F5F5F5F5F5F5F5F5F5F5E2F5F5F5F5F5F5F5F5F5F5F5F5F5F5F5F5F5F5F5F5F5F5F5F5F5F5F5F5F5F5F5F5F5F5F5F5F5F5F5F5F5F5F5F5F5F5F5F5F5F5F5F5F5F5F5F5F5F5F5F5F5F5F5F5F5F5F5F5F5F5F5F5F5F5F5F5F5F5F5F5F5F5F5F5F5F5F5F5F5F5F5F5F5F5F5
310
F5F5F5F5F5F5F5F5F5F5F5F5F5F5F5F5F5F5F5F5F5F5F5F5F5F5F5F5F5F5F5F5F5F5F5F5F5F5F5F5F5F5F5F5F5F5F5F5F5F5F5F5F5F5F5F5F5F5E2F5F5F5F5F5F5F5F5F5F5F5E2E2E2F5F5F5F5F5F5F5F5F5F5F5E2F5F5F5F5F5F5F5F5F5F5F5F5F5F5F5F5F5F5F5F5F5F5F5F5F5F5F5F5F5F5F5F5F5F5F5F5F5F5F5F5F5F5
310
F5F5F5F5F5F5F5F5F5F5F5F5F5F5F5F5F5F5F5F5F5F5F5F5F5F5F5F5F5F5F5F5F5F5F5F5F5F5F5F5F5F5F5F5F5F5F5F5F5F5F5F5F5F5F5F5F5F5F5F5F5F5F5F5F5F5F5F5F5F5F5F5F5F5F5F5F5F5F5F5F5F5F5F5F5F5F5F5F5F5F5F5F5F5F5F5F5F5F5F5F5F5F5F5F5F5F5F5F5F5F5E2F5F5F5F5F5F5F5F5F5F5F5E2E2E2F5
310
F5F5F5F5F5F5F5F5F5F5E2F5F5F5F5F5F5F5F5F5F5F5F5F5F5F5F5F5F5F5F5F5F5F5F5F5F5F5F5F5F5F5F5F5F5F5F5F5F5F5F5F5F5F5F5F5F5F5F5F5F5F5F5F5F5F5F5F5F5F5F5F5F5F5F5F5F5F5F5F5F5F5F5F5F5F5F5F5F5F5F5F5F5F5F5F5F5F5F5F5F5F5F5F5F5F5F5F5F5F5F5F5F5F5F5F5F5F5F5F5F5F5F5F5F5F5F5
310
F5F5F5F5F5F5F5F5F5F5F5F5F5F5F5F5F5F5F5F5F5F5F5F5F5F5F5F5F5F5F5F5F5F5F5F5F5E2F5F5F5F5F5F5F5F5F5F5F5E2E2E2F5F5F5F5F5F5F5F5F5F5F5F5F5F5F5F5F5F5F5F5F5F5F5F5F5F5F5F5F5F5F5F5F5F5F5F5F5F5F5F5F5F5F5F5F5F5F5F5F5F5F5F5F5F5F5F5F5F5F5F5F5F5F5F5F5F5F5F5F5F5F5F5F5F5F5
310
F5F5F5F5F5F5F5F5F5F5F5F5F5F5F5F5F5F5F5F5F5F5F5F5F5F5F5F5F5F5F5F5F5F5F5F5F5F5F5F5F5F5F5F5F5F5F5F5F5F5F5F5F5F5F5F5F5F5F5F5F5F5F5F5F5F5F5F5F5F5F5F5F5F5F5F5F5F5F5F5F5F5F5F5F5F5F5F5F5F5F5F5F5F5F5F5F5F5F5F5F5F5E2E2E2F5F5F5F5F5F5F5F5F5F5F5F5F5F5F5F5F5F5F5F5F5F5
310
F5F5F5F5F5F5F5F5F5F5F5F5F5F5F5F5F5F5F5F5F5F5F5F5F5F5F5F5F5F5F5F5F5F5F5F5F5F5F5F5F5F5F5F5F5F5F5F5F5F5F5F5F5F5F5F5F5F5F5F5F5F5F5F5F5F5F5F5F5F5F5F5F5F5F5F5F5F5F5F5F5F5F5F5F5F5F5F5F5F5F5F5F5F5F5F5F5F5F5F5F5F5F5F5F5F5F5F5F5F5F5F5F5F5F5F5F5F5F5F5F5F5F5F5F5F5F5
310
F5F5F5F5F5F5F5F5F5F5F5F5F5F5F5F5F5F5F5F5F5F5F5F5F5F5F5F5E2E2E2F5F5F5F5F5F5F5F5F5F5F5F5F5F5F5F5F5F5F5F5F5F5F5F5F5F5F5F5F5F5F5F5F5F5F5F5F5F5F5F5F5F5F5F5F5F5F5F5F5F5F5F5F5F5F5F5F5F5F5F5F5F5F5F5F5F5F5F5F5F5F5F5F5F5F5F5F5F5F5F5F5F5F5F5F5F5F5F5F5F5F5F5F5F5F5F5
310
F5F5F5F5F5F5F5F5F5F5F5F5F5F5F5F5F5F5F5F5F5F5F5F5F5F5F5F5F5F5F5F5F5F5F5F5F5F5F5F5F5F5F5F5F5F5F5F5F5F5F5F5F5F5F5F5F5F5F5F5F5F5F5F5F5F5F5F5F5F5F5F5F5F5F5F5F5F5F5F5F5E2E2E2F5F5F5F5F5F5F5F5F5F5F5F5F5F5F5F5F5F5F5F5F5F5F5F5F5F5F5F5F5F5F5F5F5F5F5F5F5F5F5F5F5F5F5
310
F5F5F5F5F5F5F5F5F5F5F5F5F5F5F5F5F5F5F5F5F5F5F5F5F5F5F5F5F5F5F5F5F5F5F5F5F5F5F5F5F5F5F5F5F5F5F5F5F5F5F5F5F5F5F5F5F5F5F5F5F5F5F5F5F5F5F5F5F5F5F5F5F5F5F5F5F5F5F5F5F5F5F5F5F5F5F5F5F5F5F5F5F5F5F5F5F5F5F5F5F5F5F5F5F5F5F5F5F5F5F5F5F5F5F5F5F5F5F5F5F5F5F5F5F5F5F5
310
F5F5F5F5F5F5F5E2E2E2F5F5F5F5F5F5F5F5F5F5F5F5F5F5F5F5F5F5F5F5F5F5F5F5F5F5F5F5F5F5F5F5F5F5F5F5F5F5F5F5F5F5F5F5F5F5F5F5F5F5F5F5F5F5F5F5F5F5F5F5F5F5F5F5F5F5F5F5F5F5F5F5F5F5F5F5F5F5F5F5F5F5F5F5F5F5F5F5F5F5F5F5F5F5F5F5F5F5F5F5F5F5F5F5F5F5F5F5F5F5F5F5F5F5F5F5F5
310
F5F5F5F5F5F5F5F5F5F5F5F5F5F5F5F5F5F5F5F5F5F5F5F5F5F5F5F5F5F5F5F5F5F5F5F5F5F5F5F5F5F5F5F5F5F5F5F5F5F5F5F5F5F5F5F5F5F5F5F5E2E2E2F5F5F5F5F5F5F5F5F5F5F5F5F5F5F5F5F5F5F5F5F5F5F5F5F5F5F5F5F5F5F5F5F5F5F5F5F5F5F5F5F5F5F5F5F5F5F5F5F5F5F5F5F5F5F5F5F5F5F5F5F5F5F5F5
310
F5F5F5F5F5F5F5F5F5F5F5F5F5F5F5F5F5F5F5F5F5F5F5F5F5F5F5F5F5F5F5F5F5F5F5F5F5F5F5F5F5F5F5F5F5F5F5F5F5F5F5F5F5F5F5F5F5F5F5F5F5F5F5F5F5F5F5F5F5F5F5F5F5F5F5F5F5F5F5F5F5F5F5F5F5F5F5F5F5F5F5F5F5F5F5F5F5F5F5F5F5F5F5F5F5F5F5F5F5F5F5F5F5E2E2E2F5F5F5F5F5F5F5F5F5F5F5
310
F5F5F5F5F5F5F5F5F5F5F5F5F5F5F5F5F5F5F5F5F5F5F5F5F5F5F5F5F5F5F5F5F5F5F5F5F5F5F5F5F5F5F5F5F5F5F5F5F5F5F5F5F5F5F5F5F5F5F5F5F5F5F5F5F5F5F5F5F5F5F5F5F5F5F5F5F5F5F5F5F5F5F5F5F5F5F5F5F5F5F5F5F5F5F5F5F5F5F5F5F5F5F5F5F5F5F5F5F5F5F5F5F5F5F5F5F5F5F5F5F5F5F5F5F5F5F5
310
F5F5F5F5F5F5F5F5F5F5F5F5F5F5F5F5F5F5F5F5F5F5F5F5F5F5F5F5F5F5F5F5F5F5F5F5F5F5F5E2E2E2F5F5F5F5F5F5F5F5F5F5F5F5F5F5F5F5F5F5F5F5F5F5F5F5F5F5F5F5F5F5F5F5F5F5F5F5F5F5F5F5F5F5F5F5F5F5F5F5F5F5F5F5F5F5F5F5F5F5F5F5F5F5F5F5F5F5F5F5F5F5F5F5F5F5F5F5F5F5F5F5F5F5F5F5F5
310
F5F5F5F5F5F5F5F5F5F5F5F5F5F5F5F5F5F5F5F5F5F5F5F5F5F5F5F5F5F5F5F5F5F5F5F5F5F5F5F5F5F5F5F5F5F5F5F5F5F5F5F5F5F5F5F5F5F5F5F5F5F5F5F5F5F5F5F5F5F5F5F5F5F5F5F5F5F5F5F5F5F5F5F5F5F5F5F5F5F5F5F5E2E2E2F5F5F5F5F5F5F5F5F5F5F5E2F5F5F5F5F5F5F5F5F5F5F5F5F5F5F5F5F5F5F5F5
310
F5F5F5F5F5F5F5F5F5F5F5F5F5F5F5F5F5F5F5F5F5F5F5F5F5F5F5F5F5F5F5F5F5F5F5F5F5F5F5F5F5F5F5F5F5F5F5F5F5F5F5F5F5F5F5F5F5F5F5F5F5F5F5F5F5F5F5F5F5F5F5F5F5F5F5F5F5F5F5F5F5F5F5F5F5F5F5F5F5F5F5F5F5F5F5F5F5F5F5F5F5F5F5F5F5F5F5F5F5F5F5F5F5F5F5F5F5F5F5F5F5F5F5F5F5F5F5
310
F5F5F5F5F5F5E2F5F5F5F5F5F5F5F5F5F5F5E2E2E2F5F5F5F5F5F5F5F5F5F5F5E2F5F5F5F5F5F5F5F5F5F5F5F5F5F5F5F5F5F5F5F5F5F5F5F5F5F5F5F5F5F5F5F5F5F5F5F5F5F5F5F5F5F5F5F5F5F5F5F5F5F5F5F5F5F5F5F5F5F5F5F5F5F5F5F5F5F5F5F5F5F5F5F5F5F5F5F5F5F5F5F5F5F5F5F5F5F5F5F5F5F5F5F5F5F5
310
F5F5F5F5F5F5F5F5F5F5F5F5F5F5F5F5F5F5F5F5F5F5F5F5F5F5F5F5F5F5F5F5F5F5F5F5F5F5F5F5F5F5F5F5F5F5F5F5F5F5F5F5F5F5F5F5F5F5F5E2F5F5F5F5F5F5F5F5F5F5F5E2E2E2F5F5F5F5F5F5F5F5F5F5F5E2F5F5F5F5F5F5F5F5F5F5F5F5F5F5F5F5F5F5F5F5F5F5F5F5F5F5F5F5F5F5F5F5F5F5F5F5F5F5F5F5F5
310
F5F5F5F5F5F5F5F5F5F5F5F5F5F5F5F5F5F5F5F5F5F5F5F5F5F5F5F5F5F5F5F5F5F5F5F5F5F5F5F5F5F5F5F5F5F5F5F5F5F5F5F5F5F5F5F5F5F5F5F5F5F5F5F5F5F5F5F5F5F5F5F5F5F5F5F5F5F5F5F5F5F5F5F5F5F5F5F5F5F5F5F5F5F5F5F5F5F5F5F5F5F5F5F5F5F5F5F5F5F5F5F5E2F5F5F5F5F5F5F5F5F5F5F5E2E2E2
310
F5F5F5F5F5F5F5F5F5F5F5E2F5F5F5F5F5F5F5F5F5F5F5F5F5F5F5F5F5F5F5F5F5F5F5F5F5F5F5F5F5F5F5F5F5F5F5F5F5F5F5F5F5F5F5F5F5F5F5F5F5F5F5F5F5F5F5F5F5F5F5F5F5F5F5F5F5F5F5F5F5F5F5F5F5F5F5F5F5F5F5F5F5F5F5F5F5F5F5F5F5F5F5F5F5F5F5F5F5F5F5F5F5F5F5F5F5F5F5F5F5F5F5F5F5F5F5
310
F5F5F5F5F5F5F5F5F5F5F5F5F5F5F5F5F5F5F5F5F5F5F5F5F5F5F5F5F5F5F5F5F5F5F5F5F5F5E2F5F5F5F5F5F5F5F5F5F5F5E2E2E2F5F5F5F5F5F5F5F5F5F5F5E2F5F5F5F5F5F5F5F5F5F5F5F5F5F5F5F5F5F5F5F5F5F5F5F5F5F5F5F5F5F5F5F5F5F5F5F5F5F5F5F5F5F5F5F5F5F5F5F5F5F5F5F5F5F5F5F5F5F5F5F5F5F5
310
F5F5F5F5F5F5F5F5F5F5F5F5F5F5F5F5F5F5F5F5F5F5F5F5F5F5F5F5F5F5F5F5F5F5F5F5F5F5F5F5F5F5F5F5F5F5F5F5F5F5F5F5F5F5F5F5F5F5F5F5F5F5F5F5F5F5F5F5F5F5F5F5F5F5F5F5F5F5F5F5F5F5F5F5F5F5F5F5F5F5F5E2F5F5F5F5F5F5F5F5F5F5F5E2E2E2F5F5F5F5F5F5F5F5F5F5F5E2F5F5F5F5F5F5F5F5F5
310
F5F5F5F5F5F5F5F5F5F5F5F5F5F5F5F5F5F5F5F5F5F5F5F5F5F5F5F5F5F5F5F5F5F5F5F5F5F5F5F5F5F5F5F5F5F5F5F5F5F5F5F5F5F5F5F5F5F5F5F5F5F5F5F5F5F5F5F5F5F5F5F5F5F5F5F5F5F5F5F5F5F5F5F5F5F5F5F5F5F5F5F5F5F5F5F5F5F5F5F5F5F5F5F5F5F5F5F5F5F5F5F5F5F5F5F5F5F5F5F5F5F5F5F5F5F5F5
310
F5F5F5F5F5F5F5F5F5F5F5F5F5F5F5F5F5E2F5F5F5F5F5F5F5F5F5F5F5E2E2E2F5F5F5F5F5F5F5F5F5F5F5E2F5F5F5F5F5F5F5F5F5F5F5F5F5F5F5F5F5F5F5F5F5F5F5F5F5F5F5F5F5F5F5F5F5F5F5F5F5F5F5F5F5F5F5F5F5F5F5F5F5F5F5F5F5F5F5F5F5F5F5F5F5F5F5F5F5F5F5F5F5F5F5F5F5F5F5F5F5F5F5F5F5F5F5
310
F5F5F5F5F5F5F5F5F5F5F5F5F5F5F5F5F5F5F5F5F5F5F5F5F5F5F5F5F5F5F5F5F5F5F5F5F5F5F5F5F5F5F5F5F5F5F5F5F5F5F5F5F5F5F5F5F5F5F5F5F5F5F5F5F5F5F5F5F5F5E2F5F5F5F5F5F5F5F5F5F5F5E2E2E2F5F5F5F5F5F5F5F5F5F5F5E2F5F5F5F5F5F5F5F5F5F5F5F5F5F5F5F5F5F5F5F5F5F5F5F5F5F5F5F5F5F5
310
F5F5F5F5F5F5F5F5F5F5F5F5F5F5F5F5F5F5F5F5F5F5F5F5F5F5F5F5F5F5F5F5F5F5F5F5F5F5F5F5F5F5F5F5F5F5F5F5F5F5F5F5F5F5F5F5F5F5F5F5F5F5F5F5F5F5F5F5F5F5F5F5F5F5F5F5F5F5F5F5F5F5F5F5F5F5F5F5F5F5F5F5F5F5F5F5F5F5F5F5F5F5F5F5F5F5F5F5F5F5F5F5F5F5F5F5F5F5F5F5F5F5F5E2F5F5F5
310
F5F5F5F5F5F5F5F5E2E2E2F5F5F5F5F5F5F5F5F5F5F5E2F5F5F5F5F5F5F5F5F5F5F5F5F5F5F5F5F5F5F5F5F5F5F5F5F5F5F5F5F5F5F5F5F5F5F5F5F5F5F5F5F5F5F5F5F5F5F5F5F5F5F5F5F5F5F5F5F5F5F5F5F5F5F5F5F5F5F5F5F5F5F5F5F5F5F5F5F5F5F5F5F5F5F5F5F5F5F5F5F5F5F5F5F5F5F5F5F5F5F5F5F5F5F5F5
310
F5F5F5F5F5F5F5F5F5F5F5F5F5F5F5F5F5F5F5F5F5F5F5F5F5F5F5F5F5F5F5F5F5F5F5F5F5F5F5F5F5F5F5F5F5F5F5F5F5E2F5F5F5F5F5F5F5F5F5F5F5E2E2E2F5F5F5F5F5F5F5F5F5F5F5E2F5F5F5F5F5F5F5F5F5F5F5F5F5F5F5F5F5F5F5F5F5F5F5F5F5F5F5F5F5F5F5F5F5F5F5F5F5F5F5F5F5F5F5F5F5F5F5F5F5F5F5
310
F5F5F5F5F5F5F5F5F5F5F5F5F5F5F5F5F5F5F5F5F5F5F5F5F5F5F5F5F5F5F5F5F5F5F5F5F5F5F5F5F5F5F5F5F5F5F5F5F5F5F5F5F5F5F5F5F5F5F5F5F5F5F5F5F5F5F5F5F5F5F5F5F5F5F5F5F5F5F5F5F5F5F5F5F5F5F5F5F5F5F5F5F5F5F5F5F5F5F5F5F5F5E2F5F5F5F5F5F5F5F5F5F5F5E2E2E2F5F5F5F5F5F5F5F5F5F5
310
F5E2F5F5F5F5F5F5F5F5F5F5F5F5F5F5F5F5F5F5F5F5F5F5F5F5F5F5F5F5F5F5F5F5F5F5F5F5F5F5F5F5F5F5F5F5F5F5F5F5F5F5F5F5F5F5F5F5F5F5F5F5F5F5F5F5F5F5F5F5F5F5F5F5F5F5F5F5F5F5F5F5F5F5F5F5F5F5F5F5F5F5F5F5F5F5F5F5F5F5F5F5F5F5F5F5F5F5F5F5F5F5F5F5F5F5F5F5F5F5F5F5F5F5F5F5F5
310
F5F5F5F5F5F5F5F5F5F5F5F5F5F5F5F5F5F5F5F5F5F5F5F5F5F5F5F5E2F5F5F5F5F5F5F5F5F5F5F5E2E2E2F5F5F5F5F5F5F5F5F5F5F5E2F5F5F5F5F5F5F5F5F5F5F5F5F5F5F5F5F5F5F5F5F5F5F5F5F5F5F5F5F5F5F5F5F5F5F5F5F5F5F5F5F5F5F5F5F5F5F5F5F5F5F5F5F5F5F5F5F5F5F5F5F5F5F5F5F5F5F5F5F5F5F5F5
310
F5F5F5F5F5F5F5F5F5F5F5F5F5F5F5F5F5F5F5F5F5F5F5F5F5F5F5F5F5F5F5F5F5F5F5F5F5F5F5F5F5F5F5F5F5F5F5F5F5F5F5F5F5F5F5F5F5F5F5F5F5F5F5F5F5F5F5F5F5F5F5F5F5F5F5F5F5F5F5F5F5E2F5F5F5F5F5F5F5F5F5F5F5E2E2E2F5F5F5F5F5F5F5F5F5F5F5E2F5F5F5F5F5F5F5F5F5F5F5F5F5F5F5F5F5F5F5
310
F5F5F5F5F5F5F5F5F5F5F5F5F5F5F5F5F5F5F5F5F5F5F5F5F5F5F5F5F5F5F5F5F5F5F5F5F5F5F5F5F5F5F5F5F5F5F5F5F5F5F5F5F5F5F5F5F5F5F5F5F5F5F5F5F5F5F5F5F5F5F5F5F5F5F5F5F5F5F5F5F5F5F5F5F5F5F5F5F5F5F5F5F5F5F5F5F5F5F5F5F5F5F5F5F5F5F5F5F5F5F5F5F5F5F5F5F5F5F5F5F5F5F5F5F5F5F5
310
F5F5F5F5F5F5F5E2F5F5F5F5F5F5F5F5F5F5F5E2E2E2F5F5F5F5F5F5F5F5F5F5F5E2F5F5F5F5F5F5F5F5F5F5F5F5F5F5F5F5F5F5F5F5F5F5F5F5F5F5F5F5F5F5F5F5F5F5F5F5F5F5F5F5F5F5F5F5F5F5F5F5F5F5F5F5F5F5F5F5F5F5F5F5F5F5F5F5F5F5F5F5F5F5F5F5F5F5F5F5F5F5F5F5F5F5F5F5F5F5F5F5F5F5F5F5F5
310
F5F5F5F5F5F5F5F5F5F5F5F5F5F5F5F5F5F5F5F5F5F5F5F5F5F5F5F5F5F5F5F5F5F5F5F5F5F5F5F5F5F5F5F5F5F5F5F5F5F5F5F5F5F5F5F5F5F5F5F5E2F5F5F5F5F5F5F5F5F5F5F5E2E2E2F5F5F5F5F5F5F5F5F5F5F5E2F5F5F5F5F5F5F5F5F5F5F5F5F5F5F5F5F5F5F5F5F5F5F5F5F5F5F5F5F5F5F5F5F5F5F5F5F5F5F5F5
310
F5F5F5F5F5F5F5F5F5F5F5F5F5F5F5F5F5F5F5F5F5F5F5F5F5F5F5F5F5F5F5F5F5F5F5F5F5F5F5F5F5F5F5F5F5F5F5F5F5F5F5F5F5F5F5F5F5F5F5F5F5F5F5F5F5F5F5F5F5F5F5F5F5F5F5F5F5F5F5F5F5F5F5F5F5F5F5F5F5F5F5F5F5F5F5F5F5F5F5F5F5F5F5F5F5F5F5F5F5F5F5F5F5E2F5F5F5F5F5F5F5F5F5F5F5E2E2
310
E2F5F5F5F5F5F5F5F5F5F5F5F5F5F5F5F5F5F5F5F5F5F5F5F5F5F5F5F5F5F5F5F5F5F5F5F5F5F5F5F5F5F5F5F5F5F5F5F5F5F5F5F5F5F5F5F5F5F5F5F5F5F5F5F5F5F5F5F5F5F5F5F5F5F5F5F5F5F5F5F5F5F5F5F5F5F5F5F5F5F5F5F5F5F5F5F5F5F5F5F5F5F5F5F5F5F5F5F5F5F5F5F5F5F5F5F5F5F5F5F5F5F5F5F5F5F5
310
F5F5F5F5F5F5F5F5F5F5F5F5F5F5F5F5F5F5F5F5F5F5F5F5F5F5F5F5F5F5F5F5F5F5F5F5F5F5F5F5F5F5F5F5F5F5F5F5F5F5F5E2E2E2F5F5F5F5F5F5F5F5F5F5F5F5F5F5F5F5F5F5F5F5F5F5F5F5F5F5F5F5F5F5F5F5F5F5F5F5F5F5F5F5F5F5F5F5F5F5F5F5F5F5F5F5F5F5F5F5F5F5F5F5F5F5F5F5F5F5F5F5F5F5F5F5F5
310
F5F5F5F5F5F5F5F5F5F5F5F5F5F5F5F5F5F5F5F5F5F5F5F5F5F5F5F5F5F5F5F5F5F5F5F5F5F5F5F5F5F5F5F5F5F5F5F5F5F5F5F5F5F5F5F5F5F5F5F5F5F5F5F5F5F5F5F5F5F5F5F5F5F5F5F5F5F5F5F5F5F5F5F5F5F5F5F5F5F5F5F5F5F5F5F5F5F5F5F5F5F5F5F5E2E2E2F5F5F5F5F5F5F5F5F5F5F5F5F5F5F5F5F5F5F5F5
310
F5F5F5F5F5F5F5F5F5F5F5F5F5F5F5F5F5F5F5F5F5F5F5F5F5F5F5F5F5F5F5F5F5F5F5F5F5F5F5F5F5F5F5F5F5F5F5F5F5F5F5F5F5F5F5F5F5F5F5F5F5F5F5F5F5F5F5F5F5F5F5F5F5F5F5F5F5F5F5F5F5F5F5F5F5F5F5F5F5F5F5F5F5F5F5F5F5F5F5F5F5F5F5F5F5F5F5F5F5F5F5F5F5F5F5F5F5F5F5F5F5F5F5F5F5F5F5
310
F5F5F5F5F5F5F5F5F5F5F5F5F5F5F5F5F5F5F5F5F5F5F5F5F5F5F5F5F5F5E2E2E2F5F5F5F5F5F5F5F5F5F5F5F5F5F5F5F5F5F5F5F5F5F5F5F5F5F5F5F5F5F5F5F5F5F5F5F5F5F5F5F5F5F5F5F5F5F5F5F5F5F5F5F5F5F5F5F5F5F5F5F5F5F5F5F5F5F5F5F5F5F5F5F5F5F5F5F5F5F5F5F5F5F5F5F5F5F5F5F5F5F5F5F5F5F5
310
F5F5F5F5F5F5F5F5F5F5F5F5F5F5F5F5F5F5F5F5F5F5F5F5F5F5F5F5F5F5F5F5F5F5F5F5F5F5F5F5F5F5F5F5F5F5F5F5F5F5F5F5F5F5F5F5F5F5F5F5F5F5F5F5F5F5F5F5F5F5F5F5F5F5F5F5F5F5F5F5F5F5F5E2E2E2F5F5F5F5F5F5F5F5F5F5F5F5F5F5F5F5F5F5F5F5F5F5F5F5F5F5F5F5F5F5F5F5F5F5F5F5F5F5F5F5F5
310
F5F5F5F5F5F5F5F5F5F5F5F5F5F5F5F5F5F5F5F5F5F5F5F5F5F5F5F5F5F5F5F5F5F5F5F5F5F5F5F5F5F5F5F5F5F5F5F5F5F5F5F5F5F5F5F5F5F5F5F5F5F5F5F5F5F5F5F5F5F5F5F5F5F5F5F5F5F5F5F5F5F5F5F5F5F5F5F5F5F5F5F5F5F5F5F5F5F5F5F5F5F5F5F5F5F5F5F5F5F5F5F5F5F5F5F5F5F5F5F5F5F5F5F5F5F5F5
310
F5F5F5F5F5F5F5F5F5E2E2E2F5F5F5F5F5F5F5F5F5F5F5F5F5F5F5F5F5F5F5F5F5F5F5F5F5F5F5F5F5F5F5F5F5F5F5F5F5F5F5F5F5F5F5F5F5F5F5F5F5F5F5F5F5F5F5F5F5F5F5F5F5F5F5F5F5F5F5F5F5F5F5F5F5F5F5F5F5F5F5F5F5F5F5F5F5F5F5F5F5F5F5F5F5F5F5F5F5F5F5F5F5F5F5F5F5F5F5F5F5F5F5F5F5F5F5
310
F5F5F5F5F5F5F5F5F5F5F5F5F5F5F5F5F5F5F5F5F5F5F5F5F5F5F5F5F5F5F5F5F5F5F5F5F5F5F5F5F5F5F5F5F5F5F5F5F5F5F5F5F5F5F5F5F5F5F5F5F5F5E2E2E2F5F5F5F5F5F5F5F5F5F5F5F5F5F5F5F5F5F5F5F5F5F5F5F5F5F5F5F5F5F5F5F5F5F5F5F5F5F5F5F5F5F5F5F5F5F5F5F5F5F5F5F5F5F5F5F5F5F5F5F5F5F5
310
F5F5F5F5F5F5F5F5F5F5F5F5F5F5F5F5F5F5F5F5F5F5F5F5F5F5F5F5F5F5F5F5F5F5F5F5F5F5F5F5F5F5F5F5F5F5F5F5F5F5F5F5F5F5F5F5F5F5F5F5F5F5F5F5F5F5F5F5F5F5F5F5F5F5F5F5F5F5F5F5F5F5F5F5F5F5F5F5F5F5F5F5F5F5F5F5F5F5F5F5F5F5F5F5F5F5F5F5F5F5F5F5F5F5F5E2E2E2F5F5F5F5F5F5F5F5F5
310
F5F5F5F5F5F5F5F5F5F5F5F5F5F5F5F5F5F5F5F5F5F5F5F5F5F5F5F5F5F5F5F5F5F5F5F5F5F5F5F5F5F5F5F5F5F5F5F5F5F5F5F5F5F5F5F5F5F5F5F5F5F5F5F5F5F5F5F5F5F5F5F5F5F5F5F5F5F5F5F5F5F5F5F5F5F5F5F5F5F5F5F5F5F5F5F5F5F5F5F5F5F5F5F5F5F5F5F5F5F5F5F5F5F5F5F5F5F5F5F5F5F5F5F5F5F5F5
310
F5F5F5F5F5F5F5F5F5F5F5F5F5F5F5F5F5F5F5F5F5F5F5F5F5F5F5F5F5F5F5F5F5F5F5F5F5F5F5F5F5E2E2E2F5F5F5F5F5F5F5F5F5F5F5F5F5F5F5F5F5F5F5F5F5F5F5F5F5F5F5F5F5F5F5F5F5F5F5F5F5F5F5F5F5F5F5F5F5F5F5F5F5F5F5F5F5F5F5F5F5F5F5F5F5F5F5F5F5F5F5F5F5F5F5F5F5F5F5F5F5F5F5F5F5F5F5
310
F5F5F5F5F5F5F5F5F5F5F5F5F5F5F5F5F5F5F5F5F5F5F5F5F5F5F5F5F5F5F5F5F5F5F5F5F5F5F5F5F5F5F5F5F5F5F5F5F5F5F5F5F5F5F5F5F5F5F5F5F5F5F5F5F5F5F5F5F5F5F5F5F5F5F5F5F5F5F5F5F5F5F5F5F5F5F5F5F5F5F5F5F5F5E2E2E2F5F5F5F5F5F5F5F5F5F5F5E2F5F5F5F5F5F5F5F5F5F5F5F5F5F5F5F5F5F5
310
F5F5F5F5F5F5F5F5F5F5F5F5F5F5F5F5F5F5F5F5F5F5F5F5F5F5F5F5F5F5F5F5F5F5F5F5F5F5F5F5F5F5F5F5F5F5F5F5F5F5F5F5F5F5F5F5F5F5F5F5F5F5F5F5F5F5F5F5F5F5F5F5F5F5F5F5F5F5F5F5F5F5F5F5F5F5F5F5F5F5F5F5F5F5F5F5F5F5F5F5F5F5F5F5F5F5F5F5F5F5F5F5F5F5F5F5F5F5F5F5F5F5F5F5F5F5F5
310
F5F5F5F5F5F5F5F5E2F5F5F5F5F5F5F5F5F5F5F5E2E2E2F5F5F5F5F5F5F5F5F5F5F5E2F5F5F5F5F5F5F5F5F5F5F5F5F5F5F5F5F5F5F5F5F5F5F5F5F5F5F5F5F5F5F5F5F5F5F5F5F5F5F5F5F5F5F5F5F5F5F5F5F5F5F5F5F5F5F5F5F5F5F5F5F5F5F5F5F5F5F5F5F5F5F5F5F5F5F5F5F5F5F5F5F5F5F5F5F5F5F5F5F5F5F5F5
310
F5F5F5F5F5F5F5F5F5F5F5F5F5F5F5F5F5F5F5F5F5F5F5F5F5F5F5F5F5F5F5F5F5F5F5F5F5F5F5F5F5F5F5F5F5F5F5F5F5F5F5F5F5F5F5F5F5F5F5F5F5E2F5F5F5F5F5F5F5F5F5F5F5E2E2E2F5F5F5F5F5F5F5F5F5F5F5E2F5F5F5F5F5F5F5F5F5F5F5F5F5F5F5F5F5F5F5F5F5F5F5F5F5F5F5F5F5F5F5F5F5F5F5F5F5F5F5
310
F5F5F5F5F5F5F5F5F5F5F5F5F5F5F5F5F5F5F5F5F5F5F5F5F5F5F5F5F5F5F5F5F5F5F5F5F5F5F5F5F5F5F5F5F5F5F5F5F5F5F5F5F5F5F5F5F5F5F5F5F5F5F5F5F5F5F5F5F5F5F5F5F5F5F5F5F5F5F5F5F5F5F5F5F5F5F5F5F5F5F5F5F5F5F5F5F5F5F5F5F5F5F5F5F5F5F5F5F5F5F5F5F5F5E2F5F5F5F5F5F5F5F5F5F5F5E2
310
E2E2F5F5F5F5F5F5F5F5F5F5F5E2F5F5F5F5F5F5F5F5F5F5F5F5F5F5F5F5F5F5F5F5F5F5F5F5F5F5F5F5F5F5F5F5F5F5F5F5F5F5F5F5F5F5F5F5F5F5F5F5F5F5F5F5F5F5F5F5F5F5F5F5F5F5F5F5F5F5F5F5F5F5F5F5F5F5F5F5F5F5F5F5F5F5F5F5F5F5F5F5F5F5F5F5F5F5F5F5F5F5F5F5F5F5F5F5F5F5F5F5F5F5F5F5F5
310
F5F5F5F5F5F5F5F5F5F5F5F5F5F5F5F5F5F5F5F5F5F5F5F5F5F5F5F5F5F5F5F5F5F5F5F5F5F5F5F5E2F5F5F5F5F5F5F5F5F5F5F5E2E2E2F5F5F5F5F5F5F5F5F5F5F5E2F5F5F5F5F5F5F5F5F5F5F5F5F5F5F5F5F5F5F5F5F5F5F5F5F5F5F5F5F5F5F5F5F5F5F5F5F5F5F5F5F5F5F5F5F5F5F5F5F5F5F5F5F5F5F5F5F5F5F5F5
310
F5F5F5F5F5F5F5F5F5F5F5F5F5F5F5F5F5F5F5F5F5F5F5F5F5F5F5F5F5F5F5F5F5F5F5F5F5F5F5F5F5F5F5F5F5F5F5F5F5F5F5F5F5F5F5F5F5F5F5F5F5F5F5F5F5F5F5F5F5F5F5F5F5F5F5F5F5F5F5F5F5F5F5F5F5F5F5F5F5F5F5F5F5E2F5F5F5F5F5F5F5F5F5F5F5E2E2E2F5F5F5F5F5F5F5F5F5F5F5E2F5F5F5F5F5F5F5
310
F5F5F5F5F5F5F5F5F5F5F5F5F5F5F5F5F5F5F5F5F5F5F5F5F5F5F5F5F5F5F5F5F5F5F5F5F5F5F5F5F5F5F5F5F5F5F5F5F5F5F5F5F5F5F5F5F5F5F5F5F5F5F5F5F5F5F5F5F5F5F5F5F5F5F5F5F5F5F5F5F5F5F5F5F5F5F5F5F5F5F5F5F5F5F5F5F5F5F5F5F5F5F5F5F5F5F5F5F5F5F5F5F5F5F5F5F5F5F5F5F5F5F5F5F5F5F5
310
F5F5F5F5F5F5F5F5F5F5F5F5F5F5F5F5F5F5F5E2F5F5F5F5F5F5F5F5F5F5F5E2E2E2F5F5F5F5F5F5F5F5F5F5F5E2F5F5F5F5F5F5F5F5F5F5F5F5F5F5F5F5F5F5F5F5F5F5F5F5F5F5F5F5F5F5F5F5F5F5F5F5F5F5F5F5F5F5F5F5F5F5F5F5F5F5F5F5F5F5F5F5F5F5F5F5F5F5F5F5F5F5F5F5F5F5F5F5F5F5F5F5F5F5F5F5F5
310
F5F5F5F5F5F5F5F5F5F5F5F5F5F5F5F5F5F5F5F5F5F5F5F5F5F5F5F5F5F5F5F5F5F5F5F5F5F5F5F5F5F5F5F5F5F5F5F5F5F5F5F5F5F5F5F5F5F5F5F5F5F5F5F5F5F5F5F5F5F5F5F5E2F5F5F5F5F5F5F5F5F5F5F5E2E2E2F5F5F5F5F5F5F5F5F5F5F5E2F5F5F5F5F5F5F5F5F5F5F5F5F5F5F5F5F5F5F5F5F5F5F5F5F5F5F5F5
310
F5F5F5F5F5F5F5F5F5F5F5F5F5F5F5F5F5F5F5F5F5F5F5F5F5F5F5F5F5F5F5F5F5F5F5F5F5F5F5F5F5F5F5F5F5F5F5F5F5F5F5F5F5F5F5F5F5F5F5F5F5F5F5F5F5F5F5F5F5F5F5F5F5F5F5F5F5F5F5F5F5F5F5F5F5F5F5F5F5F5F5F5F5F5F5F5F5F5F5F5F5F5F5F5F5F5F5F5F5F5F5F5F5F5F5F5F5F5F5F5F5F5F5F5F5E2F5
310
F5F5F5F5F5F5F5F5F5F5E2E2E2F5F5F5F5F5F5F5F5F5F5F5E2F5F5F5F5F5F5F5F5F5F5F5F5F5F5F5F5F5F5F5F5F5F5F5F5F5F5F5F5F5F5F5F5F5F5F5F5F5F5F5F5F5F5F5F5F5F5F5F5F5F5F5F5F5F5F5F5F5F5F5F5F5F5F5F5F5F5F5F5F5F5F5F5F5F5F5F5F5F5F5F5F5F5F5F5F5F5F5F5F5F5F5F5F5F5F5F5F5F5F5F5F5F5
310
F5F5F5F5F5F5F5F5F5F5F5F5F5F5F5F5F5F5F5F5F5F5F5F5F5F5F5F5F5F5F5F5F5F5F5F5F5F5F5F5F5F5F5F5F5F5F5F5F5F5F5E2F5F5F5F5F5F5F5F5F5F5F5E2E2E2F5F5F5F5F5F5F5F5F5F5F5E2F5F5F5F5F5F5F5F5F5F5F5F5F5F5F5F5F5F5F5F5F5F5F5F5F5F5F5F5F5F5F5F5F5F5F5F5F5F5F5F5F5F5F5F5F5F5F5F5F5
310
F5F5F5F5F5F5F5F5F5F5F5F5F5F5F5F5F5F5F5F5F5F5F5F5F5F5F5F5F5F5F5F5F5F5F5F5F5F5F5F5F5F5F5F5F5F5F5F5F5F5F5F5F5F5F5F5F5F5F5F5F5F5F5F5F5F5F5F5F5F5F5F5F5F5F5F5F5F5F5F5F5F5F5F5F5F5F5F5F5F5F5F5F5F5F5F5F5F5F5F5F5F5F5F5E2F5F5F5F5F5F5F5F5F5F5F5E2E2E2F5F5F5F5F5F5F5F5
310
F5F5F5E2F5F5F5F5F5F5F5F5F5F5F5F5F5F5F5F5F5F5F5F5F5F5F5F5F5F5F5F5F5F5F5F5F5F5F5F5F5F5F5F5F5F5F5F5F5F5F5F5F5F5F5F5F5F5F5F5F5F5F5F5F5F5F5F5F5F5F5F5F5F5F5F5F5F5F5F5F5F5F5F5F5F5F5F5F5F5F5F5F5F5F5F5F5F5F5F5F5F5F5F5F5F5F5F5F5F5F5F5F5F5F5F5F5F5F5F5F5F5F5F5F5F5F5
310
F5F5F5F5F5F5F5F5F5F5F5F5F5F5F5F5F5F5F5F5F5F5F5F5F5F5F5F5F5F5E2F5F5F5F5F5F5F5F5F5F5F5E2E2E2F5F5F5F5F5F5F5F5F5F5F5E2F5F5F5F5F5F5F5F5F5F5F5F5F5F5F5F5F5F5F5F5F5F5F5F5F5F5F5F5F5F5F5F5F5F5F5F5F5F5F5F5F5F5F5F5F5F5F5F5F5F5F5F5F5F5F5F5F5F5F5F5F5F5F5F5F5F5F5F5F5F5
310
F5F5F5F5F5F5F5F5F5F5F5F5F5F5F5F5F5F5F5F5F5F5F5F5F5F5F5F5F5F5F5F5F5F5F5F5F5F5F5F5F5F5F5F5F5F5F5F5F5F5F5F5F5F5F5F5F5F5F5F5F5F5F5F5F5F5F5F5F5F5F5F5F5F5F5F5F5F5F5F5F5F5F5E2F5F5F5F5F5F5F5F5F5F5F5E2E2E2F5F5F5F5F5F5F5F5F5F5F5E2F5F5F5F5F5F5F5F5F5F5F5F5F5F5F5F5F5
310
F5F5F5F5F5F5F5F5F5F5F5F5F5F5F5F5F5F5F5F5F5F5F5F5F5F5F5F5F5F5F5F5F5F5F5F5F5F5F5F5F5F5F5F5F5F5F5F5F5F5F5F5F5F5F5F5F5F5F5F5F5F5F5F5F5F5F5F5F5F5F5F5F5F5F5F5F5F5F5F5F5F5F5F5F5F5F5F5F5F5F5F5F5F5F5F5F5F5F5F5F5F5F5F5F5F5F5F5F5F5F5F5F5F5F5F5F5F5F5F5F5F5F5F5F5F5F5
310
F5F5F5F5F5F5F5F5F5E2F5F5F5F5F5F5F5F5F5F5F5E2E2E2F5F5F5F5F5F5F5F5F5F5F5E2F5F5F5F5F5F5F5F5F5F5F5F5F5F5F5F5F5F5F5F5F5F5F5F5F5F5F5F5F5F5F5F5F5F5F5F5F5F5F5F5F5F5F5F5F5F5F5F5F5F5F5F5F5F5F5F5F5F5F5F5F5F5F5F5F5F5F5F5F5F5F5F5F5F5F5F5F5F5F5F5F5F5F5F5F5F5F5F5F5F5F5
310
F5F5F5F5F5F5F5F5F5F5F5F5F5F5F5F5F5F5F5F5F5F5F5F5F5F5F5F5F5F5F5F5F5F5F5F5F5F5F5F5F5F5F5F5F5F5F5F5F5F5F5F5F5F5F5F5F5F5F5F5F5F5E2F5F5F5F5F5F5F5F5F5F5F5E2E2E2F5F5F5F5F5F5F5F5F5F5F5E2F5F5F5F5F5F5F5F5F5F5F5F5F5F5F5F5F5F5F5F5F5F5F5F5F5F5F5F5F5F5F5F5F5F5F5F5F5F5
310
F5F5F5F5F5F5F5F5F5F5F5F5F5F5F5F5F5F5F5F5F5F5F5F5F5F5F5F5F5F5F5F5F5F5F5F5F5F5F5F5F5F5F5F5F5F5F5F5F5F5F5F5F5F5F5F5F5F5F5F5F5F5F5F5F5F5F5F5F5F5F5F5F5F5F5F5F5F5F5F5F5F5F5F5F5F5F5F5F5F5F5F5F5F5F5F5F5F5F5F5F5F5F5F5F5F5F5F5F5F5F5F5F5F5F5E2F5F5F5F5F5F5F5F5F5F5F5
310
E2E2E2F5F5F5F5F5F5F5F5F5F5F5F5F5F5F5F5F5F5F5F5F5F5F5F5F5F5F5F5F5F5F5F5F5F5F5F5F5F5F5F5F5F5F5F5F5F5F5F5F5F5F5F5F5F5F5F5F5F5F5F5F5F5F5F5F5F5F5F5F5F5F5F5F5F5F5F5F5F5F5F5F5F5F5F5F5F5F5F5F5F5F5F5F5F5F5F5F5F5F5F5F5F5F5F5F5F5F5F5F5F5F5F5F5F5F5F5F5F5F5F5F5F5F5F5
310
F5F5F5F5F5F5F5F5F5F5F5F5F5F5F5F5F5F5F5F5F5F5F5F5F5F5F5F5F5F5F5F5F5F5F5F5F5F5F5F5F5F5F5F5F5F5F5F5F5F5F5F5F5E2E2E2F5F5F5F5F5F5F5F5F5F5F5F5F5F5F5F5F5F5F5F5F5F5F5F5F5F5F5F5F5F5F5F5F5F5F5F5F5F5F5F5F5F5F5F5F5F5F5F5F5F5F5F5F5F5F5F5F5F5F5F5F5F5F5F5F5F5F5F5F5F5F5
310
F5F5F5F5F5F5F5F5F5F5F5F5F5F5F5F5F5F5F5F5F5F5F5F5F5F5F5F5F5F5F5F5F5F5F5F5F5F5F5F5F5F5F5F5F5F5F5F5F5F5F5F5F5F5F5F5F5F5F5F5F5F5F5F5F5F5F5F5F5F5F5F5F5F5F5F5F5F5F5F5F5F5F5F5F5F5F5F5F5F5F5F5F5F5F5F5F5F5F5F5F5F5F5F5F5F5E2E2E2F5F5F5F5F5F5F5F5F5F5F5F5F5F5F5F5F5F5
310
F5F5F5F5F5F5F5F5F5F5F5F5F5F5F5F5F5F5F5F5F5F5F5F5F5F5F5F5F5F5F5F5F5F5F5F5F5F5F5F5F5F5F5F5F5F5F5F5F5F5F5F5F5F5F5F5F5F5F5F5F5F5F5F5F5F5F5F5F5F5F5F5F5F5F5F5F5F5F5F5F5F5F5F5F5F5F5F5F5F5F5F5F5F5F5F5F5F5F5F5F5F5F5F5F5F5F5F5F5F5F5F5F5F5F5F5F5F5F5F5F5F5F5F5F5F5F5
310
F5F5F5F5F5F5F5F5F5F5F5F5F5F5F5F5F5F5F5F5F5F5F5F5F5F5F5F5F5F5F5F5E2E2E2F5F5F5F5F5F5F5F5F5F5F5F5F5F5F5F5F5F5F5F5F5F5F5F5F5F5F5F5F5F5F5F5F5F5F5F5F5F5F5F5F5F5F5F5F5F5F5F5F5F5F5F5F5F5F5F5F5F5F5F5F5F5F5F5F5F5F5F5F5F5F5F5F5F5F5F5F5F5F5F5F5F5F5F5F5F5F5F5F5F5F5F5
310
F5F5F5F5F5F5F5F5F5F5F5F5F5F5F5F5F5F5F5F5F5F5F5F5F5F5F5F5F5F5F5F5F5F5F5F5F5F5F5F5F5F5F5F5F5F5F5F5F5F5F5F5F5F5F5F5F5F5F5F5F5F5F5F5F5F5F5F5F5F5F5F5F5F5F5F5F5F5F5F5F5F5F5F5F5E2E2E2F5F5F5F5F5F5F5F5F5F5F5F5F5F5F5F5F5F5F5F5F5F5F5F5F5F5F5F5F5F5F5F5F5F5F5F5F5F5F5
310
F5F5F5F5F5F5F5F5F5F5F5F5F5F5F5F5F5F5F5F5F5F5F5F5F5F5F5F5F5F5F5F5F5F5F5F5F5F5F5F5F5F5F5F5F5F5F5F5F5F5F5F5F5F5F5F5F5F5F5F5F5F5F5F5F5F5F5F5F5F5F5F5F5F5F5F5F5F5F5F5F5F5F5F5F5F5F5F5F5F5F5F5F5F5F5F5F5F5F5F5F5F5F5F5F5F5F5F5F5F5F5F5F5F5F5F5F5F5F5F5F5F5F5F5F5F5F5
310
F5F5F5F5F5F5F5F5F5F5F5E2E2E2F5F5F5F5F5F5F5F5F5F5F5F5F5F5F5F5F5F5F5F5F5F5F5F5F5F5F5F5F5F5F5F5F5F5F5F5F5F5F5F5F5F5F5F5F5F5F5F5F5F5F5F5F5F5F5F5F5F5F5F5F5F5F5F5F5F5F5F5F5F5F5F5F5F5F5F5F5F5F5F5F5F5F5F5F5F5F5F5F5F5F5F5F5F5F5F5F5F5F5F5F5F5F5F5F5F5F5F5F5F5F5F5F5
310
F5F5F5F5F5F5F5F5F5F5F5F5F5F5F5F5F5F5F5F5F5F5F5F5F5F5F5F5F5F5F5F5F5F5F5F5F5F5F5F5F5F5F5F5F5F5F5F5F5F5F5F5F5F5F5F5F5F5F5F5F5F5F5F5E2E2E2F5F5F5F5F5F5F5F5F5F5F5F5F5F5F5F5F5F5F5F5F5F5F5F5F5F5F5F5F5F5F5F5F5F5F5F5F5F5F5F5F5F5F5F5F5F5F5F5F5F5F5F5F5F5F5F5F5F5F5F5
310
F5F5F5F5F5F5F5F5F5F5F5F5F5F5F5F5F5F5F5F5F5F5F5F5F5F5F5F5F5F5F5F5F5F5F5F5F5F5F5F5F5F5F5F5F5F5F5F5F5F5F5F5F5F5F5F5F5F5F5F5F5F5F5F5F5F5F5F5F5F5F5F5F5F5F5F5F5F5F5F5F5F5F5F5F5F5F5F5F5F5F5F5F5F5F5F5F5F5F5F5F5F5F5F5F5F5F5F5F5F5F5F5F5F5F5F5F5E2E2E2F5F5F5F5F5F5F5
310
F5F5F5F5F5F5F5F5F5F5F5F5F5F5F5F5F5F5F5F5F5F5F5F5F5F5F5F5F5F5F5F5F5F5F5F5F5F5F5F5F5F5F5F5F5F5F5F5F5F5F5F5F5F5F5F5F5F5F5F5F5F5F5F5F5F5F5F5F5F5F5F5F5F5F5F5F5F5F5F5F5F5F5F5F5F5F5F5F5F5F5F5F5F5F5F5F5F5F5F5F5F5F5F5F5F5F5F5F5F5F5F5F5F5F5F5F5F5F5F5F5F5F5F5F5F5F5
310
F5F5F5F5F5F5F5F5F5F5F5F5F5F5F5F5F5F5F5F5F5F5F5F5F5F5F5F5F5F5F5F5F5F5F5F5F5F5F5F5F5F5F5E2E2E2F5F5F5F5F5F5F5F5F5F5F5E2F5F5F5F5F5F5F5F5F5F5F5F5F5F5F5F5F5F5F5F5F5F5F5F5F5F5F5F5F5F5F5F5F5F5F5F5F5F5F5F5F5F5F5F5F5F5F5F5F5F5F5F5F5F5F5F5F5F5F5F5F5F5F5F5F5F5F5F5F5
310
F5F5F5F5F5F5F5F5F5F5F5F5F5F5F5F5F5F5F5F5F5F5F5F5F5F5F5F5F5F5F5F5F5F5F5F5F5F5F5F5F5F5F5F5F5F5F5F5F5F5F5F5F5F5F5F5F5F5F5F5F5F5F5F5F5F5F5F5F5F5F5F5F5F5F5F5F5F5F5F5F5F5F5F5E2F5F5F5F5F5F5F5F5F5F5F5E2E2E2F5F5F5F5F5F5F5F5F5F5F5E2F5F5F5F5F5F5F5F5F5F5F5F5F5F5F5F5
310
F5F5F5F5F5F5F5F5F5F5F5F5F5F5F5F5F5F5F5F5F5F5F5F5F5F5F5F5F5F5F5F5F5F5F5F5F5F5F5F5F5F5F5F5F5F5F5F5F5F5F5F5F5F5F5F5F5F5F5F5F5F5F5F5F5F5F5F5F5F5F5F5F5F5F5F5F5F5F5F5F5F5F5F5F5F5F5F5F5F5F5F5F5F5F5F5F5F5F5F5F5F5F5F5F5F5F5F5F5F5F5F5F5F5F5F5F5F5F5F5F5F5F5F5F5F5F5
310
F5F5F5F5F5F5F5F5F5F5E2F5F5F5F5F5F5F5F5F5F5F5E2E2E2F5F5F5F5F5F5F5F5F5F5F5E2F5F5F5F5F5F5F5F5F5F5F5F5F5F5F5F5F5F5F5F5F5F5F5F5F5F5F5F5F5F5F5F5F5F5F5F5F5F5F5F5F5F5F5F5F5F5F5F5F5F5F5F5F5F5F5F5F5F5F5F5F5F5F5F5F5F5F5F5F5F5F5F5F5F5F5F5F5F5F5F5F5F5F5F5F5F5F5F5F5F5
310
F5F5F5F5F5F5F5F5F5F5F5F5F5F5F5F5F5F5F5F5F5F5F5F5F5F5F5F5F5F5F5F5F5F5F5F5F5F5F5F5F5F5F5F5F5F5F5F5F5F5F5F5F5F5F5F5F5F5F5F5F5F5F5E2F5F5F5F5F5F5F5F5F5F5F5E2E2E2F5F5F5F5F5F5F5F5F5F5F5E2F5F5F5F5F5F5F5F5F5F5F5F5F5F5F5F5F5F5F5F5F5F5F5F5F5F5F5F5F5F5F5F5F5F5F5F5F5
310
F5F5F5F5F5F5F5F5F5F5F5F5F5F5F5F5F5F5F5F5F5F5F5F5F5F5F5F5F5F5F5F5F5F5F5F5F5F5F5F5F5F5F5F5F5F5F5F5F5F5F5F5F5F5F5F5F5F5F5F5F5F5F5F5F5F5F5F5F5F5F5F5F5F5F5F5F5F5F5F5F5F5F5F5F5F5F5F5F5F5F5F5F5F5F5F5F5F5F5F5F5F5F5F5F5F5F5F5F5F5F5F5F5F5F5F5E2F5F5F5F5F5F5F5F5F5F5
310
F5E2E2E2F5F5F5F5F5F5F5F5F5F5F5E2F5F5F5F5F5F5F5F5F5F5F5F5F5F5F5F5F5F5F5F5F5F5F5F5F5F5F5F5F5F5F5F5F5F5F5F5F5F5F5F5F5F5F5F5F5F5F5F5F5F5F5F5F5F5F5F5F5F5F5F5F5F5F5F5F5F5F5F5F5F5F5F5F5F5F5F5F5F5F5F5F5F5F5F5F5F5F5F5F5F5F5F5F5F5F5F5F5F5F5F5F5F5F5F5F5F5F5F5F5F5F5
310
F5F5F5F5F5F5F5F5F5F5F5F5F5F5F5F5F5F5F5F5F5F5F5F5F5F5F5F5F5F5F5F5F5F5F5F5F5F5F5F5F5F5E2F5F5F5F5F5F5F5F5F5F5F5E2E2E2F5F5F5F5F5F5F5F5F5F5F5E2F5F5F5F5F5F5F5F5F5F5F5F5F5F5F5F5F5F5F5F5F5F5F5F5F5F5F5F5F5F5F5F5F5F5F5F5F5F5F5F5F5F5F5F5F5F5F5F5F5F5F5F5F5F5F5F5F5F5
310
F5F5F5F5F5F5F5F5F5F5F5F5F5F5F5F5F5F5F5F5F5F5F5F5F5F5F5F5F5F5F5F5F5F5F5F5F5F5F5F5F5F5F5F5F5F5F5F5F5F5F5F5F5F5F5F5F5F5F5F5F5F5F5F5F5F5F5F5F5F5F5F5F5F5F5F5F5F5F5F5F5F5F5F5F5F5F5F5F5F5F5F5F5F5F5E2F5F5F5F5F5F5F5F5F5F5F5E2E2E2F5F5F5F5F5F5F5F5F5F5F5E2F5F5F5F5F5
310
F5F5F5F5F5F5F5F5F5F5F5F5F5F5F5F5F5F5F5F5F5F5F5F5F5F5F5F5F5F5F5F5F5F5F5F5F5F5F5F5F5F5F5F5F5F5F5F5F5F5F5F5F5F5F5F5F5F5F5F5F5F5F5F5F5F5F5F5F5F5F5F5F5F5F5F5F5F5F5F5F5F5F5F5F5F5F5F5F5F5F5F5F5F5F5F5F5F5F5F5F5F5F5F5F5F5F5F5F5F5F5F5F5F5F5F5F5F5F5F5F5F5F5F5F5F5F5
310
F5F5F5F5F5F5F5F5F5F5F5F5F5F5F5F5F5F5F5F5F5E2F5F5F5F5F5F5F5F5F5F5F5E2E2E2F5F5F5F5F5F5F5F5F5F5F5E2F5F5F5F5F5F5F5F5F5F5F5F5F5F5F5F5F5F5F5F5F5F5F5F5F5F5F5F5F5F5F5F5F5F5F5F5F5F5F5F5F5F5F5F5F5F5F5F5F5F5F5F5F5F5F5F5F5F5F5F5F5F5F5F5F5F5F5F5F5F5F5F5F5F5F5F5F5F5F5
310
F5F5F5F5F5F5F5F5F5F5F5F5F5F5F5F5F5F5F5F5F5F5F5F5F5F5F5F5F5F5F5F5F5F5F5F5F5F5F5F5F5F5F5F5F5F5F5F5F5F5F5F5F5F5F5F5F5F5F5F5F5F5F5F5F5F5F5F5F5F5F5F5F5F5E2F5F5F5F5F5F5F5F5F5F5F5E2E2E2F5F5F5F5F5F5F5F5F5F5F5E2F5F5F5F5F5F5F5F5F5F5F5F5F5F5F5F5F5F5F5F5F5F5F5F5F5F5
310
F5F5F5F5F5F5F5F5F5F5F5F5F5F5F5F5F5F5F5F5F5F5F5F5F5F5F5F5F5F5F5F5F5F5F5F5F5F5F5F5F5F5F5F5F5F5F5F5F5F5F5F5F5F5F5F5F5F5F5F5F5F5F5F5F5F5F5F5F5F5F5F5F5F5F5F5F5F5F5F5F5F5F5F5F5F5F5F5F5F5F5F5F5F5F5F5F5F5F5F5F5F5F5F5F5F5F5F5F5F5F5F5F5F5F5F5F5F5F5F5F5F5F5F5F5F5F5
310
E2F5F5F5F5F5F5F5F5F5F5F5E2E2E2F5F5F5F5F5F5F5F5F5F5F5E2F5F5F5F5F5F5F5F5F5F5F5F5F5F5F5F5F5F5F5F5F5F5F5F5F5F5F5F5F5F5F5F5F5F5F5F5F5F5F5F5F5F5F5F5F5F5F5F5F5F5F5F5F5F5F5F5F5F5F5F5F5F5F5F5F5F5F5F5F5F5F5F5F5F5F5F5F5F5F5F5F5F5F5F5F5F5F5F5F5F5F5F5F5F5F5F5F5F5F5F5
310
F5F5F5F5F5F5F5F5F5F5F5F5F5F5F5F5F5F5F5F5F5F5F5F5F5F5F5F5F5F5F5F5F5F5F5F5F5F5F5F5F5F5F5F5F5F5F5F5F5F5F5F5F5E2F5F5F5F5F5F5F5F5F5F5F5E2E2E2F5F5F5F5F5F5F5F5F5F5F5E2F5F5F5F5F5F5F5F5F5F5F5F5F5F5F5F5F5F5F5F5F5F5F5F5F5F5F5F5F5F5F5F5F5F5F5F5F5F5F5F5F5F5F5F5F5F5F5
310
F5F5F5F5F5F5F5F5F5F5F5F5F5F5F5F5F5F5F5F5F5F5F5F5F5F5F5F5F5F5F5F5F5F5F5F5F5F5F5F5F5F5F5F5F5F5F5F5F5F5F5F5F5F5F5F5F5F5F5F5F5F5F5F5F5F5F5F5F5F5F5F5F5F5F5F5F5F5F5F5F5F5F5F5F5F5F5F5F5F5F5F5F5F5F5F5F5F5F5F5F5F5F5F5F5F5E2F5F5F5F5F5F5F5F5F5F5F5E2E2E2F5F5F5F5F5F5
310
F5F5F5F5F5E2F5F5F5F5F5F5F5F5F5F5F5F5F5F5F5F5F5F5F5F5F5F5F5F5F5F5F5F5F5F5F5F5F5F5F5F5F5F5F5F5F5F5F5F5F5F5F5F5F5F5F5F5F5F5F5F5F5F5F5F5F5F5F5F5F5F5F5F5F5F5F5F5F5F5F5F5F5F5F5F5F5F5F5F5F5F5F5F5F5F5F5F5F5F5F5F5F5F5F5F5F5F5F5F5F5F5F5F5F5F5F5F5F5F5F5F5F5F5F5F5F5
310
F5F5F5F5F5F5F5F5F5F5F5F5F5F5F5F5F5F5F5F5F5F5F5F5F5F5F5F5F5F5F5F5E2F5F5F5F5F5F5F5F5F5F5F5E2E2E2F5F5F5F5F5F5F5F5F5F5F5E2F5F5F5F5F5F5F5F5F5F5F5F5F5F5F5F5F5F5F5F5F5F5F5F5F5F5F5F5F5F5F5F5F5F5F5F5F5F5F5F5F5F5F5F5F5F5F5F5F5F5F5F5F5F5F5F5F5F5F5F5F5F5F5F5F5F5F5F5
310
F5F5F5F5F5F5F5F5F5F5F5F5F5F5F5F5F5F5F5F5F5F5F5F5F5F5F5F5F5F5F5F5F5F5F5F5F5F5F5F5F5F5F5F5F5F5F5F5F5F5F5F5F5F5F5F5F5F5F5F5F5F5F5F5F5F5F5F5F5F5F5F5F5F5F5F5F5F5F5F5F5F5F5F5F5E2F5F5F5F5F5F5F5F5F5F5F5E2E2E2F5F5F5F5F5F5F5F5F5F5F5E2F5F5F5F5F5F5F5F5F5F5F5F5F5F5F5
310
F5F5F5F5F5F5F5F5F5F5F5F5F5F5F5F5F5F5F5F5F5F5F5F5F5F5F5F5F5F5F5F5F5F5F5F5F5F5F5F5F5F5F5F5F5F5F5F5F5F5F5F5F5F5F5F5F5F5F5F5F5F5F5F5F5F5F5F5F5F5F5F5F5F5F5F5F5F5F5F5F5F5F5F5F5F5F5F5F5F5F5F5F5F5F5F5F5F5F5F5F5F5F5F5F5F5F5F5F5F5F5F5F5F5F5F5F5F5F5F5F5F5F5F5F5F5F5
310
F5F5F5F5F5F5F5F5F5F5F5E2F5F5F5F5F5F5F5F5F5F5F5E2E2E2F5F5F5F5F5F5F5F5F5F5F5E2F5F5F5F5F5F5F5F5F5F5F5F5F5F5F5F5F5F5F5F5F5F5F5F5F5F5F5F5F5F5F5F5F5F5F5F5F5F5F5F5F5F5F5F5F5F5F5F5F5F5F5F5F5F5F5F5F5F5F5F5F5F5F5F5F5F5F5F5F5F5F5F5F5F5F5F5F5F5F5F5F5F5F5F5F5F5F5F5F5
310
F5F5F5F5F5F5F5F5F5F5F5F5F5F5F5F5F5F5F5F5F5F5F5F5F5F5F5F5F5F5F5F5F5F5F5F5F5F5F5F5F5F5F5F5F5F5F5F5F5F5F5F5F5F5F5F5F5F5F5F5F5F5F5F5E2F5F5F5F5F5F5F5F5F5F5F5E2E2E2F5F5F5F5F5F5F5F5F5F5F5F5F5F5F5F5F5F5F5F5F5F5F5F5F5F5F5F5F5F5F5F5F5F5F5F5F5F5F5F5F5F5F5F5F5F5F5F5
310
F5F5F5F5F5F5F5F5F5F5F5F5F5F5F5F5F5F5F5F5F5F5F5F5F5F5F5F5F5F5F5F5F5F5F5F5F5F5F5F5F5F5F5F5F5F5F5F5F5F5F5F5F5F5F5F5F5F5F5F5F5F5F5F5F5F5F5F5F5F5F5F5F5F5F5F5F5F5F5F5F5F5F5F5F5F5F5F5F5F5F5F5F5F5F5F5F5F5F5F5F5F5F5F5F5F5F5F5F5F5F5F5F5F5F5F5F5F5F5F5F5F5F5F5F5F5F5
310
F5F5E2E2E2F5F5F5F5F5F5F5F5F5F5F5F5F5F5F5F5F5F5F5F5F5F5F5F5F5F5F5F5F5F5F5F5F5F5F5F5F5F5F5F5F5F5F5F5F5F5F5F5F5F5F5F5F5F5F5F5F5F5F5F5F5F5F5F5F5F5F5F5F5F5F5F5F5F5F5F5F5F5F5F5F5F5F5F5F5F5F5F5F5F5F5F5F5F5F5F5F5F5F5F5F5F5F5F5F5F5F5F5F5F5F5F5F5F5F5F5F5F5F5F5F5F5
310
F5F5F5F5F5F5F5F5F5F5F5F5F5F5F5F5F5F5F5F5F5F5F5F5F5F5F5F5F5F5F5F5F5F5F5F5F5F5F5F5F5F5F5F5F5F5F5F5F5F5F5F5F5F5F5E2E2E2F5F5F5F5F5F5F5F5F5F5F5F5F5F5F5F5F5F5F5F5F5F5F5F5F5F5F5F5F5F5F5F5F5F5F5F5F5F5F5F5F5F5F5F5F5F5F5F5F5F5F5F5F5F5F5F5F5F5F5F5F5F5F5F5F5F5F5F5F5
310
F5F5F5F5F5F5F5F5F5F5F5F5F5F5F5F5F5F5F5F5F5F5F5F5F5F5F5F5F5F5F5F5F5F5F5F5F5F5F5F5F5F5F5F5F5F5F5F5F5F5F5F5F5F5F5F5F5F5F5F5F5F5F5F5F5F5F5F5F5F5F5F5F5F5F5F5F5F5F5F5F5F5F5F5F5F5F5F5F5F5F5F5F5F5F5F5F5F5F5F5F5F5F5F5F5F5F5F5E2E2E2F5F5F5F5F5F5F5F5F5F5F5F5F5F5F5F5
310
F5F5F5F5F5F5F5F5F5F5F5F5F5F5F5F5F5F5F5F5F5F5F5F5F5F5F5F5F5F5F5F5F5F5F5F5F5F5F5F5F5F5F5F5F5F5F5F5F5F5F5F5F5F5F5F5F5F5F5F5F5F5F5F5F5F5F5F5F5F5F5F5F5F5F5F5F5F5F5F5F5F5F5F5F5F5F5F5F5F5F5F5F5F5F5F5F5F5F5F5F5F5F5F5F5F5F5F5F5F5F5F5F5F5F5F5F5F5F5F5F5F5F5F5F5F5F5
310
F5F5F5F5F5F5F5F5F5F5F5F5F5F5F5F5F5F5F5F5F5F5F5F5F5F5F5F5F5F5F5F5F5F5E2E2E2F5F5F5F5F5F5F5F5F5F5F5F5F5F5F5F5F5F5F5F5F5F5F5F5F5F5F5F5F5F5F5F5F5F5F5F5F5F5F5F5F5F5F5F5F5F5F5F5F5F5F5F5F5F5F5F5F5F5F5F5F5F5F5F5F5F5F5F5F5F5F5F5F5F5F5F5F5F5F5F5F5F5F5F5F5F5F5F5F5F5
310
F5F5F5F5F5F5F5F5F5F5F5F5F5F5F5F5F5F5F5F5F5F5F5F5F5F5F5F5F5F5F5F5F5F5F5F5F5F5F5F5F5F5F5F5F5F5F5F5F5F5F5F5F5F5F5F5F5F5F5F5F5F5F5F5F5F5F5F5F5F5F5F5F5F5F5F5F5F5F5F5F5F5F5F5F5F5F5E2E2E2F5F5F5F5F5F5F5F5F5F5F5F5F5F5F5F5F5F5F5F5F5F5F5F5F5F5F5F5F5F5F5F5F5F5F5F5F5
310
F5F5F5F5F5F5F5F5F5F5F5F5F5F5F5F5F5F5F5F5F5F5F5F5F5F5F5F5F5F5F5F5F5F5F5F5F5F5F5F5F5F5F5F5F5F5F5F5F5F5F5F5F5F5F5F5F5F5F5F5F5F5F5F5F5F5F5F5F5F5F5F5F5F5F5F5F5F5F5F5F5F5F5F5F5F5F5F5F5F5F5F5F5F5F5F5F5F5F5F5F5F5F5F5F5F5F5F5F5F5F5F5F5F5F5F5F5F5F5F5F5F5F5F5F5F5F5
310
F5F5F5F5F5F5F5F5F5F5F5F5F5E2E2E2F5F5F5F5F5F5F5F5F5F5F5F5F5F5F5F5F5F5F5F5F5F5F5F5F5F5F5F5F5F5F5F5F5F5F5F5F5F5F5F5F5F5F5F5F5F5F5F5F5F5F5F5F5F5F5F5F5F5F5F5F5F5F5F5F5F5F5F5F5F5F5F5F5F5F5F5F5F5F5F5F5F5F5F5F5F5F5F5F5F5F5F5F5F5F5F5F5F5F5F5F5F5F5F5F5F5F5F5F5F5F5
310
F5F5F5F5F5F5F5F5F5F5F5F5F5F5F5F5F5F5F5F5F5F5F5F5F5F5F5F5F5F5F5F5F5F5F5F5F5F5F5F5F5F5F5F5F5F5F5F5F5F5F5F5F5F5F5F5F5F5F5F5F5F5F5F5F5F5E2E2E2F5F5F5F5F5F5F5F5F5F5F5F5F5F5F5F5F5F5F5F5F5F5F5F5F5F5F5F5F5F5F5F5F5F5F5F5F5F5F5F5F5F5F5F5F5F5F5F5F5F5F5F5F5F5F5F5F5F5
310
F5F5F5F5F5F5F5F5F5F5F5F5F5F5F5F5F5F5F5F5F5F5F5F5F5F5F5F5F5F5F5F5F5F5F5F5F5F5F5F5F5F5F5F5F5F5F5F5F5F5F5F5F5F5F5F5F5F5F5F5F5F5F5F5F5F5F5F5F5F5F5F5F5F5F5F5F5F5F5F5F5F5F5F5F5F5F5F5F5F5F5F5F5F5F5F5F5F5F5F5F5F5F5F5F5F5F5F5F5F5F5F5F5F5F5F5F5F5F5E2E2E2F5F5F5F5F5
310
F5F5F5F5F5F5E2F5F5F5F5F5F5F5F5F5F5F5F5F5F5F5F5F5F5F5F5F5F5F5F5F5F5F5F5F5F5F5F5F5F5F5F5F5F5F5F5F5F5F5F5F5F5F5F5F5F5F5F5F5F5F5F5F5F5F5F5F5F5F5F5F5F5F5F5F5F5F5F5F5F5F5F5F5F5F5F5F5F5F5F5F5F5F5F5F5F5F5F5F5F5F5F5F5F5F5F5F5F5F5F5F5F5F5F5F5F5F5F5F5F5F5F5F5F5F5F5
310
F5F5F5F5F5F5F5F5F5F5F5F5F5F5F5F5F5F5F5F5F5F5F5F5F5F5F5F5F5F5F5F5F5E2F5F5F5F5F5F5F5F5F5F5F5E2E2E2F5F5F5F5F5F5F5F5F5F5F5E2F5F5F5F5F5F5F5F5F5F5F5F5F5F5F5F5F5F5F5F5F5F5F5F5F5F5F5F5F5F5F5F5F5F5F5F5F5F5F5F5F5F5F5F5F5F5F5F5F5F5F5F5F5F5F5F5F5F5F5F5F5F5F5F5F5F5F5
310
F5F5F5F5F5F5F5F5F5F5F5F5F5F5F5F5F5F5F5F5F5F5F5F5F5F5F5F5F5F5F5F5F5F5F5F5F5F5F5F5F5F5F5F5F5F5F5F5F5F5F5F5F5F5F5F5F5F5F5F5F5F5F5F5F5F5F5F5F5F5F5F5F5F5F5F5F5F5F5F5F5F5F5F5F5F5E2F5F5F5F5F5F5F5F5F5F5F5E2E2E2F5F5F5F5F5F5F5F5F5F5F5E2F5F5F5F5F5F5F5F5F5F5F5F5F5F5
310
F5F5F5F5F5F5F5F5F5F5F5F5F5F5F5F5F5F5F5F5F5F5F5F5F5F5F5F5F5F5F5F5F5F5F5F5F5F5F5F5F5F5F5F5F5F5F5F5F5F5F5F5F5F5F5F5F5F5F5F5F5F5F5F5F5F5F5F5F5F5F5F5F5F5F5F5F5F5F5F5F5F5F5F5F5F5F5F5F5F5F5F5F5F5F5F5F5F5F5F5F5F5F5F5F5F5F5F5F5F5F5F5F5F5F5F5F5F5F5F5F5F5F5F5F5F5F5
310
F5F5F5F5F5F5F5F5F5F5F5F5E2F5F5F5F5F5F5F5F5F5F5F5E2E2E2F5F5F5F5F5F5F5F5F5F5F5E2F5F5F5F5F5F5F5F5F5F5F5F5F5F5F5F5F5F5F5F5F5F5F5F5F5F5F5F5F5F5F5F5F5F5F5F5F5F5F5F5F5F5F5F5F5F5F5F5F5F5F5F5F5F5F5F5F5F5F5F5F5F5F5F5F5F5F5F5F5F5F5F5F5F5F5F5F5F5F5F5F5F5F5F5F5F5F5F5
310
F5F5F5F5F5F5F5F5F5F5F5F5F5F5F5F5F5F5F5F5F5F5F5F5F5F5F5F5F5F5F5F5F5F5F5F5F5F5F5F5F5F5F5F5F5F5F5F5F5F5F5F5F5F5F5F5F5F5F5F5F5F5F5F5F5E2F5F5F5F5F5F5F5F5F5F5F5E2E2E2F5F5F5F5F5F5F5F5F5F5F5E2F5F5F5F5F5F5F5F5F5F5F5F5F5F5F5F5F5F5F5F5F5F5F5F5F5F5F5F5F5F5F5F5F5F5F5
310
F5F5F5F5F5F5F5F5F5F5F5F5F5F5F5F5F5F5F5F5F5F5F5F5F5F5F5F5F5F5F5F5F5F5F5F5F5F5F5F5F5F5F5F5F5F5F5F5F5F5F5F5F5F5F5F5F5F5F5F5F5F5F5F5F5F5F5F5F5F5F5F5F5F5F5F5F5F5F5F5F5F5F5F5F5F5F5F5F5F5F5F5F5F5F5F5F5F5F5F5F5F5F5F5F5F5F5F5F5F5F5F5F5F5F5F5F5F5E2F5F5F5F5F5F5F5F5
310
F5F5F5E2E2E2F5F5F5F5F5F5F5F5F5F5F5E2F5F5F5F5F5F5F5F5F5F5F5F5F5F5F5F5F5F5F5F5F5F5F5F5F5F5F5F5F5F5F5F5F5F5F5F5F5F5F5F5F5F5F5F5F5F5F5F5F5F5F5F5F5F5F5F5F5F5F5F5F5F5F5F5F5F5F5F5F5F5F5F5F5F5F5F5F5F5F5F5F5F5F5F5F5F5F5F5F5F5F5F5F5F5F5F5F5F5F5F5F5F5F5F5F5F5F5F5F5
310
F5F5F5F5F5F5F5F5F5F5F5F5F5F5F5F5F5F5F5F5F5F5F5F5F5F5F5F5F5F5F5F5F5F5F5F5F5F5F5F5F5F5F5F5E2F5F5F5F5F5F5F5F5F5F5F5E2E2E2F5F5F5F5F5F5F5F5F5F5F5E2F5F5F5F5F5F5F5F5F5F5F5F5F5F5F5F5F5F5F5F5F5F5F5F5F5F5F5F5F5F5F5F5F5F5F5F5F5F5F5F5F5F5F5F5F5F5F5F5F5F5F5F5F5F5F5F5
310
F5F5F5F5F5F5F5F5F5F5F5F5F5F5F5F5F5F5F5F5F5F5F5F5F5F5F5F5F5F5F5F5F5F5F5F5F5F5F5F5F5F5F5F5F5F5F5F5F5F5F5F5F5F5F5F5F5F5F5F5F5F5F5F5F5F5F5F5F5F5F5F5F5F5F5F5F5F5F5F5F5F5F5F5F5F5F5F5F5F5F5F5F5F5F5F5F5E2F5F5F5F5F5F5F5F5F5F5F5E2E2E2F5F5F5F5F5F5F5F5F5F5F5E2E2E2E2
310
E2E2E2E2E2F5F5F5F5F5F5F5F5F5E2E2E2E2E2E2E2E2E2E2E2E2E2E2E2E2F5F5F5F5F5F5F5F5F5F5E2E2E2E2E2E2E2E2E2E2E2E2E2E2E2E2F5F5F5F5F5F5F5F5F5E2E2E2E2E2E2E2E2E2E2E2E2E2E2E2E2E2F5F5F5F5F5F5F5F5F5E2E2E2E2E2E2E2E2E2E2E2E2E2E2E2E2F5F5F5F5F5F5F5F5F5F5E2E2E2E2E2E2E2E2E2E2
310
E2E2E2E2E2E2F5F5F5F5F5F5F5F5F5E2E2E2E2E2E2E2E2E2F5F5F5F5F5F5F5F5F5F5F5E2E2E2F5F5F5F5F5F5F5F5F5F5F5F5F5F5F5F5F5F5F5F5F5F5F5F5F5F5F5F5F5F5F5F5F5F5F5F5F5F5F5F5F5F5F5F5F5F5F5F5F5F5F5F5F5F5F5F5F5F5F5F5F5F5F5F5F5F5F5F5F5F5F5F5F5F5F5F5F5F5F5F5F5F5F5F5F5F5F5F5F5
310
F5F5F5F5F5F5F5F5F5F5F5F5F5F5F5F5F5F5F5F5F5F5F5F5F5F5F5F5F5F5F5F5F5F5F5F5F5F5F5F5F5F5F5F5F5F5F5F5F5F5F5F5F5F5F5F5F5F5F5F5F5F5F5F5F5F5F5F5F5F5F5F5F5F5F5F5F5F5F5F5F5F5F5F5F5F5F5F5E2E2E2F5F5F5F5F5F5F5F5F5F5F5F5F5F5F5F5F5F5F5F5F5F5F5F5F5F5F5F5F5F5F5F5F5F5F5F5
310
F5F5F5F5F5F5F5F5F5F5F5F5F5F5F5F5F5F5F5F5F5F5F5F5F5F5F5F5F5F5F5F5F5F5F5F5F5F5F5F5F5F5F5F5F5F5F5F5F5F5F5F5F5F5F5F5F5F5F5F5F5F5F5F5F5F5F5F5F5F5F5F5F5F5F5F5F5F5F5F5F5F5F5F5F5F5F5F5F5F5F5F5F5F5F5F5F5F5F5F5F5F5F5F5F5F5F5F5F5F5F5F5F5F5F5F5F5F5F5F5F5F5F5F5F5F5F5
310
F5F5F5F5F5F5F5F5F5F5F5F5F5F5E2E2E2F5F5F5F5F5F5F5F5F5F5F5F5F5F5F5F5F5F5F5F5F5F5F5F5F5F5F5F5F5F5F5F5F5F5F5F5F5F5F5F5F5F5F5F5F5F5F5F5F5F5F5F5F5F5F5F5F5F5F5F5F5F5F5F5F5F5F5F5F5F5F5F5F5F5F5F5F5F5F5F5F5F5F5F5F5F5F5F5F5F5F5F5F5F5F5F5F5F5F5F5F5F5F5F5F5F5F5F5F5F5
310
F5F5F5F5F5F5F5F5F5F5F5F5F5F5F5F5F5F5F5F5F5F5F5F5F5F5F5F5F5F5F5F5F5F5F5F5F5F5F5F5F5F5F5F5F5F5F5F5F5F5F5F5F5F5F5F5F5F5F5F5F5F5F5F5F5F5F5E2E2E2F5F5F5F5F5F5F5F5F5F5F5F5F5F5F5F5F5F5F5F5F5F5F5F5F5F5F5F5F5F5F5F5F5F5F5F5F5F5F5F5F5F5F5F5F5F5F5F5F5F5F5F5F5F5F5F5F5
310
F5F5F5F5F5F5F5F5F5F5F5F5F5F5F5F5F5F5F5F5F5F5F5F5F5F5F5F5F5F5F5F5F5F5F5F5F5F5F5F5F5F5F5F5F5F5F5F5F5F5F5F5F5F5F5F5F5F5F5F5F5F5F5F5F5F5F5F5F5F5F5F5F5F5F5F5F5F5F5F5F5F5F5F5F5F5F5F5F5F5F5F5F5F5F5F5F5F5F5F5F5F5F5F5F5F5F5F5F5F5F5F5F5F5F5F5F5F5F5F5E2EFE2E2E2E2E2
310
E2E2E2E2E2E2E2E2E2E2E2E2E2E2E2E2E2E2E2E2E2E2E2E2E2E2E2E2E2E2E2E2E2E2E2E2E2E2E2E2E2E2E2E2E2E2E2E2E2E2E2E2E2E2E2E2E2E2E2E2E2E2E2E2E2E2E2E2E2E2E2E2E2E2E2E2E2E2E2E2E2E2E2E2E2E2E2E2E2E2E2E2E2E2E2E2E2E2E2E2E2E2E2E2E2E2E2E2E2E2E2E2E2E2E2E2E2E2E2E2E2E2E2E2E2E2E2
310
E2E2E2E2E2E2E2E2E2E2E2E2E2E2E2E2E2E2E2E2E2E2E2E2E2E2E2E2E2E2E2E2E2E2E2E2E2E2E2E2E2E2E2E2E2E2E2EF
  0
XRECORD
  5
1AB2
102
{ACAD_REACTORS
330
1AB1
102
}
330
1AB1
100
AcDbXrecord
280
     1
102
SHADEPLOT
 70
     0
102
SHADEPLOTRESLEVEL
 70
     2
102
SHADEPLOTCUSTOMDPI
 70
   300
  0
XRECORD
  5
1ABA
102
{ACAD_REACTORS
330
1AB9
102
}
330
1AB9
100
AcDbXrecord
280
     1
102
MATERIAL
148
0.0
149
0.0
149
0.0
 93
        0
 94
       63
282
     0
 72
     1
 77
     1
171
     1
175
     1
179
     1
273
     0
  0
XRECORD
  5
1AB8
102
{ACAD_REACTORS
330
1AB7
102
}
330
1AB7
100
AcDbXrecord
280
     1
102
MATERIAL
148
0.0
149
0.0
149
0.0
 93
        0
 94
       63
282
     0
 72
     1
 77
     1
171
     1
175
     1
179
     1
273
     0
  0
XRECORD
  5
1ABC
102
{ACAD_REACTORS
330
1ABB
102
}
330
1ABB
100
AcDbXrecord
280
     1
102
MATERIAL
148
0.0
149
0.0
149
0.0
 93
        0
 94
       63
282
     0
 72
     1
 77
     1
171
     1
175
     1
179
     1
273
     0
  0
XRECORD
  5
1AAC
102
{ACAD_REACTORS
330
1AAB
102
}
330
1AAB
100
AcDbXrecord
280
     1
102
ACAD_ROUNDTRIP_2012_MLEADER_STYLE
298
     1
  0
CELLSTYLEMAP
  5
1AAA
102
{ACAD_REACTORS
330
1AA9
102
}
330
1AA9
100
AcDbCellStyleMap
 90
        3
300
CELLSTYLE
  1
TABLEFORMAT_BEGIN
 90
        5
170
     1
 91
        0
 92
    32768
 62
   257
 93
        1
300
CONTENTFORMAT
  1
CONTENTFORMAT_BEGIN
 90
        0
 91
        0
 92
        4
 93
        0
300

 40
0.0
140
1.0
 94
        5
 62
     0
340
11
144
0.25
309
CONTENTFORMAT_END
171
     0
 94
        6
 95
        1
302
GRIDFORMAT
  1
GRIDFORMAT_BEGIN
 90
        0
 91
        1
 62
     0
 92
       -2
340
0
 93
        0
 40
0.045
309
GRIDFORMAT_END
 95
        2
302
GRIDFORMAT
  1
GRIDFORMAT_BEGIN
 90
        0
 91
        1
 62
     0
 92
       -2
340
0
 93
        0
 40
0.045
309
GRIDFORMAT_END
 95
        4
302
GRIDFORMAT
  1
GRIDFORMAT_BEGIN
 90
        0
 91
        1
 62
     0
 92
       -2
340
0
 93
        0
 40
0.045
309
GRIDFORMAT_END
 95
        8
302
GRIDFORMAT
  1
GRIDFORMAT_BEGIN
 90
        0
 91
        1
 62
     0
 92
       -2
340
0
 93
        0
 40
0.045
309
GRIDFORMAT_END
 95
       16
302
GRIDFORMAT
  1
GRIDFORMAT_BEGIN
 90
        0
 91
        1
 62
     0
 92
       -2
340
0
 93
        0
 40
0.045
309
GRIDFORMAT_END
 95
       32
302
GRIDFORMAT
  1
GRIDFORMAT_BEGIN
 90
        0
 91
        1
 62
     0
 92
       -2
340
0
 93
        0
 40
0.045
309
GRIDFORMAT_END
309
TABLEFORMAT_END
  1
CELLSTYLE_BEGIN
 90
        1
 91
        1
300
_TITLE
309
CELLSTYLE_END
300
CELLSTYLE
  1
TABLEFORMAT_BEGIN
 90
        5
170
     1
 91
        0
 92
        0
 62
   257
 93
        1
300
CONTENTFORMAT
  1
CONTENTFORMAT_BEGIN
 90
        0
 91
        0
 92
        4
 93
        0
300

 40
0.0
140
1.0
 94
        5
 62
     0
340
11
144
0.18
309
CONTENTFORMAT_END
171
     0
 94
        6
 95
        1
302
GRIDFORMAT
  1
GRIDFORMAT_BEGIN
 90
        0
 91
        1
 62
     0
 92
       -2
340
0
 93
        0
 40
0.045
309
GRIDFORMAT_END
 95
        2
302
GRIDFORMAT
  1
GRIDFORMAT_BEGIN
 90
        0
 91
        1
 62
     0
 92
       -2
340
0
 93
        0
 40
0.045
309
GRIDFORMAT_END
 95
        4
302
GRIDFORMAT
  1
GRIDFORMAT_BEGIN
 90
        0
 91
        1
 62
     0
 92
       -2
340
0
 93
        0
 40
0.045
309
GRIDFORMAT_END
 95
        8
302
GRIDFORMAT
  1
GRIDFORMAT_BEGIN
 90
        0
 91
        1
 62
     0
 92
       -2
340
0
 93
        0
 40
0.045
309
GRIDFORMAT_END
 95
       16
302
GRIDFORMAT
  1
GRIDFORMAT_BEGIN
 90
        0
 91
        1
 62
     0
 92
       -2
340
0
 93
        0
 40
0.045
309
GRIDFORMAT_END
 95
       32
302
GRIDFORMAT
  1
GRIDFORMAT_BEGIN
 90
        0
 91
        1
 62
     0
 92
       -2
340
0
 93
        0
 40
0.045
309
GRIDFORMAT_END
309
TABLEFORMAT_END
  1
CELLSTYLE_BEGIN
 90
        2
 91
        1
300
_HEADER
309
CELLSTYLE_END
300
CELLSTYLE
  1
TABLEFORMAT_BEGIN
 90
        5
170
     1
 91
        0
 92
        0
 62
   257
 93
        1
300
CONTENTFORMAT
  1
CONTENTFORMAT_BEGIN
 90
        0
 91
        0
 92
        4
 93
        0
300

 40
0.0
140
1.0
 94
        2
 62
     0
340
11
144
0.18
309
CONTENTFORMAT_END
171
     0
 94
        6
 95
        1
302
GRIDFORMAT
  1
GRIDFORMAT_BEGIN
 90
        0
 91
        1
 62
     0
 92
       -2
340
0
 93
        0
 40
0.045
309
GRIDFORMAT_END
 95
        2
302
GRIDFORMAT
  1
GRIDFORMAT_BEGIN
 90
        0
 91
        1
 62
     0
 92
       -2
340
0
 93
        0
 40
0.045
309
GRIDFORMAT_END
 95
        4
302
GRIDFORMAT
  1
GRIDFORMAT_BEGIN
 90
        0
 91
        1
 62
     0
 92
       -2
340
0
 93
        0
 40
0.045
309
GRIDFORMAT_END
 95
        8
302
GRIDFORMAT
  1
GRIDFORMAT_BEGIN
 90
        0
 91
        1
 62
     0
 92
       -2
340
0
 93
        0
 40
0.045
309
GRIDFORMAT_END
 95
       16
302
GRIDFORMAT
  1
GRIDFORMAT_BEGIN
 90
        0
 91
        1
 62
     0
 92
       -2
340
0
 93
        0
 40
0.045
309
GRIDFORMAT_END
 95
       32
302
GRIDFORMAT
  1
GRIDFORMAT_BEGIN
 90
        0
 91
        1
 62
     0
 92
       -2
340
0
 93
        0
 40
0.045
309
GRIDFORMAT_END
309
TABLEFORMAT_END
  1
CELLSTYLE_BEGIN
 90
        3
 91
        2
300
_DATA
309
CELLSTYLE_END
  0
XRECORD
  5
1AB4
102
{ACAD_REACTORS
330
1AA9
102
}
330
1AA9
100
AcDbXrecord
280
     1
102
ACAD_ROUNDTRIP_PRE2007_TABLESTYLE
 90
        4
 91
        0
  1

 92
        4
 93
        0
  2

 94
        4
 95
        0
  3

  0
XRECORD
  5
1AC8
102
{ACAD_REACTORS
330
1AC7
102
}
330
1AC7
100
AcDbXrecord
280
     1
102
RTVSPropertyOp0
 70
     1
102
RTVSPropertyOp1
 70
     1
102
RTVSPropertyOp2
 70
     1
102
RTVSPropertyOp3
 70
     1
102
RTVSPropertyOp4
 70
     1
102
RTVSPropertyOp5
 70
     1
102
RTVSPropertyOp6
 70
     1
102
RTVSPropertyOp7
 70
     1
102
RTVSPropertyOp8
 70
     1
102
RTVSPropertyOp9
 70
     1
102
RTVSPropertyOp10
 70
     1
102
RTVSPropertyOp11
 70
     1
102
RTVSPropertyOp12
 70
     1
102
RTVSPropertyOp13
 70
     1
102
RTVSPropertyOp14
 70
     1
102
RTVSPropertyOp15
 70
     1
102
RTVSPropertyOp16
 70
     1
102
RTVSPropertyOp17
 70
     1
102
RTVSPropertyOp18
 70
     1
102
RTVSPropertyOp19
 70
     1
102
RTVSPropertyOp20
 70
     1
102
RTVSPropertyOp21
 70
     1
102
RTVSPropertyOp22
 70
     1
102
RTVSPropertyOp23
 70
     1
102
RTVSPropertyOp24
 70
     1
102
RTVSPropertyOp25
 70
     1
102
RTVSPropertyOp26
 70
     1
102
RTVSPropertyOp27
 70
     1
102
RTVSPropertyOp28
 70
     1
102
RTVSPropertyOp29
 70
     1
102
RTVSPropertyOp30
 70
     1
102
RTVSPropertyOp31
 70
     1
102
RTVSPropertyOp32
 70
     1
  0
XRECORD
  5
1ACC
102
{ACAD_REACTORS
330
1ACB
102
}
330
1ACB
100
AcDbXrecord
280
     1
102
RTVSPropertyOp0
 70
     1
102
RTVSPropertyOp1
 70
     1
102
RTVSPropertyOp2
 70
     1
102
RTVSPropertyOp3
 70
     1
102
RTVSPropertyOp4
 70
     1
102
RTVSPropertyOp5
 70
     1
102
RTVSPropertyOp6
 70
     1
102
RTVSPropertyOp7
 70
     1
102
RTVSPropertyOp8
 70
     1
102
RTVSPropertyOp9
 70
     1
102
RTVSPropertyOp10
 70
     1
102
RTVSPropertyOp11
 70
     1
102
RTVSPropertyOp12
 70
     1
102
RTVSPropertyOp13
 70
     1
102
RTVSPropertyOp14
 70
     1
102
RTVSPropertyOp15
 70
     1
102
RTVSPropertyOp16
 70
     1
102
RTVSPropertyOp17
 70
     1
102
RTVSPropertyOp18
 70
     1
102
RTVSPropertyOp19
 70
     1
102
RTVSPropertyOp20
 70
     1
102
RTVSPropertyOp21
 70
     1
102
RTVSPropertyOp22
 70
     1
102
RTVSPropertyOp23
 70
     1
102
RTVSPropertyOp24
 70
     1
102
RTVSPropertyOp25
 70
     1
102
RTVSPropertyOp26
 70
     1
102
RTVSPropertyOp27
 70
     1
102
RTVSPropertyOp28
 70
     1
102
RTVSPropertyOp29
 70
     1
102
RTVSPropertyOp30
 70
     1
102
RTVSPropertyOp31
 70
     1
102
RTVSPropertyOp32
 70
     1
  0
XRECORD
  5
1ACA
102
{ACAD_REACTORS
330
1AC9
102
}
330
1AC9
100
AcDbXrecord
280
     1
102
RTVSPropertyOp0
 70
     1
102
RTVSPropertyOp1
 70
     1
102
RTVSPropertyOp2
 70
     1
102
RTVSPropertyOp3
 70
     1
102
RTVSPropertyOp4
 70
     1
102
RTVSPropertyOp5
 70
     1
102
RTVSPropertyOp6
 70
     1
102
RTVSPropertyOp7
 70
     1
102
RTVSPropertyOp8
 70
     1
102
RTVSPropertyOp9
 70
     1
102
RTVSPropertyOp10
 70
     1
102
RTVSPropertyOp11
 70
     1
102
RTVSPropertyOp12
 70
     1
102
RTVSPropertyOp13
 70
     1
102
RTVSPropertyOp14
 70
     1
102
RTVSPropertyOp15
 70
     1
102
RTVSPropertyOp16
 70
     1
102
RTVSPropertyOp17
 70
     1
102
RTVSPropertyOp18
 70
     1
102
RTVSPropertyOp19
 70
     1
102
RTVSPropertyOp20
 70
     1
102
RTVSPropertyOp21
 70
     1
102
RTVSPropertyOp22
 70
     1
102
RTVSPropertyOp23
 70
     1
102
RTVSPropertyOp24
 70
     1
102
RTVSPropertyOp25
 70
     1
102
RTVSPropertyOp26
 70
     1
102
RTVSPropertyOp27
 70
     1
102
RTVSPropertyOp28
 70
     1
102
RTVSPropertyOp29
 70
     1
102
RTVSPropertyOp30
 70
     1
102
RTVSPropertyOp31
 70
     1
102
RTVSPropertyOp32
 70
     1
  0
XRECORD
  5
1AC6
102
{ACAD_REACTORS
330
1AC5
102
}
330
1AC5
100
AcDbXrecord
280
     1
102
RTVSPropertyOp0
 70
     1
102
RTVSPropertyOp1
 70
     1
102
RTVSPropertyOp2
 70
     1
102
RTVSPropertyOp3
 70
     1
102
RTVSPropertyOp4
 70
     1
102
RTVSPropertyOp5
 70
     1
102
RTVSPropertyOp6
 70
     1
102
RTVSPropertyOp7
 70
     1
102
RTVSPropertyOp8
 70
     1
102
RTVSPropertyOp9
 70
     1
102
RTVSPropertyOp10
 70
     1
102
RTVSPropertyOp11
 70
     1
102
RTVSPropertyOp12
 70
     1
102
RTVSPropertyOp13
 70
     1
102
RTVSPropertyOp14
 70
     1
102
RTVSPropertyOp15
 70
     1
102
RTVSPropertyOp16
 70
     1
102
RTVSPropertyOp17
 70
     1
102
RTVSPropertyOp18
 70
     1
102
RTVSPropertyOp19
 70
     1
102
RTVSPropertyOp20
 70
     1
102
RTVSPropertyOp21
 70
     1
102
RTVSPropertyOp22
 70
     1
102
RTVSPropertyOp23
 70
     1
102
RTVSPropertyOp24
 70
     1
102
RTVSPropertyOp25
 70
     1
102
RTVSPropertyOp26
 70
     1
102
RTVSPropertyOp27
 70
     1
102
RTVSPropertyOp28
 70
     1
102
RTVSPropertyOp29
 70
     1
102
RTVSPropertyOp30
 70
     1
102
RTVSPropertyOp31
 70
     1
102
RTVSPropertyOp32
 70
     1
  0
XRECORD
  5
1AD4
102
{ACAD_REACTORS
330
1AD3
102
}
330
1AD3
100
AcDbXrecord
280
     1
102
RTVSPropertyOp0
 70
     1
102
RTVSPropertyOp1
 70
     1
102
RTVSPropertyOp2
 70
     1
102
RTVSPropertyOp3
 70
     1
102
RTVSPropertyOp4
 70
     1
102
RTVSPropertyOp5
 70
     1
102
RTVSPropertyOp6
 70
     1
102
RTVSPropertyOp7
 70
     1
102
RTVSPropertyOp8
 70
     1
102
RTVSPropertyOp9
 70
     1
102
RTVSPropertyOp10
 70
     1
102
RTVSPropertyOp11
 70
     1
102
RTVSPropertyOp12
 70
     1
102
RTVSPropertyOp13
 70
     1
102
RTVSPropertyOp14
 70
     1
102
RTVSPropertyOp15
 70
     1
102
RTVSPropertyOp16
 70
     1
102
RTVSPropertyOp17
 70
     1
102
RTVSPropertyOp18
 70
     1
102
RTVSPropertyOp19
 70
     1
102
RTVSPropertyOp20
 70
     1
102
RTVSPropertyOp21
 70
     1
102
RTVSPropertyOp22
 70
     1
102
RTVSPropertyOp23
 70
     1
102
RTVSPropertyOp24
 70
     1
102
RTVSPropertyOp25
 70
     1
102
RTVSPropertyOp26
 70
     1
102
RTVSPropertyOp27
 70
     1
102
RTVSPropertyOp28
 70
     1
102
RTVSPropertyOp29
 70
     1
102
RTVSPropertyOp30
 70
     1
102
RTVSPropertyOp31
 70
     1
102
RTVSPropertyOp32
 70
     1
  0
XRECORD
  5
1ADC
102
{ACAD_REACTORS
330
1ADB
102
}
330
1ADB
100
AcDbXrecord
280
     1
102
RTVSPropertyOp0
 70
     1
102
RTVSPropertyOp1
 70
     1
102
RTVSPropertyOp2
 70
     1
102
RTVSPropertyOp3
 70
     1
102
RTVSPropertyOp4
 70
     1
102
RTVSPropertyOp5
 70
     1
102
RTVSPropertyOp6
 70
     1
102
RTVSPropertyOp7
 70
     1
102
RTVSPropertyOp8
 70
     1
102
RTVSPropertyOp9
 70
     1
102
RTVSPropertyOp10
 70
     1
102
RTVSPropertyOp11
 70
     1
102
RTVSPropertyOp12
 70
     1
102
RTVSPropertyOp13
 70
     1
102
RTVSPropertyOp14
 70
     1
102
RTVSPropertyOp15
 70
     1
102
RTVSPropertyOp16
 70
     1
102
RTVSPropertyOp17
 70
     1
102
RTVSPropertyOp18
 70
     1
102
RTVSPropertyOp19
 70
     1
102
RTVSPropertyOp20
 70
     1
102
RTVSPropertyOp21
 70
     1
102
RTVSPropertyOp22
 70
     1
102
RTVSPropertyOp23
 70
     1
102
RTVSPropertyOp24
 70
     1
102
RTVSPropertyOp25
 70
     1
102
RTVSPropertyOp26
 70
     1
102
RTVSPropertyOp27
 70
     1
102
RTVSPropertyOp28
 70
     1
102
RTVSPropertyOp29
 70
     1
102
RTVSPropertyOp30
 70
     1
102
RTVSPropertyOp31
 70
     1
102
RTVSPropertyOp32
 70
     1
  0
XRECORD
  5
1ACE
102
{ACAD_REACTORS
330
1ACD
102
}
330
1ACD
100
AcDbXrecord
280
     1
102
RTVSPropertyOp0
 70
     1
102
RTVSPropertyOp1
 70
     1
102
RTVSPropertyOp2
 70
     1
102
RTVSPropertyOp3
 70
     1
102
RTVSPropertyOp4
 70
     1
102
RTVSPropertyOp5
 70
     1
102
RTVSPropertyOp6
 70
     1
102
RTVSPropertyOp7
 70
     1
102
RTVSPropertyOp8
 70
     1
102
RTVSPropertyOp9
 70
     1
102
RTVSPropertyOp10
 70
     1
102
RTVSPropertyOp11
 70
     1
102
RTVSPropertyOp12
 70
     1
102
RTVSPropertyOp13
 70
     1
102
RTVSPropertyOp14
 70
     1
102
RTVSPropertyOp15
 70
     1
102
RTVSPropertyOp16
 70
     1
102
RTVSPropertyOp17
 70
     1
102
RTVSPropertyOp18
 70
     1
102
RTVSPropertyOp19
 70
     1
102
RTVSPropertyOp20
 70
     1
102
RTVSPropertyOp21
 70
     1
102
RTVSPropertyOp22
 70
     1
102
RTVSPropertyOp23
 70
     1
102
RTVSPropertyOp24
 70
     1
102
RTVSPropertyOp25
 70
     1
102
RTVSPropertyOp26
 70
     1
102
RTVSPropertyOp27
 70
     1
102
RTVSPropertyOp28
 70
     1
102
RTVSPropertyOp29
 70
     1
102
RTVSPropertyOp30
 70
     1
102
RTVSPropertyOp31
 70
     1
102
RTVSPropertyOp32
 70
     1
  0
XRECORD
  5
1AD2
102
{ACAD_REACTORS
330
1AD1
102
}
330
1AD1
100
AcDbXrecord
280
     1
102
RTVSPropertyOp0
 70
     1
102
RTVSPropertyOp1
 70
     1
102
RTVSPropertyOp2
 70
     1
102
RTVSPropertyOp3
 70
     1
102
RTVSPropertyOp4
 70
     1
102
RTVSPropertyOp5
 70
     1
102
RTVSPropertyOp6
 70
     1
102
RTVSPropertyOp7
 70
     1
102
RTVSPropertyOp8
 70
     1
102
RTVSPropertyOp9
 70
     1
102
RTVSPropertyOp10
 70
     1
102
RTVSPropertyOp11
 70
     1
102
RTVSPropertyOp12
 70
     1
102
RTVSPropertyOp13
 70
     1
102
RTVSPropertyOp14
 70
     1
102
RTVSPropertyOp15
 70
     1
102
RTVSPropertyOp16
 70
     1
102
RTVSPropertyOp17
 70
     1
102
RTVSPropertyOp18
 70
     1
102
RTVSPropertyOp19
 70
     1
102
RTVSPropertyOp20
 70
     1
102
RTVSPropertyOp21
 70
     1
102
RTVSPropertyOp22
 70
     1
102
RTVSPropertyOp23
 70
     1
102
RTVSPropertyOp24
 70
     1
102
RTVSPropertyOp25
 70
     1
102
RTVSPropertyOp26
 70
     1
102
RTVSPropertyOp27
 70
     1
102
RTVSPropertyOp28
 70
     1
102
RTVSPropertyOp29
 70
     1
102
RTVSPropertyOp30
 70
     1
102
RTVSPropertyOp31
 70
     1
102
RTVSPropertyOp32
 70
     1
  0
XRECORD
  5
1AF0
102
{ACAD_REACTORS
330
1AEF
102
}
330
1AEF
100
AcDbXrecord
280
     1
102
RTVSPropertyOp0
 70
     0
102
RTVSPropertyOp1
 70
     0
102
RTVSPropertyOp2
 70
     0
102
RTVSPropertyOp3
 70
     0
102
RTVSPropertyOp4
 70
     0
102
RTVSPropertyOp5
 70
     0
102
RTVSPropertyOp6
 70
     0
102
RTVSPropertyOp7
 70
     0
102
RTVSPropertyOp8
 70
     0
102
RTVSPropertyOp9
 70
     0
102
RTVSPropertyOp10
 70
     0
102
RTVSPropertyOp11
 70
     0
102
RTVSPropertyOp12
 70
     0
102
RTVSPropertyOp13
 70
     0
102
RTVSPropertyOp14
 70
     2
102
RTVSPropertyOp15
 70
     0
102
RTVSPropertyOp16
 70
     0
102
RTVSPropertyOp17
 70
     0
102
RTVSPropertyOp18
 70
     0
102
RTVSPropertyOp19
 70
     0
102
RTVSPropertyOp20
 70
     0
102
RTVSPropertyOp21
 70
     0
102
RTVSPropertyOp22
 70
     0
102
RTVSPropertyOp23
 70
     0
102
RTVSPropertyOp24
 70
     0
102
RTVSPropertyOp25
 70
     0
102
RTVSPropertyOp26
 70
     0
102
RTVSPropertyOp27
 70
     0
102
RTVSPropertyOp28
 70
     0
102
RTVSPropertyOp29
 70
     0
102
RTVSPropertyOp30
 70
     0
102
RTVSPropertyOp31
 70
     0
102
RTVSPropertyOp32
 70
     0
  0
XRECORD
  5
1ADA
102
{ACAD_REACTORS
330
1AD9
102
}
330
1AD9
100
AcDbXrecord
280
     1
102
RTVSPropertyOp0
 70
     1
102
RTVSPropertyOp1
 70
     1
102
RTVSPropertyOp2
 70
     1
102
RTVSPropertyOp3
 70
     1
102
RTVSPropertyOp4
 70
     1
102
RTVSPropertyOp5
 70
     1
102
RTVSPropertyOp6
 70
     1
102
RTVSPropertyOp7
 70
     1
102
RTVSPropertyOp8
 70
     1
102
RTVSPropertyOp9
 70
     1
102
RTVSPropertyOp10
 70
     1
102
RTVSPropertyOp11
 70
     1
102
RTVSPropertyOp12
 70
     1
102
RTVSPropertyOp13
 70
     1
102
RTVSPropertyOp14
 70
     1
102
RTVSPropertyOp15
 70
     1
102
RTVSPropertyOp16
 70
     1
102
RTVSPropertyOp17
 70
     1
102
RTVSPropertyOp18
 70
     1
102
RTVSPropertyOp19
 70
     1
102
RTVSPropertyOp20
 70
     1
102
RTVSPropertyOp21
 70
     1
102
RTVSPropertyOp22
 70
     1
102
RTVSPropertyOp23
 70
     1
102
RTVSPropertyOp24
 70
     1
102
RTVSPropertyOp25
 70
     1
102
RTVSPropertyOp26
 70
     1
102
RTVSPropertyOp27
 70
     1
102
RTVSPropertyOp28
 70
     1
102
RTVSPropertyOp29
 70
     1
102
RTVSPropertyOp30
 70
     1
102
RTVSPropertyOp31
 70
     1
102
RTVSPropertyOp32
 70
     1
  0
XRECORD
  5
1ABE
102
{ACAD_REACTORS
330
1ABD
102
}
330
1ABD
100
AcDbXrecord
280
     1
102
RTVSPropertyOp0
 70
     1
102
RTVSPropertyOp1
 70
     1
102
RTVSPropertyOp2
 70
     1
102
RTVSPropertyOp3
 70
     1
102
RTVSPropertyOp4
 70
     1
102
RTVSPropertyOp5
 70
     1
102
RTVSPropertyOp6
 70
     1
102
RTVSPropertyOp7
 70
     1
102
RTVSPropertyOp8
 70
     1
102
RTVSPropertyOp9
 70
     1
102
RTVSPropertyOp10
 70
     1
102
RTVSPropertyOp11
 70
     1
102
RTVSPropertyOp12
 70
     1
102
RTVSPropertyOp13
 70
     1
102
RTVSPropertyOp14
 70
     1
102
RTVSPropertyOp15
 70
     1
102
RTVSPropertyOp16
 70
     1
102
RTVSPropertyOp17
 70
     1
102
RTVSPropertyOp18
 70
     1
102
RTVSPropertyOp19
 70
     1
102
RTVSPropertyOp20
 70
     1
102
RTVSPropertyOp21
 70
     1
102
RTVSPropertyOp22
 70
     1
102
RTVSPropertyOp23
 70
     1
102
RTVSPropertyOp24
 70
     1
102
RTVSPropertyOp25
 70
     1
102
RTVSPropertyOp26
 70
     1
102
RTVSPropertyOp27
 70
     1
102
RTVSPropertyOp28
 70
     1
102
RTVSPropertyOp29
 70
     1
102
RTVSPropertyOp30
 70
     1
102
RTVSPropertyOp31
 70
     1
102
RTVSPropertyOp32
 70
     1
  0
XRECORD
  5
1AC0
102
{ACAD_REACTORS
330
1ABF
102
}
330
1ABF
100
AcDbXrecord
280
     1
102
RTVSPropertyOp0
 70
     1
102
RTVSPropertyOp1
 70
     1
102
RTVSPropertyOp2
 70
     1
102
RTVSPropertyOp3
 70
     1
102
RTVSPropertyOp4
 70
     1
102
RTVSPropertyOp5
 70
     1
102
RTVSPropertyOp6
 70
     1
102
RTVSPropertyOp7
 70
     1
102
RTVSPropertyOp8
 70
     1
102
RTVSPropertyOp9
 70
     1
102
RTVSPropertyOp10
 70
     1
102
RTVSPropertyOp11
 70
     1
102
RTVSPropertyOp12
 70
     1
102
RTVSPropertyOp13
 70
     1
102
RTVSPropertyOp14
 70
     1
102
RTVSPropertyOp15
 70
     1
102
RTVSPropertyOp16
 70
     1
102
RTVSPropertyOp17
 70
     1
102
RTVSPropertyOp18
 70
     1
102
RTVSPropertyOp19
 70
     1
102
RTVSPropertyOp20
 70
     1
102
RTVSPropertyOp21
 70
     1
102
RTVSPropertyOp22
 70
     1
102
RTVSPropertyOp23
 70
     1
102
RTVSPropertyOp24
 70
     1
102
RTVSPropertyOp25
 70
     1
102
RTVSPropertyOp26
 70
     1
102
RTVSPropertyOp27
 70
     1
102
RTVSPropertyOp28
 70
     1
102
RTVSPropertyOp29
 70
     1
102
RTVSPropertyOp30
 70
     1
102
RTVSPropertyOp31
 70
     1
102
RTVSPropertyOp32
 70
     1
  0
XRECORD
  5
1AC2
102
{ACAD_REACTORS
330
1AC1
102
}
330
1AC1
100
AcDbXrecord
280
     1
102
RTVSPropertyOp0
 70
     1
102
RTVSPropertyOp1
 70
     1
102
RTVSPropertyOp2
 70
     1
102
RTVSPropertyOp3
 70
     1
102
RTVSPropertyOp4
 70
     1
102
RTVSPropertyOp5
 70
     1
102
RTVSPropertyOp6
 70
     1
102
RTVSPropertyOp7
 70
     1
102
RTVSPropertyOp8
 70
     1
102
RTVSPropertyOp9
 70
     1
102
RTVSPropertyOp10
 70
     1
102
RTVSPropertyOp11
 70
     1
102
RTVSPropertyOp12
 70
     1
102
RTVSPropertyOp13
 70
     1
102
RTVSPropertyOp14
 70
     1
102
RTVSPropertyOp15
 70
     1
102
RTVSPropertyOp16
 70
     1
102
RTVSPropertyOp17
 70
     1
102
RTVSPropertyOp18
 70
     1
102
RTVSPropertyOp19
 70
     1
102
RTVSPropertyOp20
 70
     1
102
RTVSPropertyOp21
 70
     1
102
RTVSPropertyOp22
 70
     1
102
RTVSPropertyOp23
 70
     1
102
RTVSPropertyOp24
 70
     1
102
RTVSPropertyOp25
 70
     1
102
RTVSPropertyOp26
 70
     1
102
RTVSPropertyOp27
 70
     1
102
RTVSPropertyOp28
 70
     1
102
RTVSPropertyOp29
 70
     1
102
RTVSPropertyOp30
 70
     1
102
RTVSPropertyOp31
 70
     1
102
RTVSPropertyOp32
 70
     1
  0
XRECORD
  5
1AC4
102
{ACAD_REACTORS
330
1AC3
102
}
330
1AC3
100
AcDbXrecord
280
     1
102
RTVSPropertyOp0
 70
     1
102
RTVSPropertyOp1
 70
     1
102
RTVSPropertyOp2
 70
     1
102
RTVSPropertyOp3
 70
     1
102
RTVSPropertyOp4
 70
     1
102
RTVSPropertyOp5
 70
     1
102
RTVSPropertyOp6
 70
     1
102
RTVSPropertyOp7
 70
     1
102
RTVSPropertyOp8
 70
     1
102
RTVSPropertyOp9
 70
     1
102
RTVSPropertyOp10
 70
     1
102
RTVSPropertyOp11
 70
     1
102
RTVSPropertyOp12
 70
     1
102
RTVSPropertyOp13
 70
     1
102
RTVSPropertyOp14
 70
     1
102
RTVSPropertyOp15
 70
     1
102
RTVSPropertyOp16
 70
     1
102
RTVSPropertyOp17
 70
     1
102
RTVSPropertyOp18
 70
     1
102
RTVSPropertyOp19
 70
     1
102
RTVSPropertyOp20
 70
     1
102
RTVSPropertyOp21
 70
     1
102
RTVSPropertyOp22
 70
     1
102
RTVSPropertyOp23
 70
     1
102
RTVSPropertyOp24
 70
     1
102
RTVSPropertyOp25
 70
     1
102
RTVSPropertyOp26
 70
     1
102
RTVSPropertyOp27
 70
     1
102
RTVSPropertyOp28
 70
     1
102
RTVSPropertyOp29
 70
     1
102
RTVSPropertyOp30
 70
     1
102
RTVSPropertyOp31
 70
     1
102
RTVSPropertyOp32
 70
     1
  0
XRECORD
  5
1AE0
102
{ACAD_REACTORS
330
1ADF
102
}
330
1ADF
100
AcDbXrecord
280
     1
102
RTVSPropertyOp0
 70
     1
102
RTVSPropertyOp1
 70
     1
102
RTVSPropertyOp2
 70
     1
102
RTVSPropertyOp3
 70
     1
102
RTVSPropertyOp4
 70
     1
102
RTVSPropertyOp5
 70
     1
102
RTVSPropertyOp6
 70
     1
102
RTVSPropertyOp7
 70
     1
102
RTVSPropertyOp8
 70
     1
102
RTVSPropertyOp9
 70
     1
102
RTVSPropertyOp10
 70
     1
102
RTVSPropertyOp11
 70
     1
102
RTVSPropertyOp12
 70
     1
102
RTVSPropertyOp13
 70
     1
102
RTVSPropertyOp14
 70
     1
102
RTVSPropertyOp15
 70
     1
102
RTVSPropertyOp16
 70
     1
102
RTVSPropertyOp17
 70
     1
102
RTVSPropertyOp18
 70
     1
102
RTVSPropertyOp19
 70
     1
102
RTVSPropertyOp20
 70
     1
102
RTVSPropertyOp21
 70
     1
102
RTVSPropertyOp22
 70
     1
102
RTVSPropertyOp23
 70
     1
102
RTVSPropertyOp24
 70
     1
102
RTVSPropertyOp25
 70
     1
102
RTVSPropertyOp26
 70
     1
102
RTVSPropertyOp27
 70
     1
102
RTVSPropertyOp28
 70
     1
102
RTVSPropertyOp29
 70
     1
102
RTVSPropertyOp30
 70
     1
102
RTVSPropertyOp31
 70
     1
102
RTVSPropertyOp32
 70
     1
  0
XRECORD
  5
1AEC
102
{ACAD_REACTORS
330
1AEB
102
}
330
1AEB
100
AcDbXrecord
280
     1
102
RTVSPropertyOp0
 70
     0
102
RTVSPropertyOp1
 70
     0
102
RTVSPropertyOp2
 70
     0
102
RTVSPropertyOp3
 70
     0
102
RTVSPropertyOp4
 70
     0
102
RTVSPropertyOp5
 70
     0
102
RTVSPropertyOp6
 70
     0
102
RTVSPropertyOp7
 70
     0
102
RTVSPropertyOp8
 70
     0
102
RTVSPropertyOp9
 70
     0
102
RTVSPropertyOp10
 70
     0
102
RTVSPropertyOp11
 70
     0
102
RTVSPropertyOp12
 70
     0
102
RTVSPropertyOp13
 70
     0
102
RTVSPropertyOp14
 70
     2
102
RTVSPropertyOp15
 70
     0
102
RTVSPropertyOp16
 70
     0
102
RTVSPropertyOp17
 70
     0
102
RTVSPropertyOp18
 70
     0
102
RTVSPropertyOp19
 70
     0
102
RTVSPropertyOp20
 70
     0
102
RTVSPropertyOp21
 70
     0
102
RTVSPropertyOp22
 70
     0
102
RTVSPropertyOp23
 70
     0
102
RTVSPropertyOp24
 70
     0
102
RTVSPropertyOp25
 70
     0
102
RTVSPropertyOp26
 70
     0
102
RTVSPropertyOp27
 70
     0
102
RTVSPropertyOp28
 70
     0
102
RTVSPropertyOp29
 70
     0
102
RTVSPropertyOp30
 70
     0
102
RTVSPropertyOp31
 70
     0
102
RTVSPropertyOp32
 70
     0
  0
XRECORD
  5
1AD8
102
{ACAD_REACTORS
330
1AD7
102
}
330
1AD7
100
AcDbXrecord
280
     1
102
RTVSPropertyOp0
 70
     1
102
RTVSPropertyOp1
 70
     1
102
RTVSPropertyOp2
 70
     1
102
RTVSPropertyOp3
 70
     1
102
RTVSPropertyOp4
 70
     1
102
RTVSPropertyOp5
 70
     1
102
RTVSPropertyOp6
 70
     1
102
RTVSPropertyOp7
 70
     1
102
RTVSPropertyOp8
 70
     1
102
RTVSPropertyOp9
 70
     1
102
RTVSPropertyOp10
 70
     1
102
RTVSPropertyOp11
 70
     1
102
RTVSPropertyOp12
 70
     1
102
RTVSPropertyOp13
 70
     1
102
RTVSPropertyOp14
 70
     1
102
RTVSPropertyOp15
 70
     1
102
RTVSPropertyOp16
 70
     1
102
RTVSPropertyOp17
 70
     1
102
RTVSPropertyOp18
 70
     1
102
RTVSPropertyOp19
 70
     1
102
RTVSPropertyOp20
 70
     1
102
RTVSPropertyOp21
 70
     1
102
RTVSPropertyOp22
 70
     1
102
RTVSPropertyOp23
 70
     1
102
RTVSPropertyOp24
 70
     1
102
RTVSPropertyOp25
 70
     1
102
RTVSPropertyOp26
 70
     1
102
RTVSPropertyOp27
 70
     1
102
RTVSPropertyOp28
 70
     1
102
RTVSPropertyOp29
 70
     1
102
RTVSPropertyOp30
 70
     1
102
RTVSPropertyOp31
 70
     1
102
RTVSPropertyOp32
 70
     1
  0
XRECORD
  5
1AEE
102
{ACAD_REACTORS
330
1AED
102
}
330
1AED
100
AcDbXrecord
280
     1
102
RTVSPropertyOp0
 70
     0
102
RTVSPropertyOp1
 70
     0
102
RTVSPropertyOp2
 70
     0
102
RTVSPropertyOp3
 70
     0
102
RTVSPropertyOp4
 70
     0
102
RTVSPropertyOp5
 70
     0
102
RTVSPropertyOp6
 70
     0
102
RTVSPropertyOp7
 70
     0
102
RTVSPropertyOp8
 70
     0
102
RTVSPropertyOp9
 70
     0
102
RTVSPropertyOp10
 70
     0
102
RTVSPropertyOp11
 70
     0
102
RTVSPropertyOp12
 70
     0
102
RTVSPropertyOp13
 70
     0
102
RTVSPropertyOp14
 70
     2
102
RTVSPropertyOp15
 70
     0
102
RTVSPropertyOp16
 70
     0
102
RTVSPropertyOp17
 70
     0
102
RTVSPropertyOp18
 70
     0
102
RTVSPropertyOp19
 70
     0
102
RTVSPropertyOp20
 70
     0
102
RTVSPropertyOp21
 70
     0
102
RTVSPropertyOp22
 70
     0
102
RTVSPropertyOp23
 70
     0
102
RTVSPropertyOp24
 70
     0
102
RTVSPropertyOp25
 70
     0
102
RTVSPropertyOp26
 70
     0
102
RTVSPropertyOp27
 70
     0
102
RTVSPropertyOp28
 70
     0
102
RTVSPropertyOp29
 70
     0
102
RTVSPropertyOp30
 70
     0
102
RTVSPropertyOp31
 70
     0
102
RTVSPropertyOp32
 70
     0
  0
XRECORD
  5
1AD0
102
{ACAD_REACTORS
330
1ACF
102
}
330
1ACF
100
AcDbXrecord
280
     1
102
RTVSPropertyOp0
 70
     1
102
RTVSPropertyOp1
 70
     1
102
RTVSPropertyOp2
 70
     1
102
RTVSPropertyOp3
 70
     1
102
RTVSPropertyOp4
 70
     1
102
RTVSPropertyOp5
 70
     1
102
RTVSPropertyOp6
 70
     1
102
RTVSPropertyOp7
 70
     1
102
RTVSPropertyOp8
 70
     1
102
RTVSPropertyOp9
 70
     1
102
RTVSPropertyOp10
 70
     1
102
RTVSPropertyOp11
 70
     1
102
RTVSPropertyOp12
 70
     1
102
RTVSPropertyOp13
 70
     1
102
RTVSPropertyOp14
 70
     1
102
RTVSPropertyOp15
 70
     1
102
RTVSPropertyOp16
 70
     1
102
RTVSPropertyOp17
 70
     1
102
RTVSPropertyOp18
 70
     1
102
RTVSPropertyOp19
 70
     1
102
RTVSPropertyOp20
 70
     1
102
RTVSPropertyOp21
 70
     1
102
RTVSPropertyOp22
 70
     1
102
RTVSPropertyOp23
 70
     1
102
RTVSPropertyOp24
 70
     1
102
RTVSPropertyOp25
 70
     1
102
RTVSPropertyOp26
 70
     1
102
RTVSPropertyOp27
 70
     1
102
RTVSPropertyOp28
 70
     1
102
RTVSPropertyOp29
 70
     1
102
RTVSPropertyOp30
 70
     1
102
RTVSPropertyOp31
 70
     1
102
RTVSPropertyOp32
 70
     1
  0
XRECORD
  5
1AEA
102
{ACAD_REACTORS
330
1AE9
102
}
330
1AE9
100
AcDbXrecord
280
     1
102
RTVSPropertyOp0
 70
     1
102
RTVSPropertyOp1
 70
     1
102
RTVSPropertyOp2
 70
     1
102
RTVSPropertyOp3
 70
     1
102
RTVSPropertyOp4
 70
     1
102
RTVSPropertyOp5
 70
     1
102
RTVSPropertyOp6
 70
     1
102
RTVSPropertyOp7
 70
     1
102
RTVSPropertyOp8
 70
     1
102
RTVSPropertyOp9
 70
     1
102
RTVSPropertyOp10
 70
     1
102
RTVSPropertyOp11
 70
     1
102
RTVSPropertyOp12
 70
     1
102
RTVSPropertyOp13
 70
     1
102
RTVSPropertyOp14
 70
     1
102
RTVSPropertyOp15
 70
     1
102
RTVSPropertyOp16
 70
     1
102
RTVSPropertyOp17
 70
     1
102
RTVSPropertyOp18
 70
     1
102
RTVSPropertyOp19
 70
     1
102
RTVSPropertyOp20
 70
     1
102
RTVSPropertyOp21
 70
     1
102
RTVSPropertyOp22
 70
     1
102
RTVSPropertyOp23
 70
     1
102
RTVSPropertyOp24
 70
     1
102
RTVSPropertyOp25
 70
     1
102
RTVSPropertyOp26
 70
     1
102
RTVSPropertyOp27
 70
     1
102
RTVSPropertyOp28
 70
     1
102
RTVSPropertyOp29
 70
     1
102
RTVSPropertyOp30
 70
     1
102
RTVSPropertyOp31
 70
     1
102
RTVSPropertyOp32
 70
     1
  0
XRECORD
  5
1AE8
102
{ACAD_REACTORS
330
1AE7
102
}
330
1AE7
100
AcDbXrecord
280
     1
102
RTVSPropertyOp0
 70
     1
102
RTVSPropertyOp1
 70
     1
102
RTVSPropertyOp2
 70
     1
102
RTVSPropertyOp3
 70
     1
102
RTVSPropertyOp4
 70
     1
102
RTVSPropertyOp5
 70
     1
102
RTVSPropertyOp6
 70
     1
102
RTVSPropertyOp7
 70
     1
102
RTVSPropertyOp8
 70
     1
102
RTVSPropertyOp9
 70
     1
102
RTVSPropertyOp10
 70
     1
102
RTVSPropertyOp11
 70
     1
102
RTVSPropertyOp12
 70
     1
102
RTVSPropertyOp13
 70
     1
102
RTVSPropertyOp14
 70
     1
102
RTVSPropertyOp15
 70
     1
102
RTVSPropertyOp16
 70
     1
102
RTVSPropertyOp17
 70
     1
102
RTVSPropertyOp18
 70
     1
102
RTVSPropertyOp19
 70
     1
102
RTVSPropertyOp20
 70
     1
102
RTVSPropertyOp21
 70
     1
102
RTVSPropertyOp22
 70
     1
102
RTVSPropertyOp23
 70
     1
102
RTVSPropertyOp24
 70
     1
102
RTVSPropertyOp25
 70
     1
102
RTVSPropertyOp26
 70
     1
102
RTVSPropertyOp27
 70
     1
102
RTVSPropertyOp28
 70
     1
102
RTVSPropertyOp29
 70
     1
102
RTVSPropertyOp30
 70
     1
102
RTVSPropertyOp31
 70
     1
102
RTVSPropertyOp32
 70
     1
  0
XRECORD
  5
1AE2
102
{ACAD_REACTORS
330
1AE1
102
}
330
1AE1
100
AcDbXrecord
280
     1
102
RTVSPropertyOp0
 70
     1
102
RTVSPropertyOp1
 70
     1
102
RTVSPropertyOp2
 70
     1
102
RTVSPropertyOp3
 70
     1
102
RTVSPropertyOp4
 70
     1
102
RTVSPropertyOp5
 70
     1
102
RTVSPropertyOp6
 70
     1
102
RTVSPropertyOp7
 70
     1
102
RTVSPropertyOp8
 70
     1
102
RTVSPropertyOp9
 70
     1
102
RTVSPropertyOp10
 70
     1
102
RTVSPropertyOp11
 70
     1
102
RTVSPropertyOp12
 70
     1
102
RTVSPropertyOp13
 70
     1
102
RTVSPropertyOp14
 70
     1
102
RTVSPropertyOp15
 70
     1
102
RTVSPropertyOp16
 70
     1
102
RTVSPropertyOp17
 70
     1
102
RTVSPropertyOp18
 70
     1
102
RTVSPropertyOp19
 70
     1
102
RTVSPropertyOp20
 70
     1
102
RTVSPropertyOp21
 70
     1
102
RTVSPropertyOp22
 70
     1
102
RTVSPropertyOp23
 70
     1
102
RTVSPropertyOp24
 70
     1
102
RTVSPropertyOp25
 70
     1
102
RTVSPropertyOp26
 70
     1
102
RTVSPropertyOp27
 70
     1
102
RTVSPropertyOp28
 70
     1
102
RTVSPropertyOp29
 70
     1
102
RTVSPropertyOp30
 70
     1
102
RTVSPropertyOp31
 70
     1
102
RTVSPropertyOp32
 70
     1
  0
XRECORD
  5
1AE4
102
{ACAD_REACTORS
330
1AE3
102
}
330
1AE3
100
AcDbXrecord
280
     1
102
RTVSPropertyOp0
 70
     1
102
RTVSPropertyOp1
 70
     1
102
RTVSPropertyOp2
 70
     1
102
RTVSPropertyOp3
 70
     1
102
RTVSPropertyOp4
 70
     1
102
RTVSPropertyOp5
 70
     1
102
RTVSPropertyOp6
 70
     1
102
RTVSPropertyOp7
 70
     1
102
RTVSPropertyOp8
 70
     1
102
RTVSPropertyOp9
 70
     1
102
RTVSPropertyOp10
 70
     1
102
RTVSPropertyOp11
 70
     1
102
RTVSPropertyOp12
 70
     1
102
RTVSPropertyOp13
 70
     1
102
RTVSPropertyOp14
 70
     1
102
RTVSPropertyOp15
 70
     1
102
RTVSPropertyOp16
 70
     1
102
RTVSPropertyOp17
 70
     1
102
RTVSPropertyOp18
 70
     1
102
RTVSPropertyOp19
 70
     1
102
RTVSPropertyOp20
 70
     1
102
RTVSPropertyOp21
 70
     1
102
RTVSPropertyOp22
 70
     1
102
RTVSPropertyOp23
 70
     1
102
RTVSPropertyOp24
 70
     1
102
RTVSPropertyOp25
 70
     1
102
RTVSPropertyOp26
 70
     1
102
RTVSPropertyOp27
 70
     1
102
RTVSPropertyOp28
 70
     1
102
RTVSPropertyOp29
 70
     1
102
RTVSPropertyOp30
 70
     1
102
RTVSPropertyOp31
 70
     1
102
RTVSPropertyOp32
 70
     1
  0
XRECORD
  5
1AD6
102
{ACAD_REACTORS
330
1AD5
102
}
330
1AD5
100
AcDbXrecord
280
     1
102
RTVSPropertyOp0
 70
     1
102
RTVSPropertyOp1
 70
     1
102
RTVSPropertyOp2
 70
     1
102
RTVSPropertyOp3
 70
     1
102
RTVSPropertyOp4
 70
     1
102
RTVSPropertyOp5
 70
     1
102
RTVSPropertyOp6
 70
     1
102
RTVSPropertyOp7
 70
     1
102
RTVSPropertyOp8
 70
     1
102
RTVSPropertyOp9
 70
     1
102
RTVSPropertyOp10
 70
     1
102
RTVSPropertyOp11
 70
     1
102
RTVSPropertyOp12
 70
     1
102
RTVSPropertyOp13
 70
     1
102
RTVSPropertyOp14
 70
     1
102
RTVSPropertyOp15
 70
     1
102
RTVSPropertyOp16
 70
     1
102
RTVSPropertyOp17
 70
     1
102
RTVSPropertyOp18
 70
     1
102
RTVSPropertyOp19
 70
     1
102
RTVSPropertyOp20
 70
     1
102
RTVSPropertyOp21
 70
     1
102
RTVSPropertyOp22
 70
     1
102
RTVSPropertyOp23
 70
     1
102
RTVSPropertyOp24
 70
     1
102
RTVSPropertyOp25
 70
     1
102
RTVSPropertyOp26
 70
     1
102
RTVSPropertyOp27
 70
     1
102
RTVSPropertyOp28
 70
     1
102
RTVSPropertyOp29
 70
     1
102
RTVSPropertyOp30
 70
     1
102
RTVSPropertyOp31
 70
     1
102
RTVSPropertyOp32
 70
     1
  0
XRECORD
  5
1ADE
102
{ACAD_REACTORS
330
1ADD
102
}
330
1ADD
100
AcDbXrecord
280
     1
102
RTVSPropertyOp0
 70
     1
102
RTVSPropertyOp1
 70
     1
102
RTVSPropertyOp2
 70
     1
102
RTVSPropertyOp3
 70
     1
102
RTVSPropertyOp4
 70
     1
102
RTVSPropertyOp5
 70
     1
102
RTVSPropertyOp6
 70
     1
102
RTVSPropertyOp7
 70
     1
102
RTVSPropertyOp8
 70
     1
102
RTVSPropertyOp9
 70
     1
102
RTVSPropertyOp10
 70
     1
102
RTVSPropertyOp11
 70
     1
102
RTVSPropertyOp12
 70
     1
102
RTVSPropertyOp13
 70
     1
102
RTVSPropertyOp14
 70
     1
102
RTVSPropertyOp15
 70
     1
102
RTVSPropertyOp16
 70
     1
102
RTVSPropertyOp17
 70
     1
102
RTVSPropertyOp18
 70
     1
102
RTVSPropertyOp19
 70
     1
102
RTVSPropertyOp20
 70
     1
102
RTVSPropertyOp21
 70
     1
102
RTVSPropertyOp22
 70
     1
102
RTVSPropertyOp23
 70
     1
102
RTVSPropertyOp24
 70
     1
102
RTVSPropertyOp25
 70
     1
102
RTVSPropertyOp26
 70
     1
102
RTVSPropertyOp27
 70
     1
102
RTVSPropertyOp28
 70
     1
102
RTVSPropertyOp29
 70
     1
102
RTVSPropertyOp30
 70
     1
102
RTVSPropertyOp31
 70
     1
102
RTVSPropertyOp32
 70
     1
  0
XRECORD
  5
1AE6
102
{ACAD_REACTORS
330
1AE5
102
}
330
1AE5
100
AcDbXrecord
280
     1
102
RTVSPropertyOp0
 70
     1
102
RTVSPropertyOp1
 70
     1
102
RTVSPropertyOp2
 70
     1
102
RTVSPropertyOp3
 70
     1
102
RTVSPropertyOp4
 70
     1
102
RTVSPropertyOp5
 70
     1
102
RTVSPropertyOp6
 70
     1
102
RTVSPropertyOp7
 70
     1
102
RTVSPropertyOp8
 70
     1
102
RTVSPropertyOp9
 70
     1
102
RTVSPropertyOp10
 70
     1
102
RTVSPropertyOp11
 70
     1
102
RTVSPropertyOp12
 70
     1
102
RTVSPropertyOp13
 70
     1
102
RTVSPropertyOp14
 70
     1
102
RTVSPropertyOp15
 70
     1
102
RTVSPropertyOp16
 70
     1
102
RTVSPropertyOp17
 70
     1
102
RTVSPropertyOp18
 70
     1
102
RTVSPropertyOp19
 70
     1
102
RTVSPropertyOp20
 70
     1
102
RTVSPropertyOp21
 70
     1
102
RTVSPropertyOp22
 70
     1
102
RTVSPropertyOp23
 70
     1
102
RTVSPropertyOp24
 70
     1
102
RTVSPropertyOp25
 70
     1
102
RTVSPropertyOp26
 70
     1
102
RTVSPropertyOp27
 70
     1
102
RTVSPropertyOp28
 70
     1
102
RTVSPropertyOp29
 70
     1
102
RTVSPropertyOp30
 70
     1
102
RTVSPropertyOp31
 70
     1
102
RTVSPropertyOp32
 70
     1
  0
ENDSEC
  0
EOF
