  0
SECTION
  2
HEADER
  9
$ACADVER
  1
AC1009
  9
$INSBASE
 10
0.0
 20
0.0
 30
0.0
  9
$EXTMIN
 10
375.7242206839033
 20
87.849031138702117
 30
0.0
  9
$EXTMAX
 10
428.31411326811008
 20
141.00209062716559
 30
0.0
  9
$LIMMIN
 10
0.0
 20
0.0
  9
$LIMMAX
 10
257.0
 20
170.0
  9
$ORTHOMODE
 70
     1
  9
$REGENMODE
 70
     1
  9
$FILLMODE
 70
     1
  9
$QTEXTMODE
 70
     0
  9
$MIRRTEXT
 70
     1
  9
$DRAGMODE
 70
     2
  9
$LTSCALE
 40
1.0
  9
$OSMODE
 70
     1
  9
$ATTMODE
 70
     1
  9
$TEXTSIZE
 40
3.0
  9
$TRACEWID
 40
0.5
  9
$TEXTSTYLE
  7
STANDARD
  9
$CLAYER
  8
0
  9
$CELTYPE
  6
BYLAYER
  9
$CECOLOR
 62
   256
  9
$DIMSCALE
 40
1.0
  9
$DIMASZ
 40
2.5
  9
$DIMEXO
 40
1.0
  9
$DIMDLI
 40
5.0
  9
$DIMRND
 40
0.0
  9
$DIMDLE
 40
3.0
  9
$DIMEXE
 40
1.0
  9
$DIMTP
 40
0.0
  9
$DIMTM
 40
0.0
  9
$DIMTXT
 40
2.5
  9
$DIMCEN
 40
2.0
  9
$DIMTSZ
 40
0.0
  9
$DIMTOL
 70
     0
  9
$DIMLIM
 70
     0
  9
$DIMTIH
 70
     0
  9
$DIMTOH
 70
     0
  9
$DIMSE1
 70
     0
  9
$DIMSE2
 70
     0
  9
$DIMTAD
 70
     1
  9
$DIMZIN
 70
     8
  9
$DIMBLK
  1

  9
$DIMASO
 70
     1
  9
$DIMSHO
 70
     0
  9
$DIMPOST
  1

  9
$DIMAPOST
  1

  9
$DIMALT
 70
     0
  9
$DIMALTD
 70
     4
  9
$DIMALTF
 40
25.399999999999999
  9
$DIMLFAC
 40
1.0
  9
$DIMTOFL
 70
     1
  9
$DIMTVP
 40
1.0
  9
$DIMTIX
 70
     0
  9
$DIMSOXD
 70
     0
  9
$DIMSAH
 70
     0
  9
$DIMBLK1
  1

  9
$DIMBLK2
  1

  9
$DIMSTYLE
  2
STANDARD
  9
$DIMCLRD
 70
     0
  9
$DIMCLRE
 70
     0
  9
$DIMCLRT
 70
     0
  9
$DIMTFAC
 40
1.0
  9
$DIMGAP
 40
0.09
  9
$LUNITS
 70
     2
  9
$LUPREC
 70
     4
  9
$SKETCHINC
 40
1.0
  9
$FILLETRAD
 40
0.0
  9
$AUNITS
 70
     0
  9
$AUPREC
 70
     0
  9
$MENU
  1
acad
  9
$ELEVATION
 40
0.0
  9
$PELEVATION
 40
0.0
  9
$THICKNESS
 40
0.0
  9
$LIMCHECK
 70
     0
  9
$BLIPMODE
 70
     0
  9
$CHAMFERA
 40
0.0
  9
$CHAMFERB
 40
0.0
  9
$SKPOLY
 70
     0
  9
$TDCREATE
 40
2452732.6249421299
  9
$TDUPDATE
 40
2455042.5013299189
  9
$TDINDWG
 40
0.0732826852
  9
$TDUSRTIMER
 40
0.0732698264
  9
$USRTIMER
 70
     1
  9
$ANGBASE
 50
0.0
  9
$ANGDIR
 70
     0
  9
$PDMODE
 70
     0
  9
$PDSIZE
 40
0.0
  9
$PLINEWID
 40
0.0
  9
$COORDS
 70
     1
  9
$SPLFRAME
 70
     0
  9
$SPLINETYPE
 70
     6
  9
$SPLINESEGS
 70
     8
  9
$ATTDIA
 70
     0
  9
$ATTREQ
 70
     1
  9
$HANDLING
 70
     1
  9
$HANDSEED
  5
17FA
  9
$SURFTAB1
 70
     6
  9
$SURFTAB2
 70
     6
  9
$SURFTYPE
 70
     6
  9
$SURFU
 70
     6
  9
$SURFV
 70
     6
  9
$UCSNAME
  2

  9
$UCSORG
 10
0.0
 20
0.0
 30
0.0
  9
$UCSXDIR
 10
1.0
 20
0.0
 30
0.0
  9
$UCSYDIR
 10
0.0
 20
1.0
 30
0.0
  9
$PUCSNAME
  2

  9
$PUCSORG
 10
0.0
 20
0.0
 30
0.0
  9
$PUCSXDIR
 10
1.0
 20
0.0
 30
0.0
  9
$PUCSYDIR
 10
0.0
 20
1.0
 30
0.0
  9
$USERI1
 70
     0
  9
$USERI2
 70
     0
  9
$USERI3
 70
     0
  9
$USERI4
 70
     0
  9
$USERI5
 70
     0
  9
$USERR1
 40
0.0
  9
$USERR2
 40
0.0
  9
$USERR3
 40
0.0
  9
$USERR4
 40
0.0
  9
$USERR5
 40
0.0
  9
$WORLDVIEW
 70
     1
  9
$SHADEDGE
 70
     3
  9
$SHADEDIF
 70
    70
  9
$TILEMODE
 70
     1
  9
$MAXACTVP
 70
    64
  9
$PLIMCHECK
 70
     0
  9
$PEXTMIN
 10
1.0000000000000000E+020
 20
1.0000000000000000E+020
 30
1.0000000000000000E+020
  9
$PEXTMAX
 10
-1.0000000000000000E+020
 20
-1.0000000000000000E+020
 30
-1.0000000000000000E+020
  9
$PLIMMIN
 10
0.0
 20
0.0
  9
$PLIMMAX
 10
12.0
 20
9.0
  9
$UNITMODE
 70
     0
  9
$VISRETAIN
 70
     1
  9
$PLINEGEN
 70
     0
  9
$PSLTSCALE
 70
     1
  0
ENDSEC
  0
SECTION
  2
TABLES
  0
TABLE
  2
VPORT
 70
     1
  0
VPORT
  2
*ACTIVE
 70
     0
 10
0.0
 20
0.0
 11
1.0
 21
1.0
 12
421.71244254276542
 22
115.8748276222717
 13
0.0
 23
0.0
 14
0.0
 24
0.0
 15
0.0
 25
0.0
 16
0.0
 26
0.0
 36
1.0
 17
0.0
 27
0.0
 37
0.0
 40
76.046854424809595
 41
1.8733766233766229
 42
50.0
 43
0.0
 44
0.0
 50
0.0
 51
0.0
 71
     0
 72
   100
 73
     1
 74
     1
 75
     0
 76
     0
 77
     0
 78
     0
  0
ENDTAB
  0
TABLE
  2
LTYPE
 70
     6
  0
LTYPE
  2
CONTINUOUS
 70
     0
  3
solid line
 72
    65
 73
     0
 40
0.0
  0
LTYPE
  2
DASHED
 70
     0
  3
-- -- -- -- -- -- -- -- -- --
 72
    65
 73
     2
 40
3.0
 49
2.0
 49
-1.0
  0
LTYPE
  2
CENTER
 70
     0
  3
--- - --- - --- - --- - --- -
 72
    65
 73
     4
 40
6.0
 49
3.0
 49
-1.0
 49
1.0
 49
-1.0
  0
LTYPE
  2
PHANTOM
 70
     0
  3
----- - - ----- - - ----- - -
 72
    65
 73
     6
 40
12.0
 49
7.0
 49
-1.0
 49
1.0
 49
-1.0
 49
1.0
 49
-1.0
  0
LTYPE
  2
HIDDEN
 70
     0
  3
Hidden __ __ __ __ __ __ __ __ __ __ __ __ __ __
 72
    65
 73
     2
 40
1.905
 49
1.27
 49
-0.635
  0
LTYPE
  2
CENTERX2
 70
     0
  3
Center (2x) ________  __  ________  __  _____
 72
    65
 73
     4
 40
20.32
 49
12.699999999999999
 49
-2.54
 49
2.54
 49
-2.54
  0
ENDTAB
  0
TABLE
  2
LAYER
 70
     4
  0
LAYER
  2
0
 70
     0
 62
     7
  6
CONTINUOUS
  0
LAYER
  2
PIC06
 70
     0
 62
     7
  6
CONTINUOUS
  0
LAYER
  2
PIC07
 70
     0
 62
     7
  6
CONTINUOUS
  0
LAYER
  2
DEFPOINTS
 70
     0
 62
     7
  6
CONTINUOUS
  0
ENDTAB
  0
TABLE
  2
STYLE
 70
     3
  0
STYLE
  2
STANDARD
 70
     0
 40
0.0
 41
1.0
 50
0.0
 71
     0
 42
3.0
  3
monotxt
  4
extfont
  0
STYLE
  2
SLDTEXTSTYLE0
 70
     0
 40
0.0
 41
0.75
 50
0.0
 71
     0
 42
0.0
  3
txt
  4

  0
STYLE
  2
SLDTEXTSTYLE1
 70
     0
 40
0.0
 41
0.6547619345
 50
0.0
 71
     0
 42
0.0
  3
txt
  4

  0
ENDTAB
  0
TABLE
  2
VIEW
 70
     0
  0
ENDTAB
  0
TABLE
  2
UCS
 70
     0
  0
ENDTAB
  0
TABLE
  2
APPID
 70
     3
  0
APPID
  2
ACAD
 70
     0
  0
APPID
  2
DCO15
 70
     0
  0
APPID
  2
ACAD_EXEMPT_FROM_CAD_STANDARDS
 70
     0
  0
ENDTAB
  0
TABLE
  2
DIMSTYLE
 70
     1
  0
DIMSTYLE
  2
STANDARD
 70
     0
  3

  4

  5

  6

  7

 40
1.0
 41
0.18
 42
0.0625
 43
0.38
 44
0.18
 45
0.0
 46
0.0
 47
0.0
 48
0.0
140
0.18
141
0.09
142
0.0
143
25.399999999999999
144
1.0
145
0.0
146
1.0
147
0.09
 71
     0
 72
     0
 73
     1
 74
     1
 75
     0
 76
     0
 77
     0
 78
     0
170
     0
171
     2
172
     0
173
     0
174
     0
175
     0
176
     0
177
     0
178
     0
  0
ENDTAB
  0
ENDSEC
  0
SECTION
  2
BLOCKS
  0
BLOCK
  8
0
  2
$MODEL_SPACE
 70
     0
 10
0.0
 20
0.0
 30
0.0
  3
$MODEL_SPACE
  1

  0
ENDBLK
  5
20
  8
0
  0
BLOCK
 67
     1
  8
0
  2
$PAPER_SPACE
 70
     0
 10
0.0
 20
0.0
 30
0.0
  3
$PAPER_SPACE
  1

  0
ENDBLK
  5
1C
 67
     1
  8
0
  0
BLOCK
  8
0
  2
MARK1_1
 70
     0
 10
0.0
 20
0.0
 30
0.0
  3
MARK1_1
  1

  0
LINE
  5
2C
  8
0
  6
CONTINUOUS
 62
     0
 10
1.0
 20
-0.25
 30
0.0
 11
0.0
 21
0.0
 31
0.0
  0
LINE
  5
2D
  8
0
  6
CONTINUOUS
 62
     0
 10
0.0
 20
0.0
 30
0.0
 11
1.0
 21
0.25
 31
0.0
  0
ENDBLK
  5
2E
  8
0
  0
BLOCK
  8
PIC06
  2
COMP1
 70
     0
 10
0.0
 20
0.0
 30
0.0
  3
COMP1
  1

  0
LINE
  5
31
  8
PIC06
  6
CONTINUOUS
 62
     7
 10
33.268990092822612
 20
19.619434458770911
 30
0.0
 11
33.268990092822612
 21
49.203308906914557
 31
0.0
  0
INSERT
  5
32
  8
PIC06
  6
CONTINUOUS
 62
     7
  2
MARK1_1
 10
33.268990092822612
 20
19.619434458770911
 30
0.0
 41
2.5
 42
2.5
 50
90.0
  0
LINE
  5
33
  8
PIC06
  6
CONTINUOUS
 62
     7
 10
33.268990092822612
 20
78.78717699710252
 30
0.0
 11
33.268990092822612
 21
49.203308906914557
 31
0.0
  0
INSERT
  5
34
  8
PIC06
  6
CONTINUOUS
 62
     7
  2
MARK1_1
 10
33.268990092822612
 20
78.78717699710252
 30
0.0
 41
2.5
 42
2.5
 50
270.0
  0
LINE
  5
35
  8
PIC06
  6
CONTINUOUS
 62
     7
 10
-28.336111649346091
 20
19.619434458770911
 30
0.0
 11
34.268989714920281
 21
19.619434458770911
 31
0.0
  0
LINE
  5
36
  8
PIC06
  6
CONTINUOUS
 62
     7
 10
-28.336111649346091
 20
78.78717699710252
 30
0.0
 11
34.268989714920281
 21
78.78717699710252
 31
0.0
  0
TEXT
  5
37
  8
PIC06
  6
CONTINUOUS
 62
     7
 10
32.668989810927542
 20
46.85955788523642
 30
0.0
 40
2.5
  1
3
 50
90.0
 41
0.6547619344966495
  0
TEXT
  5
38
  8
PIC06
  6
CONTINUOUS
 62
     7
 10
32.668990372606267
 20
48.57830788523632
 30
0.0
 40
2.5
  1
5
 50
90.0
 41
0.6547619344966495
  0
TEXT
  5
39
  8
PIC06
  6
CONTINUOUS
 62
     7
 10
32.668990934284999
 20
50.297057885236242
 30
0.0
 40
2.5
  1
5
 50
90.0
 41
0.6547619344966495
  0
ENDBLK
  5
3A
  8
PIC06
  0
BLOCK
  8
PIC06
  2
COMP2
 70
     0
 10
0.0
 20
0.0
 30
0.0
  3
COMP2
  1

  0
LINE
  5
3D
  8
PIC06
  6
CONTINUOUS
 62
     7
 10
26.467767865967289
 20
72.139135725970846
 30
0.0
 11
26.467767865967289
 21
49.203324166008308
 31
0.0
  0
INSERT
  5
3E
  8
PIC06
  6
CONTINUOUS
 62
     7
  2
MARK1_1
 10
26.467767865967289
 20
72.139135725970846
 30
0.0
 41
2.5
 42
2.5
 50
270.0
  0
LINE
  5
3F
  8
PIC06
  6
CONTINUOUS
 62
     7
 10
26.467767865967289
 20
26.267515149228071
 30
0.0
 11
26.467767865967289
 21
49.203324166008308
 31
0.0
  0
INSERT
  5
40
  8
PIC06
  6
CONTINUOUS
 62
     7
  2
MARK1_1
 10
26.467767865967289
 20
26.267515149228071
 30
0.0
 41
2.5
 42
2.5
 50
90.0
  0
LINE
  5
41
  8
PIC06
  6
CONTINUOUS
 62
     7
 10
-28.336111649346091
 20
72.139135725970846
 30
0.0
 11
27.467767488064961
 21
72.139135725970846
 31
0.0
  0
LINE
  5
42
  8
PIC06
  6
CONTINUOUS
 62
     7
 10
-28.336111649346091
 20
26.267515149228071
 30
0.0
 11
27.467767488064961
 21
26.267515149228071
 31
0.0
  0
TEXT
  5
43
  8
PIC06
  6
CONTINUOUS
 62
     7
 10
25.86776758407224
 20
46.85957314433017
 30
0.0
 40
2.5
  1
2
 50
90.0
 41
0.6547619344966495
  0
TEXT
  5
44
  8
PIC06
  6
CONTINUOUS
 62
     7
 10
25.86776814575094
 20
48.578323144330078
 30
0.0
 40
2.5
  1
7
 50
90.0
 41
0.6547619344966495
  0
TEXT
  5
45
  8
PIC06
  6
CONTINUOUS
 62
     7
 10
25.86776870742969
 20
50.297073144329978
 30
0.0
 40
2.5
  1
5
 50
90.0
 41
0.6547619344966495
  0
ENDBLK
  5
46
  8
PIC06
  0
BLOCK
  8
PIC06
  2
COMP3
 70
     0
 10
0.0
 20
0.0
 30
0.0
  3
COMP3
  1

  0
LINE
  5
49
  8
PIC06
  6
CONTINUOUS
 62
     7
 10
16.70294479776112
 20
1.7369666420741781
 30
0.0
 11
-40.548177999361542
 21
1.7369666420741781
 31
0.0
  0
INSERT
  5
4A
  8
PIC06
  6
CONTINUOUS
 62
     7
  2
MARK1_1
 10
16.70294479776112
 20
1.7369666420741781
 30
0.0
 41
2.5
 42
2.5
 50
180.0
  0
LINE
  5
4B
  8
PIC06
  6
CONTINUOUS
 62
     7
 10
-97.799326228307123
 20
1.7369666420741781
 30
0.0
 11
-40.548177999361542
 21
1.7369666420741781
 31
0.0
  0
INSERT
  5
4C
  8
PIC06
  6
CONTINUOUS
 62
     7
  2
MARK1_1
 10
-97.799326228307123
 20
1.7369666420741781
 30
0.0
 41
2.5
 42
2.5
  0
LINE
  5
4D
  8
PIC06
  6
CONTINUOUS
 62
     7
 10
16.70294479776112
 20
49.203303820549991
 30
0.0
 11
16.70294479776112
 21
0.7369670199765041
 31
0.0
  0
LINE
  5
4E
  8
PIC06
  6
CONTINUOUS
 62
     7
 10
-97.799326228307123
 20
49.203303820549991
 30
0.0
 11
-97.799326228307123
 21
0.7369670199765041
 31
0.0
  0
TEXT
  5
4F
  8
PIC06
  6
CONTINUOUS
 62
     7
 10
-42.891923934675098
 20
2.3369669239692432
 30
0.0
 40
2.5
  1
6
 41
0.6547619344966495
  0
TEXT
  5
50
  8
PIC06
  6
CONTINUOUS
 62
     7
 10
-41.173173934675098
 20
2.3369669239692432
 30
0.0
 40
2.5
  1
8
 41
0.6547619344966495
  0
TEXT
  5
51
  8
PIC06
  6
CONTINUOUS
 62
     7
 10
-39.454423934675113
 20
2.3369669239692432
 30
0.0
 40
2.5
  1
7
 41
0.6547619344966495
  0
ENDBLK
  5
52
  8
PIC06
  0
BLOCK
  8
PIC06
  2
COMP4
 70
     0
 10
0.0
 20
0.0
 30
0.0
  3
COMP4
  1

  0
LINE
  5
55
  8
PIC06
  6
CONTINUOUS
 62
     7
 10
-97.799326228307123
 20
1.7369666420741781
 30
0.0
 11
-92.549323125929718
 21
1.7369666420741781
 31
0.0
  0
INSERT
  5
56
  8
PIC06
  6
CONTINUOUS
 62
     7
  2
MARK1_1
 10
-97.799326228307123
 20
1.7369666420741781
 30
0.0
 41
2.5
 42
2.5
  0
LINE
  5
57
  8
PIC06
  6
CONTINUOUS
 62
     7
 10
-97.799326228307123
 20
1.7369666420741781
 30
0.0
 11
-97.882661225603442
 21
1.7369666420741781
 31
0.0
  0
LINE
  5
58
  8
PIC06
  6
CONTINUOUS
 62
     7
 10
-97.965996222899776
 20
1.7369666420741781
 30
0.0
 11
-97.882661225603442
 21
1.7369666420741781
 31
0.0
  0
LINE
  5
59
  8
PIC06
  6
CONTINUOUS
 62
     7
 10
-97.965996222899776
 20
1.7369666420741781
 30
0.0
 11
-100.9659950891927
 21
1.7369666420741781
 31
0.0
  0
INSERT
  5
5A
  8
PIC06
  6
CONTINUOUS
 62
     7
  2
MARK1_1
 10
-97.965996222899776
 20
1.7369666420741781
 30
0.0
 41
2.5
 42
2.5
 50
180.0
  0
LINE
  5
5B
  8
PIC06
  6
CONTINUOUS
 62
     7
 10
-97.799326228307123
 20
49.203303820549991
 30
0.0
 11
-97.799326228307123
 21
0.7369670199765041
 31
0.0
  0
LINE
  5
5C
  8
PIC06
  6
CONTINUOUS
 62
     7
 10
-97.965996222899776
 20
49.203303820549991
 30
0.0
 11
-97.965996222899776
 21
0.7369670199765041
 31
0.0
  0
TEXT
  5
5D
  8
PIC06
  6
CONTINUOUS
 62
     7
 10
-103.1251568538591
 20
2.6872090616063811
 30
0.0
 40
2.5
  1
1
 41
0.6547619344966495
  0
ENDBLK
  5
5E
  8
PIC06
  0
BLOCK
  8
PIC06
  2
COMP5
 70
     0
 10
0.0
 20
0.0
 30
0.0
  3
COMP5
  1

  0
LINE
  5
61
  8
PIC06
  6
CONTINUOUS
 62
     7
 10
-97.799316055577947
 20
-30.362120018826769
 30
0.0
 11
-94.79931718928492
 21
-30.362120018826769
 31
0.0
  0
INSERT
  5
62
  8
PIC06
  6
CONTINUOUS
 62
     7
  2
MARK1_1
 10
-97.799316055577947
 20
-30.362120018826769
 30
0.0
 41
2.5
 42
2.5
  0
LINE
  5
63
  8
PIC06
  6
CONTINUOUS
 62
     7
 10
-97.799316055577947
 20
-30.362120018826769
 30
0.0
 11
-97.882661225603442
 21
-30.362120018826769
 31
0.0
  0
LINE
  5
64
  8
PIC06
  6
CONTINUOUS
 62
     7
 10
-97.965996222899776
 20
-30.362120018826769
 30
0.0
 11
-97.882661225603442
 21
-30.362120018826769
 31
0.0
  0
LINE
  5
65
  8
PIC06
  6
CONTINUOUS
 62
     7
 10
-97.965996222899776
 20
-30.362120018826769
 30
0.0
 11
-103.2159993252772
 21
-30.362120018826769
 31
0.0
  0
INSERT
  5
66
  8
PIC06
  6
CONTINUOUS
 62
     7
  2
MARK1_1
 10
-97.965996222899776
 20
-30.362120018826769
 30
0.0
 41
2.5
 42
2.5
 50
180.0
  0
LINE
  5
67
  8
PIC06
  6
CONTINUOUS
 62
     7
 10
-97.799316055577947
 20
-9.5019355864244535
 30
0.0
 11
-97.799316055577947
 21
-31.36211964092444
 31
0.0
  0
LINE
  5
68
  8
PIC06
  6
CONTINUOUS
 62
     7
 10
-97.965996222899776
 20
-69.753142446446873
 30
0.0
 11
-97.965996222899776
 21
-29.362120396729111
 31
0.0
  0
TEXT
  5
69
  8
PIC06
  6
CONTINUOUS
 62
     7
 10
-102.7159995142282
 20
-29.762119736931709
 30
0.0
 40
2.5
  1
1
 41
0.6547619344966495
  0
ENDBLK
  5
6A
  8
PIC06
  0
BLOCK
  8
PIC06
  2
COMP6
 70
     0
 10
0.0
 20
0.0
 30
0.0
  3
COMP6
  1

  0
LINE
  5
6D
  8
PIC06
  6
CONTINUOUS
 62
     7
 10
-97.965996222899776
 20
-82.548716541203248
 30
0.0
 11
-76.048891933964114
 21
-82.548716541203248
 31
0.0
  0
INSERT
  5
6E
  8
PIC06
  6
CONTINUOUS
 62
     7
  2
MARK1_1
 10
-97.965996222899776
 20
-82.548716541203248
 30
0.0
 41
2.5
 42
2.5
  0
LINE
  5
6F
  8
PIC06
  6
CONTINUOUS
 62
     7
 10
-54.131792731393027
 20
-82.548716541203248
 30
0.0
 11
-76.048891933964114
 21
-82.548716541203248
 31
0.0
  0
INSERT
  5
70
  8
PIC06
  6
CONTINUOUS
 62
     7
  2
MARK1_1
 10
-54.131792731393027
 20
-82.548716541203248
 30
0.0
 41
2.5
 42
2.5
 50
180.0
  0
LINE
  5
71
  8
PIC06
  6
CONTINUOUS
 62
     7
 10
-97.965996222899776
 20
-69.753142446446873
 30
0.0
 11
-97.965996222899776
 21
-83.548716163300924
 31
0.0
  0
LINE
  5
72
  8
PIC06
  6
CONTINUOUS
 62
     7
 10
-54.131792731393027
 20
-72.396180246440053
 30
0.0
 11
-54.131792731393027
 21
-83.548726336030086
 31
0.0
  0
TEXT
  5
73
  8
PIC06
  6
CONTINUOUS
 62
     7
 10
-78.39264804200684
 20
-81.948728975219638
 30
0.0
 40
2.5
  1
2
 41
0.6547619344966495
  0
TEXT
  5
74
  8
PIC06
  6
CONTINUOUS
 62
     7
 10
-76.67389804200684
 20
-81.948728975219638
 30
0.0
 40
2.5
  1
6
 41
0.6547619344966495
  0
TEXT
  5
75
  8
PIC06
  6
CONTINUOUS
 62
     7
 10
-74.95514804200684
 20
-81.948728975219638
 30
0.0
 40
2.5
  1
3
 41
0.6547619344966495
  0
ENDBLK
  5
76
  8
PIC06
  0
BLOCK
  8
PIC06
  2
COMP7
 70
     0
 10
0.0
 20
0.0
 30
0.0
  3
COMP7
  1

  0
LINE
  5
79
  8
PIC06
  6
CONTINUOUS
 62
     7
 10
25.803427615303921
 20
-8.0852406323867854
 30
0.0
 11
25.803427615303921
 21
-38.919195989985852
 31
0.0
  0
INSERT
  5
7A
  8
PIC06
  6
CONTINUOUS
 62
     7
  2
MARK1_1
 10
25.803427615303921
 20
-8.0852406323867854
 30
0.0
 41
2.5
 42
2.5
 50
270.0
  0
LINE
  5
7B
  8
PIC06
  6
CONTINUOUS
 62
     7
 10
25.803427615303921
 20
-69.753142446446873
 30
0.0
 11
25.803427615303921
 21
-38.919195989985852
 31
0.0
  0
INSERT
  5
7C
  8
PIC06
  6
CONTINUOUS
 62
     7
  2
MARK1_1
 10
25.803427615303921
 20
-69.753142446446873
 30
0.0
 41
2.5
 42
2.5
 50
90.0
  0
LINE
  5
7D
  8
PIC06
  6
CONTINUOUS
 62
     7
 10
15.36959501374894
 20
-8.0852406323867854
 30
0.0
 11
26.803427237401579
 21
-8.0852406323867854
 31
0.0
  0
LINE
  5
7E
  8
PIC06
  6
CONTINUOUS
 62
     7
 10
2.2026654409282851
 20
-69.753142446446873
 30
0.0
 11
26.803427237401579
 21
-69.753142446446873
 31
0.0
  0
TEXT
  5
7F
  8
PIC06
  6
CONTINUOUS
 62
     7
 10
25.20342733340885
 20
-41.262941925299387
 30
0.0
 40
2.5
  1
3
 50
90.0
 41
0.6547619344966495
  0
TEXT
  5
80
  8
PIC06
  6
CONTINUOUS
 62
     7
 10
25.203427895087572
 20
-39.544191925299486
 30
0.0
 40
2.5
  1
7
 50
90.0
 41
0.6547619344966495
  0
TEXT
  5
81
  8
PIC06
  6
CONTINUOUS
 62
     7
 10
25.203428456766311
 20
-37.8254419252996
 30
0.0
 40
2.5
  1
0
 50
90.0
 41
0.6547619344966495
  0
ENDBLK
  5
82
  8
PIC06
  0
BLOCK
  8
PIC06
  2
COMP8
 70
     0
 10
0.0
 20
0.0
 30
0.0
  3
COMP8
  1

  0
LINE
  5
85
  8
PIC06
  6
CONTINUOUS
 62
     7
 10
39.413847488677682
 20
-69.753142446446873
 30
0.0
 11
39.413847488677682
 21
-37.752506027837171
 31
0.0
  0
INSERT
  5
86
  8
PIC06
  6
CONTINUOUS
 62
     7
  2
MARK1_1
 10
39.413847488677682
 20
-69.753142446446873
 30
0.0
 41
2.5
 42
2.5
 50
90.0
  0
LINE
  5
87
  8
PIC06
  6
CONTINUOUS
 62
     7
 10
39.413847488677682
 20
-5.7518556217248724
 30
0.0
 11
39.413847488677682
 21
-37.752506027837171
 31
0.0
  0
INSERT
  5
88
  8
PIC06
  6
CONTINUOUS
 62
     7
  2
MARK1_1
 10
39.413847488677682
 20
-5.7518556217248724
 30
0.0
 41
2.5
 42
2.5
 50
270.0
  0
LINE
  5
89
  8
PIC06
  6
CONTINUOUS
 62
     7
 10
60.150284485595883
 20
-69.753142446446873
 30
0.0
 11
38.413847866579999
 21
-69.753142446446873
 31
0.0
  0
LINE
  5
8A
  8
PIC06
  6
CONTINUOUS
 62
     7
 10
54.304444290733038
 20
-5.7518556217248724
 30
0.0
 11
38.413847866579999
 21
-5.7518556217248724
 31
0.0
  0
TEXT
  5
8B
  8
PIC06
  6
CONTINUOUS
 62
     7
 10
38.813847206782611
 20
-40.096251963150728
 30
0.0
 40
2.5
  1
3
 50
90.0
 41
0.6547619344966495
  0
TEXT
  5
8C
  8
PIC06
  6
CONTINUOUS
 62
     7
 10
38.813847768461351
 20
-38.377501963150827
 30
0.0
 40
2.5
  1
8
 50
90.0
 41
0.6547619344966495
  0
TEXT
  5
8D
  8
PIC06
  6
CONTINUOUS
 62
     7
 10
38.813848330140061
 20
-36.658751963150912
 30
0.0
 40
2.5
  1
4
 50
90.0
 41
0.6547619344966495
  0
ENDBLK
  5
8E
  8
PIC06
  0
BLOCK
  8
PIC06
  2
COMP9
 70
     0
 10
0.0
 20
0.0
 30
0.0
  3
COMP9
  1

  0
LINE
  5
91
  8
PIC06
  6
CONTINUOUS
 62
     7
 10
10.036175532241931
 20
12.799016291986611
 30
0.0
 11
-21.21447897207053
 21
12.799016291986611
 31
0.0
  0
INSERT
  5
92
  8
PIC06
  6
CONTINUOUS
 62
     7
  2
MARK1_1
 10
10.036175532241931
 20
12.799016291986611
 30
0.0
 41
2.5
 42
2.5
 50
180.0
  0
LINE
  5
93
  8
PIC06
  6
CONTINUOUS
 62
     7
 10
-52.465133476383031
 20
12.799016291986611
 30
0.0
 11
-21.21447897207053
 21
12.799016291986611
 31
0.0
  0
INSERT
  5
94
  8
PIC06
  6
CONTINUOUS
 62
     7
  2
MARK1_1
 10
-52.465133476383031
 20
12.799016291986611
 30
0.0
 41
2.5
 42
2.5
  0
LINE
  5
95
  8
PIC06
  6
CONTINUOUS
 62
     7
 10
10.036175532241931
 20
49.203303820549991
 30
0.0
 11
10.036175532241931
 21
11.799016669888941
 31
0.0
  0
LINE
  5
96
  8
PIC06
  6
CONTINUOUS
 62
     7
 10
-52.465133476383031
 20
49.203303820549991
 30
0.0
 11
-52.465133476383031
 21
11.799016669888941
 31
0.0
  0
TEXT
  5
97
  8
PIC06
  6
CONTINUOUS
 62
     7
 10
-23.558224907384101
 20
13.399021660246261
 30
0.0
 40
2.5
  1
3
 41
0.6547619344966495
  0
TEXT
  5
98
  8
PIC06
  6
CONTINUOUS
 62
     7
 10
-21.839474907384101
 20
13.399021660246261
 30
0.0
 40
2.5
  1
7
 41
0.6547619344966495
  0
TEXT
  5
99
  8
PIC06
  6
CONTINUOUS
 62
     7
 10
-20.120724907384101
 20
13.399021660246261
 30
0.0
 40
2.5
  1
5
 41
0.6547619344966495
  0
ENDBLK
  5
9A
  8
PIC06
  0
BLOCK
  8
PIC06
  2
COMP10
 70
     0
 10
0.0
 20
0.0
 30
0.0
  3
COMP10
  1

  0
LINE
  5
9D
  8
PIC06
  6
CONTINUOUS
 62
     7
 10
16.70294479776112
 20
7.3317186083411316
 30
0.0
 11
-22.464493758786379
 21
7.3317186083411316
 31
0.0
  0
INSERT
  5
9E
  8
PIC06
  6
CONTINUOUS
 62
     7
  2
MARK1_1
 10
16.70294479776112
 20
7.3317186083411316
 30
0.0
 41
2.5
 42
2.5
 50
180.0
  0
LINE
  5
9F
  8
PIC06
  6
CONTINUOUS
 62
     7
 10
-61.631942488063032
 20
7.3317186083411316
 30
0.0
 11
-22.464493758786379
 21
7.3317186083411316
 31
0.0
  0
INSERT
  5
A0
  8
PIC06
  6
CONTINUOUS
 62
     7
  2
MARK1_1
 10
-61.631942488063032
 20
7.3317186083411316
 30
0.0
 41
2.5
 42
2.5
  0
LINE
  5
A1
  8
PIC06
  6
CONTINUOUS
 62
     7
 10
16.70294479776112
 20
49.203303820549991
 30
0.0
 11
16.70294479776112
 21
6.3317189862434562
 31
0.0
  0
LINE
  5
A2
  8
PIC06
  6
CONTINUOUS
 62
     7
 10
-61.631942488063032
 20
34.025167199179577
 30
0.0
 11
-61.631942488063032
 21
6.3317189862434562
 31
0.0
  0
TEXT
  5
A3
  8
PIC06
  6
CONTINUOUS
 62
     7
 10
-24.808239694099939
 20
7.9317188902361968
 30
0.0
 40
2.5
  1
4
 41
0.6547619344966495
  0
TEXT
  5
A4
  8
PIC06
  6
CONTINUOUS
 62
     7
 10
-23.089489694099939
 20
7.9317188902361968
 30
0.0
 40
2.5
  1
7
 41
0.6547619344966495
  0
TEXT
  5
A5
  8
PIC06
  6
CONTINUOUS
 62
     7
 10
-21.370739694099939
 20
7.9317188902361968
 30
0.0
 40
2.5
  1
0
 41
0.6547619344966495
  0
ENDBLK
  5
A6
  8
PIC06
  0
BLOCK
  8
PIC06
  2
COMP11
 70
     0
 10
0.0
 20
0.0
 30
0.0
  3
COMP11
  1

  0
LINE
  5
A9
  8
PIC06
  6
CONTINUOUS
 62
     7
 10
-61.631942488063032
 20
7.3317186083411316
 30
0.0
 11
-74.048811307935466
 21
7.3317186083411316
 31
0.0
  0
INSERT
  5
AA
  8
PIC06
  6
CONTINUOUS
 62
     7
  2
MARK1_1
 10
-61.631942488063032
 20
7.3317186083411316
 30
0.0
 41
2.5
 42
2.5
 50
180.0
  0
LINE
  5
AB
  8
PIC06
  6
CONTINUOUS
 62
     7
 10
-86.465685214172495
 20
7.3317186083411316
 30
0.0
 11
-74.048811307935466
 21
7.3317186083411316
 31
0.0
  0
INSERT
  5
AC
  8
PIC06
  6
CONTINUOUS
 62
     7
  2
MARK1_1
 10
-86.465685214172495
 20
7.3317186083411316
 30
0.0
 41
2.5
 42
2.5
  0
LINE
  5
AD
  8
PIC06
  6
CONTINUOUS
 62
     7
 10
-61.631942488063032
 20
34.025167199179577
 30
0.0
 11
-61.631942488063032
 21
6.3317138998788769
 31
0.0
  0
LINE
  5
AE
  8
PIC06
  6
CONTINUOUS
 62
     7
 10
-86.465685214172495
 20
29.065659093938851
 30
0.0
 11
-86.465685214172495
 21
6.3317138998788769
 31
0.0
  0
TEXT
  5
AF
  8
PIC06
  6
CONTINUOUS
 62
     7
 10
-76.392567415978178
 20
7.9317188902361968
 30
0.0
 40
2.5
  1
1
 41
0.6547619344966495
  0
TEXT
  5
B0
  8
PIC06
  6
CONTINUOUS
 62
     7
 10
-74.673817415978178
 20
7.9317188902361968
 30
0.0
 40
2.5
  1
4
 41
0.6547619344966495
  0
TEXT
  5
B1
  8
PIC06
  6
CONTINUOUS
 62
     7
 10
-72.955067415978178
 20
7.9317188902361968
 30
0.0
 40
2.5
  1
9
 41
0.6547619344966495
  0
ENDBLK
  5
B2
  8
PIC06
  0
BLOCK
  8
PIC06
  2
COMP12
 70
     0
 10
0.0
 20
0.0
 30
0.0
  3
COMP12
  1

  0
LINE
  5
B5
  8
PIC06
  6
CONTINUOUS
 62
     7
 10
-86.465685214172495
 20
7.3317186083411316
 30
0.0
 11
-92.132505721239795
 21
7.3317186083411316
 31
0.0
  0
INSERT
  5
B6
  8
PIC06
  6
CONTINUOUS
 62
     7
  2
MARK1_1
 10
-86.465685214172495
 20
7.3317186083411316
 30
0.0
 41
2.5
 42
2.5
 50
180.0
  0
LINE
  5
B7
  8
PIC06
  6
CONTINUOUS
 62
     7
 10
-97.799326228307123
 20
7.3317186083411316
 30
0.0
 11
-92.132505721239795
 21
7.3317186083411316
 31
0.0
  0
INSERT
  5
B8
  8
PIC06
  6
CONTINUOUS
 62
     7
  2
MARK1_1
 10
-97.799326228307123
 20
7.3317186083411316
 30
0.0
 41
2.5
 42
2.5
  0
LINE
  5
B9
  8
PIC06
  6
CONTINUOUS
 62
     7
 10
-86.465685214172495
 20
29.065659093938851
 30
0.0
 11
-86.465685214172495
 21
6.3317189862434562
 31
0.0
  0
LINE
  5
BA
  8
PIC06
  6
CONTINUOUS
 62
     7
 10
-97.799326228307123
 20
-0.8165206231045941
 30
0.0
 11
-97.799326228307123
 21
8.3317182304388062
 31
0.0
  0
TEXT
  5
BB
  8
PIC06
  6
CONTINUOUS
 62
     7
 10
-93.616879842393217
 20
7.9317188902361968
 30
0.0
 40
2.5
  1
6
 41
0.6547619344966495
  0
TEXT
  5
BC
  8
PIC06
  6
CONTINUOUS
 62
     7
 10
-91.898129842393217
 20
7.9317188902361968
 30
0.0
 40
2.5
  1
8
 41
0.6547619344966495
  0
ENDBLK
  5
BD
  8
PIC06
  0
BLOCK
  8
PIC06
  2
COMP13
 70
     0
 10
0.0
 20
0.0
 30
0.0
  3
COMP13
  1

  0
LINE
  5
C0
  8
PIC06
  6
CONTINUOUS
 62
     7
 10
-105.941019149588
 20
32.036294377505321
 30
0.0
 11
-105.941019149588
 21
49.203303820549991
 31
0.0
  0
INSERT
  5
C1
  8
PIC06
  6
CONTINUOUS
 62
     7
  2
MARK1_1
 10
-105.941019149588
 20
32.036294377505321
 30
0.0
 41
2.5
 42
2.5
 50
90.0
  0
LINE
  5
C2
  8
PIC06
  6
CONTINUOUS
 62
     7
 10
-105.941019149588
 20
66.370313263594653
 30
0.0
 11
-105.941019149588
 21
49.203303820549991
 31
0.0
  0
INSERT
  5
C3
  8
PIC06
  6
CONTINUOUS
 62
     7
  2
MARK1_1
 10
-105.941019149588
 20
66.370313263594653
 30
0.0
 41
2.5
 42
2.5
 50
270.0
  0
LINE
  5
C4
  8
PIC06
  6
CONTINUOUS
 62
     7
 10
-89.121866180243146
 20
32.036294377505321
 30
0.0
 11
-106.9410187716858
 21
32.036294377505321
 31
0.0
  0
LINE
  5
C5
  8
PIC06
  6
CONTINUOUS
 62
     7
 10
-89.121866180243146
 20
66.370313263594653
 30
0.0
 11
-106.9410187716858
 21
66.370313263594653
 31
0.0
  0
TEXT
  5
C6
  8
PIC06
  6
CONTINUOUS
 62
     7
 10
-106.5410168883009
 20
46.859552798871853
 30
0.0
 40
2.5
  1
2
 50
90.0
 41
0.6547619344966495
  0
TEXT
  5
C7
  8
PIC06
  6
CONTINUOUS
 62
     7
 10
-106.541016326622
 20
48.578302798871739
 30
0.0
 40
2.5
  1
0
 50
90.0
 41
0.6547619344966495
  0
TEXT
  5
C8
  8
PIC06
  6
CONTINUOUS
 62
     7
 10
-106.5410157649434
 20
50.297052798871647
 30
0.0
 40
2.5
  1
6
 50
90.0
 41
0.6547619344966495
  0
ENDBLK
  5
C9
  8
PIC06
  0
BLOCK
  8
PIC06
  2
COMP14
 70
     0
 10
0.0
 20
0.0
 30
0.0
  3
COMP14
  1

  0
LINE
  5
CC
  8
PIC06
  6
CONTINUOUS
 62
     7
 10
-69.78939296681618
 20
37.53640419906332
 30
0.0
 11
-69.78939296681618
 21
49.203303820549991
 31
0.0
  0
INSERT
  5
CD
  8
PIC06
  6
CONTINUOUS
 62
     7
  2
MARK1_1
 10
-69.78939296681618
 20
37.53640419906332
 30
0.0
 41
2.5
 42
2.5
 50
90.0
  0
LINE
  5
CE
  8
PIC06
  6
CONTINUOUS
 62
     7
 10
-69.78939296681618
 20
60.870203442036647
 30
0.0
 11
-69.78939296681618
 21
49.203303820549991
 31
0.0
  0
INSERT
  5
CF
  8
PIC06
  6
CONTINUOUS
 62
     7
  2
MARK1_1
 10
-69.78939296681618
 20
60.870203442036647
 30
0.0
 41
2.5
 42
2.5
 50
270.0
  0
LINE
  5
D0
  8
PIC06
  6
CONTINUOUS
 62
     7
 10
-63.193130887119892
 20
37.53640419906332
 30
0.0
 11
-70.789392588913884
 21
37.53640419906332
 31
0.0
  0
LINE
  5
D1
  8
PIC06
  6
CONTINUOUS
 62
     7
 10
-63.825152377235092
 20
60.870203442036647
 30
0.0
 11
-70.789392588913884
 21
60.870203442036647
 31
0.0
  0
TEXT
  5
D2
  8
PIC06
  6
CONTINUOUS
 62
     7
 10
-70.961922075503935
 20
49.646031166415924
 30
0.0
 40
2.5
  1
1
 50
90.0
 41
0.6547619344966495
  0
TEXT
  5
D3
  8
PIC06
  6
CONTINUOUS
 62
     7
 10
-70.961921513825203
 20
51.364781166415817
 30
0.0
 40
2.5
  1
4
 50
90.0
 41
0.6547619344966495
  0
TEXT
  5
D4
  8
PIC06
  6
CONTINUOUS
 62
     7
 10
-70.961920952146485
 20
53.083531166415732
 30
0.0
 40
2.5
  1
0
 50
90.0
 41
0.6547619344966495
  0
ENDBLK
  5
D5
  8
PIC06
  0
BLOCK
  8
PIC06
  2
COMP15
 70
     0
 10
0.0
 20
0.0
 30
0.0
  3
COMP15
  1

  0
LINE
  5
D8
  8
PIC06
  6
CONTINUOUS
 62
     7
 10
-26.879325969680391
 20
36.536384231507327
 30
0.0
 11
-26.879325969680391
 21
49.203303820549991
 31
0.0
  0
INSERT
  5
D9
  8
PIC06
  6
CONTINUOUS
 62
     7
  2
MARK1_1
 10
-26.879325969680391
 20
36.536384231507327
 30
0.0
 41
2.5
 42
2.5
 50
90.0
  0
LINE
  5
DA
  8
PIC06
  6
CONTINUOUS
 62
     7
 10
-26.879325969680391
 20
61.870223409592647
 30
0.0
 11
-26.879325969680391
 21
49.203303820549991
 31
0.0
  0
INSERT
  5
DB
  8
PIC06
  6
CONTINUOUS
 62
     7
  2
MARK1_1
 10
-26.879325969680391
 20
61.870223409592647
 30
0.0
 41
2.5
 42
2.5
 50
270.0
  0
LINE
  5
DC
  8
PIC06
  6
CONTINUOUS
 62
     7
 10
-52.228922705237892
 20
36.536384231507327
 30
0.0
 11
-25.879326347582712
 21
36.536384231507327
 31
0.0
  0
LINE
  5
DD
  8
PIC06
  6
CONTINUOUS
 62
     7
 10
-52.228922705237892
 20
61.870223409592647
 30
0.0
 11
-25.879326347582712
 21
61.870223409592647
 31
0.0
  0
TEXT
  5
DE
  8
PIC06
  6
CONTINUOUS
 62
     7
 10
-27.479326251575461
 20
46.859552798871853
 30
0.0
 40
2.5
  1
1
 50
90.0
 41
0.6547619344966495
  0
TEXT
  5
DF
  8
PIC06
  6
CONTINUOUS
 62
     7
 10
-27.47932568989674
 20
48.578302798871739
 30
0.0
 40
2.5
  1
5
 50
90.0
 41
0.6547619344966495
  0
TEXT
  5
E0
  8
PIC06
  6
CONTINUOUS
 62
     7
 10
-27.479325128218001
 20
50.297052798871647
 30
0.0
 40
2.5
  1
2
 50
90.0
 41
0.6547619344966495
  0
ENDBLK
  5
E1
  8
PIC06
  0
BLOCK
  8
PIC06
  2
COMP16
 70
     0
 10
0.0
 20
0.0
 30
0.0
  3
COMP16
  1

  0
LINE
  5
E4
  8
PIC06
  6
CONTINUOUS
 62
     7
 10
-61.632023869896329
 20
-78.125502001479632
 30
0.0
 11
-54.131884285955501
 21
-78.125502001479632
 31
0.0
  0
INSERT
  5
E5
  8
PIC06
  6
CONTINUOUS
 62
     7
  2
MARK1_1
 10
-61.632023869896329
 20
-78.125502001479632
 30
0.0
 41
2.5
 42
2.5
  0
LINE
  5
E6
  8
PIC06
  6
CONTINUOUS
 62
     7
 10
-46.631744702014643
 20
-78.125502001479632
 30
0.0
 11
-54.131884285955501
 21
-78.125502001479632
 31
0.0
  0
INSERT
  5
E7
  8
PIC06
  6
CONTINUOUS
 62
     7
  2
MARK1_1
 10
-46.631744702014643
 20
-78.125502001479632
 30
0.0
 41
2.5
 42
2.5
 50
180.0
  0
LINE
  5
E8
  8
PIC06
  6
CONTINUOUS
 62
     7
 10
-61.632023869896329
 20
-67.253092527556873
 30
0.0
 11
-61.632023869896329
 21
-79.125491450848116
 31
0.0
  0
LINE
  5
E9
  8
PIC06
  6
CONTINUOUS
 62
     7
 10
-46.631744702014643
 20
-67.253092527556873
 30
0.0
 11
-46.631744702014643
 21
-79.125491450848116
 31
0.0
  0
TEXT
  5
EA
  8
PIC06
  6
CONTINUOUS
 62
     7
 10
-55.546727803285648
 20
-77.30921169532121
 30
0.0
 40
2.5
  1
%%c
 41
0.6547619344966495
  0
TEXT
  5
EB
  8
PIC06
  6
CONTINUOUS
 62
     7
 10
-53.827977803285648
 20
-77.30921169532121
 30
0.0
 40
2.5
  1
9
 41
0.6547619344966495
  0
TEXT
  5
EC
  8
PIC06
  6
CONTINUOUS
 62
     7
 10
-52.109227803285648
 20
-77.30921169532121
 30
0.0
 40
2.5
  1
0
 41
0.6547619344966495
  0
ENDBLK
  5
ED
  8
PIC06
  0
BLOCK
  8
PIC06
  2
COMP17
 70
     0
 10
0.0
 20
0.0
 30
0.0
  3
COMP17
  1

  0
LINE
  5
F0
  8
PIC06
  6
CONTINUOUS
 62
     7
 10
-67.543986804313136
 20
-67.253092527556873
 30
0.0
 11
-67.543986804313136
 21
-64.253093661263847
 31
0.0
  0
INSERT
  5
F1
  8
PIC06
  6
CONTINUOUS
 62
     7
  2
MARK1_1
 10
-67.543986804313136
 20
-67.253092527556873
 30
0.0
 41
2.5
 42
2.5
 50
90.0
  0
LINE
  5
F2
  8
PIC06
  6
CONTINUOUS
 62
     7
 10
-67.543986804313136
 20
-67.253092527556873
 30
0.0
 11
-67.543986804313136
 21
-68.503117487001873
 31
0.0
  0
LINE
  5
F3
  8
PIC06
  6
CONTINUOUS
 62
     7
 10
-67.543986804313136
 20
-69.753142446446873
 30
0.0
 11
-67.543986804313136
 21
-68.503117487001873
 31
0.0
  0
LINE
  5
F4
  8
PIC06
  6
CONTINUOUS
 62
     7
 10
-67.543986804313136
 20
-69.753142446446873
 30
0.0
 11
-67.543986804313136
 21
-76.721889177144476
 31
0.0
  0
INSERT
  5
F5
  8
PIC06
  6
CONTINUOUS
 62
     7
  2
MARK1_1
 10
-67.543986804313136
 20
-69.753142446446873
 30
0.0
 41
2.5
 42
2.5
 50
270.0
  0
LINE
  5
F6
  8
PIC06
  6
CONTINUOUS
 62
     7
 10
-67.863268081796363
 20
-67.253092527556873
 30
0.0
 11
-66.54398718221546
 21
-67.253092527556873
 31
0.0
  0
LINE
  5
F7
  8
PIC06
  6
CONTINUOUS
 62
     7
 10
-67.650413896807549
 20
-69.753142446446873
 30
0.0
 11
-66.54398718221546
 21
-69.753142446446873
 31
0.0
  0
TEXT
  5
F8
  8
PIC06
  6
CONTINUOUS
 62
     7
 10
-68.143984543025894
 20
-76.221889366095638
 30
0.0
 40
2.5
  1
1
 50
90.0
 41
0.6547619344966495
  0
TEXT
  5
F9
  8
PIC06
  6
CONTINUOUS
 62
     7
 10
-68.143983981347176
 20
-74.503139366095738
 30
0.0
 40
2.5
  1
5
 50
90.0
 41
0.6547619344966495
  0
ENDBLK
  5
FA
  8
PIC06
  0
BLOCK
  8
PIC06
  2
COMP18
 70
     0
 10
0.0
 20
0.0
 30
0.0
  3
COMP18
  1

  0
LINE
  5
FD
  8
PIC06
  6
CONTINUOUS
 62
     7
 10
2.2026654409282851
 20
-87.407008534462875
 30
0.0
 11
-47.881678106897198
 21
-87.407008534462875
 31
0.0
  0
INSERT
  5
FE
  8
PIC06
  6
CONTINUOUS
 62
     7
  2
MARK1_1
 10
2.2026654409282851
 20
-87.407008534462875
 30
0.0
 41
2.5
 42
2.5
 50
180.0
  0
LINE
  5
FF
  8
PIC06
  6
CONTINUOUS
 62
     7
 10
-97.965996222899776
 20
-87.407008534462875
 30
0.0
 11
-47.881678106897198
 21
-87.407008534462875
 31
0.0
  0
INSERT
  5
100
  8
PIC06
  6
CONTINUOUS
 62
     7
  2
MARK1_1
 10
-97.965996222899776
 20
-87.407008534462875
 30
0.0
 41
2.5
 42
2.5
  0
LINE
  5
101
  8
PIC06
  6
CONTINUOUS
 62
     7
 10
2.2026654409282851
 20
-69.753142446446873
 30
0.0
 11
2.2026654409282851
 21
-88.407018329289684
 31
0.0
  0
LINE
  5
102
  8
PIC06
  6
CONTINUOUS
 62
     7
 10
-97.965996222899776
 20
-69.753142446446873
 30
0.0
 11
-97.965996222899776
 21
-88.407018329289684
 31
0.0
  0
TEXT
  5
103
  8
PIC06
  6
CONTINUOUS
 62
     7
 10
-50.225424042210761
 20
-86.807020968479264
 30
0.0
 40
2.5
  1
6
 41
0.6547619344966495
  0
TEXT
  5
104
  8
PIC06
  6
CONTINUOUS
 62
     7
 10
-48.506674042210761
 20
-86.807020968479264
 30
0.0
 40
2.5
  1
0
 41
0.6547619344966495
  0
TEXT
  5
105
  8
PIC06
  6
CONTINUOUS
 62
     7
 10
-46.787924042210761
 20
-86.807020968479264
 30
0.0
 40
2.5
  1
1
 41
0.6547619344966495
  0
ENDBLK
  5
106
  8
PIC06
  0
BLOCK
  8
PIC06
  2
COMP19
 70
     0
 10
0.0
 20
0.0
 30
0.0
  3
COMP19
  1

  0
LINE
  5
109
  8
PIC06
  6
CONTINUOUS
 62
     7
 10
99.48440829582978
 20
-79.30334127479
 30
0.0
 11
79.817323502072199
 21
-79.30334127479
 31
0.0
  0
INSERT
  5
10A
  8
PIC06
  6
CONTINUOUS
 62
     7
  2
MARK1_1
 10
99.48440829582978
 20
-79.30334127479
 30
0.0
 41
2.5
 42
2.5
 50
180.0
  0
LINE
  5
10B
  8
PIC06
  6
CONTINUOUS
 62
     7
 10
60.150284485595883
 20
-79.30334127479
 30
0.0
 11
79.817343847530552
 21
-79.30334127479
 31
0.0
  0
INSERT
  5
10C
  8
PIC06
  6
CONTINUOUS
 62
     7
  2
MARK1_1
 10
60.150284485595883
 20
-79.30334127479
 30
0.0
 41
2.5
 42
2.5
  0
LINE
  5
10D
  8
PIC06
  6
CONTINUOUS
 62
     7
 10
99.48440829582978
 20
-69.753142446446873
 30
0.0
 11
99.48440829582978
 21
-80.303330724158513
 31
0.0
  0
LINE
  5
10E
  8
PIC06
  6
CONTINUOUS
 62
     7
 10
60.150284485595883
 20
-69.753142446446873
 30
0.0
 11
60.150284485595883
 21
-80.303330724158513
 31
0.0
  0
TEXT
  5
10F
  8
PIC06
  6
CONTINUOUS
 62
     7
 10
77.473597912216974
 20
-78.703333363348065
 30
0.0
 40
2.5
  1
2
 41
0.6547619344966495
  0
TEXT
  5
110
  8
PIC06
  6
CONTINUOUS
 62
     7
 10
79.192347912216974
 20
-78.703333363348065
 30
0.0
 40
2.5
  1
3
 41
0.6547619344966495
  0
TEXT
  5
111
  8
PIC06
  6
CONTINUOUS
 62
     7
 10
80.911097912216974
 20
-78.703333363348065
 30
0.0
 40
2.5
  1
6
 41
0.6547619344966495
  0
ENDBLK
  5
112
  8
PIC06
  0
BLOCK
  8
PIC06
  2
COMP20
 70
     0
 10
0.0
 20
0.0
 30
0.0
  3
COMP20
  1

  0
LINE
  5
115
  8
PIC06
  6
CONTINUOUS
 62
     7
 10
-91.843844358534639
 20
44.593409527971737
 30
0.0
 11
-87.416672627166918
 21
48.388168119151487
 31
0.0
  0
INSERT
  5
116
  8
PIC06
  6
CONTINUOUS
 62
     7
  2
MARK1_1
 10
-91.843844358534639
 20
44.593409527971737
 30
0.0
 41
2.5
 42
2.5
 50
41.0
  0
LINE
  5
117
  8
PIC06
  6
CONTINUOUS
 62
     7
 10
-81.087536242539485
 20
53.813198113128237
 30
0.0
 11
-87.41666245443777
 21
48.388168119151487
 31
0.0
  0
INSERT
  5
118
  8
PIC06
  6
CONTINUOUS
 62
     7
  2
MARK1_1
 10
-81.087536242539485
 20
53.813198113128237
 30
0.0
 41
2.5
 42
2.5
 50
221.0
  0
TEXT
  5
119
  8
PIC06
  6
CONTINUOUS
 62
     7
 10
-89.072742071119137
 20
49.385894136281422
 30
0.0
 40
2.5
  1
8
 50
41.0
 41
0.6547619344966495
  0
TEXT
  5
11A
  8
PIC06
  6
CONTINUOUS
 62
     7
 10
-87.775584812241604
 20
50.513495399246892
 30
0.0
 40
2.5
  1
5
 50
41.0
 41
0.6547619344966495
  0
ENDBLK
  5
11B
  8
PIC06
  0
BLOCK
  8
PIC06
  2
COMP21
 70
     0
 10
0.0
 20
0.0
 30
0.0
  3
COMP21
  1

  0
LINE
  5
11E
  8
PIC06
  6
CONTINUOUS
 62
     7
 10
-85.542927124602997
 20
32.99877697445298
 30
0.0
 11
-80.120821790260365
 21
38.654313381697179
 31
0.0
  0
INSERT
  5
11F
  8
PIC06
  6
CONTINUOUS
 62
     7
  2
MARK1_1
 10
-85.542927124602997
 20
32.99877697445298
 30
0.0
 41
2.5
 42
2.5
 50
45.999999999999993
  0
LINE
  5
120
  8
PIC06
  6
CONTINUOUS
 62
     7
 10
-85.542927124602997
 20
32.99877697445298
 30
0.0
 11
-86.465685214172495
 21
32.036294377505321
 31
0.0
  0
LINE
  5
121
  8
PIC06
  6
CONTINUOUS
 62
     7
 10
-87.388443303741951
 20
31.073811780557659
 30
0.0
 11
-86.465685214172495
 21
32.036294377505321
 31
0.0
  0
LINE
  5
122
  8
PIC06
  6
CONTINUOUS
 62
     7
 10
-87.388443303741951
 20
31.073811780557659
 30
0.0
 11
-89.464595598445143
 21
28.908269171524349
 31
0.0
  0
INSERT
  5
123
  8
PIC06
  6
CONTINUOUS
 62
     7
  2
MARK1_1
 10
-87.388443303741951
 20
31.073811780557659
 30
0.0
 41
2.5
 42
2.5
 50
226.0
  0
TEXT
  5
124
  8
PIC06
  6
CONTINUOUS
 62
     7
 10
-82.956861694282452
 20
36.57092319019511
 30
0.0
 40
2.5
  1
1
 50
45.999999999999993
 41
0.6547619344966495
  0
TEXT
  5
125
  8
PIC06
  6
CONTINUOUS
 62
     7
 10
-81.762917413547811
 20
37.80728827260446
 30
0.0
 40
2.5
  1
6
 50
45.999999999999993
 41
0.6547619344966495
  0
ENDBLK
  5
126
  8
PIC06
  0
BLOCK
  8
PIC06
  2
COMP22
 70
     0
 10
0.0
 20
0.0
 30
0.0
  3
COMP22
  1

  0
LINE
  5
129
  8
PIC06
  6
CONTINUOUS
 62
     7
 10
-62.499249030969622
 20
36.7560566882171
 30
0.0
 11
-68.319118248281484
 21
31.51972064746905
 31
0.0
  0
INSERT
  5
12A
  8
PIC06
  6
CONTINUOUS
 62
     7
  2
MARK1_1
 10
-62.499249030969622
 20
36.7560566882171
 30
0.0
 41
2.5
 42
2.5
 50
222.0
  0
LINE
  5
12B
  8
PIC06
  6
CONTINUOUS
 62
     7
 10
-62.499249030969622
 20
36.7560566882171
 30
0.0
 11
-61.631942488063032
 21
37.53640419906332
 31
0.0
  0
LINE
  5
12C
  8
PIC06
  6
CONTINUOUS
 62
     7
 10
-60.76462577242728
 20
38.316751709909582
 30
0.0
 11
-61.63193231533387
 21
37.53640419906332
 31
0.0
  0
LINE
  5
12D
  8
PIC06
  6
CONTINUOUS
 62
     7
 10
-60.76462577242728
 20
38.316751709909582
 30
0.0
 11
-58.534448185479967
 21
40.323317450779093
 31
0.0
  0
INSERT
  5
12E
  8
PIC06
  6
CONTINUOUS
 62
     7
  2
MARK1_1
 10
-60.76462577242728
 20
38.316751709909582
 30
0.0
 41
2.5
 42
2.5
 50
42.0
  0
TEXT
  5
12F
  8
PIC06
  6
CONTINUOUS
 62
     7
 10
-68.34852760828926
 20
32.299628187779049
 30
0.0
 40
2.5
  1
1
 50
42.0
 41
0.6547619344966495
  0
TEXT
  5
130
  8
PIC06
  6
CONTINUOUS
 62
     7
 10
-67.071247264109672
 20
33.449696222667612
 30
0.0
 40
2.5
  1
4
 50
42.0
 41
0.6547619344966495
  0
ENDBLK
  5
131
  8
PIC06
  0
BLOCK
  8
PIC06
  2
COMP23
 70
     0
 10
0.0
 20
0.0
 30
0.0
  3
COMP23
  1

  0
LINE
  5
134
  8
PIC06
  6
CONTINUOUS
 62
     7
 10
-54.131792731393027
 20
79.806677741004023
 30
0.0
 11
-70.298741515965048
 21
79.806677741004023
 31
0.0
  0
INSERT
  5
135
  8
PIC06
  6
CONTINUOUS
 62
     7
  2
MARK1_1
 10
-54.131792731393027
 20
79.806677741004023
 30
0.0
 41
2.5
 42
2.5
 50
180.0
  0
LINE
  5
136
  8
PIC06
  6
CONTINUOUS
 62
     7
 10
-86.465685214172495
 20
79.806677741004023
 30
0.0
 11
-70.298741515965048
 21
79.806677741004023
 31
0.0
  0
INSERT
  5
137
  8
PIC06
  6
CONTINUOUS
 62
     7
  2
MARK1_1
 10
-86.465685214172495
 20
79.806677741004023
 30
0.0
 41
2.5
 42
2.5
  0
LINE
  5
138
  8
PIC06
  6
CONTINUOUS
 62
     7
 10
-54.131792731393027
 20
65.080950360479605
 30
0.0
 11
-54.131792731393027
 21
80.806677363101699
 31
0.0
  0
LINE
  5
139
  8
PIC06
  6
CONTINUOUS
 62
     7
 10
-86.465685214172495
 20
69.340948547161133
 30
0.0
 11
-86.465685214172495
 21
80.806677363101699
 31
0.0
  0
TEXT
  5
13A
  8
PIC06
  6
CONTINUOUS
 62
     7
 10
-72.642487451278612
 20
80.406675479716796
 30
0.0
 40
2.5
  1
1
 41
0.6547619344966495
  0
TEXT
  5
13B
  8
PIC06
  6
CONTINUOUS
 62
     7
 10
-70.923737451278612
 20
80.406675479716796
 30
0.0
 40
2.5
  1
9
 41
0.6547619344966495
  0
TEXT
  5
13C
  8
PIC06
  6
CONTINUOUS
 62
     7
 10
-69.204987451278612
 20
80.406675479716796
 30
0.0
 40
2.5
  1
4
 41
0.6547619344966495
  0
ENDBLK
  5
13D
  8
PIC06
  0
BLOCK
  8
PIC06
  2
COMP24
 70
     0
 10
0.0
 20
0.0
 30
0.0
  3
COMP24
  1

  0
LINE
  5
140
  8
PIC06
  6
CONTINUOUS
 62
     7
 10
-39.323137262738783
 20
-8.0852406323867854
 30
0.0
 11
-39.323137262738783
 21
-20.918830216022119
 31
0.0
  0
INSERT
  5
141
  8
PIC06
  6
CONTINUOUS
 62
     7
  2
MARK1_1
 10
-39.323137262738783
 20
-8.0852406323867854
 30
0.0
 41
2.5
 42
2.5
 50
270.0
  0
LINE
  5
142
  8
PIC06
  6
CONTINUOUS
 62
     7
 10
-39.323137262738783
 20
-33.752426157613179
 30
0.0
 11
-39.323137262738783
 21
-20.918830216022119
 31
0.0
  0
INSERT
  5
143
  8
PIC06
  6
CONTINUOUS
 62
     7
  2
MARK1_1
 10
-39.323137262738783
 20
-33.752426157613179
 30
0.0
 41
2.5
 42
2.5
 50
90.0
  0
LINE
  5
144
  8
PIC06
  6
CONTINUOUS
 62
     7
 10
-39.183648800467381
 20
-8.0852406323867854
 30
0.0
 11
-40.323136884836458
 21
-8.0852406323867854
 31
0.0
  0
LINE
  5
145
  8
PIC06
  6
CONTINUOUS
 62
     7
 10
-39.044170510925142
 20
-33.752426157613179
 30
0.0
 11
-40.323136884836458
 21
-33.752426157613179
 31
0.0
  0
TEXT
  5
146
  8
PIC06
  6
CONTINUOUS
 62
     7
 10
-39.923137544633853
 20
-23.262577422926821
 30
0.0
 40
2.5
  1
1
 50
90.0
 41
0.6547619344966495
  0
TEXT
  5
147
  8
PIC06
  6
CONTINUOUS
 62
     7
 10
-39.923136982955107
 20
-21.54382742292692
 30
0.0
 40
2.5
  1
5
 50
90.0
 41
0.6547619344966495
  0
TEXT
  5
148
  8
PIC06
  6
CONTINUOUS
 62
     7
 10
-39.923136421276403
 20
-19.825077422927009
 30
0.0
 40
2.5
  1
4
 50
90.0
 41
0.6547619344966495
  0
ENDBLK
  5
149
  8
PIC06
  0
BLOCK
  8
PIC06
  2
COMP25
 70
     0
 10
0.0
 20
0.0
 30
0.0
  3
COMP25
  1

  0
LINE
  5
14C
  8
PIC06
  6
CONTINUOUS
 62
     7
 10
-39.318162798178491
 20
-33.752426157613179
 30
0.0
 11
-39.318162798178491
 21
-39.419205973763837
 31
0.0
  0
INSERT
  5
14D
  8
PIC06
  6
CONTINUOUS
 62
     7
  2
MARK1_1
 10
-39.318162798178491
 20
-33.752426157613179
 30
0.0
 41
2.5
 42
2.5
 50
270.0
  0
LINE
  5
14E
  8
PIC06
  6
CONTINUOUS
 62
     7
 10
-39.318162798178491
 20
-45.085983246732198
 30
0.0
 11
-39.318162798178491
 21
-39.419205973763837
 31
0.0
  0
INSERT
  5
14F
  8
PIC06
  6
CONTINUOUS
 62
     7
  2
MARK1_1
 10
-39.318162798178491
 20
-45.085983246732198
 30
0.0
 41
2.5
 42
2.5
 50
90.0
  0
LINE
  5
150
  8
PIC06
  6
CONTINUOUS
 62
     7
 10
-50.798423357727181
 20
-33.752426157613179
 30
0.0
 11
-38.318163176080823
 21
-33.752426157613179
 31
0.0
  0
LINE
  5
151
  8
PIC06
  6
CONTINUOUS
 62
     7
 10
-47.46532864774872
 20
-45.085983246732198
 30
0.0
 11
-38.318163176080823
 21
-45.085983246732198
 31
0.0
  0
TEXT
  5
152
  8
PIC06
  6
CONTINUOUS
 62
     7
 10
-39.918163080073541
 20
-43.872325794041899
 30
0.0
 40
2.5
  1
6
 50
90.0
 41
0.6547619344966495
  0
TEXT
  5
153
  8
PIC06
  6
CONTINUOUS
 62
     7
 10
-39.918162518394823
 20
-42.153575794041991
 30
0.0
 40
2.5
  1
5
 50
90.0
 41
0.6547619344966495
  0
TEXT
  5
154
  8
PIC06
  6
CONTINUOUS
 62
     7
 10
-39.918161956716098
 20
-40.434825794042077
 30
0.0
 40
2.5
  1
ê╚
 50
90.0
  0
TEXT
  5
155
  8
PIC06
  6
CONTINUOUS
 62
     7
 10
-39.918160986543747
 20
-37.466075794042247
 30
0.0
 40
2.5
  1
ÅÒ
 50
90.0
  0
ENDBLK
  5
156
  8
PIC06
  0
BLOCK
  8
PIC06
  2
COMP26
 70
     0
 10
0.0
 20
0.0
 30
0.0
  3
COMP26
  1

  0
LINE
  5
159
  8
PIC06
  6
CONTINUOUS
 62
     7
 10
-91.112821868213373
 20
-10.585290551276779
 30
0.0
 11
-91.112821868213373
 21
-13.585289417569809
 31
0.0
  0
INSERT
  5
15A
  8
PIC06
  6
CONTINUOUS
 62
     7
  2
MARK1_1
 10
-91.112821868213373
 20
-10.585290551276779
 30
0.0
 41
2.5
 42
2.5
 50
270.0
  0
LINE
  5
15B
  8
PIC06
  6
CONTINUOUS
 62
     7
 10
-91.112821868213373
 20
-10.585290551276779
 30
0.0
 11
-91.112821868213373
 21
-9.3352655918317833
 31
0.0
  0
LINE
  5
15C
  8
PIC06
  6
CONTINUOUS
 62
     7
 10
-91.112821868213373
 20
-8.0852406323867854
 30
0.0
 11
-91.112821868213373
 21
-9.3352655918317833
 31
0.0
  0
LINE
  5
15D
  8
PIC06
  6
CONTINUOUS
 62
     7
 10
-91.112821868213373
 20
-8.0852406323867854
 30
0.0
 11
-91.112821868213373
 21
-1.116488974273494
 31
0.0
  0
INSERT
  5
15E
  8
PIC06
  6
CONTINUOUS
 62
     7
  2
MARK1_1
 10
-91.112821868213373
 20
-8.0852406323867854
 30
0.0
 41
2.5
 42
2.5
 50
90.0
  0
LINE
  5
15F
  8
PIC06
  6
CONTINUOUS
 62
     7
 10
-88.632466352981282
 20
-10.585290551276779
 30
0.0
 11
-92.112821490311035
 21
-10.585290551276779
 31
0.0
  0
LINE
  5
160
  8
PIC06
  6
CONTINUOUS
 62
     7
 10
-89.972784456469526
 20
-8.0852406323867854
 30
0.0
 11
-92.112821490311035
 21
-8.0852406323867854
 31
0.0
  0
TEXT
  5
161
  8
PIC06
  6
CONTINUOUS
 62
     7
 10
-91.712819606926118
 20
-4.5852365507825521
 30
0.0
 40
2.5
  1
1
 50
90.0
 41
0.6547619344966495
  0
TEXT
  5
162
  8
PIC06
  6
CONTINUOUS
 62
     7
 10
-91.7128190452474
 20
-2.8664865507826458
 30
0.0
 40
2.5
  1
5
 50
90.0
 41
0.6547619344966495
  0
ENDBLK
  5
163
  8
PIC06
  0
BLOCK
  8
PIC06
  2
COMP27
 70
     0
 10
0.0
 20
0.0
 30
0.0
  3
COMP27
  1

  0
LINE
  5
166
  8
PIC06
  6
CONTINUOUS
 62
     7
 10
-72.7500233712517
 20
-8.0852406323867854
 30
0.0
 11
-72.7500233712517
 21
-11.08523949867981
 31
0.0
  0
INSERT
  5
167
  8
PIC06
  6
CONTINUOUS
 62
     7
  2
MARK1_1
 10
-72.7500233712517
 20
-8.0852406323867854
 30
0.0
 41
2.5
 42
2.5
 50
270.0
  0
LINE
  5
168
  8
PIC06
  6
CONTINUOUS
 62
     7
 10
-72.7500233712517
 20
-8.0852406323867854
 30
0.0
 11
-72.7500233712517
 21
-6.9185557566027001
 31
0.0
  0
LINE
  5
169
  8
PIC06
  6
CONTINUOUS
 62
     7
 10
-72.7500233712517
 20
-5.751870880818613
 30
0.0
 11
-72.7500233712517
 21
-6.9185557566027001
 31
0.0
  0
LINE
  5
16A
  8
PIC06
  6
CONTINUOUS
 62
     7
 10
-72.7500233712517
 20
-5.751870880818613
 30
0.0
 11
-72.7500233712517
 21
1.216880777294675
 31
0.0
  0
INSERT
  5
16B
  8
PIC06
  6
CONTINUOUS
 62
     7
  2
MARK1_1
 10
-72.7500233712517
 20
-5.751870880818613
 30
0.0
 41
2.5
 42
2.5
 50
90.0
  0
LINE
  5
16C
  8
PIC06
  6
CONTINUOUS
 62
     7
 10
-74.511375475667592
 20
-8.0852406323867854
 30
0.0
 11
-71.75002374915401
 21
-8.0852406323867854
 31
0.0
  0
LINE
  5
16D
  8
PIC06
  6
CONTINUOUS
 62
     7
 10
-76.82169382295433
 20
-5.751870880818613
 30
0.0
 11
-71.75002374915401
 21
-5.751870880818613
 31
0.0
  0
TEXT
  5
16E
  8
PIC06
  6
CONTINUOUS
 62
     7
 10
-73.350021109964473
 20
-2.2518667992143828
 30
0.0
 40
2.5
  1
1
 50
90.0
 41
0.6547619344966495
  0
TEXT
  5
16F
  8
PIC06
  6
CONTINUOUS
 62
     7
 10
-73.350020548285727
 20
-0.5331167992144752
 30
0.0
 40
2.5
  1
4
 50
90.0
 41
0.6547619344966495
  0
ENDBLK
  5
170
  8
PIC06
  0
BLOCK
  8
PIC06
  2
COMP28
 70
     0
 10
0.0
 20
0.0
 30
0.0
  3
COMP28
  1

  0
LINE
  5
173
  8
PIC06
  6
CONTINUOUS
 62
     7
 10
-67.579123410839202
 20
-10.585290551276779
 30
0.0
 11
-67.579123410839202
 21
-13.585289417569809
 31
0.0
  0
INSERT
  5
174
  8
PIC06
  6
CONTINUOUS
 62
     7
  2
MARK1_1
 10
-67.579123410839202
 20
-10.585290551276779
 30
0.0
 41
2.5
 42
2.5
 50
270.0
  0
LINE
  5
175
  8
PIC06
  6
CONTINUOUS
 62
     7
 10
-67.579123410839202
 20
-10.585290551276779
 30
0.0
 11
-67.579123410839202
 21
-9.3352655918317833
 31
0.0
  0
LINE
  5
176
  8
PIC06
  6
CONTINUOUS
 62
     7
 10
-67.579123410839202
 20
-8.0852406323867854
 30
0.0
 11
-67.579123410839202
 21
-9.3352655918317833
 31
0.0
  0
LINE
  5
177
  8
PIC06
  6
CONTINUOUS
 62
     7
 10
-67.579123410839202
 20
-8.0852406323867854
 30
0.0
 11
-67.579123410839202
 21
-1.116488974273494
 31
0.0
  0
INSERT
  5
178
  8
PIC06
  6
CONTINUOUS
 62
     7
  2
MARK1_1
 10
-67.579123410839202
 20
-8.0852406323867854
 30
0.0
 41
2.5
 42
2.5
 50
90.0
  0
LINE
  5
179
  8
PIC06
  6
CONTINUOUS
 62
     7
 10
-62.798622277482529
 20
-10.585290551276779
 30
0.0
 11
-68.579123032936863
 21
-10.585290551276779
 31
0.0
  0
LINE
  5
17A
  8
PIC06
  6
CONTINUOUS
 62
     7
 10
-64.688308446643532
 20
-8.0852406323867854
 30
0.0
 11
-68.579123032936863
 21
-8.0852406323867854
 31
0.0
  0
TEXT
  5
17B
  8
PIC06
  6
CONTINUOUS
 62
     7
 10
-68.179121149551975
 20
-4.5852365507825521
 30
0.0
 40
2.5
  1
1
 50
90.0
 41
0.6547619344966495
  0
TEXT
  5
17C
  8
PIC06
  6
CONTINUOUS
 62
     7
 10
-68.179120587873243
 20
-2.8664865507826458
 30
0.0
 40
2.5
  1
5
 50
90.0
 41
0.6547619344966495
  0
ENDBLK
  5
17D
  8
PIC06
  0
BLOCK
  8
PIC06
  2
COMP29
 70
     0
 10
0.0
 20
0.0
 30
0.0
  3
COMP29
  1

  0
LINE
  5
180
  8
PIC06
  6
CONTINUOUS
 62
     7
 10
-58.965212401851197
 20
-74.050510153705545
 30
0.0
 11
-54.381787550552858
 21
-74.050510153705545
 31
0.0
  0
INSERT
  5
181
  8
PIC06
  6
CONTINUOUS
 62
     7
  2
MARK1_1
 10
-58.965212401851197
 20
-74.050510153705545
 30
0.0
 41
2.5
 42
2.5
  0
LINE
  5
182
  8
PIC06
  6
CONTINUOUS
 62
     7
 10
-49.79836269925454
 20
-74.050510153705545
 30
0.0
 11
-54.381787550552858
 21
-74.050510153705545
 31
0.0
  0
INSERT
  5
183
  8
PIC06
  6
CONTINUOUS
 62
     7
  2
MARK1_1
 10
-49.79836269925454
 20
-74.050510153705545
 30
0.0
 41
2.5
 42
2.5
 50
180.0
  0
LINE
  5
184
  8
PIC06
  6
CONTINUOUS
 62
     7
 10
-58.965212401851197
 20
-69.753142446446873
 30
0.0
 11
-58.965212401851197
 21
-75.050509775803221
 31
0.0
  0
LINE
  5
185
  8
PIC06
  6
CONTINUOUS
 62
     7
 10
-49.79836269925454
 20
-69.753142446446873
 30
0.0
 11
-49.79836269925454
 21
-75.050509775803221
 31
0.0
  0
TEXT
  5
186
  8
PIC06
  6
CONTINUOUS
 62
     7
 10
-55.576360963334992
 20
-73.066349470913337
 30
0.0
 40
2.5
  1
%%c
 41
0.6547619344966495
  0
TEXT
  5
187
  8
PIC06
  6
CONTINUOUS
 62
     7
 10
-53.857610963334992
 20
-73.066349470913337
 30
0.0
 40
2.5
  1
5
 41
0.6547619344966495
  0
TEXT
  5
188
  8
PIC06
  6
CONTINUOUS
 62
     7
 10
-52.138860963334992
 20
-73.066349470913337
 30
0.0
 40
2.5
  1
5
 41
0.6547619344966495
  0
ENDBLK
  5
189
  8
PIC06
  0
BLOCK
  8
PIC06
  2
COMP30
 70
     0
 10
0.0
 20
0.0
 30
0.0
  3
COMP30
  1

  0
LINE
  5
18C
  8
PIC06
  6
CONTINUOUS
 62
     7
 10
-55.2984826935417
 20
70.153714002664856
 30
0.0
 11
-58.298481559834727
 21
70.153714002664856
 31
0.0
  0
INSERT
  5
18D
  8
PIC06
  6
CONTINUOUS
 62
     7
  2
MARK1_1
 10
-55.2984826935417
 20
70.153714002664856
 30
0.0
 41
2.5
 42
2.5
 50
180.0
  0
LINE
  5
18E
  8
PIC06
  6
CONTINUOUS
 62
     7
 10
-55.2984826935417
 20
70.153714002664856
 30
0.0
 11
-54.131792731393027
 21
70.153714002664856
 31
0.0
  0
LINE
  5
18F
  8
PIC06
  6
CONTINUOUS
 62
     7
 10
-52.965102769244353
 20
70.153714002664856
 30
0.0
 11
-54.131792731393027
 21
70.153714002664856
 31
0.0
  0
LINE
  5
190
  8
PIC06
  6
CONTINUOUS
 62
     7
 10
-52.965102769244353
 20
70.153714002664856
 30
0.0
 11
-45.996356038546757
 21
70.153714002664856
 31
0.0
  0
INSERT
  5
191
  8
PIC06
  6
CONTINUOUS
 62
     7
  2
MARK1_1
 10
-52.965102769244353
 20
70.153714002664856
 30
0.0
 41
2.5
 42
2.5
  0
LINE
  5
192
  8
PIC06
  6
CONTINUOUS
 62
     7
 10
-55.2984826935417
 20
62.786908379852321
 30
0.0
 11
-55.2984826935417
 21
71.153713624762531
 31
0.0
  0
LINE
  5
193
  8
PIC06
  6
CONTINUOUS
 62
     7
 10
-52.965102769244353
 20
62.786908379852321
 30
0.0
 11
-52.965102769244353
 21
71.153713624762531
 31
0.0
  0
TEXT
  5
194
  8
PIC06
  6
CONTINUOUS
 62
     7
 10
-49.465104091902496
 20
70.753711741377614
 30
0.0
 40
2.5
  1
1
 41
0.6547619344966495
  0
TEXT
  5
195
  8
PIC06
  6
CONTINUOUS
 62
     7
 10
-47.746354091902496
 20
70.753711741377614
 30
0.0
 40
2.5
  1
4
 41
0.6547619344966495
  0
ENDBLK
  5
196
  8
PIC06
  0
BLOCK
  8
PIC06
  2
COMP31
 70
     0
 10
0.0
 20
0.0
 30
0.0
  3
COMP31
  1

  0
LINE
  5
199
  8
PIC06
  6
CONTINUOUS
 62
     7
 10
-41.796900849473793
 20
59.786853563548902
 30
0.0
 11
-41.796900849473793
 21
56.786849610891281
 31
0.0
  0
INSERT
  5
19A
  8
PIC06
  6
CONTINUOUS
 62
     7
  2
MARK1_1
 10
-41.796900849473793
 20
59.786853563548902
 30
0.0
 41
2.5
 42
2.5
 50
270.0
  0
LINE
  5
19B
  8
PIC06
  6
CONTINUOUS
 62
     7
 10
-41.796900849473793
 20
59.786853563548902
 30
0.0
 11
-41.796900849473793
 21
61.870223409592647
 31
0.0
  0
LINE
  5
19C
  8
PIC06
  6
CONTINUOUS
 62
     7
 10
-41.796900849473793
 20
63.953598342000987
 30
0.0
 11
-41.796900849473793
 21
61.870223409592647
 31
0.0
  0
LINE
  5
19D
  8
PIC06
  6
CONTINUOUS
 62
     7
 10
-41.796900849473793
 20
63.953598342000987
 30
0.0
 11
-41.796900849473793
 21
66.953597208294013
 31
0.0
  0
INSERT
  5
19E
  8
PIC06
  6
CONTINUOUS
 62
     7
  2
MARK1_1
 10
-41.796900849473793
 20
63.953598342000987
 30
0.0
 41
2.5
 42
2.5
 50
90.0
  0
LINE
  5
19F
  8
PIC06
  6
CONTINUOUS
 62
     7
 10
-54.131792731393027
 20
59.786853563548902
 30
0.0
 11
-40.796901227376111
 21
59.786853563548902
 31
0.0
  0
LINE
  5
1A0
  8
PIC06
  6
CONTINUOUS
 62
     7
 10
-54.131792731393027
 20
63.953598342000987
 30
0.0
 11
-40.796901227376111
 21
63.953598342000987
 31
0.0
  0
TEXT
  5
1A1
  8
PIC06
  6
CONTINUOUS
 62
     7
 10
-43.051188182437713
 20
56.039087894733719
 30
0.0
 40
2.5
  1
2
 50
90.0
 41
0.6547619344966495
  0
TEXT
  5
1A2
  8
PIC06
  6
CONTINUOUS
 62
     7
 10
-43.051187620759002
 20
57.757837894733612
 30
0.0
 40
2.5
  1
5
 50
90.0
 41
0.6547619344966495
  0
ENDBLK
  5
1A3
  8
PIC06
  0
BLOCK
  8
0
  2
*U116
 70
     1
 10
0.0
 20
0.0
 30
0.0
  3
*U116
  1

  0
TEXT
  5
1603
  8
0
 62
     0
 10
76.494141353412004
 20
137.0034759271314
 30
0.0
 40
2.5
  1
415
  0
ENDBLK
  5
1605
  8
0
  0
BLOCK
  8
0
  2
*U117
 70
     1
 10
0.0
 20
0.0
 30
0.0
  3
*U117
  1

  0
TEXT
  5
1607
  8
0
 62
     0
 10
104.35038278378561
 20
143.33850438993011
 30
0.0
 40
2.5
  1
R1998
  0
ENDBLK
  5
1609
  8
0
  0
BLOCK
  8
0
  2
*U118
 70
     1
 10
0.0
 20
0.0
 30
0.0
  3
*U118
  1

  0
TEXT
  5
160B
  8
0
 62
     0
 10
124.3419559062953
 20
157.63765563470989
 30
0.0
 40
2.5
  1
R300
  0
ENDBLK
  5
160D
  8
0
  0
BLOCK
  8
0
  2
*U119
 70
     1
 10
0.0
 20
0.0
 30
0.0
  3
*U119
  1

  0
TEXT
  5
160F
  8
0
 62
     0
 10
94.413299486208444
 20
188.290199994076
 30
0.0
 40
2.5
  1
R1600
  0
ENDBLK
  5
1611
  8
0
  0
BLOCK
  8
0
  2
*U120
 70
     1
 10
0.0
 20
0.0
 30
0.0
  3
*U120
  1

  0
TEXT
  5
1613
  8
0
 62
     0
 10
124.4087290791886
 20
182.59495748751061
 30
0.0
 40
2.5
  1
R32
  0
ENDBLK
  5
1615
  8
0
  0
BLOCK
  8
0
  2
*U121
 70
     1
 10
0.0
 20
0.0
 30
0.0
  3
*U121
  1

  0
TEXT
  5
1617
  8
0
 62
     0
 10
120.646303982631
 20
144.8417211027888
 30
0.0
 40
2.5
  1
R11
  0
ENDBLK
  5
1619
  8
0
  0
BLOCK
  8
0
  2
*U122
 70
     1
 10
0.0
 20
0.0
 30
0.0
  3
*U122
  1

  0
TEXT
  5
161B
  8
0
 62
     0
 10
125.4971689686722
 20
179.5538571457808
 30
0.0
 40
2.5
  1
R28
  0
ENDBLK
  5
161D
  8
0
  0
BLOCK
  8
0
  2
*U123
 70
     1
 10
0.0
 20
0.0
 30
0.0
  3
*U123
  1

  0
TEXT
  5
161F
  8
0
 62
     0
 10
118.0509697698707
 20
184.20488699293301
 30
0.0
 40
2.5
  1
R21
  0
ENDBLK
  5
1621
  8
0
  0
BLOCK
  8
0
  2
*U124
 70
     1
 10
0.0
 20
0.0
 30
0.0
  3
*U124
  1

  0
TEXT
  5
1623
  8
0
 62
     0
 10
99.292343027078857
 20
173.4838426515868
 30
0.0
 40
2.5
  1
R31
  0
ENDBLK
  5
1625
  8
0
  0
BLOCK
  8
0
  2
*U125
 70
     1
 10
0.0
 20
0.0
 30
0.0
  3
*U125
  1

  0
TEXT
  5
1627
  8
0
 62
     0
 10
110.62351025867829
 20
151.9732091331434
 30
0.0
 40
2.5
  1
R11
  0
ENDBLK
  5
1629
  8
0
  0
BLOCK
  8
0
  2
*U126
 70
     1
 10
0.0
 20
0.0
 30
0.0
  3
*U126
  1

  0
TEXT
  5
162B
  8
0
 62
     0
 10
202.7917743078516
 20
110.2901376570977
 30
0.0
 40
2.5
  1
180
  0
ENDBLK
  5
162D
  8
0
  0
BLOCK
  8
0
  2
*U127
 70
     1
 10
0.0
 20
0.0
 30
0.0
  3
*U127
  1

  0
TEXT
  5
162F
  8
0
 62
     0
 10
212.95869708673331
 20
94.397145995491528
 30
0.0
 40
2.5
  1
3
  0
ENDBLK
  5
1631
  8
0
  0
BLOCK
  8
0
  2
*U128
 70
     1
 10
0.0
 20
0.0
 30
0.0
  3
*U128
  1

  0
TEXT
  5
1633
  8
0
 62
     0
 10
226.62536375339999
 20
45.308333203215497
 30
0.0
 40
2.5
  1
7
  0
ENDBLK
  5
1635
  8
0
  0
BLOCK
  8
0
  2
*U129
 70
     1
 10
0.0
 20
0.0
 30
0.0
  3
*U129
  1

  0
TEXT
  5
1637
  8
0
 62
     0
 10
202.62518104431661
 20
41.717868308869129
 30
0.0
 40
2.5
  1
162
  0
ENDBLK
  5
1639
  8
0
  0
BLOCK
  8
0
  2
*U130
 70
     1
 10
0.0
 20
0.0
 30
0.0
  3
*U130
  1

  0
TEXT
  5
163B
  8
0
 62
     0
 10
86.280217692996914
 20
149.6355761288163
 30
0.0
 40
2.5
  1
R1980
  0
ENDBLK
  5
163D
  8
0
  0
BLOCK
  8
0
  2
*U131
 70
     1
 10
0.0
 20
0.0
 30
0.0
  3
*U131
  1

  0
TEXT
  5
163F
  8
0
 62
     0
 10
100.2861767821247
 20
147.76596388365201
 30
0.0
 40
2.5
  1
R1994
  0
ENDBLK
  5
1641
  8
0
  0
BLOCK
  8
0
  2
*U132
 70
     1
 10
0.0
 20
0.0
 30
0.0
  3
*U132
  1

  0
TEXT
  5
1643
  8
0
 62
     0
 10
182.003656895343
 20
94.253089343482984
 30
0.0
 40
2.5
  1
11
  0
ENDBLK
  5
1645
  8
0
  0
BLOCK
  8
0
  2
*U133
 70
     1
 10
0.0
 20
0.0
 30
0.0
  3
*U133
  1

  0
TEXT
  5
1647
  8
0
 62
     0
 10
196.90573396507651
 20
42.492988823500028
 30
0.0
 40
2.5
  1
11
  0
ENDBLK
  5
1649
  8
0
  0
BLOCK
  8
0
  2
*U134
 70
     1
 10
0.0
 20
0.0
 30
0.0
  3
*U134
  1

  0
TEXT
  5
164B
  8
0
 62
     0
 10
81.651874058381935
 20
159.01157453370021
 30
0.0
 40
2.5
  1
2
  0
ENDBLK
  5
164D
  8
0
  0
BLOCK
  8
0
  2
*U135
 70
     1
 10
0.0
 20
0.0
 30
0.0
  3
*U135
  1

  0
TEXT
  5
164F
  8
0
 62
     0
 10
113.1016957060076
 20
183.0900130128729
 30
0.0
 40
2.5
  1
R21
  0
ENDBLK
  5
1651
  8
0
  0
BLOCK
  8
0
  2
*U136
 70
     1
 10
0.0
 20
0.0
 30
0.0
  3
*U136
  1

  0
TEXT
  5
1653
  8
0
 62
     0
 10
70.147713908886232
 20
172.560475900542
 30
0.0
 40
2.5
  1
R1577
  0
ENDBLK
  5
1655
  8
0
  0
BLOCK
  8
0
  2
*U137
 70
     1
 10
0.0
 20
0.0
 30
0.0
  3
*U137
  1

  0
TEXT
  5
1657
  8
0
 62
     0
 10
86.861083897751229
 20
172.2011758804708
 30
0.0
 40
2.5
  1
R1580
  0
ENDBLK
  5
1659
  8
0
  0
BLOCK
  8
0
  2
*U138
 70
     1
 10
0.0
 20
0.0
 30
0.0
  3
*U138
  1

  0
TEXT
  5
165B
  8
0
 62
     0
 10
120.03845284363361
 20
153.736837344479
 30
0.0
 40
2.5
  1
R11
  0
ENDBLK
  5
165D
  8
0
  0
BLOCK
  8
0
  2
*U139
 70
     1
 10
0.0
 20
0.0
 30
0.0
  3
*U139
  1

  0
TEXT
  5
165F
  8
0
 62
     0
 10
228.7230443152759
 20
93.469700127344154
 30
0.0
 40
2.5
  1
R3
  0
ENDBLK
  5
1661
  8
0
  0
BLOCK
  8
0
  2
*U140
 70
     1
 10
0.0
 20
0.0
 30
0.0
  3
*U140
  1

  0
TEXT
  5
1663
  8
0
 62
     0
 10
234.1254613609056
 20
100.0560728627365
 30
0.0
 40
2.5
  1
R2
  0
ENDBLK
  5
1665
  8
0
  0
BLOCK
  8
0
  2
*U141
 70
     1
 10
0.0
 20
0.0
 30
0.0
  3
*U141
  1

  0
TEXT
  5
1667
  8
0
 62
     0
 10
218.62544782398049
 20
107.2471471739843
 30
0.0
 40
2.5
  1
58░
  0
ENDBLK
  5
1669
  8
0
  0
BLOCK
  8
0
  2
*U142
 70
     1
 10
0.0
 20
0.0
 30
0.0
  3
*U142
  1

  0
TEXT
  5
166B
  8
0
 62
     0
 10
205.83982800935729
 20
95.533730283582443
 30
0.0
 40
2.5
  1
56░
  0
ENDBLK
  5
166D
  8
0
  0
BLOCK
  8
0
  2
*U143
 70
     1
 10
0.0
 20
0.0
 30
0.0
  3
*U143
  1

  0
TEXT
  5
166F
  8
0
 62
     0
 10
207.0049015232253
 20
91.910587309400029
 30
0.0
 40
2.5
  1
30
  0
ENDBLK
  5
1671
  8
0
  0
BLOCK
  8
0
  2
*U144
 70
     1
 10
0.0
 20
0.0
 30
0.0
  3
*U144
  1

  0
TEXT
  5
1673
  8
0
 62
     0
 10
209.20857481681671
 20
87.928302228451571
 30
0.0
 40
2.5
  1
103
  0
ENDBLK
  5
1675
  8
0
  0
BLOCK
  8
0
  2
*U145
 70
     1
 10
0.0
 20
0.0
 30
0.0
  3
*U145
  1

  0
TEXT
  5
1677
  8
0
 62
     0
 10
200.5808689308495
 20
55.972937741183053
 30
0.0
 40
2.5
  1
R8
  0
ENDBLK
  5
1679
  8
0
  0
BLOCK
  8
0
  2
*U146
 70
     1
 10
0.0
 20
0.0
 30
0.0
  3
*U146
  1

  0
TEXT
  5
167B
  8
0
 62
     0
 10
207.4530972185336
 20
55.610963983072097
 30
0.0
 40
2.5
  1
R8
  0
ENDBLK
  5
167D
  8
0
  0
BLOCK
  8
0
  2
*U147
 70
     1
 10
0.0
 20
0.0
 30
0.0
  3
*U147
  1

  0
TEXT
  5
167F
  8
0
 62
     0
 10
197.73752189583371
 20
99.721897447399044
 30
0.0
 40
2.5
  1
R2
  0
ENDBLK
  5
1681
  8
0
  0
BLOCK
  8
0
  2
*U148
 70
     1
 10
0.0
 20
0.0
 30
0.0
  3
*U148
  1

  0
TEXT
  5
1683
  8
0
 62
     0
 10
201.34485537118169
 20
91.398953717938639
 30
0.0
 40
2.5
  1
R2
  0
ENDBLK
  5
1685
  8
0
  0
BLOCK
  8
0
  2
*U149
 70
     1
 10
0.0
 20
0.0
 30
0.0
  3
*U149
  1

  0
TEXT
  5
1687
  8
0
 62
     0
 10
78.881112297161692
 20
42.15766794465025
 30
0.0
 40
2.5
  1
364
  0
ENDBLK
  5
1689
  8
0
  0
BLOCK
  8
0
  2
*U150
 70
     1
 10
0.0
 20
0.0
 30
0.0
  3
*U150
  1

  0
TEXT
  5
168B
  8
0
 62
     0
 10
150.94052489836889
 20
161.73443881800341
 30
0.0
 40
2.5
  1
R252
  0
ENDBLK
  5
168D
  8
0
  0
BLOCK
  8
0
  2
*U151
 70
     1
 10
0.0
 20
0.0
 30
0.0
  3
*U151
  1

  0
TEXT
  5
168F
  8
0
 62
     0
 10
27.48257364664326
 20
62.462631351540011
 30
0.0
 40
2.5
  1
207
  0
ENDBLK
  5
1691
  8
0
  0
BLOCK
  8
0
  2
*U152
 70
     1
 10
0.0
 20
0.0
 30
0.0
  3
*U152
  1

  0
TEXT
  5
1693
  8
0
 62
     0
 10
23.272132506138199
 20
87.046455553940035
 30
0.0
 40
2.5
  1
88
  0
ENDBLK
  5
1695
  8
0
  0
BLOCK
  8
0
  2
*U153
 70
     1
 10
0.0
 20
0.0
 30
0.0
  3
*U153
  1

  0
TEXT
  5
1697
  8
0
 62
     0
 10
12.24457122871288
 20
54.187716299271102
 30
0.0
 40
2.5
  1
R1600
  0
ENDBLK
  5
1699
  8
0
  0
BLOCK
  8
0
  2
*U154
 70
     1
 10
0.0
 20
0.0
 30
0.0
  3
*U154
  1

  0
TEXT
  5
169B
  8
0
 62
     0
 10
4.6075032106611671
 20
86.27215800210503
 30
0.0
 40
2.5
  1
R3000
  0
ENDBLK
  5
169D
  8
0
  0
BLOCK
  8
0
  2
*U155
 70
     1
 10
0.0
 20
0.0
 30
0.0
  3
*U155
  1

  0
TEXT
  5
169F
  8
0
 62
     0
 10
13.57113099384109
 20
72.218642414547986
 30
0.0
 40
2.5
  1
R1600
  0
ENDBLK
  5
16A1
  8
0
  0
BLOCK
  8
0
  2
*U156
 70
     1
 10
0.0
 20
0.0
 30
0.0
  3
*U156
  1

  0
TEXT
  5
16A3
  8
0
 62
     0
 10
171.54763613000989
 20
79.033454073249175
 30
0.0
 40
2.5
  1
R5500
  0
ENDBLK
  5
16A5
  8
0
  0
BLOCK
  8
0
  2
*U157
 70
     1
 10
0.0
 20
0.0
 30
0.0
  3
*U157
  1

  0
TEXT
  5
16A7
  8
0
 62
     0
 10
88.869117263479637
 20
190.1485945820076
 30
0.0
 40
2.5
  1
R20
  0
ENDBLK
  5
16A9
  8
0
  0
BLOCK
  8
0
  2
*U158
 70
     1
 10
0.0
 20
0.0
 30
0.0
  3
*U158
  1

  0
TEXT
  5
16AB
  8
0
 62
     0
 10
391.1374897573113
 20
192.74713806766269
 30
0.0
 40
2.5
  1
98
  0
ENDBLK
  5
16AD
  8
0
  0
BLOCK
  8
0
  2
*U159
 70
     1
 10
0.0
 20
0.0
 30
0.0
  3
*U159
  1

  0
TEXT
  5
16AF
  8
0
 62
     0
 10
400.209451584205
 20
189.47488135654129
 30
0.0
 40
2.5
  1
R472
  0
ENDBLK
  5
16B1
  8
0
  0
BLOCK
  8
0
  2
*U160
 70
     1
 10
0.0
 20
0.0
 30
0.0
  3
*U160
  1

  0
TEXT
  5
16B3
  8
0
 62
     0
 10
412.33694010502472
 20
193.0540173436857
 30
0.0
 40
2.5
  1
R71
  0
ENDBLK
  5
16B5
  8
0
  0
BLOCK
  8
0
  2
*U161
 70
     1
 10
0.0
 20
0.0
 30
0.0
  3
*U161
  1

  0
TEXT
  5
16B7
  8
0
 62
     0
 10
397.8310754361799
 20
208.67552694585891
 30
0.0
 40
2.5
  1
R378
  0
ENDBLK
  5
16B9
  8
0
  0
BLOCK
  8
0
  2
*U162
 70
     1
 10
0.0
 20
0.0
 30
0.0
  3
*U162
  1

  0
TEXT
  5
16BB
  8
0
 62
     0
 10
407.41730496806548
 20
205.99950431754269
 30
0.0
 40
2.5
  1
R8
  0
ENDBLK
  5
16BD
  8
0
  0
BLOCK
  8
0
  2
*U163
 70
     1
 10
0.0
 20
0.0
 30
0.0
  3
*U163
  1

  0
TEXT
  5
16BF
  8
0
 62
     0
 10
405.9419776578643
 20
190.64464397928069
 30
0.0
 40
2.5
  1
R3
  0
ENDBLK
  5
16C1
  8
0
  0
BLOCK
  8
0
  2
*U164
 70
     1
 10
0.0
 20
0.0
 30
0.0
  3
*U164
  1

  0
TEXT
  5
16C3
  8
0
 62
     0
 10
408.30455486844551
 20
204.2509682755699
 30
0.0
 40
2.5
  1
R7
  0
ENDBLK
  5
16C5
  8
0
  0
BLOCK
  8
0
  2
*U165
 70
     1
 10
0.0
 20
0.0
 30
0.0
  3
*U165
  1

  0
TEXT
  5
16C7
  8
0
 62
     0
 10
403.82774303934389
 20
207.6385950186054
 30
0.0
 40
2.5
  1
R5
  0
ENDBLK
  5
16C9
  8
0
  0
BLOCK
  8
0
  2
*U166
 70
     1
 10
0.0
 20
0.0
 30
0.0
  3
*U166
  1

  0
TEXT
  5
16CB
  8
0
 62
     0
 10
399.54109214794948
 20
195.70880807261599
 30
0.0
 40
2.5
  1
R7
  0
ENDBLK
  5
16CD
  8
0
  0
BLOCK
  8
0
  2
*U167
 70
     1
 10
0.0
 20
0.0
 30
0.0
  3
*U167
  1

  0
TEXT
  5
16CF
  8
0
 62
     0
 10
404.41686422052879
 20
191.40948198681031
 30
0.0
 40
2.5
  1
R3
  0
ENDBLK
  5
16D1
  8
0
  0
BLOCK
  8
0
  2
*U168
 70
     1
 10
0.0
 20
0.0
 30
0.0
  3
*U168
  1

  0
TEXT
  5
16D3
  8
0
 62
     0
 10
420.971516613809
 20
186.4369133015154
 30
0.0
 40
2.5
  1
43
  0
ENDBLK
  5
16D5
  8
0
  0
BLOCK
  8
0
  2
*U169
 70
     1
 10
0.0
 20
0.0
 30
0.0
  3
*U169
  1

  0
TEXT
  5
16D7
  8
0
 62
     0
 10
419.23010044596981
 20
182.68267081121081
 30
0.0
 40
2.5
  1
1
  0
ENDBLK
  5
16D9
  8
0
  0
BLOCK
  8
0
  2
*U170
 70
     1
 10
0.0
 20
0.0
 30
0.0
  3
*U170
  1

  0
TEXT
  5
16DB
  8
0
 62
     0
 10
432.48010044596992
 20
171.0869114534193
 30
0.0
 40
2.5
  1
2
  0
ENDBLK
  5
16DD
  8
0
  0
BLOCK
  8
0
  2
*U171
 70
     1
 10
0.0
 20
0.0
 30
0.0
  3
*U171
  1

  0
TEXT
  5
16DF
  8
0
 62
     0
 10
420.93216395309679
 20
170.23877183607681
 30
0.0
 40
2.5
  1
38
  0
ENDBLK
  5
16E1
  8
0
  0
BLOCK
  8
0
  2
*U172
 70
     1
 10
0.0
 20
0.0
 30
0.0
  3
*U172
  1

  0
TEXT
  5
16E3
  8
0
 62
     0
 10
395.76145611404581
 20
190.00370423451699
 30
0.0
 40
2.5
  1
R468
  0
ENDBLK
  5
16E5
  8
0
  0
BLOCK
  8
0
  2
*U173
 70
     1
 10
0.0
 20
0.0
 30
0.0
  3
*U173
  1

  0
TEXT
  5
16E7
  8
0
 62
     0
 10
399.25256287669379
 20
189.5710115037129
 30
0.0
 40
2.5
  1
R471
  0
ENDBLK
  5
16E9
  8
0
  0
BLOCK
  8
0
  2
*U174
 70
     1
 10
0.0
 20
0.0
 30
0.0
  3
*U174
  1

  0
TEXT
  5
16EB
  8
0
 62
     0
 10
411.84572168529297
 20
182.6486417488733
 30
0.0
 40
2.5
  1
3
  0
ENDBLK
  5
16ED
  8
0
  0
BLOCK
  8
0
  2
*U175
 70
     1
 10
0.0
 20
0.0
 30
0.0
  3
*U175
  1

  0
TEXT
  5
16EF
  8
0
 62
     0
 10
419.18479033070543
 20
166.602970804043
 30
0.0
 40
2.5
  1
3
  0
ENDBLK
  5
16F1
  8
0
  0
BLOCK
  8
0
  2
*U176
 70
     1
 10
0.0
 20
0.0
 30
0.0
  3
*U176
  1

  0
TEXT
  5
16F3
  8
0
 62
     0
 10
394.41556271021261
 20
201.76479112050649
 30
0.0
 40
2.5
  1
0
  0
ENDBLK
  5
16F5
  8
0
  0
BLOCK
  8
0
  2
*U177
 70
     1
 10
0.0
 20
0.0
 30
0.0
  3
*U177
  1

  0
TEXT
  5
16F7
  8
0
 62
     0
 10
403.3002700148744
 20
207.18419078213211
 30
0.0
 40
2.5
  1
R5
  0
ENDBLK
  5
16F9
  8
0
  0
BLOCK
  8
0
  2
*U178
 70
     1
 10
0.0
 20
0.0
 30
0.0
  3
*U178
  1

  0
TEXT
  5
16FB
  8
0
 62
     0
 10
381.67521000250201
 20
195.609776674306
 30
0.0
 40
2.5
  1
R373
  0
ENDBLK
  5
16FD
  8
0
  0
BLOCK
  8
0
  2
*U179
 70
     1
 10
0.0
 20
0.0
 30
0.0
  3
*U179
  1

  0
TEXT
  5
16FF
  8
0
 62
     0
 10
385.33020780407139
 20
195.5376031030018
 30
0.0
 40
2.5
  1
R373
  0
ENDBLK
  5
1701
  8
0
  0
BLOCK
  8
0
  2
*U180
 70
     1
 10
0.0
 20
0.0
 30
0.0
  3
*U180
  1

  0
TEXT
  5
1703
  8
0
 62
     0
 10
408.24001245992417
 20
193.2984412646978
 30
0.0
 40
2.5
  1
R3
  0
ENDBLK
  5
1705
  8
0
  0
BLOCK
  8
0
  2
*U181
 70
     1
 10
0.0
 20
0.0
 30
0.0
  3
*U181
  1

  0
TEXT
  5
1707
  8
0
 62
     0
 10
434.23895801161052
 20
179.8207132548589
 30
0.0
 40
2.5
  1
R1
  0
ENDBLK
  5
1709
  8
0
  0
BLOCK
  8
0
  2
*U182
 70
     1
 10
0.0
 20
0.0
 30
0.0
  3
*U182
  1

  0
TEXT
  5
170B
  8
0
 62
     0
 10
432.34331023902502
 20
184.64864053505431
 30
0.0
 40
2.5
  1
R0
  0
ENDBLK
  5
170D
  8
0
  0
BLOCK
  8
0
  2
*U183
 70
     1
 10
0.0
 20
0.0
 30
0.0
  3
*U183
  1

  0
TEXT
  5
170F
  8
0
 62
     0
 10
430.67141830591322
 20
181.59443755239451
 30
0.0
 40
2.5
  1
58░
  0
ENDBLK
  5
1711
  8
0
  0
BLOCK
  8
0
  2
*U184
 70
     1
 10
0.0
 20
0.0
 30
0.0
  3
*U184
  1

  0
TEXT
  5
1713
  8
0
 62
     0
 10
422.52330895048499
 20
183.53231899922011
 30
0.0
 40
2.5
  1
56░
  0
ENDBLK
  5
1715
  8
0
  0
BLOCK
  8
0
  2
*U185
 70
     1
 10
0.0
 20
0.0
 30
0.0
  3
*U185
  1

  0
TEXT
  5
1717
  8
0
 62
     0
 10
424.75479985795789
 20
188.21735271022479
 30
0.0
 40
2.5
  1
7
  0
ENDBLK
  5
1719
  8
0
  0
BLOCK
  8
0
  2
*U186
 70
     1
 10
0.0
 20
0.0
 30
0.0
  3
*U186
  1

  0
TEXT
  5
171B
  8
0
 62
     0
 10
432.59821280434312
 20
181.15460053656059
 30
0.0
 40
2.5
  1
24
  0
ENDBLK
  5
171D
  8
0
  0
BLOCK
  8
0
  2
*U187
 70
     1
 10
0.0
 20
0.0
 30
0.0
  3
*U187
  1

  0
TEXT
  5
171F
  8
0
 62
     0
 10
425.9005779093398
 20
178.07389866255161
 30
0.0
 40
2.5
  1
R2
  0
ENDBLK
  5
1721
  8
0
  0
BLOCK
  8
0
  2
*U188
 70
     1
 10
0.0
 20
0.0
 30
0.0
  3
*U188
  1

  0
TEXT
  5
1723
  8
0
 62
     0
 10
416.00759867246609
 20
178.1198880164562
 30
0.0
 40
2.5
  1
R2
  0
ENDBLK
  5
1725
  8
0
  0
BLOCK
  8
0
  2
*U189
 70
     1
 10
0.0
 20
0.0
 30
0.0
  3
*U189
  1

  0
TEXT
  5
1727
  8
0
 62
     0
 10
424.78278481116331
 20
186.37116282865361
 30
0.0
 40
2.5
  1
R0
  0
ENDBLK
  5
1729
  8
0
  0
BLOCK
  8
0
  2
*U190
 70
     1
 10
0.0
 20
0.0
 30
0.0
  3
*U190
  1

  0
TEXT
  5
172B
  8
0
 62
     0
 10
427.2379462617144
 20
178.49233025233201
 30
0.0
 40
2.5
  1
R0
  0
ENDBLK
  5
172D
  8
0
  0
BLOCK
  8
0
  2
*U191
 70
     1
 10
0.0
 20
0.0
 30
0.0
  3
*U191
  1

  0
TEXT
  5
172F
  8
0
 62
     0
 10
391.70134003364387
 20
170.34266130604101
 30
0.0
 40
2.5
  1
86
  0
ENDBLK
  5
1731
  8
0
  0
BLOCK
  8
0
  2
*U192
 70
     1
 10
0.0
 20
0.0
 30
0.0
  3
*U192
  1

  0
TEXT
  5
1733
  8
0
 62
     0
 10
410.78292781163441
 20
198.5890861217446
 30
0.0
 40
2.5
  1
R59
  0
ENDBLK
  5
1735
  8
0
  0
BLOCK
  8
0
  2
*U193
 70
     1
 10
0.0
 20
0.0
 30
0.0
  3
*U193
  1

  0
TEXT
  5
1737
  8
0
 62
     0
 10
376.47664390028513
 20
169.102970804043
 30
0.0
 40
2.5
  1
49
  0
ENDBLK
  5
1739
  8
0
  0
BLOCK
  8
0
  2
*U194
 70
     1
 10
0.0
 20
0.0
 30
0.0
  3
*U194
  1

  0
TEXT
  5
173B
  8
0
 62
     0
 10
381.35344516074161
 20
188.21735271022479
 30
0.0
 40
2.5
  1
21
  0
ENDBLK
  5
173D
  8
0
  0
BLOCK
  8
0
  2
*U195
 70
     1
 10
0.0
 20
0.0
 30
0.0
  3
*U195
  1

  0
TEXT
  5
173F
  8
0
 62
     0
 10
367.00367597855319
 20
172.64325709473391
 30
0.0
 40
2.5
  1
R378
  0
ENDBLK
  5
1741
  8
0
  0
BLOCK
  8
0
  2
*U196
 70
     1
 10
0.0
 20
0.0
 30
0.0
  3
*U196
  1

  0
TEXT
  5
1743
  8
0
 62
     0
 10
365.9672750854026
 20
180.58637061262991
 30
0.0
 40
2.5
  1
R709
  0
ENDBLK
  5
1745
  8
0
  0
BLOCK
  8
0
  2
*U197
 70
     1
 10
0.0
 20
0.0
 30
0.0
  3
*U197
  1

  0
TEXT
  5
1747
  8
0
 62
     0
 10
367.85846271000469
 20
177.15192977639501
 30
0.0
 40
2.5
  1
R378
  0
ENDBLK
  5
1749
  8
0
  0
BLOCK
  8
0
  2
*U198
 70
     1
 10
0.0
 20
0.0
 30
0.0
  3
*U198
  1

  0
TEXT
  5
174B
  8
0
 62
     0
 10
399.38671194404202
 20
178.94253990239329
 30
0.0
 40
2.5
  1
R1299
  0
ENDBLK
  5
174D
  8
0
  0
BLOCK
  8
0
  2
*U199
 70
     1
 10
0.0
 20
0.0
 30
0.0
  3
*U199
  1

  0
TEXT
  5
174F
  8
0
 62
     0
 10
398.57438003301138
 20
211.01833591929429
 30
0.0
 40
2.5
  1
R5
  0
ENDBLK
  5
1751
  8
0
  0
ENDSEC
  0
SECTION
  2
ENTITIES
  0
ARC
  5
1A7
  8
0
  6
CONTINUOUS
 62
     7
 10
368.6971048833127
 20
83.089890512192582
 30
0.0
 40
21.850701280327058
 50
31.953382072564899
 51
41.94106426571269
  0
LINE
  5
1AC
  8
0
  6
CONTINUOUS
 62
     7
 10
376.79039990340749
 20
91.150586521377775
 30
0.0
 11
376.79039990340749
 21
94.930181989155031
 31
0.0
  0
LINE
  5
1B2
  8
0
  6
CONTINUOUS
 62
     7
 10
380.53062458506213
 20
91.859260671586014
 30
0.0
 11
380.54444373099108
 21
91.859260671586014
 31
0.0
  0
ARC
  5
1B6
  8
0
  6
CONTINUOUS
 62
     7
 10
386.39687171734141
 20
94.514977678705264
 30
0.0
 40
2.3228797244160111
 50
359.518322025602
 51
27.443241728200309
  0
LINE
  5
1B7
  8
0
  6
CONTINUOUS
 62
     7
 10
388.71974809857937
 20
130.10353706438119
 30
0.0
 11
388.71974809857937
 21
132.4515320071655
 31
0.0
  0
LINE
  5
1B8
  8
0
  6
CONTINUOUS
 62
     7
 10
387.56575098653758
 20
97.304279763138737
 30
0.0
 11
388.45832607872478
 21
95.585508724167042
 31
0.0
  0
ARC
  5
1B9
  8
0
  6
CONTINUOUS
 62
     7
 10
404.86114047630008
 20
106.28609468445011
 30
0.0
 40
19.488532736154141
 50
197.4486302439779
 51
207.4436849047847
  0
ARC
  5
1BC
  8
0
  6
CONTINUOUS
 62
     7
 10
424.8931856618961
 20
95.249912143257305
 30
0.0
 40
2.362233999436572
 50
134.61561336653199
 51
183.9996195290116
  0
CIRCLE
  5
1C4
  8
0
  6
CONTINUOUS
 62
     7
 10
385.17637734753828
 20
134.03348956436091
 30
0.0
 40
0.275595502858758
  0
CIRCLE
  5
1C5
  8
0
  6
CONTINUOUS
 62
     7
 10
385.17637734753828
 20
128.52157950718581
 30
0.0
 40
0.275595502858758
  0
LINE
  5
1CA
  8
0
  6
CONTINUOUS
 62
     7
 10
376.59354597279412
 20
88.47337306503556
 30
0.0
 11
400.25538843252463
 21
88.47337306503556
 31
0.0
  0
ARC
  5
1D2
  8
0
  6
CONTINUOUS
 62
     7
 10
388.32604023735269
 20
95.875080856099345
 30
0.0
 40
3.8583277768288302
 50
213.0777648247676
 51
258.95768945477982
  0
ARC
  5
1E8
  8
0
  6
CONTINUOUS
 62
     7
 10
388.91660202919292
 20
132.4515320071655
 30
0.0
 40
0.1968408590784132
 50
87.27150863542748
 51
180.0
  0
ARC
  5
1E9
  8
0
  6
CONTINUOUS
 62
     7
 10
388.91660202919292
 20
130.10353706438119
 30
0.0
 40
0.1968408590784154
 50
180.0
 51
272.72849136457251
  0
ARC
  5
1EA
  8
0
  6
CONTINUOUS
 62
     7
 10
391.54558627253482
 20
130.57122263273251
 30
0.0
 40
0.118113152342892
 50
290.77287044128929
 51
0.0
  0
ARC
  5
1EB
  8
0
  6
CONTINUOUS
 62
     7
 10
391.54558627253482
 20
131.9838464388142
 30
0.0
 40
0.1181131523428957
 50
0.0
 51
69.227129558710686
  0
LINE
  5
1EC
  8
0
  6
CONTINUOUS
 62
     7
 10
391.6636986309029
 20
131.9838464388142
 30
0.0
 11
391.6636986309029
 21
130.57122263273251
 31
0.0
  0
LINE
  5
1ED
  8
0
  6
CONTINUOUS
 62
     7
 10
391.6320445188602
 20
130.6869727439331
 30
0.0
 11
391.6320445188602
 21
131.8776240578552
 31
0.0
  0
LINE
  5
1F5
  8
0
  6
CONTINUOUS
 62
     7
 10
388.71974809857937
 20
132.36023115414699
 30
0.0
 11
388.97270539941769
 21
132.36023115414699
 31
0.0
  0
LINE
  5
1F6
  8
0
  6
CONTINUOUS
 62
     7
 10
388.71974809857937
 20
130.19483791739961
 30
0.0
 11
388.97270539941769
 21
130.19483791739961
 31
0.0
  0
ARC
  5
1FC
  8
0
  6
CONTINUOUS
 62
     7
 10
388.5139176287301
 20
123.9963800918172
 30
0.0
 40
8.6615687395041832
 50
69.215737926552066
 51
87.27325543864184
  0
ARC
  5
1FD
  8
0
  6
CONTINUOUS
 62
     7
 10
388.97270539941769
 20
123.69865820715749
 30
0.0
 40
8.6615874985093448
 50
73.239817259523321
 51
90.0
  0
ARC
  5
1FE
  8
0
  6
CONTINUOUS
 62
     7
 10
388.97270539941769
 20
138.85641086438909
 30
0.0
 40
8.6615874985092525
 50
270.0
 51
286.76018274047669
  0
ARC
  5
1FF
  8
0
  6
CONTINUOUS
 62
     7
 10
388.5139176287301
 20
138.5586889797296
 30
0.0
 40
8.6615687395042578
 50
272.72674456135809
 51
290.78426207344802
  0
ARC
  5
201
  8
0
  6
CONTINUOUS
 62
     7
 10
388.52289416796611
 20
101.1507661965384
 30
0.0
 40
2.362247167360783
 50
180.0
 51
197.4486460225495
  0
ARC
  5
208
  8
0
  6
CONTINUOUS
 62
     7
 10
383.68028747487648
 20
88.00092363156341
 30
0.0
 40
1.8504329325345981
 50
51.927538017457643
 51
90.0
  0
ARC
  5
20B
  8
0
  6
CONTINUOUS
 62
     7
 10
383.68028747487648
 20
89.378901145857185
 30
0.0
 40
0.4724494334721565
 50
90.0
 51
120.00072778083511
  0
LINE
  5
20C
  8
0
  6
CONTINUOUS
 62
     7
 10
382.87176901106108
 20
89.457642718102534
 30
0.0
 11
384.82137096907007
 21
89.457642718102534
 31
0.0
  0
LINE
  5
20D
  8
0
  6
CONTINUOUS
 62
     7
 10
382.87176901106108
 20
89.457642718102534
 30
0.0
 11
383.44406275814038
 21
89.788042355244073
 31
0.0
  0
LINE
  5
210
  8
0
  6
CONTINUOUS
 62
     7
 10
391.55446931541752
 20
131.869195767077
 30
0.0
 11
391.6031463618462
 21
131.89502594532149
 31
0.0
  0
ARC
  5
211
  8
0
  6
CONTINUOUS
 62
     7
 10
391.61235912579889
 20
131.8776240578552
 30
0.0
 40
0.0196901169888664
 50
0.0
 51
117.89727103099921
  0
ARC
  5
212
  8
0
  6
CONTINUOUS
 62
     7
 10
391.61235912579889
 20
130.67744501369151
 30
0.0
 40
0.0196901169888722
 50
242.10272896907389
 51
0.0
  0
LINE
  5
213
  8
0
  6
CONTINUOUS
 62
     7
 10
391.55446931541752
 20
130.68587330446979
 30
0.0
 11
391.6031463618462
 21
130.66004312622519
 31
0.0
  0
ARC
  5
216
  8
0
  6
CONTINUOUS
 62
     7
 10
381.4361526658837
 20
94.930181989155031
 30
0.0
 40
4.6457718681118383
 50
166.91792858399481
 51
180.0
  0
LINE
  5
217
  8
0
  6
CONTINUOUS
 62
     7
 10
376.59354597279412
 20
88.47337306503556
 30
0.0
 11
376.79039990340749
 21
91.150586521377775
 31
0.0
  0
ARC
  5
21B
  8
0
  6
CONTINUOUS
 62
     7
 10
393.04151866205211
 20
124.6829278602245
 30
0.0
 40
13.582908764821079
 50
48.111378716859498
 51
96.11328239987688
  0
ARC
  5
21C
  8
0
  6
CONTINUOUS
 62
     7
 10
398.9561524904762
 20
131.2775345357733
 30
0.0
 40
4.7244903047917983
 50
312.1939405140651
 51
48.111342672210611
  0
ARC
  5
21D
  8
0
  6
CONTINUOUS
 62
     7
 10
393.04151866205211
 20
137.8721412113222
 30
0.0
 40
13.58290876482107
 50
265.184765399068
 51
311.88862128314059
  0
LINE
  5
21F
  8
0
  6
CONTINUOUS
 62
     7
 10
400.30468065675018
 20
98.194531978944781
 30
0.0
 11
400.23156910692029
 21
98.152090271504534
 31
0.0
  0
ARC
  5
220
  8
0
  6
CONTINUOUS
 62
     7
 10
397.50675637015581
 20
103.9443990674454
 30
0.0
 40
6.2993141171298701
 50
316.32772209724237
 51
348.2487430631578
  0
ARC
  5
221
  8
0
  6
CONTINUOUS
 62
     7
 10
403.3656805362163
 20
102.7255976414456
 30
0.0
 40
0.3149662889814398
 50
347.59160219865191
 51
90.0
  0
LINE
  5
222
  8
0
  6
CONTINUOUS
 62
     7
 10
400.25538843252463
 20
88.47337306503556
 30
0.0
 11
399.21544848788022
 21
95.860749889950696
 31
0.0
  0
ARC
  5
223
  8
0
  6
CONTINUOUS
 62
     7
 10
401.554624374573
 20
96.190047145080797
 30
0.0
 40
2.362266756214197
 50
120.98046084048811
 51
188.01315085684729
  0
ARC
  5
22A
  8
0
  6
CONTINUOUS
 62
     7
 10
392.75525367615421
 20
131.2775345357733
 30
0.0
 40
5.413492772491864
 50
92.110208037695756
 51
267.88979196230417
  0
ARC
  5
22C
  8
0
  6
CONTINUOUS
 62
     7
 10
396.08291189002898
 20
105.3037541999032
 30
0.0
 40
8.2678616729711631
 50
300.9797123574744
 51
316.32763575948809
  0
ARC
  5
22D
  8
0
  6
CONTINUOUS
 62
     7
 10
381.4361526658837
 20
94.536474127928244
 30
0.0
 40
4.7244991274561654
 50
41.941075952008497
 51
90.0
  0
ARC
  5
232
  8
0
  6
CONTINUOUS
 62
     7
 10
381.4361526658837
 20
94.930181989155031
 30
0.0
 40
4.330786473494765
 50
90.0
 51
104.117347017074
  0
ARC
  5
239
  8
0
  6
CONTINUOUS
 62
     7
 10
392.99805331417269
 20
124.6874161298425
 30
0.0
 40
12.00808239339587
 50
48.067930730158942
 51
92.110090066210645
  0
LINE
  5
23B
  8
0
  6
CONTINUOUS
 62
     7
 10
425.262877343588
 20
103.040563930427
 30
0.0
 11
411.9949215059026
 21
103.040563930427
 31
0.0
  0
LINE
  5
23C
  8
0
  6
CONTINUOUS
 62
     7
 10
413.94377575659701
 20
88.47337306503556
 30
0.0
 11
423.23528243499049
 21
88.47337306503556
 31
0.0
  0
ARC
  5
253
  8
0
  6
CONTINUOUS
 62
     7
 10
421.11244844132131
 20
95.954806697997739
 30
0.0
 40
2.3622377331173161
 50
309.73948843153983
 51
341.13231593150778
  0
ARC
  5
254
  8
0
  6
CONTINUOUS
 62
     7
 10
422.97519844514358
 20
95.318220457180161
 30
0.0
 40
0.3937218868195252
 50
341.13202993988028
 51
353.7711677136158
  0
ARC
  5
255
  8
0
  6
CONTINUOUS
 62
     7
 10
423.11716949990199
 20
96.618519410453914
 30
0.0
 40
0.3937015618506312
 50
352.34810510449569
 51
63.127461008346209
  0
LINE
  5
256
  8
0
  6
CONTINUOUS
 62
     7
 10
423.50855448474749
 20
96.57580210751081
 30
0.0
 11
423.36658342998908
 21
95.275503154237057
 31
0.0
  0
LINE
  5
258
  8
0
  6
CONTINUOUS
 62
     7
 10
387.64126415432088
 20
94.300249411192155
 30
0.0
 11
388.52281542639389
 21
94.300249411192155
 31
0.0
  0
ARC
  5
25B
  8
0
  6
CONTINUOUS
 62
     7
 10
388.2391489123799
 20
95.279007154201935
 30
0.0
 40
1.1811511120693849
 50
211.95295108106461
 51
232.59687436319911
  0
ARC
  5
25C
  8
0
  6
CONTINUOUS
 62
     7
 10
387.64126415432088
 20
94.497103341805555
 30
0.0
 40
0.1968545329855021
 50
232.5983915154583
 51
270.0
  0
ARC
  5
261
  8
0
  6
CONTINUOUS
 62
     7
 10
388.52281542639389
 20
94.497103341805555
 30
0.0
 40
0.196860875497565
 50
270.0
 51
359.51872677142768
  0
LINE
  5
266
  8
0
  6
CONTINUOUS
 62
     7
 10
376.75102911728482
 20
102.5287437108322
 30
0.0
 11
376.75102911728482
 21
101.5232199008444
 31
0.0
  0
LINE
  5
273
  8
0
  6
CONTINUOUS
 62
     7
 10
391.55446931541752
 20
131.869195767077
 30
0.0
 11
391.55446931541752
 21
131.8792076063599
 31
0.0
  0
ARC
  5
274
  8
0
  6
CONTINUOUS
 62
     7
 10
391.4363569570495
 20
131.8792076063599
 30
0.0
 40
0.1181123583680391
 50
0.0
 51
73.239817259523321
  0
LINE
  5
275
  8
0
  6
CONTINUOUS
 62
     7
 10
391.55446931541752
 20
130.67586146518681
 30
0.0
 11
391.55446931541752
 21
130.68587330446979
 31
0.0
  0
ARC
  5
276
  8
0
  6
CONTINUOUS
 62
     7
 10
391.4363569570495
 20
130.67586146518681
 30
0.0
 40
0.1181123583680391
 50
286.76018274047669
 51
0.0
  0
ARC
  5
277
  8
0
  6
CONTINUOUS
 62
     7
 10
365.3477806374695
 20
98.393927367435793
 30
0.0
 40
11.81123583680391
 50
347.849967646881
 51
14.85629029587278
  0
ARC
  5
279
  8
0
  6
CONTINUOUS
 62
     7
 10
377.14473697851162
 20
101.5232199008444
 30
0.0
 40
0.3937078612267971
 50
180.0
 51
194.85629029587281
  0
ARC
  5
29E
  8
0
  6
CONTINUOUS
 62
     7
 10
403.36568128475147
 20
102.72559675233479
 30
0.0
 40
0.3149662889814398
 50
347.59160219865191
 51
90.0
  0
LINE
  5
29F
  8
0
  6
CONTINUOUS
 62
     7
 10
382.13399658400522
 20
103.0405630413163
 30
0.0
 11
403.36568128475147
 21
103.0405630413163
 31
0.0
  0
ARC
  5
2A0
  8
0
  6
CONTINUOUS
 62
     7
 10
387.02680504383937
 20
102.72559675233479
 30
0.0
 40
0.3149662889814377
 50
0.0
 51
90.0
  0
LINE
  5
2A9
  8
0
  6
CONTINUOUS
 62
     7
 10
387.34177133282083
 20
101.8626979043644
 30
0.0
 11
387.34177133282083
 21
102.72559675233479
 31
0.0
  0
LINE
  5
2AE
  8
0
  6
CONTINUOUS
 62
     7
 10
377.22347929929219
 20
102.6468551800894
 30
0.0
 11
383.87714215402502
 21
102.6468551800894
 31
0.0
  0
ARC
  5
2AF
  8
0
  6
CONTINUOUS
 62
     7
 10
397.50675711869098
 20
103.94439817833459
 30
0.0
 40
6.2993141171298754
 50
336.83604777101101
 51
348.2487430631578
  0
LINE
  5
2B2
  8
0
  6
CONTINUOUS
 62
     7
 10
377.09994376425891
 20
103.0405630413163
 30
0.0
 11
381.4470175626837
 21
103.0405630413163
 31
0.0
  0
LINE
  5
2B4
  8
0
  6
CONTINUOUS
 62
     7
 10
376.75102986581999
 20
102.450001249476
 30
0.0
 11
376.75102986581999
 21
102.58779900090541
 31
0.0
  0
LINE
  5
2B6
  8
0
  6
CONTINUOUS
 62
     7
 10
376.63291811300837
 20
102.7059113592734
 30
0.0
 11
376.63291811300837
 21
103.03775442017459
 31
0.0
  0
ARC
  5
2B7
  8
0
  6
CONTINUOUS
 62
     7
 10
376.71165968525389
 20
103.03775442017459
 30
0.0
 40
0.0787415722453613
 50
175.91438322000741
 51
180.0
  0
ARC
  5
2B8
  8
0
  6
CONTINUOUS
 62
     7
 10
376.69197429219241
 20
102.7059113592734
 30
0.0
 40
0.0590561791840196
 50
180.0
 51
270.0
  0
ARC
  5
2B9
  8
0
  6
CONTINUOUS
 62
     7
 10
376.691973686636
 20
102.58779900090541
 30
0.0
 40
0.0590561791840196
 50
0.0
 51
90.0
  0
LINE
  5
2BA
  8
0
  6
CONTINUOUS
 62
     7
 10
377.03235068015073
 20
103.47364168866569
 30
0.0
 11
379.88606226284611
 21
103.47364168866569
 31
0.0
  0
LINE
  5
2BB
  8
0
  6
CONTINUOUS
 62
     7
 10
383.9952545123931
 20
102.52874282172139
 30
0.0
 11
383.9952545123931
 21
102.4793665798136
 31
0.0
  0
ARC
  5
2BC
  8
0
  6
CONTINUOUS
 62
     7
 10
383.87714215402502
 20
102.52874282172139
 30
0.0
 40
0.1181123583680391
 50
0.0
 51
90.0
  0
CIRCLE
  5
2BE
  8
0
  6
CONTINUOUS
 62
     7
 10
385.17637809607351
 20
134.03348956436091
 30
0.0
 40
0.275595502858758
  0
CIRCLE
  5
2BF
  8
0
  6
CONTINUOUS
 62
     7
 10
385.17637809607351
 20
128.52157950718581
 30
0.0
 40
0.275595502858758
  0
ARC
  5
2C1
  8
0
  6
CONTINUOUS
 62
     7
 10
399.03250491156342
 20
131.27858634201129
 30
0.0
 40
3.0733139777986178
 50
312.51056245779029
 51
49.647423596452001
  0
ARC
  5
2C2
  8
0
  6
CONTINUOUS
 62
     7
 10
392.99805406270792
 20
137.86769231249031
 30
0.0
 40
12.00812848039072
 50
267.88991685049399
 51
312.49091018839562
  0
LINE
  5
2CB
  8
0
  6
CONTINUOUS
 62
     7
 10
412.37871024912738
 20
103.1479828983134
 30
0.0
 11
412.40603268070163
 21
103.44852964562941
 31
0.0
  0
LINE
  5
2CC
  8
0
  6
CONTINUOUS
 62
     7
 10
414.2134513799283
 20
103.4736425777765
 30
0.0
 11
422.96560681165931
 21
103.4736425777765
 31
0.0
  0
LINE
  5
2CE
  8
0
  6
CONTINUOUS
 62
     7
 10
376.63311497322758
 20
103.0433645249085
 30
0.0
 11
376.66183830087778
 21
103.4454911120108
 31
0.0
  0
ARC
  5
2CF
  8
0
  6
CONTINUOUS
 62
     7
 10
376.81892123342681
 20
103.43427090254301
 30
0.0
 40
0.1574831444907184
 50
90.0
 51
175.91438322000741
  0
LINE
  5
2D0
  8
0
  6
CONTINUOUS
 62
     7
 10
376.81892123342681
 20
103.5917540470338
 30
0.0
 11
376.8406163623136
 21
103.5917540470338
 31
0.0
  0
ARC
  5
2D1
  8
0
  6
CONTINUOUS
 62
     7
 10
377.04519296800879
 20
103.5523832609111
 30
0.0
 40
0.0787415722453595
 50
210.0000000000303
 51
270.0
  0
ARC
  5
2D2
  8
0
  6
CONTINUOUS
 62
     7
 10
376.8297687978702
 20
103.29544781089911
 30
0.0
 40
0.1781938777665817
 50
4.0856167799925576
 51
175.91438322000741
  0
ARC
  5
2D3
  8
0
  6
CONTINUOUS
 62
     7
 10
376.8406163623136
 20
103.43427090254301
 30
0.0
 40
0.1574831444907225
 50
4.0856167799512999
 51
90.0
  0
LINE
  5
2D4
  8
0
  6
CONTINUOUS
 62
     7
 10
377.01878721410731
 20
103.1502602425834
 30
0.0
 11
376.99769929486251
 21
103.4454911120108
 31
0.0
  0
ARC
  5
2D5
  8
0
  6
CONTINUOUS
 62
     7
 10
377.13659941351909
 20
103.1586753996843
 30
0.0
 40
0.1181123583680391
 50
184.08561677999251
 51
270.0
  0
ARC
  5
2D6
  8
0
  6
CONTINUOUS
 62
     7
 10
381.79050707334449
 20
103.29544781089911
 30
0.0
 40
0.1781938777665817
 50
4.0856167799925576
 51
175.91438322000741
  0
LINE
  5
2D7
  8
0
  6
CONTINUOUS
 62
     7
 10
381.97691365145619
 20
103.18682597633919
 30
0.0
 11
381.96824810697939
 21
103.30814359901591
 31
0.0
  0
LINE
  5
2D8
  8
0
  6
CONTINUOUS
 62
     7
 10
381.60410049523267
 20
103.18682597633919
 30
0.0
 11
381.61276603970958
 21
103.30814359901591
 31
0.0
  0
ARC
  5
2D9
  8
0
  6
CONTINUOUS
 62
     7
 10
412.26108295382869
 20
103.15867628879511
 30
0.0
 40
0.1181123583680392
 50
270.0
 51
354.80557109226902
  0
LINE
  5
2DA
  8
0
  6
CONTINUOUS
 62
     7
 10
386.16064700060519
 20
101.4657315964091
 30
0.0
 11
387.1443816963461
 21
101.6296872751259
 31
0.0
  0
ARC
  5
2DB
  8
0
  6
CONTINUOUS
 62
     7
 10
387.10554661608472
 20
101.8626979043644
 30
0.0
 40
0.2362247167360788
 50
279.46231631974717
 51
0.0
  0
LINE
  5
2DC
  8
0
  6
CONTINUOUS
 62
     7
 10
385.76693988791362
 20
101.4657315964091
 30
0.0
 11
384.12772470450022
 21
102.2671470816141
 31
0.0
  0
ARC
  5
2DD
  8
0
  6
CONTINUOUS
 62
     7
 10
384.23147922912909
 20
102.4793665798136
 30
0.0
 40
0.23622471673608
 50
180.0
 51
243.94590111348589
  0
LINE
  5
2DF
  8
0
  6
CONTINUOUS
 62
     7
 10
402.81710667489722
 20
101.6771372391491
 30
0.0
 11
386.16064700060519
 21
101.4657315964091
 31
0.0
  0
LINE
  5
2E0
  8
0
  6
CONTINUOUS
 62
     7
 10
401.83021522401822
 20
101.8594305706784
 30
0.0
 11
387.34177133282083
 21
101.6625855270225
 31
0.0
  0
ARC
  5
2E5
  8
0
  6
CONTINUOUS
 62
     7
 10
387.64736662616991
 20
92.397321122730148
 30
0.0
 40
0.3149662889814377
 50
258.95768945477982
 51
297.48126514819683
  0
ARC
  5
2E6
  8
0
  6
CONTINUOUS
 62
     7
 10
387.93805439984959
 20
91.838469021533314
 30
0.0
 40
0.3149662889814377
 50
84.509783866110865
 51
117.4812651481967
  0
ARC
  5
2E7
  8
0
  6
CONTINUOUS
 62
     7
 10
412.55888870221168
 20
-57.545883572373128
 30
0.0
 40
196.85393061339849
 50
96.11328239987688
 51
98.744749707129742
  0
ARC
  5
2E8
  8
0
  6
CONTINUOUS
 62
     7
 10
412.55888870221168
 20
320.10095264391992
 30
0.0
 40
196.85393061339849
 50
261.2552502928703
 51
263.97627666755602
  0
ARC
  5
2FB
  8
0
  6
CONTINUOUS
 62
     7
 10
381.58825367317309
 20
103.43426899229129
 30
0.0
 40
0.1574831444907171
 50
14.36579263324756
 51
174.3982837005496
  0
LINE
  5
2FC
  8
0
  6
CONTINUOUS
 62
     7
 10
381.62762445929582
 20
103.59175213678201
 30
0.0
 11
381.17450564578388
 21
103.59175213678201
 31
0.0
  0
LINE
  5
2FD
  8
0
  6
CONTINUOUS
 62
     7
 10
381.40185352938988
 20
103.14714613208361
 30
0.0
 11
381.43152259315048
 21
103.4496413490923
 31
0.0
  0
ARC
  5
2FE
  8
0
  6
CONTINUOUS
 62
     7
 10
381.28430521937298
 20
103.1586753996843
 30
0.0
 40
0.1181123583680401
 50
270.0
 51
354.3982837005496
  0
ARC
  5
2FF
  8
0
  6
CONTINUOUS
 62
     7
 10
419.4753708692117
 20
102.5366730886746
 30
0.0
 40
7.8741572245359492
 50
180.0
 51
225.3844523622974
  0
ARC
  5
300
  8
0
  6
CONTINUOUS
 62
     7
 10
411.9949215059026
 20
102.6468560692002
 30
0.0
 40
0.3937078612267971
 50
90.0
 51
180.0
  0
LINE
  5
301
  8
0
  6
CONTINUOUS
 62
     7
 10
411.60121364467579
 20
102.5366730886746
 30
0.0
 11
411.60121364467579
 21
102.6468560692002
 31
0.0
  0
LINE
  5
302
  8
0
  6
CONTINUOUS
 62
     7
 10
425.53847284644678
 20
102.4192410296657
 30
0.0
 11
425.53847284644678
 21
102.7255976414456
 31
0.0
  0
ARC
  5
303
  8
0
  6
CONTINUOUS
 62
     7
 10
425.22350655746533
 20
102.7255976414456
 30
0.0
 40
0.3149662889814377
 50
0.0
 51
90.0
  0
ARC
  5
304
  8
0
  6
CONTINUOUS
 62
     7
 10
417.66431562191087
 20
102.4192410296657
 30
0.0
 40
7.8741572245359439
 50
351.1617147992439
 51
0.0
  0
LINE
  5
305
  8
0
  6
CONTINUOUS
 62
     7
 10
425.5778436325694
 20
102.5365304102541
 30
0.0
 11
425.5778436325694
 21
102.7255976414456
 31
0.0
  0
ARC
  5
306
  8
0
  6
CONTINUOUS
 62
     7
 10
425.262877343588
 20
102.7255976414456
 30
0.0
 40
0.3149662889814377
 50
0.0
 51
90.0
  0
ARC
  5
307
  8
0
  6
CONTINUOUS
 62
     7
 10
417.7036864080336
 20
102.5365304102541
 30
0.0
 40
7.8741572245359439
 50
314.61561336653199
 51
0.0
  0
ARC
  5
30D
  8
0
  6
CONTINUOUS
 62
     7
 10
412.56286907443302
 20
103.4342717916538
 30
0.0
 40
0.1574831444907187
 50
90.0
 51
174.80557109226891
  0
ARC
  5
30E
  8
0
  6
CONTINUOUS
 62
     7
 10
414.2134513799283
 20
109.3792604961784
 30
0.0
 40
5.9056179184019548
 50
259.52468615676992
 51
270.0
  0
ARC
  5
30F
  8
0
  6
CONTINUOUS
 62
     7
 10
412.92499766531068
 20
102.41063135246409
 30
0.0
 40
1.1811235836803911
 50
79.524686156769945
 51
90.0
  0
LINE
  5
310
  8
0
  6
CONTINUOUS
 62
     7
 10
412.92499766531068
 20
103.5917549361445
 30
0.0
 11
412.56286907443302
 21
103.5917549361445
 31
0.0
  0
ARC
  5
311
  8
0
  6
CONTINUOUS
 62
     7
 10
417.21747345783251
 20
109.3792604961784
 30
0.0
 40
5.9056179184019548
 50
270.0
 51
280.47530102022239
  0
ARC
  5
312
  8
0
  6
CONTINUOUS
 62
     7
 10
418.50592561284662
 20
102.4106310641039
 30
0.0
 40
1.1811235836803911
 50
90.0
 51
100.4753010202224
  0
LINE
  5
313
  8
0
  6
CONTINUOUS
 62
     7
 10
418.50592561284662
 20
103.5917549361445
 30
0.0
 11
418.67313257874099
 21
103.5917549361445
 31
0.0
  0
ARC
  5
318
  8
0
  6
CONTINUOUS
 62
     7
 10
379.886062262846
 20
109.3792596070677
 30
0.0
 40
5.9056179184019548
 50
270.0
 51
280.47522889660138
  0
ARC
  5
319
  8
0
  6
CONTINUOUS
 62
     7
 10
381.17450564578388
 20
102.4106285531017
 30
0.0
 40
1.1811235836803911
 50
90.0
 51
100.47522889660139
  0
ARC
  5
323
  8
0
  6
CONTINUOUS
 62
     7
 10
382.13399658400522
 20
103.198046185807
 30
0.0
 40
0.1574831444907177
 50
184.08561677995129
 51
270.0
  0
ARC
  5
324
  8
0
  6
CONTINUOUS
 62
     7
 10
381.4470175626837
 20
103.198046185807
 30
0.0
 40
0.1574831444907177
 50
270.0
 51
355.91438322004871
  0
LINE
  5
325
  8
0
  6
CONTINUOUS
 62
     7
 10
413.99354043025608
 20
89.095352744201662
 30
0.0
 11
413.94377575659701
 21
88.47337306503556
 31
0.0
  0
ARC
  5
326
  8
0
  6
CONTINUOUS
 62
     7
 10
414.385988426327
 20
89.063934856875747
 30
0.0
 40
0.3937035855362238
 50
132.58858675751591
 51
175.42288036010629
  0
LINE
  5
327
  8
0
  6
CONTINUOUS
 62
     7
 10
414.11955766396738
 20
89.353791997778885
 30
0.0
 11
414.63833136251111
 21
95.035233491657891
 31
0.0
  0
LINE
  5
328
  8
0
  6
CONTINUOUS
 62
     7
 10
423.18551776133143
 20
89.095352744201662
 30
0.0
 11
423.23528243499049
 21
88.47337306503556
 31
0.0
  0
ARC
  5
329
  8
0
  6
CONTINUOUS
 62
     7
 10
422.7930697652605
 20
89.063934856875747
 30
0.0
 40
0.3937035855362238
 50
4.5771196398937244
 51
47.411413242484109
  0
LINE
  5
32A
  8
0
  6
CONTINUOUS
 62
     7
 10
423.05950052762017
 20
89.353791997778885
 30
0.0
 11
422.54073870477959
 21
95.035103432804974
 31
0.0
  0
ARC
  5
32B
  8
0
  6
CONTINUOUS
 62
     7
 10
412.28587072600209
 20
95.250037200610109
 30
0.0
 40
2.362247167360783
 50
354.78277704094921
 51
45.384452362297402
  0
ARC
  5
32C
  8
0
  6
CONTINUOUS
 62
     7
 10
424.89319934128849
 20
95.249907141757205
 30
0.0
 40
2.362247167360783
 50
134.6156482076122
 51
185.21722295905079
  0
LINE
  5
32D
  8
0
  6
CONTINUOUS
 62
     7
 10
424.80034794246018
 20
103.1479828983134
 30
0.0
 11
424.77302551088599
 21
103.44852964562941
 31
0.0
  0
ARC
  5
32E
  8
0
  6
CONTINUOUS
 62
     7
 10
424.91797523775892
 20
103.15867628879511
 30
0.0
 40
0.1181123583680392
 50
185.19442890773109
 51
270.0
  0
ARC
  5
32F
  8
0
  6
CONTINUOUS
 62
     7
 10
424.61618911715459
 20
103.4342717916538
 30
0.0
 40
0.1574831444907187
 50
5.1944289077310613
 51
90.0
  0
ARC
  5
330
  8
0
  6
CONTINUOUS
 62
     7
 10
422.96560681165931
 20
109.3792604961784
 30
0.0
 40
5.9056179184019548
 50
270.0
 51
280.47531384323008
  0
ARC
  5
331
  8
0
  6
CONTINUOUS
 62
     7
 10
424.25406052627687
 20
102.41063135246409
 30
0.0
 40
1.1811235836803911
 50
90.0
 51
100.47531384323
  0
LINE
  5
332
  8
0
  6
CONTINUOUS
 62
     7
 10
424.25406052627687
 20
103.5917549361445
 30
0.0
 11
424.61618911715459
 21
103.5917549361445
 31
0.0
  0
ARC
  5
333
  8
0
  6
CONTINUOUS
 62
     7
 10
419.96158473375522
 20
109.3792604961784
 30
0.0
 40
5.9056179184019548
 50
259.52469897977761
 51
270.0
  0
ARC
  5
334
  8
0
  6
CONTINUOUS
 62
     7
 10
418.67313257874099
 20
102.4106310641039
 30
0.0
 40
1.1811235836803911
 50
79.524698979777611
 51
90.0
  0
LINE
  5
33E
  8
0
  6
DASHED
 62
     7
 10
377.71884178175247
 20
90.835620232396337
 30
0.0
 11
377.2351716742354
 21
90.835620232396337
 31
0.0
  0
ARC
  5
33F
  8
0
  6
DASHED
 62
     7
 10
377.71884178175247
 20
90.756878660150988
 30
0.0
 40
0.0787500857176257
 50
17.936737210315869
 51
90.0
  0
LINE
  5
34F
  8
0
  6
CONTINUOUS
 62
     7
 10
382.87176901106108
 20
89.457642718102534
 30
0.0
 11
377.03174282233948
 21
89.457642718102534
 31
0.0
  0
LINE
  5
350
  8
0
  6
DASHED
 62
     7
 10
388.20414828351682
 20
89.457642718102534
 30
0.0
 11
384.82137096907007
 21
89.457642718102534
 31
0.0
  0
LINE
  5
353
  8
0
  6
CENTER
 62
     7
 10
384.80759119392712
 20
128.52157950718581
 30
0.0
 11
385.56276761926341
 21
128.52157950718581
 31
0.0
  0
LINE
  5
354
  8
0
  6
CENTER
 62
     7
 10
384.65829685935819
 20
134.03348956436091
 30
0.0
 11
385.57941441619118
 21
134.03348956436091
 31
0.0
  0
LINE
  5
355
  8
0
  6
DASHED
 62
     7
 10
380.89846583980619
 20
91.859260671586014
 30
0.0
 11
380.54444373099108
 21
91.859260671586014
 31
0.0
  0
ARC
  5
356
  8
0
  6
DASHED
 62
     7
 10
390.70474439331269
 20
89.654496648715934
 30
0.0
 40
0.1968539306133985
 50
270.0
 51
354.9975003943058
  0
ARC
  5
358
  8
0
  6
CONTINUOUS
 62
     7
 10
383.68028747487648
 20
88.00092363156341
 30
0.0
 40
4.6457579515762868
 50
19.637460349532699
 51
89.915027507953795
  0
ARC
  5
359
  8
0
  6
DASHED
 62
     7
 10
383.68233475575482
 20
89.378901145857185
 30
0.0
 40
3.2677788363769742
 50
89.915091858820347
 51
121.58529754321749
  0
ARC
  5
35A
  8
0
  6
DASHED
 62
     7
 10
380.89846583980619
 20
93.906580920751466
 30
0.0
 40
2.047280878379345
 50
270.0
 51
301.58584676753838
  0
ARC
  5
35B
  8
0
  6
DASHED
 62
     7
 10
380.54444373099108
 20
91.977373029954038
 30
0.0
 40
0.1181097598675697
 50
210.0007277808559
 51
270.0
  0
ARC
  5
35C
  8
0
  6
DASHED
 62
     7
 10
379.70383807648579
 20
93.433344071556846
 30
0.0
 40
0.1181123583680391
 50
180.0
 51
210.0007277808559
  0
LINE
  5
35D
  8
0
  6
DASHED
 62
     7
 10
379.60155277413912
 20
93.374287892372834
 30
0.0
 11
380.4421584286444
 21
91.918316850770026
 31
0.0
  0
LINE
  5
35E
  8
0
  6
DASHED
 62
     7
 10
379.58572571811783
 20
94.930181989155031
 30
0.0
 11
379.58572571811783
 21
93.433344071556846
 31
0.0
  0
ARC
  5
35F
  8
0
  6
DASHED
 62
     7
 10
381.4361526658837
 20
94.930181989155031
 30
0.0
 40
1.8504269477659461
 50
90.0
 51
180.0
  0
ARC
  5
360
  8
0
  6
DASHED
 62
     7
 10
381.4361526658837
 20
94.536474127928244
 30
0.0
 40
2.2441250743720809
 50
41.941486640130577
 51
90.0
  0
ARC
  5
362
  8
0
  6
DASHED
 62
     7
 10
388.20414828351682
 20
89.61512586259326
 30
0.0
 40
0.1574665340643336
 50
199.6355150033597
 51
270.0
  0
LINE
  5
363
  8
0
  6
DASHED
 62
     7
 10
388.23395089206679
 20
89.457642718102534
 30
0.0
 11
391.0984522545395
 21
89.457642718102534
 31
0.0
  0
LINE
  5
365
  8
0
  6
CENTER
 62
     7
 10
386.9480627230588
 20
90.490640908058083
 30
0.0
 11
386.9480627230588
 21
87.849031138702117
 31
0.0
  0
LINE
  5
366
  8
0
  6
CONTINUOUS
 62
     7
 10
391.29455814021662
 20
89.637330985966457
 30
0.0
 11
391.92791597657208
 21
96.876555542701951
 31
0.0
  0
ARC
  5
367
  8
0
  6
DASHED
 62
     7
 10
391.0984522545395
 20
89.654496648715934
 30
0.0
 40
0.1968539306133985
 50
270.0
 51
354.9975003943058
  0
ARC
  5
368
  8
0
  6
DASHED
 62
     7
 10
377.2351716742354
 20
90.756878660150974
 30
0.0
 40
0.0787576535693626
 50
90.0
 51
175.78582147725291
  0
ARC
  5
369
  8
0
  6
DASHED
 62
     7
 10
377.03174282233948
 20
89.063934856875747
 30
0.0
 40
0.3937078612267971
 50
90.0
 51
175.79640768027761
  0
LINE
  5
36B
  8
0
  6
DASHED
 62
     7
 10
386.65278182713882
 20
89.063934856875747
 30
0.0
 11
386.65278182713882
 21
89.457642718102534
 31
0.0
  0
LINE
  5
36C
  8
0
  6
DASHED
 62
     7
 10
387.243343618979
 20
89.063934856875747
 30
0.0
 11
387.243343618979
 21
89.457642718102534
 31
0.0
  0
ARC
  5
36D
  8
0
  6
DASHED
 62
     7
 10
379.46761335974969
 20
99.354631562835664
 30
0.0
 40
0.1968367957015362
 50
293.98110661147012
 51
48.617567964293883
  0
ARC
  5
36E
  8
0
  6
CONTINUOUS
 62
     7
 10
381.4361526658837
 20
94.930181989155031
 30
0.0
 40
4.645776242252853
 50
113.9851995068416
 51
166.91792858399481
  0
LINE
  5
36F
  8
0
  6
CONTINUOUS
 62
     7
 10
391.2785342303207
 20
93.954377055744345
 30
0.0
 11
390.90085027899693
 21
89.637330986048227
 31
0.0
  0
LINE
  5
371
  8
0
  6
DASHED
 62
     7
 10
377.15662695592067
 20
90.762666165711025
 30
0.0
 11
377.06060436971808
 21
89.456583416117596
 31
0.0
  0
ARC
  5
372
  8
0
  6
DASHED
 62
     7
 10
380.15376742029582
 20
91.544373124176815
 30
0.0
 40
2.480353352944316
 50
197.92158271302799
 51
237.2780422381164
  0
ARC
  5
374
  8
0
  6
CONTINUOUS
 62
     7
 10
372.00958691838241
 20
90.451143106852484
 30
0.0
 40
11.81123583680391
 50
50.048701967313562
 51
65.118466516630789
  0
ARC
  5
375
  8
0
  6
DASHED
 62
     7
 10
377.14473697851162
 20
101.5232199008444
 30
0.0
 40
0.3937078612267956
 50
199.8266741144397
 51
245.11847558266561
  0
LINE
  5
376
  8
0
  6
CENTER
 62
     7
 10
376.42686549042247
 20
131.2775345357733
 30
0.0
 11
403.9351248983445
 21
131.2775345357733
 31
0.0
  0
ARC
  5
384
  8
0
  6
DASHED
 62
     7
 10
391.55077384050719
 20
91.662406740972614
 30
0.0
 40
0.0787415722453595
 50
90.0
 51
174.999939088904
  0
ARC
  5
390
  8
0
  6
PHANTOM
 62
     7
 10
397.50675711869098
 20
103.94439817833459
 30
0.0
 40
6.2993141171298754
 50
327.4890351146226
 51
336.12289000772239
  0
LINE
  5
393
  8
0
  6
PHANTOM
 62
     7
 10
376.75102986581999
 20
101.5099467417956
 30
0.0
 11
376.75102986581999
 21
102.450001249476
 31
0.0
  0
LINE
  5
394
  8
0
  6
DASHED
 62
     7
 10
377.22347929929219
 20
102.6468551800894
 30
0.0
 11
376.691973686636
 21
102.6468551800894
 31
0.0
  0
ARC
  5
3A1
  8
0
  6
CONTINUOUS
 62
     7
 10
372.00958691836962
 20
90.451143106824048
 30
0.0
 40
11.811235836835101
 50
65.118466516630789
 51
66.332084750981025
  0
LINE
  5
3B4
  8
0
  6
CENTER
 62
     7
 10
418.58952909579381
 20
88.081382461187104
 30
0.0
 11
418.58952909579381
 21
104.1563778343935
 31
0.0
  0
LINE
  5
3B5
  8
0
  6
CENTER
 62
     7
 10
385.17637734753828
 20
127.6921551559393
 30
0.0
 11
385.17637734753828
 21
128.9748265293882
 31
0.0
  0
LINE
  5
3B6
  8
0
  6
CENTER
 62
     7
 10
385.17637734753828
 20
133.63035170058421
 30
0.0
 11
385.17637734753828
 21
134.3905510214492
 31
0.0
  0
LINE
  5
3B7
  8
0
  6
CENTER
 62
     7
 10
385.17637809607351
 20
127.9649270568578
 30
0.0
 11
385.17637809607351
 21
128.7971750100445
 31
0.0
  0
LINE
  5
3B8
  8
0
  6
CENTER
 62
     7
 10
385.17637809607351
 20
133.75789406150221
 30
0.0
 11
385.17637809607351
 21
134.60325154929691
 31
0.0
  0
TEXT
  5
428
  8
PIC07
  6
CONTINUOUS
 62
     7
 10
254.75097723651439
 20
112.3120880126952
 30
0.0
 40
3.0
  1

 50
90.0
 41
0.6547619344966495
  0
TEXT
  5
50D
  8
PIC07
  6
CONTINUOUS
 62
     7
 10
265.1535406756916
 20
156.39933776855361
 30
0.0
 40
6.0
  1

 50
90.0
 41
0.6547619344966495
  0
TEXT
  5
515
  8
PIC07
  6
CONTINUOUS
 62
     7
 10
285.09649770538857
 20
133.9322967529294
 30
0.0
 40
5.0
  1

 50
90.0
 41
0.6547619344966495
  0
TEXT
  5
517
  8
PIC07
  6
CONTINUOUS
 62
     7
 10
285.0964999521035
 20
140.8072967529292
 30
0.0
 40
5.0
  1

 50
90.0
 41
0.6547619344966495
  0
TEXT
  5
519
  8
PIC07
  6
CONTINUOUS
 62
     7
 10
285.09650219881831
 20
147.68229675292881
 30
0.0
 40
5.0
  1

 50
90.0
 41
0.6547619344966495
  0
TEXT
  5
51B
  8
PIC07
  6
CONTINUOUS
 62
     7
 10
285.0965044455333
 20
154.55729675292849
 30
0.0
 40
5.0
  1

 50
90.0
 41
0.6547619344966495
  0
TEXT
  5
51D
  8
PIC07
  6
CONTINUOUS
 62
     7
 10
285.09650669224811
 20
161.4322967529281
 30
0.0
 40
5.0
  1

 50
90.0
 41
0.6547619344966495
  0
TEXT
  5
51F
  8
PIC07
  6
CONTINUOUS
 62
     7
 10
285.09650893896298
 20
168.30729675292781
 30
0.0
 40
5.0
  1

 50
90.0
 41
0.6547619344966495
  0
TEXT
  5
521
  8
PIC07
  6
CONTINUOUS
 62
     7
 10
285.0965111856778
 20
175.1822967529275
 30
0.0
 40
5.0
  1

 50
90.0
 41
0.6547619344966495
  0
LINE
  5
B67
  8
0
  6
CONTINUOUS
 62
     7
 10
408.98305728187432
 20
115.2061368423264
 30
0.0
 11
418.58952909580569
 21
115.2061368423264
 31
0.0
  0
LINE
  5
B69
  8
0
  6
CONTINUOUS
 62
     7
 10
375.7242206839033
 20
114.77305730587069
 30
0.0
 11
375.7242206839033
 21
115.04865280874159
 31
0.0
  0
LINE
  5
B6A
  8
0
  6
CONTINUOUS
 62
     7
 10
375.7242206839033
 20
114.77305730587069
 30
0.0
 11
375.84233304227661
 21
114.77305730587069
 31
0.0
  0
LINE
  5
B6D
  8
0
  6
CONTINUOUS
 62
     7
 10
410.50399012057733
 20
116.2253677534668
 30
0.0
 11
410.44005196391839
 21
115.3327139197071
 31
0.0
  0
LINE
  5
B6E
  8
0
  6
CONTINUOUS
 62
     7
 10
409.16459597667011
 20
116.72140028783279
 30
0.0
 11
410.52914805289907
 21
116.5765157949016
 31
0.0
  0
LINE
  5
B82
  8
0
  6
CONTINUOUS
 62
     7
 10
382.09126421565691
 20
103.5917540470338
 30
0.0
 11
376.52899892304441
 21
103.5917540470338
 31
0.0
  0
LINE
  5
B83
  8
0
  6
CONTINUOUS
 62
     7
 10
408.89644155240529
 20
115.1116469556372
 30
0.0
 11
409.00140406821208
 21
115.1903885278861
 31
0.0
  0
LINE
  5
B84
  8
0
  6
CONTINUOUS
 62
     7
 10
408.86494492350113
 20
115.0486536978523
 30
0.0
 11
418.58952909580557
 21
115.0486536978523
 31
0.0
  0
LINE
  5
B8B
  8
0
  6
CONTINUOUS
 62
     7
 10
382.77944980877118
 20
115.1116460665265
 30
0.0
 11
382.67445973341319
 21
115.19038763877531
 31
0.0
  0
LINE
  5
B8C
  8
0
  6
CONTINUOUS
 62
     7
 10
375.75571731280758
 20
115.1116460665265
 30
0.0
 11
375.86067982861442
 21
115.19038763877531
 31
0.0
  0
LINE
  5
B90
  8
0
  6
CONTINUOUS
 62
     7
 10
375.84233304227661
 20
114.77305730587069
 30
0.0
 11
376.09379425325079
 21
104.57074801475061
 31
0.0
  0
LINE
  5
B94
  8
0
  6
CENTERX2
 62
     7
 10
418.58952909580557
 20
117.2907018551644
 30
0.0
 11
418.58952909580557
 21
102.9266642461632
 31
0.0
  0
LINE
  5
B9C
  8
0
  6
CENTERX2
 62
     7
 10
379.3069629563887
 20
104.2735893096834
 30
0.0
 11
379.3069629563887
 21
103.3886534548263
 31
0.0
  0
LINE
  5
BA1
  8
0
  6
CONTINUOUS
 62
     7
 10
409.56169576010677
 20
113.7297323627318
 30
0.0
 11
409.56169576010677
 21
114.3202941545743
 31
0.0
  0
LINE
  5
BA2
  8
0
  6
CONTINUOUS
 62
     7
 10
409.34277219097839
 20
113.7297323627318
 30
0.0
 11
409.34277219097839
 21
114.3202941545743
 31
0.0
  0
LINE
  5
BA3
  8
0
  6
CENTERX2
 62
     7
 10
409.447752948426
 20
113.6680874918879
 30
0.0
 11
409.447752948426
 21
114.390808991505
 31
0.0
  0
LINE
  5
BA4
  8
0
  6
CONTINUOUS
 62
     7
 10
409.38214297710277
 20
113.6903615766074
 30
0.0
 11
409.52232497398239
 21
113.6903615766074
 31
0.0
  0
LINE
  5
BA5
  8
0
  6
CENTERX2
 62
     7
 10
409.31619645192529
 20
114.0250132586412
 30
0.0
 11
409.58978785104063
 21
114.0250132586412
 31
0.0
  0
LINE
  5
BA6
  8
0
  6
CONTINUOUS
 62
     7
 10
409.38214297710277
 20
114.35966494069881
 30
0.0
 11
409.52232497398239
 21
114.35966494069881
 31
0.0
  0
LINE
  5
BA7
  8
0
  6
CONTINUOUS
 62
     7
 10
380.0943594548209
 20
113.76910225974549
 30
0.0
 11
380.0943594548209
 21
114.2809224793392
 31
0.0
  0
LINE
  5
BA8
  8
0
  6
CENTERX2
 62
     7
 10
379.77939316584923
 20
113.5219774678858
 30
0.0
 11
379.77939316584923
 21
114.4511901379764
 31
0.0
  0
LINE
  5
BA9
  8
0
  6
CONTINUOUS
 62
     7
 10
379.46442687685391
 20
113.76910225974549
 30
0.0
 11
379.46442687685391
 21
114.2809224793392
 31
0.0
  0
LINE
  5
BAA
  8
0
  6
CONTINUOUS
 62
     7
 10
380.01561788257209
 20
113.69036068749659
 30
0.0
 11
379.54316844910278
 21
113.69036068749659
 31
0.0
  0
LINE
  5
BAB
  8
0
  6
CENTERX2
 62
     7
 10
380.3343701013498
 20
114.0250123695305
 30
0.0
 11
379.27731247796538
 21
114.0250123695305
 31
0.0
  0
LINE
  5
BAC
  8
0
  6
CONTINUOUS
 62
     7
 10
380.01561788257209
 20
114.359664051588
 30
0.0
 11
379.54316844910278
 21
114.359664051588
 31
0.0
  0
LINE
  5
BAD
  8
0
  6
CONTINUOUS
 62
     7
 10
379.60616170691128
 20
113.76910225974549
 30
0.0
 11
379.60616170691128
 21
114.2809224793392
 31
0.0
  0
LINE
  5
BAE
  8
0
  6
CONTINUOUS
 62
     7
 10
408.94122294579512
 20
116.39411255786619
 30
0.0
 11
408.86524634688237
 21
115.33268204110951
 31
0.0
  0
LINE
  5
BCB
  8
0
  6
CONTINUOUS
 62
     7
 10
382.77157291116282
 20
115.20613595321559
 30
0.0
 11
382.33849418872359
 21
115.20613595321559
 31
0.0
  0
LINE
  5
BCD
  8
0
  6
CONTINUOUS
 62
     7
 10
382.33849418872359
 20
115.20613595321559
 30
0.0
 11
375.84233304227661
 21
115.20613595321559
 31
0.0
  0
ARC
  5
D2A
  8
0
  6
CONTINUOUS
 62
     7
 10
411.09907955280562
 20
104.3791864069005
 30
0.0
 40
0.7874250599341318
 50
202.3408367077148
 51
270.0
  0
ARC
  5
D2B
  8
0
  6
CONTINUOUS
 62
     7
 10
381.04997143661399
 20
122.8128155194027
 30
0.0
 40
1.2598370750215979
 50
263.54413765392019
 51
352.11830685943102
  0
ARC
  5
D2C
  8
0
  6
CONTINUOUS
 62
     7
 10
376.63729372799492
 20
123.39203852482839
 30
0.0
 40
0.4330764998452679
 50
185.78108036547229
 51
240.5219423226086
  0
ARC
  5
D30
  8
0
  6
CONTINUOUS
 62
     7
 10
376.52899892304441
 20
103.90672033600541
 30
0.0
 40
0.3149365257241136
 50
198.8992847650145
 51
270.0
  0
ARC
  5
D3B
  8
0
  6
CONTINUOUS
 62
     7
 10
382.2362525932831
 20
133.2972558638659
 30
0.0
 40
11.693116785727531
 50
241.3143601378971
 51
262.71767234988329
  0
ARC
  5
D3C
  8
0
  6
CONTINUOUS
 62
     7
 10
418.58952909580557
 20
-80.112175629086309
 30
0.0
 40
196.85380024891131
 50
90.0
 51
92.244117512473764
  0
ARC
  5
D3D
  8
0
  6
CONTINUOUS
 62
     7
 10
408.98305728187432
 20
115.3242492006996
 30
0.0
 40
0.118112358373236
 50
175.89125649689299
 51
270.0
  0
ARC
  5
D3E
  8
0
  6
CONTINUOUS
 62
     7
 10
409.33392972779728
 20
116.3660002015005
 30
0.0
 40
0.3937117234883638
 50
92.699603488320705
 51
175.90540205049089
  0
ARC
  5
D3F
  8
0
  6
CONTINUOUS
 62
     7
 10
410.55788872677988
 20
115.3242492006996
 30
0.0
 40
0.118112358373236
 50
175.89125649689299
 51
270.0
  0
ARC
  5
D40
  8
0
  6
CONTINUOUS
 62
     7
 10
410.89667434134901
 20
116.197217641397
 30
0.0
 40
0.393733313618412
 50
92.240691265392826
 51
175.8996868657191
  0
ARC
  5
D58
  8
0
  6
CONTINUOUS
 62
     7
 10
376.25604126285839
 20
116.5841134675228
 30
0.0
 40
0.3937227608206196
 50
88.888490168979587
 51
171.40237588760269
  0
ARC
  5
D5A
  8
0
  6
CONTINUOUS
 62
     7
 10
375.84233304227661
 20
115.3242483115889
 30
0.0
 40
0.118112358373236
 50
176.19735663191011
 51
270.0
  0
ARC
  5
D5D
  8
0
  6
CONTINUOUS
 62
     7
 10
382.2362525932831
 20
133.2972558638659
 30
0.0
 40
11.811200852527421
 50
240.52250445911679
 51
263.54456733291539
  0
ARC
  5
D5E
  8
0
  6
CONTINUOUS
 62
     7
 10
418.58952909580557
 20
-79.87595091241063
 30
0.0
 40
196.8537731302647
 50
90.0
 51
92.700308513219866
  0
ARC
  5
D61
  8
0
  6
CONTINUOUS
 62
     7
 10
319.8996601387488
 20
131.2775345357733
 30
0.0
 40
62.993231926142442
 50
352.11891420848679
 51
0.0000000000000517
  0
ARC
  5
D62
  8
0
  6
CONTINUOUS
 62
     7
 10
319.70280620812679
 20
130.96256824677801
 30
0.0
 40
62.993243747606989
 50
352.54064255510599
 51
0.2864801551155391
  0
ARC
  5
D63
  8
0
  6
CONTINUOUS
 62
     7
 10
454.74460260893079
 20
131.2775345357733
 30
0.0
 40
78.741572245375167
 50
180.0
 51
185.75938065629111
  0
ARC
  5
D64
  8
0
  6
CONTINUOUS
 62
     7
 10
376.83139170356981
 20
123.41920436726041
 30
0.0
 40
0.4330998372710339
 50
185.7598278799378
 51
241.31471457436831
  0
ARC
  5
D65
  8
0
  6
CONTINUOUS
 62
     7
 10
526.7212356987709
 20
122.82123429419551
 30
0.0
 40
118.1124930816831
 50
183.77567390492089
 51
185.38970108361221
  0
ARC
  5
D66
  8
0
  6
CONTINUOUS
 62
     7
 10
408.94368649574977
 20
115.0486536978523
 30
0.0
 40
0.078741572248824
 50
126.86989764582771
 51
183.75500900559919
  0
ARC
  5
D67
  8
0
  6
CONTINUOUS
 62
     7
 10
409.04864901155668
 20
115.1273952700776
 30
0.0
 40
0.078741572248824
 50
90.0
 51
126.86989764582771
  0
ARC
  5
D68
  8
0
  6
CONTINUOUS
 62
     7
 10
412.67186371683709
 20
104.3791864069005
 30
0.0
 40
0.7874067267345777
 50
202.59249488120599
 51
270.0
  0
ARC
  5
D79
  8
0
  6
CONTINUOUS
 62
     7
 10
382.09126421565691
 20
103.90672033600541
 30
0.0
 40
0.3149662889716739
 50
270.0
 51
339.40455433169058
  0
ARC
  5
D7C
  8
0
  6
CONTINUOUS
 62
     7
 10
382.73220486542658
 20
115.04865280874159
 30
0.0
 40
0.078741572248824
 50
359.94270423621572
 51
53.130102354171449
  0
ARC
  5
D7D
  8
0
  6
CONTINUOUS
 62
     7
 10
382.62721479006859
 20
115.12739438096681
 30
0.0
 40
0.078741572248824
 50
53.130102354171449
 51
90.0
  0
ARC
  5
D7E
  8
0
  6
CONTINUOUS
 62
     7
 10
375.80296225615223
 20
115.04865280874159
 30
0.0
 40
0.078741572248824
 50
126.8698976459189
 51
180.0
  0
ARC
  5
D7F
  8
0
  6
CONTINUOUS
 62
     7
 10
375.90792477195902
 20
115.12739438096681
 30
0.0
 40
0.078741572248824
 50
90.0
 51
126.8698976458285
  0
ARC
  5
D86
  8
0
  6
CONTINUOUS
 62
     7
 10
473.37015901925571
 20
117.8622081865196
 30
0.0
 40
62.993246855860619
 50
182.55993224591839
 51
192.2302707444598
  0
ARC
  5
D87
  8
0
  6
CONTINUOUS
 62
     7
 10
471.84568280980483
 20
117.6439365482605
 30
0.0
 40
62.993258721994351
 50
185.3897168425145
 51
192.0254813564257
  0
ARC
  5
D88
  8
0
  6
CONTINUOUS
 62
     7
 10
378.65210793549511
 20
104.6338042658189
 30
0.0
 40
2.5590940324158682
 50
181.4119166625874
 51
198.90375105287799
  0
ARC
  5
D89
  8
0
  6
CONTINUOUS
 62
     7
 10
379.99057292884322
 20
104.696183339344
 30
0.0
 40
2.5591024572021701
 50
339.40350236169581
 51
357.16710992598769
  0
ARC
  5
D8B
  8
0
  6
CONTINUOUS
 62
     7
 10
166.27173536664091
 20
115.26945765667431
 30
0.0
 40
216.5393236891793
 50
357.16772520961553
 51
359.94155472817982
  0
ARC
  5
D8C
  8
0
  6
CONTINUOUS
 62
     7
 10
412.73775046000043
 20
105.0526800161783
 30
0.0
 40
2.559101097968667
 50
192.025478805993
 51
202.34265834759839
  0
ARC
  5
D8D
  8
0
  6
CONTINUOUS
 62
     7
 10
414.50627640805169
 20
104.1753788451778
 30
0.0
 40
2.559101097968667
 50
193.08963465208291
 51
193.1827749096874
  0
ARC
  5
D8E
  8
0
  6
CONTINUOUS
 62
     7
 10
414.3076199926881
 20
105.05976868378831
 30
0.0
 40
2.559101097968667
 50
192.2302707444899
 51
202.59113134197219
  0
ARC
  5
D90
  8
0
  6
CONTINUOUS
 62
     7
 10
380.91374757687322
 20
122.94816314746279
 30
0.0
 40
1.25986515593394
 50
262.71767234988329
 51
352.54064255510599
  0
ARC
  5
D99
  8
0
  6
CONTINUOUS
 62
     7
 10
382.2362525932831
 20
133.2972558638659
 30
0.0
 40
11.811200852527421
 50
239.42933849200261
 51
240.52250445911679
  0
ARC
  5
D9A
  8
0
  6
CONTINUOUS
 62
     7
 10
454.54774867830878
 20
131.2775345357733
 30
0.0
 40
78.741565292286751
 50
185.77936604636119
 51
185.9407527216193
  0
ARC
  5
D9D
  8
0
  6
CONTINUOUS
 62
     7
 10
409.38214297710277
 20
113.7297323627318
 30
0.0
 40
0.039370786124412
 50
180.0
 51
270.0
  0
ARC
  5
D9E
  8
0
  6
CONTINUOUS
 62
     7
 10
409.52232497398239
 20
113.7297323627318
 30
0.0
 40
0.039370786124412
 50
270.0
 51
0.0
  0
ARC
  5
D9F
  8
0
  6
CONTINUOUS
 62
     7
 10
409.52232497398239
 20
114.3202941545743
 30
0.0
 40
0.039370786124412
 50
0.0
 51
90.0
  0
ARC
  5
DA0
  8
0
  6
CONTINUOUS
 62
     7
 10
409.38214297710277
 20
114.3202941545743
 30
0.0
 40
0.039370786124412
 50
90.0
 51
180.0
  0
ARC
  5
DA1
  8
0
  6
CONTINUOUS
 62
     7
 10
380.01561788257209
 20
113.76910225974549
 30
0.0
 40
0.078741572248824
 50
270.0
 51
0.0
  0
ARC
  5
DA2
  8
0
  6
CONTINUOUS
 62
     7
 10
379.54316844910278
 20
113.76910225974549
 30
0.0
 40
0.078741572248824
 50
180.0
 51
270.0
  0
ARC
  5
DA3
  8
0
  6
CONTINUOUS
 62
     7
 10
379.54316844910278
 20
114.2809224793392
 30
0.0
 40
0.078741572248824
 50
90.0
 51
180.0
  0
ARC
  5
DA4
  8
0
  6
CONTINUOUS
 62
     7
 10
380.01561788257209
 20
114.2809224793392
 30
0.0
 40
0.078741572248824
 50
0.0
 51
90.0
  0
ARC
  5
DA5
  8
0
  6
CONTINUOUS
 62
     7
 10
379.6849032791601
 20
113.76910225974549
 30
0.0
 40
0.078741572248824
 50
180.0
 51
270.0
  0
ARC
  5
DA6
  8
0
  6
CONTINUOUS
 62
     7
 10
379.6849032791601
 20
114.2809224793392
 30
0.0
 40
0.078741572248824
 50
90.0
 51
180.0
  0
ARC
  5
DA7
  8
0
  6
CONTINUOUS
 62
     7
 10
382.77157291116282
 20
115.3242483115889
 30
0.0
 40
0.118112358373236
 50
270.0
 51
0.0
  0
ARC
  5
DA8
  8
0
  6
CONTINUOUS
 62
     7
 10
372.2071836182356
 20
-79.834368405373382
 30
0.0
 40
196.8539306133907
 50
87.037918439891754
 51
88.819104986613965
  0
ARC
  5
DA9
  8
0
  6
CONTINUOUS
 62
     7
 10
367.210098359938
 20
113.8601010554719
 30
0.0
 40
15.74831444907975
 50
5.3750189078186326
 51
9.3828557625995543
  0
ARC
  5
DAA
  8
0
  6
CONTINUOUS
 62
     7
 10
382.35927548795621
 20
116.363374075278
 30
0.0
 40
0.3937078612204979
 50
9.3828557626812739
 51
87.037918439891754
  0
ARC
  5
DB4
  8
0
  6
CONTINUOUS
 62
     7
 10
454.54774867830878
 20
131.2775345357733
 30
0.0
 40
78.741565292286751
 50
180.0
 51
185.77936604636119
  0
ARC
  5
DBA
  8
0
  6
CONTINUOUS
 62
     7
 10
391.43824317826801
 20
114.2895840522837
 30
0.0
 40
15.74832953645115
 50
171.39805034919911
 51
176.20439069611911
  0
POLYLINE
  8
0
  5
1758
  66
     1
 10
0.000000
 20
0.000000
 30
0.000000
  70
     8
  0
VERTEX
  8
0
  5
1759
 10
385.093
 20
93.7693
 30
0.000000
  70
    32
  0
VERTEX
  8
0
  5
175A
 10
385.081
 20
93.7843
 30
0.000000
  70
    32
  0
VERTEX
  8
0
  5
175B
 10
385.070
 20
93.7994
 30
0.000000
  70
    32
  0
VERTEX
  8
0
  5
175C
 10
385.058
 20
93.8144
 30
0.000000
  70
    32
  0
VERTEX
  8
0
  5
175D
 10
385.046
 20
93.8294
 30
0.000000
  70
    32
  0
VERTEX
  8
0
  5
175E
 10
385.035
 20
93.8445
 30
0.000000
  70
    32
  0
VERTEX
  8
0
  5
175F
 10
385.023
 20
93.8595
 30
0.000000
  70
    32
  0
VERTEX
  8
0
  5
1760
 10
385.012
 20
93.8745
 30
0.000000
  70
    32
  0
VERTEX
  8
0
  5
1761
 10
385.000
 20
93.8896
 30
0.000000
  70
    32
  0
VERTEX
  8
0
  5
1762
 10
384.988
 20
93.9046
 30
0.000000
  70
    32
  0
VERTEX
  8
0
  5
1763
 10
384.977
 20
93.9196
 30
0.000000
  70
    32
  0
VERTEX
  8
0
  5
1764
 10
384.965
 20
93.9346
 30
0.000000
  70
    32
  0
VERTEX
  8
0
  5
1765
 10
384.953
 20
93.9496
 30
0.000000
  70
    32
  0
VERTEX
  8
0
  5
1766
 10
384.942
 20
93.9647
 30
0.000000
  70
    32
  0
VERTEX
  8
0
  5
1767
 10
384.930
 20
93.9797
 30
0.000000
  70
    32
  0
VERTEX
  8
0
  5
1768
 10
384.918
 20
93.9947
 30
0.000000
  70
    32
  0
VERTEX
  8
0
  5
1769
 10
384.907
 20
94.0097
 30
0.000000
  70
    32
  0
VERTEX
  8
0
  5
176A
 10
384.895
 20
94.0247
 30
0.000000
  70
    32
  0
VERTEX
  8
0
  5
176B
 10
384.883
 20
94.0397
 30
0.000000
  70
    32
  0
VERTEX
  8
0
  5
176C
 10
384.872
 20
94.0547
 30
0.000000
  70
    32
  0
VERTEX
  8
0
  5
176D
 10
384.860
 20
94.0697
 30
0.000000
  70
    32
  0
VERTEX
  8
0
  5
176E
 10
384.848
 20
94.0847
 30
0.000000
  70
    32
  0
VERTEX
  8
0
  5
176F
 10
384.837
 20
94.0997
 30
0.000000
  70
    32
  0
VERTEX
  8
0
  5
1770
 10
384.825
 20
94.1147
 30
0.000000
  70
    32
  0
VERTEX
  8
0
  5
1771
 10
384.813
 20
94.1296
 30
0.000000
  70
    32
  0
VERTEX
  8
0
  5
1772
 10
384.802
 20
94.1446
 30
0.000000
  70
    32
  0
VERTEX
  8
0
  5
1773
 10
384.790
 20
94.1596
 30
0.000000
  70
    32
  0
VERTEX
  8
0
  5
1774
 10
384.778
 20
94.1745
 30
0.000000
  70
    32
  0
VERTEX
  8
0
  5
1775
 10
384.766
 20
94.1895
 30
0.000000
  70
    32
  0
VERTEX
  8
0
  5
1776
 10
384.755
 20
94.2044
 30
0.000000
  70
    32
  0
VERTEX
  8
0
  5
1777
 10
384.743
 20
94.2194
 30
0.000000
  70
    32
  0
VERTEX
  8
0
  5
1778
 10
384.731
 20
94.2343
 30
0.000000
  70
    32
  0
VERTEX
  8
0
  5
1779
 10
384.719
 20
94.2492
 30
0.000000
  70
    32
  0
VERTEX
  8
0
  5
177A
 10
384.708
 20
94.2641
 30
0.000000
  70
    32
  0
VERTEX
  8
0
  5
177B
 10
384.696
 20
94.2791
 30
0.000000
  70
    32
  0
VERTEX
  8
0
  5
177C
 10
384.684
 20
94.2940
 30
0.000000
  70
    32
  0
VERTEX
  8
0
  5
177D
 10
384.672
 20
94.3089
 30
0.000000
  70
    32
  0
VERTEX
  8
0
  5
177E
 10
384.661
 20
94.3238
 30
0.000000
  70
    32
  0
VERTEX
  8
0
  5
177F
 10
384.649
 20
94.3386
 30
0.000000
  70
    32
  0
VERTEX
  8
0
  5
1780
 10
384.637
 20
94.3535
 30
0.000000
  70
    32
  0
VERTEX
  8
0
  5
1781
 10
384.625
 20
94.3684
 30
0.000000
  70
    32
  0
VERTEX
  8
0
  5
1782
 10
384.613
 20
94.3832
 30
0.000000
  70
    32
  0
VERTEX
  8
0
  5
1783
 10
384.601
 20
94.3981
 30
0.000000
  70
    32
  0
VERTEX
  8
0
  5
1784
 10
384.590
 20
94.4129
 30
0.000000
  70
    32
  0
VERTEX
  8
0
  5
1785
 10
384.578
 20
94.4277
 30
0.000000
  70
    32
  0
VERTEX
  8
0
  5
1786
 10
384.566
 20
94.4426
 30
0.000000
  70
    32
  0
VERTEX
  8
0
  5
1787
 10
384.554
 20
94.4574
 30
0.000000
  70
    32
  0
VERTEX
  8
0
  5
1788
 10
384.542
 20
94.4722
 30
0.000000
  70
    32
  0
VERTEX
  8
0
  5
1789
 10
384.530
 20
94.4870
 30
0.000000
  70
    32
  0
VERTEX
  8
0
  5
178A
 10
384.518
 20
94.5017
 30
0.000000
  70
    32
  0
VERTEX
  8
0
  5
178B
 10
384.506
 20
94.5165
 30
0.000000
  70
    32
  0
VERTEX
  8
0
  5
178C
 10
384.494
 20
94.5313
 30
0.000000
  70
    32
  0
VERTEX
  8
0
  5
178D
 10
384.482
 20
94.5460
 30
0.000000
  70
    32
  0
VERTEX
  8
0
  5
178E
 10
384.470
 20
94.5608
 30
0.000000
  70
    32
  0
VERTEX
  8
0
  5
178F
 10
384.458
 20
94.5755
 30
0.000000
  70
    32
  0
VERTEX
  8
0
  5
1790
 10
384.446
 20
94.5902
 30
0.000000
  70
    32
  0
VERTEX
  8
0
  5
1791
 10
384.434
 20
94.6049
 30
0.000000
  70
    32
  0
VERTEX
  8
0
  5
1792
 10
384.422
 20
94.6196
 30
0.000000
  70
    32
  0
VERTEX
  8
0
  5
1793
 10
384.410
 20
94.6343
 30
0.000000
  70
    32
  0
VERTEX
  8
0
  5
1794
 10
384.398
 20
94.6489
 30
0.000000
  70
    32
  0
VERTEX
  8
0
  5
1795
 10
384.386
 20
94.6636
 30
0.000000
  70
    32
  0
VERTEX
  8
0
  5
1796
 10
384.374
 20
94.6782
 30
0.000000
  70
    32
  0
VERTEX
  8
0
  5
1797
 10
384.362
 20
94.6928
 30
0.000000
  70
    32
  0
VERTEX
  8
0
  5
1798
 10
384.350
 20
94.7074
 30
0.000000
  70
    32
  0
VERTEX
  8
0
  5
1799
 10
384.338
 20
94.7220
 30
0.000000
  70
    32
  0
VERTEX
  8
0
  5
179A
 10
384.326
 20
94.7366
 30
0.000000
  70
    32
  0
VERTEX
  8
0
  5
179B
 10
384.314
 20
94.7512
 30
0.000000
  70
    32
  0
VERTEX
  8
0
  5
179C
 10
384.301
 20
94.7658
 30
0.000000
  70
    32
  0
VERTEX
  8
0
  5
179D
 10
384.289
 20
94.7803
 30
0.000000
  70
    32
  0
VERTEX
  8
0
  5
179E
 10
384.277
 20
94.7948
 30
0.000000
  70
    32
  0
VERTEX
  8
0
  5
179F
 10
384.265
 20
94.8093
 30
0.000000
  70
    32
  0
VERTEX
  8
0
  5
17A0
 10
384.253
 20
94.8238
 30
0.000000
  70
    32
  0
VERTEX
  8
0
  5
17A1
 10
384.240
 20
94.8383
 30
0.000000
  70
    32
  0
VERTEX
  8
0
  5
17A2
 10
384.228
 20
94.8528
 30
0.000000
  70
    32
  0
VERTEX
  8
0
  5
17A3
 10
384.216
 20
94.8672
 30
0.000000
  70
    32
  0
VERTEX
  8
0
  5
17A4
 10
384.204
 20
94.8817
 30
0.000000
  70
    32
  0
VERTEX
  8
0
  5
17A5
 10
384.191
 20
94.8961
 30
0.000000
  70
    32
  0
VERTEX
  8
0
  5
17A6
 10
384.179
 20
94.9105
 30
0.000000
  70
    32
  0
VERTEX
  8
0
  5
17A7
 10
384.166
 20
94.9249
 30
0.000000
  70
    32
  0
VERTEX
  8
0
  5
17A8
 10
384.154
 20
94.9392
 30
0.000000
  70
    32
  0
VERTEX
  8
0
  5
17A9
 10
384.142
 20
94.9536
 30
0.000000
  70
    32
  0
VERTEX
  8
0
  5
17AA
 10
384.129
 20
94.9679
 30
0.000000
  70
    32
  0
VERTEX
  8
0
  5
17AB
 10
384.117
 20
94.9822
 30
0.000000
  70
    32
  0
VERTEX
  8
0
  5
17AC
 10
384.104
 20
94.9965
 30
0.000000
  70
    32
  0
VERTEX
  8
0
  5
17AD
 10
384.092
 20
95.0108
 30
0.000000
  70
    32
  0
VERTEX
  8
0
  5
17AE
 10
384.079
 20
95.0250
 30
0.000000
  70
    32
  0
VERTEX
  8
0
  5
17AF
 10
384.067
 20
95.0393
 30
0.000000
  70
    32
  0
VERTEX
  8
0
  5
17B0
 10
384.054
 20
95.0535
 30
0.000000
  70
    32
  0
VERTEX
  8
0
  5
17B1
 10
384.042
 20
95.0677
 30
0.000000
  70
    32
  0
VERTEX
  8
0
  5
17B2
 10
384.029
 20
95.0819
 30
0.000000
  70
    32
  0
VERTEX
  8
0
  5
17B3
 10
384.017
 20
95.0961
 30
0.000000
  70
    32
  0
VERTEX
  8
0
  5
17B4
 10
384.004
 20
95.1102
 30
0.000000
  70
    32
  0
VERTEX
  8
0
  5
17B5
 10
383.991
 20
95.1243
 30
0.000000
  70
    32
  0
VERTEX
  8
0
  5
17B6
 10
383.979
 20
95.1385
 30
0.000000
  70
    32
  0
VERTEX
  8
0
  5
17B7
 10
383.966
 20
95.1525
 30
0.000000
  70
    32
  0
VERTEX
  8
0
  5
17B8
 10
383.953
 20
95.1666
 30
0.000000
  70
    32
  0
VERTEX
  8
0
  5
17B9
 10
383.941
 20
95.1806
 30
0.000000
  70
    32
  0
VERTEX
  8
0
  5
17BA
 10
383.928
 20
95.1947
 30
0.000000
  70
    32
  0
VERTEX
  8
0
  5
17BB
 10
383.915
 20
95.2087
 30
0.000000
  70
    32
  0
VERTEX
  8
0
  5
17BC
 10
383.902
 20
95.2227
 30
0.000000
  70
    32
  0
VERTEX
  8
0
  5
17BD
 10
383.889
 20
95.2366
 30
0.000000
  70
    32
  0
VERTEX
  8
0
  5
17BE
 10
383.876
 20
95.2506
 30
0.000000
  70
    32
  0
VERTEX
  8
0
  5
17BF
 10
383.864
 20
95.2645
 30
0.000000
  70
    32
  0
VERTEX
  8
0
  5
17C0
 10
383.851
 20
95.2784
 30
0.000000
  70
    32
  0
VERTEX
  8
0
  5
17C1
 10
383.838
 20
95.2923
 30
0.000000
  70
    32
  0
VERTEX
  8
0
  5
17C2
 10
383.825
 20
95.3061
 30
0.000000
  70
    32
  0
VERTEX
  8
0
  5
17C3
 10
383.812
 20
95.3200
 30
0.000000
  70
    32
  0
VERTEX
  8
0
  5
17C4
 10
383.799
 20
95.3338
 30
0.000000
  70
    32
  0
VERTEX
  8
0
  5
17C5
 10
383.786
 20
95.3476
 30
0.000000
  70
    32
  0
VERTEX
  8
0
  5
17C6
 10
383.773
 20
95.3614
 30
0.000000
  70
    32
  0
VERTEX
  8
0
  5
17C7
 10
383.760
 20
95.3752
 30
0.000000
  70
    32
  0
VERTEX
  8
0
  5
17C8
 10
383.747
 20
95.3890
 30
0.000000
  70
    32
  0
VERTEX
  8
0
  5
17C9
 10
383.734
 20
95.4027
 30
0.000000
  70
    32
  0
VERTEX
  8
0
  5
17CA
 10
383.721
 20
95.4164
 30
0.000000
  70
    32
  0
VERTEX
  8
0
  5
17CB
 10
383.707
 20
95.4301
 30
0.000000
  70
    32
  0
VERTEX
  8
0
  5
17CC
 10
383.694
 20
95.4438
 30
0.000000
  70
    32
  0
VERTEX
  8
0
  5
17CD
 10
383.681
 20
95.4575
 30
0.000000
  70
    32
  0
VERTEX
  8
0
  5
17CE
 10
383.668
 20
95.4712
 30
0.000000
  70
    32
  0
VERTEX
  8
0
  5
17CF
 10
383.655
 20
95.4848
 30
0.000000
  70
    32
  0
VERTEX
  8
0
  5
17D0
 10
383.642
 20
95.4985
 30
0.000000
  70
    32
  0
VERTEX
  8
0
  5
17D1
 10
383.628
 20
95.5121
 30
0.000000
  70
    32
  0
VERTEX
  8
0
  5
17D2
 10
383.615
 20
95.5257
 30
0.000000
  70
    32
  0
VERTEX
  8
0
  5
17D3
 10
383.602
 20
95.5393
 30
0.000000
  70
    32
  0
VERTEX
  8
0
  5
17D4
 10
383.589
 20
95.5529
 30
0.000000
  70
    32
  0
VERTEX
  8
0
  5
17D5
 10
383.575
 20
95.5665
 30
0.000000
  70
    32
  0
VERTEX
  8
0
  5
17D6
 10
383.562
 20
95.5800
 30
0.000000
  70
    32
  0
VERTEX
  8
0
  5
17D7
 10
383.549
 20
95.5936
 30
0.000000
  70
    32
  0
VERTEX
  8
0
  5
17D8
 10
383.536
 20
95.6071
 30
0.000000
  70
    32
  0
VERTEX
  8
0
  5
17D9
 10
383.522
 20
95.6206
 30
0.000000
  70
    32
  0
VERTEX
  8
0
  5
17DA
 10
383.509
 20
95.6341
 30
0.000000
  70
    32
  0
VERTEX
  8
0
  5
17DB
 10
383.496
 20
95.6476
 30
0.000000
  70
    32
  0
VERTEX
  8
0
  5
17DC
 10
383.482
 20
95.6611
 30
0.000000
  70
    32
  0
VERTEX
  8
0
  5
17DD
 10
383.469
 20
95.6746
 30
0.000000
  70
    32
  0
VERTEX
  8
0
  5
17DE
 10
383.456
 20
95.6881
 30
0.000000
  70
    32
  0
VERTEX
  8
0
  5
17DF
 10
383.442
 20
95.7016
 30
0.000000
  70
    32
  0
VERTEX
  8
0
  5
17E0
 10
383.429
 20
95.7150
 30
0.000000
  70
    32
  0
VERTEX
  8
0
  5
17E1
 10
383.415
 20
95.7285
 30
0.000000
  70
    32
  0
VERTEX
  8
0
  5
17E2
 10
383.402
 20
95.7419
 30
0.000000
  70
    32
  0
VERTEX
  8
0
  5
17E3
 10
383.388
 20
95.7554
 30
0.000000
  70
    32
  0
VERTEX
  8
0
  5
17E4
 10
383.375
 20
95.7688
 30
0.000000
  70
    32
  0
VERTEX
  8
0
  5
17E5
 10
383.362
 20
95.7822
 30
0.000000
  70
    32
  0
VERTEX
  8
0
  5
17E6
 10
383.348
 20
95.7956
 30
0.000000
  70
    32
  0
VERTEX
  8
0
  5
17E7
 10
383.335
 20
95.8090
 30
0.000000
  70
    32
  0
VERTEX
  8
0
  5
17E8
 10
383.321
 20
95.8224
 30
0.000000
  70
    32
  0
VERTEX
  8
0
  5
17E9
 10
383.308
 20
95.8358
 30
0.000000
  70
    32
  0
VERTEX
  8
0
  5
17EA
 10
383.294
 20
95.8492
 30
0.000000
  70
    32
  0
VERTEX
  8
0
  5
17EB
 10
383.281
 20
95.8626
 30
0.000000
  70
    32
  0
VERTEX
  8
0
  5
17EC
 10
383.267
 20
95.8760
 30
0.000000
  70
    32
  0
VERTEX
  8
0
  5
17ED
 10
383.254
 20
95.8894
 30
0.000000
  70
    32
  0
VERTEX
  8
0
  5
17EE
 10
383.240
 20
95.9028
 30
0.000000
  70
    32
  0
VERTEX
  8
0
  5
17EF
 10
383.227
 20
95.9161
 30
0.000000
  70
    32
  0
VERTEX
  8
0
  5
17F0
 10
383.213
 20
95.9295
 30
0.000000
  70
    32
  0
VERTEX
  8
0
  5
17F1
 10
383.200
 20
95.9429
 30
0.000000
  70
    32
  0
VERTEX
  8
0
  5
17F2
 10
383.186
 20
95.9562
 30
0.000000
  70
    32
  0
VERTEX
  8
0
  5
17F3
 10
383.173
 20
95.9696
 30
0.000000
  70
    32
  0
VERTEX
  8
0
  5
17F4
 10
383.159
 20
95.9830
 30
0.000000
  70
    32
  0
VERTEX
  8
0
  5
17F5
 10
383.146
 20
95.9963
 30
0.000000
  70
    32
  0
VERTEX
  8
0
  5
17F6
 10
383.132
 20
96.0097
 30
0.000000
  70
    32
  0
VERTEX
  8
0
  5
17F7
 10
383.119
 20
96.0230
 30
0.000000
  70
    32
  0
VERTEX
  8
0
  5
17F8
 10
383.105
 20
96.0364
 30
0.000000
  70
    32
  0
SEQEND
  8
0
  5
17F9
  0
LINE
  5
15A5
  8
0
 10
379.31013156935069
 20
102.450001249476
 30
0.0
 11
379.31013156935069
 21
104.0785249843392
 31
0.0
  0
LINE
  5
15AE
  8
0
 10
411.09907955280562
 20
103.59176134696629
 30
0.0
 11
426.0799786388057
 21
103.59176134696629
 31
0.0
  0
LINE
  5
15AF
  8
0
  6
CONTINUOUS
 62
     7
 10
428.19600090973682
 20
115.2061368423264
 30
0.0
 11
418.58952909580552
 21
115.2061368423264
 31
0.0
  0
LINE
  5
15B0
  8
0
  6
CONTINUOUS
 62
     7
 10
426.67506807103382
 20
116.2253677534668
 30
0.0
 11
426.7390062276927
 21
115.3327139197071
 31
0.0
  0
LINE
  5
15B1
  8
0
  6
CONTINUOUS
 62
     7
 10
428.01446221494098
 20
116.72140028783279
 30
0.0
 11
426.64991013871202
 21
116.5765157949016
 31
0.0
  0
LINE
  5
15B2
  8
0
  6
CONTINUOUS
 62
     7
 10
428.28261663920591
 20
115.1116469556372
 30
0.0
 11
428.17765412339901
 21
115.1903885278861
 31
0.0
  0
LINE
  5
15B3
  8
0
  6
CONTINUOUS
 62
     7
 10
428.31411326811008
 20
115.0486536978523
 30
0.0
 11
418.58952909580557
 21
115.0486536978523
 31
0.0
  0
LINE
  5
15BA
  8
0
  6
CONTINUOUS
 62
     7
 10
428.23783524581597
 20
116.39411255786619
 30
0.0
 11
428.31381184472872
 21
115.33268204110951
 31
0.0
  0
ARC
  5
15BB
  8
0
  6
CONTINUOUS
 62
     7
 10
418.58952909580557
 20
-80.112175629086309
 30
0.0
 40
196.85380024891131
 50
87.755882487526421
 51
90.0
  0
ARC
  5
15BC
  8
0
  6
CONTINUOUS
 62
     7
 10
428.19600090973682
 20
115.3242492006996
 30
0.0
 40
0.1181123583732361
 50
270.0
 51
4.1087435031070338
  0
ARC
  5
15BD
  8
0
  6
CONTINUOUS
 62
     7
 10
427.84512846381392
 20
116.3660002015005
 30
0.0
 40
0.393711723488364
 50
4.0945979495089073
 51
87.300396511682308
  0
ARC
  5
15BE
  8
0
  6
CONTINUOUS
 62
     7
 10
426.62116946483121
 20
115.3242492006996
 30
0.0
 40
0.1181123583732361
 50
270.0
 51
4.1087435031070338
  0
ARC
  5
15BF
  8
0
  6
CONTINUOUS
 62
     7
 10
426.28238385026208
 20
116.197217641397
 30
0.0
 40
0.3937333136184122
 50
4.1003131342808912
 51
87.759308734608609
  0
ARC
  5
15C0
  8
0
  6
CONTINUOUS
 62
     7
 10
418.58952909580557
 20
-79.87595091241063
 30
0.0
 40
196.85377313026481
 50
87.299691486777263
 51
90.0
  0
ARC
  5
15C1
  8
0
  6
CONTINUOUS
 62
     7
 10
310.45782249284031
 20
122.82123429419551
 30
0.0
 40
118.1124930816831
 50
354.6102989163881
 51
356.22432609507911
  0
ARC
  5
15C2
  8
0
  6
CONTINUOUS
 62
     7
 10
428.2353716958612
 20
115.0486536978523
 30
0.0
 40
0.0787415722488241
 50
356.24499099440089
 51
53.130102354171242
  0
ARC
  5
15C3
  8
0
  6
CONTINUOUS
 62
     7
 10
428.13040918005441
 20
115.1273952700776
 30
0.0
 40
0.0787415722488241
 50
53.130102354171242
 51
90.0
  0
ARC
  5
15C4
  8
0
  6
CONTINUOUS
 62
     7
 10
363.80889917235538
 20
117.8622081865196
 30
0.0
 40
62.99324685586064
 50
347.76972925554008
 51
357.44006775408161
  0
ARC
  5
15C5
  8
0
  6
CONTINUOUS
 62
     7
 10
365.33337538180632
 20
117.6439365482605
 30
0.0
 40
62.99325872199438
 50
347.9745186435743
 51
354.61028315748553
  0
ARC
  5
15CA
  8
0
  6
CONTINUOUS
 62
     7
 10
426.0799786388057
 20
104.3791864069005
 30
0.0
 40
0.7874250599341318
 50
270.0
 51
337.65916329228418
  0
ARC
  5
15CB
  8
0
  6
CONTINUOUS
 62
     7
 10
424.507194474774
 20
104.3791864069005
 30
0.0
 40
0.7874067267345777
 50
270.0
 51
337.40750511879469
  0
ARC
  5
15CC
  8
0
  6
CONTINUOUS
 62
     7
 10
424.44130773161072
 20
105.0526800161783
 30
0.0
 40
2.559101097968667
 50
337.65734165240178
 51
347.97452119400702
  0
ARC
  5
15CD
  8
0
  6
CONTINUOUS
 62
     7
 10
422.67278178355951
 20
104.1753788451778
 30
0.0
 40
2.559101097968667
 50
346.81722509031272
 51
346.91036534791681
  0
ARC
  5
15CE
  8
0
  6
CONTINUOUS
 62
     7
 10
422.87143819892299
 20
105.05976868378831
 30
0.0
 40
2.559101097968667
 50
337.40886865802651
 51
347.76972925551058
  0
ARC
  5
15CF
  8
0
  6
CONTINUOUS
 62
     7
 10
381.04997143661399
 20
139.74225355214401
 30
0.0
 40
1.2598370750215979
 50
7.8816931405690047
 51
96.455862346079897
  0
ARC
  5
15D0
  8
0
  6
CONTINUOUS
 62
     7
 10
376.63729372799492
 20
139.16303054671829
 30
0.0
 40
0.4330764998452679
 50
119.47805767739121
 51
174.21891963452771
  0
ARC
  5
15D1
  8
0
  6
CONTINUOUS
 62
     7
 10
382.2362525932831
 20
129.25781320768081
 30
0.0
 40
11.693116785727531
 50
97.282327650116883
 51
118.68563986210241
  0
ARC
  5
15D2
  8
0
  6
CONTINUOUS
 62
     7
 10
382.2362525932831
 20
129.25781320768081
 30
0.0
 40
11.811200852527421
 50
96.455432667084736
 51
119.4774955408833
  0
ARC
  5
15D3
  8
0
  6
CONTINUOUS
 62
     7
 10
319.8996601387488
 20
131.27753453577341
 30
0.0
 40
62.993231926142442
 50
0.0
 51
7.8810857915131294
  0
ARC
  5
15D4
  8
0
  6
CONTINUOUS
 62
     7
 10
319.70280620812679
 20
131.59250082476871
 30
0.0
 40
62.993243747606989
 50
359.7135198448845
 51
7.4593574448939899
  0
ARC
  5
15D5
  8
0
  6
CONTINUOUS
 62
     7
 10
454.74460260893079
 20
131.2775345357733
 30
0.0
 40
78.741572245375167
 50
174.24061934370889
 51
180.0
  0
ARC
  5
15D6
  8
0
  6
CONTINUOUS
 62
     7
 10
376.83139170356981
 20
139.13586470428629
 30
0.0
 40
0.4330998372710339
 50
118.6852854256321
 51
174.24017212006211
  0
ARC
  5
15D7
  8
0
  6
CONTINUOUS
 62
     7
 10
380.91374757687322
 20
139.6069059240838
 30
0.0
 40
1.25986515593394
 50
7.4593574448939899
 51
97.282327650116883
  0
ARC
  5
15D8
  8
0
  6
CONTINUOUS
 62
     7
 10
382.2362525932831
 20
129.25781320768081
 30
0.0
 40
11.811200852527421
 50
119.4774955408833
 51
120.5706615079969
  0
ARC
  5
15D9
  8
0
  6
CONTINUOUS
 62
     7
 10
454.54774867830878
 20
131.2775345357733
 30
0.0
 40
78.741565292286751
 50
174.0592472783807
 51
174.2206339536387
  0
ARC
  5
15DA
  8
0
  6
CONTINUOUS
 62
     7
 10
454.54774867830878
 20
131.2775345357733
 30
0.0
 40
78.741565292286751
 50
174.2206339536387
 51
180.0
  0
ENDSEC
  0
EOF
