  0
SECTION
  2
HEADER
  9
$ACADVER
  1
AC1018
  9
$ACADMAINTVER
 70
   104
  9
$DWGCODEPAGE
  3
ANSI_1252
  9
$LASTSAVEDBY
  1
jgayle
  9
$INSBASE
 10
0.0
 20
0.0
 30
0.0
  9
$EXTMIN
 10
-314.5361163862613
 20
2391.778416023154
 30
0.0
  9
$EXTMAX
 10
402.9905786531964
 20
3822.735419851599
 30
0.0000000000003779
  9
$LIMMIN
 10
0.0
 20
0.0
  9
$LIMMAX
 10
12.0
 20
9.0
  9
$ORTHOMODE
 70
     1
  9
$REGENMODE
 70
     1
  9
$FILLMODE
 70
     1
  9
$QTEXTMODE
 70
     0
  9
$MIRRTEXT
 70
     0
  9
$LTSCALE
 40
1.0
  9
$ATTMODE
 70
     1
  9
$TEXTSIZE
 40
0.2
  9
$TRACEWID
 40
0.05
  9
$TEXTSTYLE
  7
Standard
  9
$CLAYER
  8
object
  9
$CELTYPE
  6
ByLayer
  9
$CECOLOR
 62
   256
  9
$CELTSCALE
 40
1.0
  9
$DISPSILH
 70
     0
  9
$DIMSCALE
 40
1.0
  9
$DIMASZ
 40
0.125
  9
$DIMEXO
 40
0.0625
  9
$DIMDLI
 40
0.38
  9
$DIMRND
 40
0.0
  9
$DIMDLE
 40
0.0
  9
$DIMEXE
 40
0.1
  9
$DIMTP
 40
0.0
  9
$DIMTM
 40
0.0
  9
$DIMTXT
 40
0.1
  9
$DIMCEN
 40
0.09
  9
$DIMTSZ
 40
0.0
  9
$DIMTOL
 70
     0
  9
$DIMLIM
 70
     0
  9
$DIMTIH
 70
     1
  9
$DIMTOH
 70
     1
  9
$DIMSE1
 70
     0
  9
$DIMSE2
 70
     0
  9
$DIMTAD
 70
     0
  9
$DIMZIN
 70
     0
  9
$DIMBLK
  1

  9
$DIMASO
 70
     1
  9
$DIMSHO
 70
     1
  9
$DIMPOST
  1

  9
$DIMAPOST
  1

  9
$DIMALT
 70
     0
  9
$DIMALTD
 70
     2
  9
$DIMALTF
 40
25.4
  9
$DIMLFAC
 40
1.0
  9
$DIMTOFL
 70
     0
  9
$DIMTVP
 40
0.0
  9
$DIMTIX
 70
     0
  9
$DIMSOXD
 70
     0
  9
$DIMSAH
 70
     0
  9
$DIMBLK1
  1

  9
$DIMBLK2
  1

  9
$DIMSTYLE
  2
Standard
  9
$DIMCLRD
 70
     0
  9
$DIMCLRE
 70
     0
  9
$DIMCLRT
 70
     0
  9
$DIMTFAC
 40
1.0
  9
$DIMGAP
 40
0.09
  9
$DIMJUST
 70
     0
  9
$DIMSD1
 70
     0
  9
$DIMSD2
 70
     0
  9
$DIMTOLJ
 70
     1
  9
$DIMTZIN
 70
     0
  9
$DIMALTZ
 70
     0
  9
$DIMALTTZ
 70
     0
  9
$DIMUPT
 70
     0
  9
$DIMDEC
 70
     2
  9
$DIMTDEC
 70
     2
  9
$DIMALTU
 70
     2
  9
$DIMALTTD
 70
     2
  9
$DIMTXSTY
  7
Standard
  9
$DIMAUNIT
 70
     0
  9
$DIMADEC
 70
     0
  9
$DIMALTRND
 40
0.0
  9
$DIMAZIN
 70
     0
  9
$DIMDSEP
 70
    46
  9
$DIMATFIT
 70
     3
  9
$DIMFRAC
 70
     0
  9
$DIMLDRBLK
  1

  9
$DIMLUNIT
 70
     3
  9
$DIMLWD
 70
    -2
  9
$DIMLWE
 70
    -2
  9
$DIMTMOVE
 70
     0
  9
$LUNITS
 70
     2
  9
$LUPREC
 70
     4
  9
$SKETCHINC
 40
0.1
  9
$FILLETRAD
 40
0.1
  9
$AUNITS
 70
     0
  9
$AUPREC
 70
     0
  9
$MENU
  1
.
  9
$ELEVATION
 40
0.0
  9
$PELEVATION
 40
0.0
  9
$THICKNESS
 40
0.0
  9
$LIMCHECK
 70
     0
  9
$CHAMFERA
 40
0.0
  9
$CHAMFERB
 40
0.0
  9
$CHAMFERC
 40
0.0
  9
$CHAMFERD
 40
0.0
  9
$SKPOLY
 70
     0
  9
$TDCREATE
 40
2454746.566085752
  9
$TDUCREATE
 40
2454746.732752419
  9
$TDUPDATE
 40
2456224.466420787
  9
$TDUUPDATE
 40
2456224.633087454
  9
$TDINDWG
 40
1.8510616204
  9
$TDUSRTIMER
 40
1.8510615625
  9
$USRTIMER
 70
     1
  9
$ANGBASE
 50
0.0
  9
$ANGDIR
 70
     0
  9
$PDMODE
 70
     0
  9
$PDSIZE
 40
0.0
  9
$PLINEWID
 40
0.0
  9
$SPLFRAME
 70
     0
  9
$SPLINETYPE
 70
     6
  9
$SPLINESEGS
 70
     8
  9
$HANDSEED
  5
23CBA
  9
$SURFTAB1
 70
     6
  9
$SURFTAB2
 70
     6
  9
$SURFTYPE
 70
     6
  9
$SURFU
 70
     6
  9
$SURFV
 70
     6
  9
$UCSBASE
  2

  9
$UCSNAME
  2

  9
$UCSORG
 10
0.0
 20
0.0
 30
0.0
  9
$UCSXDIR
 10
1.0
 20
0.0
 30
0.0
  9
$UCSYDIR
 10
0.0
 20
1.0
 30
0.0
  9
$UCSORTHOREF
  2

  9
$UCSORTHOVIEW
 70
     0
  9
$UCSORGTOP
 10
0.0
 20
0.0
 30
0.0
  9
$UCSORGBOTTOM
 10
0.0
 20
0.0
 30
0.0
  9
$UCSORGLEFT
 10
0.0
 20
0.0
 30
0.0
  9
$UCSORGRIGHT
 10
0.0
 20
0.0
 30
0.0
  9
$UCSORGFRONT
 10
0.0
 20
0.0
 30
0.0
  9
$UCSORGBACK
 10
0.0
 20
0.0
 30
0.0
  9
$PUCSBASE
  2

  9
$PUCSNAME
  2

  9
$PUCSORG
 10
0.0
 20
0.0
 30
0.0
  9
$PUCSXDIR
 10
1.0
 20
0.0
 30
0.0
  9
$PUCSYDIR
 10
0.0
 20
1.0
 30
0.0
  9
$PUCSORTHOREF
  2

  9
$PUCSORTHOVIEW
 70
     0
  9
$PUCSORGTOP
 10
0.0
 20
0.0
 30
0.0
  9
$PUCSORGBOTTOM
 10
0.0
 20
0.0
 30
0.0
  9
$PUCSORGLEFT
 10
0.0
 20
0.0
 30
0.0
  9
$PUCSORGRIGHT
 10
0.0
 20
0.0
 30
0.0
  9
$PUCSORGFRONT
 10
0.0
 20
0.0
 30
0.0
  9
$PUCSORGBACK
 10
0.0
 20
0.0
 30
0.0
  9
$USERI1
 70
     0
  9
$USERI2
 70
     0
  9
$USERI3
 70
     0
  9
$USERI4
 70
     0
  9
$USERI5
 70
     0
  9
$USERR1
 40
0.0
  9
$USERR2
 40
0.0
  9
$USERR3
 40
0.0
  9
$USERR4
 40
0.0
  9
$USERR5
 40
0.0
  9
$WORLDVIEW
 70
     1
  9
$SHADEDGE
 70
     3
  9
$SHADEDIF
 70
    70
  9
$TILEMODE
 70
     1
  9
$MAXACTVP
 70
    64
  9
$PINSBASE
 10
0.0
 20
0.0
 30
0.0
  9
$PLIMCHECK
 70
     0
  9
$PEXTMIN
 10
0.0647977312674781
 20
0.0525895944238895
 30
0.0
  9
$PEXTMAX
 10
10.45328424968106
 20
7.991500494985558
 30
0.0
  9
$PLIMMIN
 10
-0.1979161059762549
 20
-0.1979166503966324
  9
$PLIMMAX
 10
10.80208365372785
 20
8.302083109307478
  9
$UNITMODE
 70
     0
  9
$VISRETAIN
 70
     1
  9
$PLINEGEN
 70
     0
  9
$PSLTSCALE
 70
     1
  9
$TREEDEPTH
 70
  3020
  9
$CMLSTYLE
  2
Standard
  9
$CMLJUST
 70
     0
  9
$CMLSCALE
 40
1.0
  9
$PROXYGRAPHICS
 70
     1
  9
$MEASUREMENT
 70
     0
  9
$CELWEIGHT
370
    -1
  9
$ENDCAPS
280
     0
  9
$JOINSTYLE
280
     0
  9
$LWDISPLAY
290
     0
  9
$INSUNITS
 70
     1
  9
$HYPERLINKBASE
  1

  9
$STYLESHEET
  1

  9
$XEDIT
290
     1
  9
$CEPSNTYPE
380
     0
  9
$PSTYLEMODE
290
     1
  9
$FINGERPRINTGUID
  2
{95EE76D5-D45B-4AAD-99DE-3382B7D1BAAB}
  9
$VERSIONGUID
  2
{2A6A618B-E86B-4D33-B80A-04376F7BFE04}
  9
$EXTNAMES
290
     1
  9
$PSVPSCALE
 40
1.0
  9
$OLESTARTUP
290
     0
  9
$SORTENTS
280
   127
  9
$INDEXCTL
280
     0
  9
$HIDETEXT
280
     1
  9
$XCLIPFRAME
290
     0
  9
$HALOGAP
280
     0
  9
$OBSCOLOR
 70
   257
  9
$OBSLTYPE
280
     0
  9
$INTERSECTIONDISPLAY
280
     0
  9
$INTERSECTIONCOLOR
 70
   257
  9
$DIMASSOC
280
     2
  9
$PROJECTNAME
  1

  0
ENDSEC
  0
SECTION
  2
CLASSES
  0
CLASS
  1
ACDBDICTIONARYWDFLT
  2
AcDbDictionaryWithDefault
  3
ObjectDBX Classes
 90
        0
 91
        1
280
     0
281
     0
  0
CLASS
  1
MATERIAL
  2
AcDbMaterial
  3
ObjectDBX Classes
 90
     1153
 91
        3
280
     0
281
     0
  0
CLASS
  1
VISUALSTYLE
  2
AcDbVisualStyle
  3
ObjectDBX Classes
 90
     4095
 91
       26
280
     0
281
     0
  0
CLASS
  1
TABLESTYLE
  2
AcDbTableStyle
  3
ObjectDBX Classes
 90
     4095
 91
        1
280
     0
281
     0
  0
CLASS
  1
SORTENTSTABLE
  2
AcDbSortentsTable
  3
ObjectDBX Classes
 90
        0
 91
       21
280
     0
281
     0
  0
CLASS
  1
DIMASSOC
  2
AcDbDimAssoc
  3
"AcDbDimAssoc|Product Desc:     AcDim ARX App For Dimension|Company:          Autodesk, Inc.|WEB Address:      www.autodesk.com"
 90
        0
 91
        0
280
     0
281
     0
  0
CLASS
  1
DICTIONARYVAR
  2
AcDbDictionaryVar
  3
ObjectDBX Classes
 90
        0
 91
        8
280
     0
281
     0
  0
CLASS
  1
SCALE
  2
AcDbScale
  3
ObjectDBX Classes
 90
     1153
 91
       17
280
     0
281
     0
  0
CLASS
  1
MLEADERSTYLE
  2
AcDbMLeaderStyle
  3
ACDB_MLEADERSTYLE_CLASS
 90
     4095
 91
        1
280
     0
281
     0
  0
CLASS
  1
CELLSTYLEMAP
  2
AcDbCellStyleMap
  3
ObjectDBX Classes
 90
     1152
 91
        1
280
     0
281
     0
  0
ENDSEC
  0
SECTION
  2
TABLES
  0
TABLE
  2
VPORT
  5
8
102
{ACAD_XDICTIONARY
360
226D6
102
}
330
0
100
AcDbSymbolTable
 70
     1
  0
VPORT
  5
28
330
8
100
AcDbSymbolTableRecord
100
AcDbViewportTableRecord
  2
*Active
 70
     0
 10
0.0
 20
0.0
 11
1.0
 21
1.0
 12
1266.124883710976
 22
2799.373029540739
 13
0.0
 23
0.0
 14
0.5
 24
0.5
 15
0.5
 25
0.5
 16
0.0
 26
0.0
 36
1.0
 17
0.0
 27
0.0
 37
0.0
 40
2304.61983814754
 41
2.320493066255778
 42
50.0
 43
0.0
 44
0.0
 50
0.0
 51
0.0
 71
     0
 72
  1000
 73
     1
 74
     3
 75
     0
 76
     0
 77
     0
 78
     0
281
     0
 65
     1
110
0.0
120
0.0
130
0.0
111
1.0
121
0.0
131
0.0
112
0.0
122
1.0
132
0.0
 79
     0
146
0.0
1001
ACAD_NAV_VCDISPLAY
1070
     3
  0
ENDTAB
  0
TABLE
  2
LTYPE
  5
5
330
0
100
AcDbSymbolTable
 70
    10
  0
LTYPE
  5
29
330
5
100
AcDbSymbolTableRecord
100
AcDbLinetypeTableRecord
  2
ByBlock
 70
     0
  3

 72
    65
 73
     0
 40
0.0
  0
LTYPE
  5
2A
330
5
100
AcDbSymbolTableRecord
100
AcDbLinetypeTableRecord
  2
ByLayer
 70
     0
  3

 72
    65
 73
     0
 40
0.0
  0
LTYPE
  5
2B
330
5
100
AcDbSymbolTableRecord
100
AcDbLinetypeTableRecord
  2
Continuous
 70
     0
  3
Solid line
 72
    65
 73
     0
 40
0.0
  0
ENDTAB
  0
TABLE
  2
LAYER
  5
2
102
{ACAD_XDICTIONARY
360
47
102
}
330
0
100
AcDbSymbolTable
 70
    26
  0
LAYER
  5
25
102
{ACAD_XDICTIONARY
360
23C77
102
}
330
2
100
AcDbSymbolTableRecord
100
AcDbLayerTableRecord
  2
0
 70
     0
 62
     7
  6
Continuous
370
    -3
390
F
  0
LAYER
  5
69C
330
2
100
AcDbSymbolTableRecord
100
AcDbLayerTableRecord
  2
Defpoints
 70
     0
 62
     7
  6
Continuous
290
     0
370
    -3
390
F
  0
LAYER
  5
764
102
{ACAD_XDICTIONARY
360
23C79
102
}
330
2
100
AcDbSymbolTableRecord
100
AcDbLayerTableRecord
  2
text
 70
     0
 62
     6
  6
Continuous
370
    15
390
F
1001
AcAecLayerStandard
1000

1000

  0
LAYER
  5
197C
102
{ACAD_XDICTIONARY
360
23C7B
102
}
330
2
100
AcDbSymbolTableRecord
100
AcDbLayerTableRecord
  2
object
 70
     0
 62
     7
  6
Continuous
370
    40
390
F
1001
AcAecLayerStandard
1000

1000

  0
ENDTAB
  0
TABLE
  2
STYLE
  5
3
330
0
100
AcDbSymbolTable
 70
     4
  0
STYLE
  5
26
330
3
100
AcDbSymbolTableRecord
100
AcDbTextStyleTableRecord
  2
Standard
 70
     0
 40
0.0
 41
1.0
 50
0.0
 71
     0
 42
0.2
  3
txt
  4

  0
ENDTAB
  0
TABLE
  2
VIEW
  5
6
330
0
100
AcDbSymbolTable
 70
     1
  0
ENDTAB
  0
TABLE
  2
UCS
  5
7
330
0
100
AcDbSymbolTable
 70
     0
  0
ENDTAB
  0
TABLE
  2
APPID
  5
9
330
0
100
AcDbSymbolTable
 70
    11
  0
APPID
  5
27
330
9
100
AcDbSymbolTableRecord
100
AcDbRegAppTableRecord
  2
ACAD
 70
     0
  0
APPID
  5
45
330
9
100
AcDbSymbolTableRecord
100
AcDbRegAppTableRecord
  2
ACAD_PSEXT
 70
     0
  0
APPID
  5
46
330
9
100
AcDbSymbolTableRecord
100
AcDbRegAppTableRecord
  2
AcAecLayerStandard
 70
     0
  0
APPID
  5
68B
330
9
100
AcDbSymbolTableRecord
100
AcDbRegAppTableRecord
  2
ACAD_DIMASSOC_CALC_DIMLFAC
 70
     0
  0
APPID
  5
68C
330
9
100
AcDbSymbolTableRecord
100
AcDbRegAppTableRecord
  2
ACAD_DIMASSOC_DIMLFAC
 70
     0
  0
APPID
  5
68D
330
9
100
AcDbSymbolTableRecord
100
AcDbRegAppTableRecord
  2
ACAD_DIMASSOC_OVERRIDDEN_DIMLFAC
 70
     0
  0
APPID
  5
77A
330
9
100
AcDbSymbolTableRecord
100
AcDbRegAppTableRecord
  2
ACAD_EXEMPT_FROM_CAD_STANDARDS
 70
     0
  0
APPID
  5
100F
330
9
100
AcDbSymbolTableRecord
100
AcDbRegAppTableRecord
  2
DCO15
 70
     0
  0
APPID
  5
CA64
330
9
100
AcDbSymbolTableRecord
100
AcDbRegAppTableRecord
  2
AcadStringInfo
 70
     0
  0
APPID
  5
23C80
330
9
100
AcDbSymbolTableRecord
100
AcDbRegAppTableRecord
  2
ACAD_NAV_VCDISPLAY
 70
     0
  0
APPID
  5
23CB9
330
9
100
AcDbSymbolTableRecord
100
AcDbRegAppTableRecord
  2
ACAD_MLEADERVER
 70
     0
  0
ENDTAB
  0
TABLE
  2
DIMSTYLE
  5
A
330
0
100
AcDbSymbolTable
 70
     7
100
AcDbDimStyleTable
 71
     1
340
3F
  0
DIMSTYLE
105
3F
330
A
100
AcDbSymbolTableRecord
100
AcDbDimStyleTableRecord
  2
Standard
 70
     0
 41
0.125
 44
0.1
140
0.1
271
     2
272
     2
277
     3
340
26
  0
ENDTAB
  0
TABLE
  2
BLOCK_RECORD
  5
1
330
0
100
AcDbSymbolTable
 70
    30
  0
BLOCK_RECORD
  5
37
102
{ACAD_XDICTIONARY
360
FF7
102
}
330
1
100
AcDbSymbolTableRecord
100
AcDbBlockTableRecord
  2
*Model_Space
340
3A
  0
BLOCK_RECORD
  5
33
102
{ACAD_XDICTIONARY
360
F8E
102
}
330
1
100
AcDbSymbolTableRecord
100
AcDbBlockTableRecord
  2
*Paper_Space
340
36
  0
ENDTAB
  0
ENDSEC
  0
SECTION
  2
BLOCKS
  0
BLOCK
  5
38
330
37
100
AcDbEntity
  8
0
100
AcDbBlockBegin
  2
*Model_Space
 70
     0
 10
0.0
 20
0.0
 30
0.0
  3
*Model_Space
  1

  0
ENDBLK
  5
39
330
37
100
AcDbEntity
  8
0
100
AcDbBlockEnd
  0
BLOCK
  5
34
330
33
100
AcDbEntity
 67
     1
  8
0
100
AcDbBlockBegin
  2
*Paper_Space
 70
     0
 10
0.0
 20
0.0
 30
0.0
  3
*Paper_Space
  1

  0
ENDBLK
  5
35
330
33
100
AcDbEntity
 67
     1
  8
0
100
AcDbBlockEnd
  0
ENDSEC
  0
SECTION
  2
ENTITIES
  0
LINE
  5
23932
330
37
100
AcDbEntity
  8
0
 62
     7
100
AcDbLine
 10
330.7397139929916
 20
3627.505854833183
 30
0.0
 11
365.8429135313217
 21
3627.505854833183
 31
0.0
  0
LINE
  5
23933
330
37
100
AcDbEntity
  8
0
 62
     7
100
AcDbLine
 10
330.7397139929916
 20
3549.537139785107
 30
0.0
 11
365.8429135313217
 21
3549.537139785107
 31
0.0
  0
LINE
  5
23934
330
37
100
AcDbEntity
  8
0
 62
     7
100
AcDbLine
 10
330.7397139929916
 20
3547.899777135106
 30
0.0
 11
365.8429135313217
 21
3547.899777135106
 31
0.0
  0
LINE
  5
23935
330
37
100
AcDbEntity
  8
0
 62
     7
100
AcDbLine
 10
365.8429135313217
 20
3627.505854833183
 30
0.0
 11
365.8429135313217
 21
3531.926916717509
 31
0.0
  0
LINE
  5
23936
330
37
100
AcDbEntity
  8
0
 62
     7
100
AcDbLine
 10
365.8429135313217
 20
3334.129556040689
 30
0.0
 11
365.8429135313217
 21
2999.054392523814
 31
0.0
  0
LINE
  5
23937
330
37
100
AcDbEntity
  8
0
 62
     7
100
AcDbLine
 10
365.8429135313217
 20
2809.896600000591
 30
0.0
 11
365.8429135313217
 21
2763.391241687627
 31
0.0
  0
LINE
  5
23938
330
37
100
AcDbEntity
  8
0
 62
     7
100
AcDbLine
 10
330.7397139929916
 20
2763.391241687627
 30
0.0
 11
365.8429135313217
 21
2763.391241687627
 31
0.0
  0
LINE
  5
23939
330
37
100
AcDbEntity
  8
0
 62
     7
100
AcDbLine
 10
330.7397139929916
 20
2828.792527174087
 30
0.0
 11
364.4658692514266
 21
2828.792527174087
 31
0.0
  0
LINE
  5
2393A
330
37
100
AcDbEntity
  8
0
 62
     7
100
AcDbLine
 10
330.7397139929916
 20
2830.429889824086
 30
0.0
 11
364.349715001223
 21
2830.429889824086
 31
0.0
  0
LINE
  5
2393B
330
37
100
AcDbEntity
  8
0
 62
     7
100
AcDbLine
 10
330.7397139929916
 20
3627.505854833183
 30
0.0
 11
330.7397139929916
 21
3531.92691671751
 31
0.0
  0
LINE
  5
2393C
330
37
100
AcDbEntity
  8
0
 62
     7
100
AcDbLine
 10
330.7397139929916
 20
3334.129556040688
 30
0.0
 11
330.7397139929916
 21
2763.391241687627
 31
0.0
  0
LINE
  5
2393D
330
37
100
AcDbEntity
  8
0
 62
     7
100
AcDbLine
 10
315.4235508711166
 20
3324.952786607193
 30
0.0
 11
315.4235508711166
 21
3283.263787018033
 31
0.0
  0
LINE
  5
2393E
330
37
100
AcDbEntity
  8
0
 62
     7
100
AcDbLine
 10
315.4235508711166
 20
3324.952786607193
 30
0.0
 11
330.7056022711166
 21
3324.952786607193
 31
0.0
  0
LINE
  5
2393F
330
37
100
AcDbEntity
  8
0
 62
     7
100
AcDbLine
 10
330.7056022711166
 20
3324.952786607193
 30
0.0
 11
330.7056022711166
 21
3283.263787018033
 31
0.0
  0
LINE
  5
23940
330
37
100
AcDbEntity
  8
0
 62
     7
100
AcDbLine
 10
315.4235508711166
 20
3283.263787018033
 30
0.0
 11
330.7056022711166
 21
3283.263787018033
 31
0.0
  0
LINE
  5
23941
330
37
100
AcDbEntity
  8
0
 62
     7
100
AcDbLine
 10
323.0645765711164
 20
3324.952786607193
 30
0.0
 11
323.0645765711164
 21
3283.263787018033
 31
0.0
  0
LINE
  5
23942
330
37
100
AcDbEntity
  8
0
 62
     7
100
AcDbLine
 10
381.1590766531966
 20
3324.952786607193
 30
0.0
 11
381.1590766531966
 21
3283.263787018033
 31
0.0
  0
LINE
  5
23943
330
37
100
AcDbEntity
  8
0
 62
     7
100
AcDbLine
 10
381.1590766531966
 20
3324.952786607193
 30
0.0
 11
365.8770252531966
 21
3324.952786607193
 31
0.0
  0
LINE
  5
23944
330
37
100
AcDbEntity
  8
0
 62
     7
100
AcDbLine
 10
365.8770252531966
 20
3324.952786607193
 30
0.0
 11
365.8770252531966
 21
3283.263787018033
 31
0.0
  0
LINE
  5
23945
330
37
100
AcDbEntity
  8
0
 62
     7
100
AcDbLine
 10
381.1590766531966
 20
3283.263787018033
 30
0.0
 11
365.8770252531966
 21
3283.263787018033
 31
0.0
  0
LINE
  5
23946
330
37
100
AcDbEntity
  8
0
 62
     7
100
AcDbLine
 10
373.5180509531964
 20
3324.952786607193
 30
0.0
 11
373.5180509531964
 21
3283.263787018033
 31
0.0
  0
LINE
  5
23947
330
37
100
AcDbEntity
  8
0
 62
     7
100
AcDbLine
 10
315.4235508711166
 20
3324.952786607193
 30
0.0
 11
315.4235508711166
 21
3283.263787018033
 31
0.0
  0
LINE
  5
23948
330
37
100
AcDbEntity
  8
0
 62
     7
100
AcDbLine
 10
327.4308769711164
 20
3260.549855707193
 30
0.0
 11
330.7056022711166
 21
3260.549855707193
 31
0.0
  0
LINE
  5
23949
330
37
100
AcDbEntity
  8
0
 62
     7
100
AcDbLine
 10
330.7056022711166
 20
3283.263787018033
 30
0.0
 11
330.7056022711166
 21
3260.549855707193
 31
0.0
  0
LINE
  5
2394A
330
37
100
AcDbEntity
  8
0
 62
     7
100
AcDbLine
 10
327.4308769711164
 20
3283.263787018033
 30
0.0
 11
327.4308769711164
 21
3260.549855707193
 31
0.0
  0
LINE
  5
2394B
330
37
100
AcDbEntity
  8
0
 62
     7
100
AcDbLine
 10
365.8770252531966
 20
3283.263787018033
 30
0.0
 11
365.8770252531966
 21
3260.549855707193
 31
0.0
  0
LINE
  5
2394C
330
37
100
AcDbEntity
  8
0
 62
     7
100
AcDbLine
 10
315.4235508711166
 20
3317.498029614475
 30
0.0
 11
313.4444384435964
 21
3317.498029614475
 31
0.0
  0
LINE
  5
2394D
330
37
100
AcDbEntity
  8
0
 62
     7
100
AcDbLine
 10
315.4235508711166
 20
3289.354238866692
 30
0.0
 11
298.5873402039236
 21
3294.097486459102
 31
0.0
  0
ARC
  5
2394E
330
37
100
AcDbEntity
  8
0
 62
     7
100
AcDbCircle
 10
293.3536726983465
 20
3313.613216942771
 30
0.0
 40
19.19243447312042
100
AcDbArc
 50
285.8221510176194
 51
7.915146118378237
  0
ARC
  5
2394F
330
37
100
AcDbEntity
  8
0
 62
     7
100
AcDbCircle
 10
298.7353429104945
 20
3294.62282373037
 30
0.0
 40
0.54578755
100
AcDbArc
 50
105.8221510176194
 51
254.2659362426623
  0
ARC
  5
23950
330
37
100
AcDbEntity
  8
0
 62
     7
100
AcDbCircle
 10
313.4444384435964
 20
3316.406454514476
 30
0.0
 40
1.0915751
100
AcDbArc
 50
90.0
 51
187.9151461183782
  0
LINE
  5
23951
330
37
100
AcDbEntity
  8
0
 62
     7
100
AcDbLine
 10
369.1517505531964
 20
3260.549855707193
 30
0.0
 11
365.8770252531966
 21
3260.549855707193
 31
0.0
  0
LINE
  5
23952
330
37
100
AcDbEntity
  8
0
 62
     7
100
AcDbLine
 10
369.1517505531964
 20
3283.263787018033
 30
0.0
 11
369.1517505531964
 21
3260.549855707193
 31
0.0
  0
LINE
  5
23953
330
37
100
AcDbEntity
  8
0
 62
     7
100
AcDbLine
 10
381.1590766531966
 20
3317.498029614475
 30
0.0
 11
383.1381890807169
 21
3317.498029614475
 31
0.0
  0
LINE
  5
23954
330
37
100
AcDbEntity
  8
0
 62
     7
100
AcDbLine
 10
381.1590766531966
 20
3289.354238866692
 30
0.0
 11
397.9952873203891
 21
3294.097486459102
 31
0.0
  0
ARC
  5
23955
330
37
100
AcDbEntity
  8
0
 62
     7
100
AcDbCircle
 10
403.2289548259667
 20
3313.613216942771
 30
0.0
 40
19.19243447312042
100
AcDbArc
 50
172.0848538816217
 51
254.1778489823806
  0
ARC
  5
23956
330
37
100
AcDbEntity
  8
0
 62
     7
100
AcDbCircle
 10
397.8472846138178
 20
3294.62282373037
 30
0.0
 40
0.54578755
100
AcDbArc
 50
285.7340637573377
 51
74.1778489823806
  0
ARC
  5
23957
330
37
100
AcDbEntity
  8
0
 62
     7
100
AcDbCircle
 10
383.1381890807169
 20
3316.406454514476
 30
0.0
 40
1.0915751
100
AcDbArc
 50
352.0848538816217
 51
90.0
  0
LINE
  5
23958
330
37
100
AcDbEntity
  8
0
 62
     7
 48
4.0
100
AcDbLine
 10
333.1505701700238
 20
3325.153912844099
 30
0.0
 11
363.4320573542894
 21
3325.153912844099
 31
0.0
  0
ARC
  5
23959
330
37
100
AcDbEntity
  8
0
 62
     7
 48
4.0
100
AcDbCircle
 10
362.2175079073271
 20
3324.548283100416
 30
0.0
 40
0.6056297436853125
100
AcDbArc
 50
90.0
 51
90.0
  0
LINE
  5
2395A
330
37
100
AcDbEntity
  8
0
 62
     7
100
AcDbLine
 10
337.9213503121567
 20
3279.3077586441
 30
0.0
 11
358.6612772121565
 21
3279.3077586441
 31
0.0
  0
SPLINE
  5
2395B
330
37
100
AcDbEntity
  8
0
 62
     7
100
AcDbSpline
210
0.0
220
0.0
230
1.0
 70
     8
 71
     3
 72
     8
 73
     4
 74
     0
 42
0.0000000001
 43
0.0000000001
 40
0.0552927909674579
 40
0.0552927909674579
 40
0.0552927909674579
 40
0.0552927909674579
 40
1.0
 40
1.0
 40
1.0
 40
1.0
 10
363.4320573542894
 20
3325.153912844099
 30
0.0
 10
363.0356168696206
 20
3324.667357820582
 30
0.0
 10
363.0944628207034
 20
3320.241828905677
 30
0.0
 10
362.5934497176048
 20
3319.311375999923
 30
0.0
  0
SPLINE
  5
2395C
330
37
100
AcDbEntity
  8
0
 62
     7
100
AcDbSpline
210
0.0
220
0.0
230
1.0
 70
     8
 71
     3
 72
     8
 73
     4
 74
     0
 42
0.0000000001
 43
0.0000000001
 40
1.0
 40
1.0
 40
1.0
 40
1.0
 40
2.0
 40
2.0
 40
2.0
 40
2.0
 10
362.5934497176048
 20
3319.311375999923
 30
0.0
 10
362.053011151092
 20
3318.336566249111
 30
0.0
 10
359.7952911582773
 20
3315.205053059972
 30
0.0
 10
358.5729908489683
 20
3310.214835268247
 30
0.0
  0
ARC
  5
2395D
330
37
100
AcDbEntity
  8
0
 62
     7
100
AcDbCircle
 10
460.0938376087049
 20
3296.764298002555
 30
0.0
 40
102.4080039818652
100
AcDbArc
 50
172.4528149592287
 51
187.9143834053941
  0
LINE
  5
2395E
330
37
100
AcDbEntity
  8
0
 62
     7
100
AcDbLine
 10
358.6612772121565
 20
3279.3077586441
 30
0.0
 11
358.6612772121565
 21
3282.663412535668
 31
0.0
  0
SPLINE
  5
2395F
330
37
100
AcDbEntity
  8
0
 62
     7
100
AcDbSpline
210
0.0
220
0.0
230
1.0
 70
     8
 71
     3
 72
     8
 73
     4
 74
     0
 42
0.0000000001
 43
0.0000000001
 40
0.0552927909674579
 40
0.0552927909674579
 40
0.0552927909674579
 40
0.0552927909674579
 40
1.0
 40
1.0
 40
1.0
 40
1.0
 10
333.1505701700238
 20
3325.153912844099
 30
0.0
 10
333.5470106546921
 20
3324.667357820582
 30
0.0
 10
333.4881647036099
 20
3320.241828905677
 30
0.0
 10
333.989177806708
 20
3319.311375999923
 30
0.0
  0
SPLINE
  5
23960
330
37
100
AcDbEntity
  8
0
 62
     7
100
AcDbSpline
210
0.0
220
0.0
230
1.0
 70
     8
 71
     3
 72
     8
 73
     4
 74
     0
 42
0.0000000001
 43
0.0000000001
 40
1.0
 40
1.0
 40
1.0
 40
1.0
 40
2.0
 40
2.0
 40
2.0
 40
2.0
 10
333.989177806708
 20
3319.311375999923
 30
0.0
 10
334.5296163732213
 20
3318.336566249111
 30
0.0
 10
336.7873363660355
 20
3315.205053059972
 30
0.0
 10
338.0096366753449
 20
3310.214835268247
 30
0.0
  0
ARC
  5
23961
330
37
100
AcDbEntity
  8
0
 62
     7
100
AcDbCircle
 10
236.4887899156082
 20
3296.764298002555
 30
0.0
 40
102.4080039818652
100
AcDbArc
 50
352.0856165946057
 51
7.547185040771178
  0
LINE
  5
23962
330
37
100
AcDbEntity
  8
0
 62
     7
100
AcDbLine
 10
337.9213503121567
 20
3279.3077586441
 30
0.0
 11
337.9213503121567
 21
3282.663412535668
 31
0.0
  0
SPLINE
  5
23963
330
37
100
AcDbEntity
  8
0
 62
     7
100
AcDbSpline
210
0.0
220
0.0
230
1.0
 70
     8
 71
     3
 72
     8
 73
     4
 74
     0
 42
0.0000000001
 43
0.0000000001
 40
0.3387492658890045
 40
0.3387492658890045
 40
0.3387492658890045
 40
0.3387492658890045
 40
1.0
 40
1.0
 40
1.0
 40
1.0
 10
147.8984038312486
 20
2926.072829682595
 30
0.0
 10
143.9572306780563
 20
2858.56694314236
 30
0.0
 10
141.8286101492748
 20
2830.693415089466
 30
0.0
 10
136.1642015843498
 20
2768.685508593952
 30
0.0
  0
SPLINE
  5
23964
330
37
100
AcDbEntity
  8
0
 62
     7
370
     0
100
AcDbSpline
210
0.0
220
0.0
230
1.0
 70
     8
 71
     3
 72
    16
 73
    12
 74
     0
 42
0.0000000001
 43
0.0000000001
 40
0.3397774337711538
 40
0.3397774337711538
 40
0.3397774337711538
 40
0.3397774337711538
 40
0.4017705449689226
 40
0.4017705449689226
 40
0.5278131031287589
 40
0.5278131031287589
 40
0.7644506348678349
 40
0.7644506348678349
 40
0.9326323089394655
 40
0.9326323089394655
 40
1.0
 40
1.0
 40
1.0
 40
1.0
 10
131.3984038312486
 20
2926.072829682595
 30
0.0
 10
130.2332043156874
 20
2919.777164858885
 30
0.0
 10
130.0949018983627
 20
2913.832049448529
 30
0.0
 10
129.6496391659246
 20
2896.679353871924
 30
0.0
 10
129.3160766301983
 20
2886.381507550262
 30
0.0
 10
128.2005014646328
 20
2858.723125912348
 30
0.0
 10
127.2829870252648
 20
2843.095006050285
 30
0.0
 10
125.1571285992949
 20
2814.542290700123
 30
0.0
 10
124.1088877025193
 20
2802.141042150335
 30
0.0
 10
122.3422664857424
 20
2782.31283648378
 30
0.0
 10
121.8028647952009
 20
2776.360612562428
 30
0.0
 10
121.2263984555674
 20
2770.050073610994
 30
0.0
  0
SPLINE
  5
23965
330
37
100
AcDbEntity
  8
0
 62
     7
100
AcDbSpline
210
0.0
220
0.0
230
1.0
 70
     8
 71
     3
 72
     8
 73
     4
 74
     0
 42
0.0000000001
 43
0.0000000001
 40
1.0
 40
1.0
 40
1.0
 40
1.0
 40
2.0
 40
2.0
 40
2.0
 40
2.0
 10
136.1642015843498
 20
2768.685508593952
 30
0.0
 10
128.8531284532549
 20
2688.63493998965
 30
0.0
 10
128.5526042036525
 20
2628.737174005777
 30
0.0
 10
131.8836250879056
 20
2577.804627232746
 30
0.0
  0
SPLINE
  5
23966
330
37
100
AcDbEntity
  8
0
 62
     7
370
     0
100
AcDbSpline
210
0.0
220
0.0
230
1.0
 70
     8
 71
     3
 72
    14
 73
    10
 74
     0
 42
0.0000000001
 43
0.0000000001
 40
1.0
 40
1.0
 40
1.0
 40
1.0
 40
1.13608212436505
 40
1.13608212436505
 40
1.40824637309515
 40
1.40824637309515
 40
1.843805270377382
 40
1.843805270377382
 40
2.0
 40
2.0
 40
2.0
 40
2.0
 10
121.2263726163277
 20
2770.049790720976
 30
0.0
 10
120.223538851469
 20
2759.069540400256
 30
0.0
 10
119.3509737532243
 20
2748.459013669606
 30
0.0
 10
117.0991080721009
 20
2717.65221014754
 30
0.0
 10
116.0856422493151
 20
2698.480492082274
 30
0.0
 10
114.5457653293837
 20
2651.599999503349
 30
0.0
 10
114.6776622427623
 20
2625.674144421503
 30
0.0
 10
115.9482992066199
 20
2593.2152795043
 30
0.0
 10
116.3869084073698
 20
2584.909628428464
 30
0.0
 10
116.9156018676602
 20
2576.825709014404
 30
0.0
  0
SPLINE
  5
23967
330
37
100
AcDbEntity
  8
0
 62
     7
100
AcDbSpline
210
0.0
220
0.0
230
1.0
 70
     8
 71
     3
 72
     8
 73
     4
 74
     0
 42
0.0000000001
 43
0.0000000001
 40
2.0
 40
2.0
 40
2.0
 40
2.0
 40
3.0
 40
3.0
 40
3.0
 40
3.0
 10
131.8836250879056
 20
2577.804627232746
 30
0.0
 10
133.1968402962546
 20
2557.712434545011
 30
0.0
 10
139.0204446625088
 20
2516.391612931547
 30
0.0
 10
156.1553777175967
 20
2481.646969015276
 30
0.0
  0
SPLINE
  5
23968
330
37
100
AcDbEntity
  8
0
 62
     7
370
     0
100
AcDbSpline
210
0.0
220
0.0
230
1.0
 70
     8
 71
     3
 72
    16
 73
    12
 74
     0
 42
0.0000000001
 43
0.0000000001
 40
2.0
 40
2.0
 40
2.0
 40
2.0
 40
2.124098526342897
 40
2.124098526342897
 40
2.248197052685793
 40
2.248197052685793
 40
2.539960713235772
 40
2.539960713235772
 40
2.831724373785752
 40
2.831724373785752
 40
3.0
 40
3.0
 40
3.0
 40
3.0
 10
116.9155617618484
 20
2576.826322440193
 30
0.0
 10
117.0910563006667
 20
2574.141255996273
 30
0.0
 10
117.3384215345371
 20
2571.145912675958
 30
0.0
 10
118.0035651010529
 20
2564.610159502125
 30
0.0
 10
118.421377858276
 20
2561.0704864442
 30
0.0
 10
120.1540523287852
 20
2548.453319310834
 30
0.0
 10
121.9167342645063
 20
2538.354857445646
 30
0.0
 10
126.9252677590078
 20
2516.945188565918
 30
0.0
 10
130.1688771397015
 20
2505.635310328012
 30
0.0
 10
136.8138838524909
 20
2487.858576116376
 30
0.0
 10
139.5682259526401
 20
2481.367599056321
 30
0.0
 10
142.7024049894493
 20
2475.012398586399
 30
0.0
  0
SPLINE
  5
23969
330
37
100
AcDbEntity
  8
0
 62
     7
100
AcDbSpline
210
0.0
220
0.0
230
1.0
 70
     8
 71
     3
 72
     8
 73
     4
 74
     0
 42
0.0000000001
 43
0.0000000001
 40
3.0
 40
3.0
 40
3.0
 40
3.0
 40
4.0
 40
4.0
 40
4.0
 40
4.0
 10
156.1553777175967
 20
2481.646969015276
 30
0.0
 10
173.5378013311814
 20
2446.407343982011
 30
0.0
 10
216.0884994955412
 20
2408.869592334136
 30
0.0
 10
260.8842905834043
 20
2406.909871177062
 30
0.0
  0
SPLINE
  5
2396A
330
37
100
AcDbEntity
  8
0
 62
     7
370
     0
100
AcDbSpline
210
0.0
220
0.0
230
1.0
 70
     8
 71
     3
 72
    20
 73
    16
 74
     0
 42
0.0000000001
 43
0.0000000001
 40
3.0
 40
3.0
 40
3.0
 40
3.0
 40
3.105661190510296
 40
3.105661190510296
 40
3.211322381020595
 40
3.211322381020595
 40
3.387771869898337
 40
3.387771869898337
 40
3.564221358776078
 40
3.564221358776078
 40
3.740670847653819
 40
3.740670847653819
 40
3.878735107491971
 40
3.878735107491971
 40
4.0
 40
4.0
 40
4.0
 40
4.0
 10
142.7029171594862
 20
2475.011360156061
 30
0.0
 10
144.795973720726
 20
2470.768077974521
 30
0.0
 10
147.1789705831783
 20
2466.55498926804
 30
0.0
 10
152.4671490767899
 20
2458.237572046049
 30
0.0
 10
155.3725542276478
 20
2454.133427913176
 30
0.0
 10
163.7627222968352
 20
2443.405008092807
 30
0.0
 10
169.670915464132
 20
2436.933184382528
 30
0.0
 10
182.6106870685438
 20
2424.816505455123
 30
0.0
 10
189.6424238133617
 20
2419.17170274384
 30
0.0
 10
204.6581494174478
 20
2409.115195134504
 30
0.0
 10
212.643146053916
 20
2404.702365241222
 30
0.0
 10
227.5846954431576
 20
2398.360303209551
 30
0.0
 10
234.3882745768982
 20
2396.100302654685
 30
0.0
 10
247.534669735
 20
2393.097224579866
 30
0.0
 10
253.8335310754913
 20
2392.203979779507
 30
0.0
 10
260.2286993557545
 20
2391.924204687305
 30
0.0
  0
SPLINE
  5
2396B
330
37
100
AcDbEntity
  8
0
 62
     7
100
AcDbSpline
210
0.0
220
0.0
230
1.0
 70
     8
 71
     3
 72
     8
 73
     4
 74
     0
 42
0.0000000001
 43
0.0000000001
 40
4.0
 40
4.0
 40
4.0
 40
4.0
 40
5.0
 40
5.0
 40
5.0
 40
5.0
 10
260.8842905834043
 20
2406.909871177062
 30
0.0
 10
316.7237164907077
 20
2404.460219730719
 30
0.0
 10
344.9679451256537
 20
2435.603623479481
 30
0.0
 10
364.1762429616155
 20
2481.162089553731
 30
0.0
  0
SPLINE
  5
2396C
330
37
100
AcDbEntity
  8
0
 62
     7
370
     0
100
AcDbSpline
210
0.0
220
0.0
230
1.0
 70
     8
 71
     3
 72
    22
 73
    18
 74
     0
 42
0.0000000001
 43
0.0000000001
 40
4.0
 40
4.0
 40
4.0
 40
4.0
 40
4.128384484676796
 40
4.128384484676796
 40
4.256768969353593
 40
4.256768969353593
 40
4.38515345403039
 40
4.38515345403039
 40
4.513537938707187
 40
4.513537938707187
 40
4.641922423383983
 40
4.641922423383983
 40
4.77030690806078
 40
4.77030690806078
 40
4.898691392737577
 40
4.898691392737577
 40
5.0
 40
5.0
 40
5.0
 40
5.0
 10
260.2268793782986
 20
2391.924284418199
 30
0.0
 10
268.1381799650961
 20
2391.577219085596
 30
0.0
 10
275.6716123521277
 20
2391.835970835725
 30
0.0
 10
290.0180054668193
 20
2393.549563870796
 30
0.0
 10
296.8306882387309
 20
2395.006281245176
 30
0.0
 10
309.7064597909238
 20
2399.070047038112
 30
0.0
 10
315.7669966756038
 20
2401.677793688197
 30
0.0
 10
327.0848028392082
 20
2407.917046342257
 30
0.0
 10
332.3400199003817
 20
2411.546534540199
 30
0.0
 10
342.0514330576583
 20
2419.640090693547
 30
0.0
 10
346.5083125120617
 20
2424.102102625145
 30
0.0
 10
354.7097103653808
 20
2433.682223177123
 30
0.0
 10
358.4557793244306
 20
2438.800100572411
 30
0.0
 10
365.3624112187966
 20
2449.562130257594
 30
0.0
 10
368.5237906751772
 20
2455.206917369408
 30
0.0
 10
373.7699540654456
 20
2465.694713215295
 30
0.0
 10
375.9411473610529
 20
2470.456184451521
 30
0.0
 10
377.9979741141946
 20
2475.334590266231
 30
0.0
  0
SPLINE
  5
2396D
330
37
100
AcDbEntity
  8
0
 62
     7
100
AcDbSpline
210
0.0
220
0.0
230
1.0
 70
     8
 71
     3
 72
    11
 73
     7
 74
     0
 42
0.0000000001
 43
0.0000000001
 40
5.0
 40
5.0
 40
5.0
 40
5.0
 40
6.0
 40
6.0
 40
6.0
 40
7.0
 40
7.0
 40
7.0
 40
7.0
 10
364.1762429616155
 20
2481.162089553731
 30
0.0
 10
375.0304717413895
 20
2506.926361775987
 30
0.0
 10
381.3137014305652
 20
2546.575359412669
 30
0.0
 10
381.3137014305652
 20
2597.310923904448
 30
0.0
 10
381.3137014305652
 20
2608.190406822844
 30
0.0
 10
378.1619849305288
 20
2666.689093527054
 30
0.0
 10
374.6466088343335
 20
2709.176656344859
 30
0.0
  0
SPLINE
  5
2396E
330
37
100
AcDbEntity
  8
0
 62
     7
370
     0
100
AcDbSpline
210
0.0
220
0.0
230
1.0
 70
     8
 71
     3
 72
    62
 73
    58
 74
     0
 42
0.0000000001
 43
0.0000000001
 40
5.0
 40
5.0
 40
5.0
 40
5.0
 40
5.170422022039766
 40
5.170422022039766
 40
5.340844044079533
 40
5.340844044079533
 40
5.673921138674836
 40
5.673921138674836
 40
5.727746926835422
 40
5.727746926835422
 40
5.835398503156588
 40
5.835398503156588
 40
5.895294941608677
 40
5.895294941608677
 40
5.914565451139701
 40
5.914565451139701
 40
5.953106470201751
 40
5.953106470201751
 40
5.966019259095918
 40
5.966019259095918
 40
5.991844836884252
 40
5.991844836884252
 40
5.997010943195307
 40
5.997010943195307
 40
5.998387492924401
 40
5.998387492924401
 40
5.999413505629449
 40
5.999413505629449
 40
5.999917393017456
 40
5.999917393017456
 40
6.000270814436378
 40
6.000270814436378
 40
6.000624235855298
 40
6.000624235855298
 40
6.001331078693136
 40
6.001331078693136
 40
6.002744764368817
 40
6.002744764368817
 40
6.005572135720181
 40
6.005572135720181
 40
6.011226878422904
 40
6.011226878422904
 40
6.022536363828352
 40
6.022536363828352
 40
6.045155334639247
 40
6.045155334639247
 40
6.110104268257894
 40
6.110104268257894
 40
6.175053201876544
 40
6.175053201876544
 40
6.307326945978862
 40
6.307326945978862
 40
6.439600690081181
 40
6.439600690081181
 40
6.74235727891024
 40
6.74235727891024
 40
7.0
 40
7.0
 40
7.0
 40
7.0
 10
377.9996000672343
 20
2475.338448224585
 30
0.0
 10
380.0766706983608
 20
2480.268712202889
 30
0.0
 10
381.9612024062739
 20
2485.545357588148
 30
0.0
 10
385.3795282630539
 20
2496.789630946572
 30
0.0
 10
386.912862331941
 20
2502.757435299186
 30
0.0
 10
390.9401656271247
 20
2521.402364023524
 30
0.0
 10
392.9564054324454
 20
2535.048900922973
 30
0.0
 10
394.5259681453202
 20
2552.36870905286
 30
0.0
 10
394.7268629311274
 20
2554.811168301769
 30
0.0
 10
395.2766681821485
 20
2562.236512676146
 30
0.0
 10
395.5727118340627
 20
2567.317377916936
 30
0.0
 10
395.9214394625209
 20
2575.424769810994
 30
0.0
 10
396.0238180193163
 20
2578.362758960095
 30
0.0
 10
396.1293057082967
 20
2582.297867220964
 30
0.0
 10
396.1526469416821
 20
2583.259798610062
 30
0.0
 10
396.2156331425948
 20
2586.157735583627
 30
0.0
 10
396.2482407390729
 20
2588.105884138598
 30
0.0
 10
396.2791408404271
 20
2590.728191842533
 30
0.0
 10
396.2858333331245
 20
2591.38808680912
 30
0.0
 10
396.3027152686848
 20
2593.373168520346
 30
0.0
 10
396.3097091916146
 20
2594.703752106691
 30
0.0
 10
396.3129598385875
 20
2596.309093269435
 30
0.0
 10
396.3133302272757
 20
2596.576979322931
 30
0.0
 10
396.3135818964752
 20
2596.91660808638
 30
0.0
 10
396.3136226581895
 20
2596.988084989719
 30
0.0
 10
396.3136725219174
 20
2597.112872719726
 30
0.0
 10
396.3136870428046
 20
2597.166174520126
 30
0.0
 10
396.3136985928853
 20
2597.245670306498
 30
0.0
 10
396.3137007629606
 20
2597.271855733032
 30
0.0
 10
396.3137016746281
 20
2597.316411976188
 30
0.0
 10
396.3137013161366
 20
2597.317248178084
 30
0.0
 10
396.3136997907522
 20
2597.326994007927
 30
0.0
 10
396.3136985312175
 20
2597.331869566265
 30
0.0
 10
396.3136932684331
 20
2597.34650426065
 30
0.0
 10
396.3136877810433
 20
2597.356271416487
 30
0.0
 10
396.3136654316894
 20
2597.385605660559
 30
0.0
 10
396.3136426831037
 20
2597.40520553167
 30
0.0
 10
396.3135512644667
 20
2597.464141618525
 30
0.0
 10
396.3134594293973
 20
2597.503614398941
 30
0.0
 10
396.3130939429037
 20
2597.622618213009
 30
0.0
 10
396.3127304058688
 20
2597.702735911024
 30
0.0
 10
396.3112975981943
 20
2597.945700637307
 30
0.0
 10
396.3098870256698
 20
2598.111172222518
 30
0.0
 10
396.3043837109749
 20
2598.619612629659
 30
0.0
 10
396.2990243104877
 20
2598.974706911762
 30
0.0
 10
396.2722298823322
 20
2600.420360119513
 30
0.0
 10
396.2395350478086
 20
2601.645967422502
 30
0.0
 10
396.1506571189446
 20
2604.418273101259
 30
0.0
 10
396.0944116468912
 20
2605.963228489463
 30
0.0
 10
395.8899318812872
 20
2611.105635122227
 30
0.0
 10
395.7067447697472
 20
2615.170913604026
 30
0.0
 10
395.2604444960424
 20
2624.273231128086
 30
0.0
 10
394.9973437447528
 20
2629.308973296411
 30
0.0
 10
394.021293197752
 20
2646.996022237576
 30
0.0
 10
393.1656679532911
 20
2661.097109443472
 30
0.0
 10
391.3958404298704
 20
2687.289950513435
 30
0.0
 10
390.5096239137177
 20
2699.365561226637
 30
0.0
 10
389.5955279529206
 20
2710.413514132131
 30
0.0
  0
SPLINE
  5
2396F
330
37
100
AcDbEntity
  8
0
 62
     7
100
AcDbSpline
210
0.0
220
0.0
230
1.0
 70
     8
 71
     3
 72
     8
 73
     4
 74
     0
 42
0.0000000001
 43
0.0000000001
 40
7.0
 40
7.0
 40
7.0
 40
7.0
 40
8.0
 40
8.0
 40
8.0
 40
8.0
 10
374.6466088343335
 20
2709.176656344859
 30
0.0
 10
368.9341226780169
 20
2766.656027433557
 30
0.0
 10
365.6056272076252
 20
2809.492097364347
 30
0.0
 10
361.3124236418702
 20
2875.308481856416
 30
0.0
  0
SPLINE
  5
23970
330
37
100
AcDbEntity
  8
0
 62
     7
370
     0
100
AcDbSpline
210
0.0
220
0.0
230
1.0
 70
     8
 71
     3
 72
    14
 73
    10
 74
     0
 42
0.0000000001
 43
0.0000000001
 40
7.0
 40
7.0
 40
7.0
 40
7.0
 40
7.101343716051665
 40
7.101343716051665
 40
7.304031148154995
 40
7.304031148154995
 40
7.722359455102496
 40
7.722359455102496
 40
8.0
 40
8.0
 40
8.0
 40
8.0
 10
389.5730753935221
 20
2710.660096959588
 30
0.0
 10
388.9957543109943
 20
2716.469135586883
 30
0.0
 10
388.4430103864869
 20
2722.126584157039
 30
0.0
 10
386.8479595432335
 20
2738.762252774375
 30
0.0
 10
385.868836130472
 20
2749.403699032163
 30
0.0
 10
383.0405327202283
 20
2781.601584364257
 30
0.0
 10
381.37368263319
 20
2802.727491301311
 30
0.0
 10
378.586572029942
 20
2841.564445703388
 30
0.0
 10
377.471119461204
 20
2858.033955972535
 30
0.0
 10
376.2806129619757
 20
2876.284857028919
 30
0.0
  0
SPLINE
  5
23971
330
37
100
AcDbEntity
  8
0
 62
     7
100
AcDbSpline
210
0.0
220
0.0
230
1.0
 70
     8
 71
     3
 72
     8
 73
     4
 74
     0
 42
0.0000000001
 43
0.0000000001
 40
8.0
 40
8.0
 40
8.0
 40
8.0
 40
9.0
 40
9.0
 40
9.0
 40
9.0
 10
361.3124236418702
 20
2875.308481856416
 30
0.0
 10
355.9585462539871
 20
2943.232013094389
 30
0.0
 10
339.4221362842421
 20
3143.780178720132
 30
0.0
 10
338.9473584781466
 20
3206.137697805797
 30
0.0
  0
SPLINE
  5
23972
330
37
100
AcDbEntity
  8
0
 62
     7
370
     0
100
AcDbSpline
210
0.0
220
0.0
230
1.0
 70
     8
 71
     3
 72
    24
 73
    20
 74
     0
 42
0.0000000001
 43
0.0000000001
 40
8.0
 40
8.0
 40
8.0
 40
8.0
 40
8.062457285485706
 40
8.062457285485706
 40
8.246262765361411
 40
8.246262765361411
 40
8.430068245237116
 40
8.430068245237116
 40
8.61398951597507
 40
8.61398951597507
 40
8.734235501170262
 40
8.734235501170262
 40
8.829573865750232
 40
8.829573865750232
 40
8.908833291802981
 40
8.908833291802981
 40
8.988092717855732
 40
8.988092717855732
 40
9.0
 40
9.0
 40
9.0
 40
9.0
 10
376.2660426904989
 20
2876.487157956324
 30
0.0
 10
375.931130718206
 20
2880.736116638772
 30
0.0
 10
375.552840487452
 20
2885.499296833313
 30
0.0
 10
373.9159375128441
 20
2906.053727405664
 30
0.0
 10
372.3748603489902
 20
2925.292064520658
 30
0.0
 10
368.9911906772862
 20
2968.214110127704
 30
0.0
 10
367.1486684792307
 20
2991.896955596762
 30
0.0
 10
363.4995594999062
 20
3040.355090755063
 30
0.0
 10
361.6929926737252
 20
3065.131382359098
 30
0.0
 10
359.0169054128904
 20
3104.198933183193
 30
0.0
 10
358.0395133124824
 20
3119.150559612201
 30
0.0
 10
356.5168668788568
 20
3144.217189846516
 30
0.0
 10
355.9240445228601
 20
3154.692744573371
 30
0.0
 10
355.0293126449144
 20
3172.315396370327
 30
0.0
 10
354.6952288895467
 20
3179.726301056993
 30
0.0
 10
354.1980861787378
 20
3193.075101016793
 30
0.0
 10
354.0352802656565
 20
3199.01558857746
 30
0.0
 10
353.9600035716848
 20
3204.802813590466
 30
0.0
 10
353.9523588362757
 20
3205.538051329073
 30
0.0
 10
353.9469237221874
 20
3206.251901526268
 30
0.0
  0
SPLINE
  5
23973
330
37
100
AcDbEntity
  8
0
 62
     7
100
AcDbSpline
210
0.0
220
0.0
230
1.0
 70
     8
 71
     3
 72
     8
 73
     4
 74
     0
 42
0.0000000001
 43
0.0000000001
 40
9.0
 40
9.0
 40
9.0
 40
9.0
 40
9.918673019641003
 40
9.918673019641003
 40
9.918673019641003
 40
9.918673019641003
 10
338.9473584781466
 20
3206.137697805797
 30
0.0
 10
338.5111929173626
 20
3248.798547507635
 30
0.0
 10
340.3342568499633
 20
3272.691125694868
 30
0.0
 10
340.7668150977241
 20
3279.3077586441
 30
0.0
  0
SPLINE
  5
23974
330
37
100
AcDbEntity
  8
0
 62
     7
370
     0
100
AcDbSpline
210
0.0
220
0.0
230
1.0
 70
     8
 71
     3
 72
    18
 73
    14
 74
     0
 42
0.0000000001
 43
0.0000000001
 40
9.0
 40
9.0
 40
9.0
 40
9.0
 40
9.167222609519699
 40
9.167222609519699
 40
9.501667828559096
 40
9.501667828559096
 40
9.672016293546766
 40
9.672016293546766
 40
9.780805944624571
 40
9.780805944624571
 40
9.870017655486057
 40
9.870017655486057
 40
9.918673019641003
 40
9.918673019641003
 40
9.918673019641003
 40
9.918673019641003
 10
353.9465745595688
 20
3206.291050154359
 30
0.0
 10
353.8680826937838
 20
3213.968248883783
 30
0.0
 10
353.8636671072321
 20
3221.023528020892
 30
0.0
 10
354.0066381389582
 20
3240.352002875086
 30
0.0
 10
354.3101079651131
 20
3250.786522249401
 30
0.0
 10
354.8179579869446
 20
3262.963128629773
 30
0.0
 10
354.9978913351864
 20
3266.458031607331
 30
0.0
 10
355.2697511236855
 20
3271.206305519883
 30
0.0
 10
355.3699725919727
 20
3272.813119957529
 30
0.0
 10
355.5320057851071
 20
3275.311120948216
 30
0.0
 10
355.5974439251157
 20
3276.278314488813
 30
0.0
 10
355.683252494839
 20
3277.551376452805
 30
0.0
 10
355.7105968756667
 20
3277.95803080484
 30
0.0
 10
355.7348639088776
 20
3279.3077586441
 30
0.0
  0
LINE
  5
23975
330
37
100
AcDbEntity
  8
0
 62
     7
100
AcDbLine
 10
-290.5214641862614
 20
3627.505854833183
 30
0.0
 11
-255.4182646479313
 21
3627.505854833183
 31
0.0
  0
LINE
  5
23976
330
37
100
AcDbEntity
  8
0
 62
     7
100
AcDbLine
 10
-290.5214641862614
 20
3551.941194828965
 30
0.0
 11
-255.4182646479313
 21
3551.941194828965
 31
0.0
  0
LINE
  5
23977
330
37
100
AcDbEntity
  8
0
 62
     7
100
AcDbLine
 10
-290.5214641862614
 20
3550.303832178965
 30
0.0
 11
-255.4182646479313
 21
3550.303832178965
 31
0.0
  0
LINE
  5
23978
330
37
100
AcDbEntity
  8
0
 62
     7
100
AcDbLine
 10
-255.4182646479313
 20
3627.505854833183
 30
0.0
 11
-255.4182646479313
 21
3322.769636407193
 31
0.0
  0
LINE
  5
23979
330
37
100
AcDbEntity
  8
0
 62
     7
100
AcDbLine
 10
-255.4182646479313
 20
3283.472932807193
 30
0.0
 11
-255.4182646479313
 21
2994.252483373652
 31
0.0
  0
LINE
  5
2397A
330
37
100
AcDbEntity
  8
0
 62
     7
100
AcDbLine
 10
-255.4182646479313
 20
2942.465486850085
 30
0.0
 11
-255.4182646479313
 21
2763.391241687627
 31
0.0
  0
LINE
  5
2397B
330
37
100
AcDbEntity
  8
0
 62
     7
100
AcDbLine
 10
-285.9558295031817
 20
2763.391241687627
 30
0.0
 11
-255.4182646479313
 21
2763.391241687627
 31
0.0
  0
LINE
  5
2397C
330
37
100
AcDbEntity
  8
0
 62
     7
100
AcDbLine
 10
-280.5074253164222
 20
2828.792527174087
 30
0.0
 11
-255.4182646479313
 21
2828.792527174087
 31
0.0
  0
LINE
  5
2397D
330
37
100
AcDbEntity
  8
0
 62
     7
100
AcDbLine
 10
-280.3926050259689
 20
2830.429889824086
 30
0.0
 11
-255.4182646479313
 21
2830.429889824086
 31
0.0
  0
LINE
  5
2397E
330
37
100
AcDbEntity
  8
0
 62
     7
100
AcDbLine
 10
-290.5214641862614
 20
3627.505854833183
 30
0.0
 11
-290.5214641862614
 21
3322.769636407193
 31
0.0
  0
LINE
  5
2397F
330
37
100
AcDbEntity
  8
0
 62
     7
100
AcDbLine
 10
-290.5214641862614
 20
3283.472932807193
 30
0.0
 11
-290.5214641862614
 21
2998.32254937286
 31
0.0
  0
LINE
  5
23980
330
37
100
AcDbEntity
  8
0
 62
     7
100
AcDbLine
 10
-293.8303012081366
 20
3322.769636407193
 30
0.0
 11
-231.6105205081363
 21
3322.769636407193
 31
0.0
  0
LINE
  5
23981
330
37
100
AcDbEntity
  8
0
 62
     7
100
AcDbLine
 10
-275.2735245081364
 20
3318.403336007193
 30
0.0
 11
-231.6105205081363
 21
3318.403336007193
 31
0.0
  0
LINE
  5
23982
330
37
100
AcDbEntity
  8
0
 62
     7
100
AcDbLine
 10
-293.8303012081366
 20
3322.769636407193
 30
0.0
 11
-293.8303012081366
 21
3260.549855707193
 31
0.0
  0
LINE
  5
23983
330
37
100
AcDbEntity
  8
0
 62
     7
100
AcDbLine
 10
-276.3650996081366
 20
3317.311760907193
 30
0.0
 11
-276.3650996081366
 21
3288.930808307193
 31
0.0
  0
ARC
  5
23984
330
37
100
AcDbEntity
  8
0
 62
     7
100
AcDbCircle
 10
-275.2735245081364
 20
3317.311760907193
 30
0.0
 40
1.0915751
100
AcDbArc
 50
90.0
 51
180.0
  0
LINE
  5
23985
330
37
100
AcDbEntity
  8
0
 62
     7
100
AcDbLine
 10
-293.8303012081366
 20
3260.549855707193
 30
0.0
 11
-293.8303012081366
 21
3260.549855707193
 31
0.0
  0
LINE
  5
23986
330
37
100
AcDbEntity
  8
0
 62
     7
100
AcDbLine
 10
-290.5555759081364
 20
3263.824581007193
 30
0.0
 11
-290.5555759081364
 21
3283.472932807193
 31
0.0
  0
ARC
  5
23987
330
37
100
AcDbEntity
  8
0
 62
     7
100
AcDbCircle
 10
-293.8303012081366
 20
3263.824581007193
 30
0.0
 40
3.274725299999999
100
AcDbArc
 50
270.0
 51
0.0
  0
LINE
  5
23988
330
37
100
AcDbEntity
  8
0
 62
     7
100
AcDbLine
 10
-290.5555759081364
 20
3283.472932807193
 30
0.0
 11
-231.6105205081363
 21
3283.472932807193
 31
0.0
  0
LINE
  5
23989
330
37
100
AcDbEntity
  8
0
 62
     7
100
AcDbLine
 10
-275.2735245081364
 20
3287.839233207193
 30
0.0
 11
-231.6105205081363
 21
3287.839233207193
 31
0.0
  0
ARC
  5
2398A
330
37
100
AcDbEntity
  8
0
 62
     7
100
AcDbCircle
 10
-275.2735245081364
 20
3288.930808307193
 30
0.0
 40
1.0915751
100
AcDbArc
 50
180.0
 51
270.0
  0
ARC
  5
2398B
330
37
100
AcDbEntity
  8
0
 62
     7
100
AcDbCircle
 10
-231.6105205081363
 20
3303.121284607192
 30
0.0
 40
19.64835179999994
100
AcDbArc
 50
270.0
 51
90.0
  0
ARC
  5
2398C
330
37
100
AcDbEntity
  8
0
 62
     7
100
AcDbCircle
 10
-231.6105205081363
 20
3303.121284607192
 30
0.0
 40
15.28205139999994
100
AcDbArc
 50
270.0
 51
90.0
  0
ELLIPSE
  5
2398D
330
37
100
AcDbEntity
  8
0
 62
     7
100
AcDbEllipse
 10
-285.0977004081366
 20
3301.361518971469
 30
0.0
 11
0.0000000000000791
 21
14.1904763
 31
0.0
210
0.0
220
0.0
230
1.0
 40
0.346153846153832
 41
1.14158884577835
 42
5.141596461400155
  0
ELLIPSE
  5
2398E
330
37
100
AcDbEntity
  8
0
 62
     7
100
AcDbEllipse
 10
-285.0977004081366
 20
3306.582232619252
 30
0.0
 11
0.0
 21
8.7326008
 31
0.0
210
0.0
220
0.0
230
1.0
 40
0.513058212088609
 41
0.0
 42
6.283185307179585
  0
LINE
  5
2398F
330
37
100
AcDbEntity
  8
0
 62
     7
100
AcDbLine
 10
-309.0782408862617
 20
2938.395420850877
 30
0.0
 11
-261.7911700297369
 21
2938.395420850877
 31
0.0
  0
LINE
  5
23990
330
37
100
AcDbEntity
  8
0
 62
     7
100
AcDbLine
 10
-261.7911700297369
 20
2998.32254937286
 30
0.0
 11
-309.0782408862617
 21
2998.32254937286
 31
0.0
  0
ARC
  5
23991
330
37
100
AcDbEntity
  8
0
 62
     7
100
AcDbCircle
 10
-246.3126793310804
 20
2942.888833518077
 30
0.0
 40
0.5457875500000085
100
AcDbArc
 50
179.9999999999739
 51
269.1112951001588
  0
ARC
  5
23992
330
37
100
AcDbEntity
  8
0
 62
     7
100
AcDbCircle
 10
-246.3126659414503
 20
2993.829136705659
 30
0.0
 40
0.5457875500000085
100
AcDbArc
 50
90.88870489981514
 51
180.0
  0
ARC
  5
23993
330
37
100
AcDbEntity
  8
0
 62
     7
100
AcDbCircle
 10
-256.4244027088554
 20
2942.888833518077
 30
0.0
 40
1.091575100000005
100
AcDbArc
 50
297.9483032128536
 51
0.0
  0
ARC
  5
23994
330
37
100
AcDbEntity
  8
0
 62
     7
100
AcDbCircle
 10
-261.7911700297369
 20
2939.486995950877
 30
0.0
 40
1.091575100000024
100
AcDbArc
 50
270.0
 51
314.6517139815219
  0
ARC
  5
23995
330
37
100
AcDbEntity
  8
0
 62
     7
100
AcDbCircle
 10
-248.0524956651649
 20
2923.753701945392
 30
0.0
 40
19.79810336919455
100
AcDbArc
 50
113.392237974929
 51
130.9340622755647
  0
LINE
  5
23996
330
37
100
AcDbEntity
  8
0
 62
     7
 48
4.0
100
AcDbLine
 10
-193.7747748317443
 20
2942.343111621113
 30
0.0
 11
-193.7747620856427
 21
2992.374858093104
 31
0.0
  0
ARC
  5
23997
330
37
100
AcDbEntity
  8
0
  6
Continuous
 62
     7
 48
4.0
100
AcDbCircle
 10
-195.7747620856427
 20
2992.374858602624
 30
0.0
 40
2.0
100
AcDbArc
 50
359.9999854033054
 51
90.0
  0
LINE
  5
23998
330
37
100
AcDbEntity
  8
0
 62
     7
 48
4.0
100
AcDbLine
 10
-246.8584668810805
 20
2942.888833518077
 30
0.0
 11
-255.3328276088552
 21
2942.888833518077
 31
0.0
  0
LINE
  5
23999
330
37
100
AcDbEntity
  8
0
 62
     7
 48
4.0
100
AcDbLine
 10
-255.3328276088552
 20
2942.888833518077
 30
0.0
 11
-255.3328276088552
 21
2993.829136705659
 31
0.0
  0
LINE
  5
2399A
330
37
100
AcDbEntity
  8
0
 62
     7
 48
4.0
100
AcDbLine
 10
-246.85845349145
 20
2993.829136705659
 30
0.0
 11
-246.8584668810732
 21
2942.888833518077
 31
0.0
  0
ARC
  5
2399B
330
37
100
AcDbEntity
  8
0
 62
     7
100
AcDbCircle
 10
-256.4244027088554
 20
2993.829136705659
 30
0.0
 40
1.091575100000005
100
AcDbArc
 50
0.0
 51
62.0516967871464
  0
ARC
  5
2399C
330
37
100
AcDbEntity
  8
0
 62
     7
100
AcDbCircle
 10
-261.7911700297369
 20
2997.230974272861
 30
0.0
 40
1.091575100000024
100
AcDbArc
 50
45.34828601847815
 51
90.0
  0
ARC
  5
2399D
330
37
100
AcDbEntity
  8
0
 62
     7
100
AcDbCircle
 10
-248.0524956651649
 20
3012.964268278345
 30
0.0
 40
19.79810336919455
100
AcDbArc
 50
229.0659377244696
 51
246.6077620250709
  0
LINE
  5
2399E
330
37
100
AcDbEntity
  8
0
 62
     7
 48
4.0
100
AcDbLine
 10
-246.85845349145
 20
2993.829136705659
 30
0.0
 11
-255.3328276088552
 21
2993.829136705659
 31
0.0
  0
LINE
  5
2399F
330
37
100
AcDbEntity
  8
0
 62
     7
100
AcDbLine
 10
-314.5361163862613
 20
3014.69617587286
 30
0.0
 11
-314.5361163862613
 21
2923.113369450877
 31
0.0
  0
LINE
  5
239A0
330
37
100
AcDbEntity
  8
0
 62
     7
100
AcDbLine
 10
-309.0782408862617
 20
3014.69617587286
 30
0.0
 11
-309.0782408862617
 21
2923.113369450877
 31
0.0
  0
LINE
  5
239A1
330
37
100
AcDbEntity
  8
0
 62
     7
100
AcDbLine
 10
-290.5214641862614
 20
3565.258675598174
 30
0.0
 11
-314.5361163862613
 21
3565.258675598174
 31
0.0
  0
LINE
  5
239A2
330
37
100
AcDbEntity
  8
0
 62
     7
100
AcDbLine
 10
-314.5361163862613
 20
3565.258675598174
 30
0.0
 11
-314.5361163862613
 21
3607.830104498173
 31
0.0
  0
LINE
  5
239A3
330
37
100
AcDbEntity
  8
0
 62
     7
100
AcDbLine
 10
-290.5214641862614
 20
3565.258675598174
 30
0.0
 11
-290.5214641862614
 21
3607.830104498173
 31
0.0
  0
LINE
  5
239A4
330
37
100
AcDbEntity
  8
0
 62
     7
100
AcDbLine
 10
-314.5361163862613
 20
3607.830104498173
 30
0.0
 11
-290.5214641862614
 21
3607.830104498173
 31
0.0
  0
LINE
  5
239A5
330
37
100
AcDbEntity
  8
0
 62
     7
100
AcDbLine
 10
-295.9992440417569
 20
2827.700952074086
 30
0.0
 11
-314.5361163862613
 21
2827.700952074086
 31
0.0
  0
LINE
  5
239A6
330
37
100
AcDbEntity
  8
0
 62
     7
100
AcDbLine
 10
-314.5361163862613
 20
2827.700952074086
 30
0.0
 11
-314.5361163862613
 21
2785.129523174087
 31
0.0
  0
LINE
  5
239A7
330
37
100
AcDbEntity
  8
0
 62
     7
100
AcDbLine
 10
-314.5361163862613
 20
2785.129523174087
 30
0.0
 11
-299.2589274749199
 21
2785.129523174087
 31
0.0
  0
LINE
  5
239A8
330
37
100
AcDbEntity
  8
0
 62
     7
 48
4.0
100
AcDbLine
 10
-222.0249798971928
 20
3325.153912844099
 30
0.0
 11
-244.2432765562732
 21
3325.153912844099
 31
0.0
  0
LINE
  5
239A9
330
37
100
AcDbEntity
  8
0
 62
     7
100
AcDbLine
 10
-222.7641647767328
 20
3279.3077586441
 30
0.0
 11
-243.5040916767331
 21
3279.3077586441
 31
0.0
  0
SPLINE
  5
239AA
330
37
100
AcDbEntity
  8
0
 62
     7
100
AcDbSpline
210
0.0
220
0.0
230
1.0
 70
     8
 71
     3
 72
     8
 73
     4
 74
     0
 42
0.0000000001
 43
0.0000000001
 40
0.0552927909674579
 40
0.0552927909674579
 40
0.0552927909674579
 40
0.0552927909674579
 40
0.4818973865611281
 40
0.4818973865611281
 40
0.4818973865611281
 40
0.4818973865611281
 10
-244.2432765562736
 20
3325.153912844099
 30
0.0
 10
-244.0642546000291
 20
3324.934197564002
 30
0.0
 10
-243.9780739649283
 20
3323.91125268753
 30
0.0
 10
-243.891255837803
 20
3322.769636407193
 30
0.0
  0
ARC
  5
239AB
330
37
100
AcDbEntity
  8
0
 62
     7
100
AcDbCircle
 10
-344.9366520732816
 20
3296.764298002555
 30
0.0
 40
102.4080039818652
100
AcDbArc
 50
352.0856165945791
 51
352.5426383289204
  0
LINE
  5
239AC
330
37
100
AcDbEntity
  8
0
 62
     7
100
AcDbLine
 10
-243.5040916767331
 20
3279.3077586441
 30
0.0
 11
-243.5040916767331
 21
3282.663412535668
 31
0.0
  0
SPLINE
  5
239AD
330
37
100
AcDbEntity
  8
0
 62
     7
100
AcDbSpline
210
0.0
220
0.0
230
1.0
 70
     8
 71
     3
 72
     8
 73
     4
 74
     0
 42
0.0000000001
 43
0.0000000001
 40
0.0552927909674579
 40
0.0552927909674579
 40
0.0552927909674579
 40
0.0552927909674579
 40
0.7609664433894987
 40
0.7609664433894987
 40
0.7609664433894987
 40
0.7609664433894987
 10
-222.0249798971146
 20
3325.153912844099
 30
0.0
 10
-222.3211114414799
 20
3324.790467898123
 30
0.0
 10
-222.3632053526286
 20
3322.229181052862
 30
0.0
 10
-222.5743667779322
 20
3320.568509435819
 30
0.0
  0
ARC
  5
239AE
330
37
100
AcDbEntity
  8
0
 62
     7
100
AcDbCircle
 10
-121.3316043801848
 20
3296.764298002555
 30
0.0
 40
102.4080039818652
100
AcDbArc
 50
186.3668427213876
 51
187.9143834054208
  0
LINE
  5
239AF
330
37
100
AcDbEntity
  8
0
 62
     7
100
AcDbLine
 10
-222.7641647767328
 20
3279.3077586441
 30
0.0
 11
-222.7641647767328
 21
3282.663412535668
 31
0.0
  0
SPLINE
  5
239B0
330
37
100
AcDbEntity
  8
0
 62
     7
100
AcDbSpline
210
0.0
220
0.0
230
1.0
 70
     8
 71
     3
 72
     8
 73
     4
 74
     0
 42
0.0000000001
 43
0.0000000001
 40
0.0007314808588361
 40
0.0007314808588361
 40
0.0007314808588361
 40
0.0007314808588361
 40
1.0
 40
1.0
 40
1.0
 40
1.0
 10
-225.6096827474131
 20
3279.3077586441
 30
0.0
 10
-226.2309670496576
 20
3268.485042396288
 30
0.0
 10
-227.1845687870879
 20
3259.955566918922
 30
0.0
 10
-227.7195648999929
 20
3203.407487211457
 30
0.0
  0
SPLINE
  5
239B1
330
37
100
AcDbEntity
  8
0
 62
     7
100
AcDbSpline
210
0.0
220
0.0
230
1.0
 70
     8
 71
     3
 72
     8
 73
     4
 74
     0
 42
0.0000000001
 43
0.0000000001
 40
1.0
 40
1.0
 40
1.0
 40
1.0
 40
2.0
 40
2.0
 40
2.0
 40
2.0
 10
-227.7195648999929
 20
3203.407487211457
 30
0.0
 10
-228.0074620802853
 20
3188.065836207829
 30
0.0
 10
-224.1486296988293
 20
3124.950692963502
 30
0.0
 10
-219.6281388854755
 20
3055.239168711084
 30
0.0
  0
SPLINE
  5
239B2
330
37
100
AcDbEntity
  8
0
 62
     7
100
AcDbSpline
210
0.0
220
0.0
230
1.0
 70
     8
 71
     3
 72
     8
 73
     4
 74
     0
 42
0.0000000001
 43
0.0000000001
 40
2.0
 40
2.0
 40
2.0
 40
2.0
 40
2.362333993115788
 40
2.362333993115788
 40
2.362333993115788
 40
2.362333993115788
 10
-219.6281388854755
 20
3055.239168711084
 30
0.0
 10
-218.4202817440424
 20
3036.614377607508
 30
0.0
 10
-216.9630980334592
 20
3016.738311940135
 30
0.0
 10
-215.1809753015446
 20
2994.374858602624
 30
0.0
  0
SPLINE
  5
239B3
330
37
100
AcDbEntity
  8
0
 62
     7
100
AcDbSpline
210
0.0
220
0.0
230
1.0
 70
     8
 71
     3
 72
     8
 73
     4
 74
     0
 42
0.0000000001
 43
0.0000000001
 40
2.729614915898678
 40
2.729614915898678
 40
2.729614915898678
 40
2.729614915898678
 40
3.0
 40
3.0
 40
3.0
 40
3.0
 10
-210.9831554080216
 20
2942.343111621114
 30
0.0
 10
-209.4198580752192
 20
2924.297034009501
 30
0.0
 10
-208.287010153099
 20
2911.296098444763
 30
0.0
 10
-207.2586617883759
 20
2899.582759899969
 30
0.0
  0
SPLINE
  5
239B4
330
37
100
AcDbEntity
  8
0
 62
     7
100
AcDbSpline
210
0.0
220
0.0
230
1.0
 70
     8
 71
     3
 72
     8
 73
     4
 74
     0
 42
0.0000000001
 43
0.0000000001
 40
3.0
 40
3.0
 40
3.0
 40
3.0
 40
4.0
 40
4.0
 40
4.0
 40
4.0
 10
-207.2586617883759
 20
2899.582759899969
 30
0.0
 10
-203.44528685644
 20
2856.271912163085
 30
0.0
 10
-196.5761611512317
 20
2762.094178413586
 30
0.0
 10
-194.0406456335736
 20
2731.319485088707
 30
0.0
  0
SPLINE
  5
239B5
330
37
100
AcDbEntity
  8
0
 62
     7
100
AcDbSpline
210
0.0
220
0.0
230
1.0
 70
     8
 71
     3
 72
     8
 73
     4
 74
     0
 42
0.0000000001
 43
0.0000000001
 40
4.0
 40
4.0
 40
4.0
 40
4.0
 40
4.329327003669614
 40
4.329327003669614
 40
4.329327003669614
 40
4.329327003669614
 10
-194.0406456335736
 20
2731.319485088707
 30
0.0
 10
-192.4338263876981
 20
2711.799791661841
 30
0.0
 10
-190.995727682243
 20
2691.945396123945
 30
0.0
 10
-188.5056730209873
 20
2593.250080943969
 30
0.0
  0
SPLINE
  5
239B6
330
37
100
AcDbEntity
  8
0
 62
     7
100
AcDbSpline
210
0.0
220
0.0
230
1.0
 70
     8
 71
     3
 72
     8
 73
     4
 74
     0
 42
0.0000000001
 43
0.0000000001
 40
4.466285583151643
 40
4.466285583151643
 40
4.466285583151643
 40
4.466285583151643
 40
5.0
 40
5.0
 40
5.0
 40
5.0
 10
-188.5056730209873
 20
2593.250080943969
 30
0.0
 10
-186.9912427137611
 20
2563.090269736267
 30
0.0
 10
-186.2808655014843
 20
2535.496933261965
 30
0.0
 10
-186.7876570213089
 20
2514.413866897314
 30
0.0
  0
SPLINE
  5
239B7
330
37
100
AcDbEntity
  8
0
 62
     7
100
AcDbSpline
210
0.0
220
0.0
230
1.0
 70
     8
 71
     3
 72
     8
 73
     4
 74
     0
 42
0.0000000001
 43
0.0000000001
 40
5.0
 40
5.0
 40
5.0
 40
5.0
 40
5.799966822965532
 40
5.799966822965532
 40
5.799966822965532
 40
5.799966822965532
 10
-186.7876570213089
 20
2514.413866897314
 30
0.0
 10
-187.7412137488086
 20
2474.736209846274
 30
0.0
 10
-195.6958491773076
 20
2440.66006220836
 30
0.0
 10
-203.4684829535878
 20
2419.841687815781
 30
0.0
  0
SPLINE
  5
239B8
330
37
100
AcDbEntity
  8
0
 62
     7
100
AcDbSpline
210
0.0
220
0.0
230
1.0
 70
     8
 71
     3
 72
     8
 73
     4
 74
     0
 42
0.0000000001
 43
0.0000000001
 40
8.947115245066902
 40
8.947115245066902
 40
8.947115245066902
 40
8.947115245066902
 40
9.0
 40
9.0
 40
9.0
 40
9.0
 10
-280.1937041050411
 20
2418.013885897178
 30
0.0
 10
-281.605208796737
 20
2420.830431839909
 30
0.0
 10
-282.9431539827703
 20
2423.737531166791
 30
0.0
 10
-284.1952404815912
 20
2426.736662304659
 30
0.0
  0
SPLINE
  5
239B9
330
37
100
AcDbEntity
  8
0
 62
     7
100
AcDbSpline
210
0.0
220
0.0
230
1.0
 70
     8
 71
     3
 72
     8
 73
     4
 74
     0
 42
0.0000000001
 43
0.0000000001
 40
9.0
 40
9.0
 40
9.0
 40
9.0
 40
10.0
 40
10.0
 40
10.0
 40
10.0
 10
-284.1952404815912
 20
2426.736662304659
 30
0.0
 10
-302.2822545627329
 20
2470.04245921382
 30
0.0
 10
-308.2321296220968
 20
2519.77290898844
 30
0.0
 10
-308.4695185251441
 20
2550.017265402255
 30
0.0
  0
SPLINE
  5
239BA
330
37
100
AcDbEntity
  8
0
 62
     7
100
AcDbSpline
210
0.0
220
0.0
230
1.0
 70
     8
 71
     3
 72
     8
 73
     4
 74
     0
 42
0.0000000001
 43
0.0000000001
 40
10.0
 40
10.0
 40
10.0
 40
10.0
 40
10.18761043450157
 40
10.18761043450157
 40
10.18761043450157
 40
10.18761043450157
 10
-308.4695185251441
 20
2550.017265402255
 30
0.0
 10
-308.6012332549163
 20
2566.384005061395
 30
0.0
 10
-308.6156149050436
 20
2580.599993815169
 30
0.0
 10
-308.5113793891061
 20
2593.250080943969
 30
0.0
  0
SPLINE
  5
239BB
330
37
100
AcDbEntity
  8
0
 62
     7
100
AcDbSpline
210
0.0
220
0.0
230
1.0
 70
     8
 71
     3
 72
     8
 73
     4
 74
     0
 42
0.0000000001
 43
0.0000000001
 40
10.31426341960538
 40
10.31426341960538
 40
10.31426341960538
 40
10.31426341960538
 40
11.0
 40
11.0
 40
11.0
 40
11.0
 10
-308.5113793891061
 20
2593.250080943969
 30
0.0
 10
-307.1691961161388
 20
2712.16677301338
 30
0.0
 10
-304.6044017007463
 20
2736.005294034809
 30
0.0
 10
-300.380617924489
 20
2772.757541200172
 30
0.0
  0
SPLINE
  5
239BC
330
37
100
AcDbEntity
  8
0
 62
     7
100
AcDbSpline
210
0.0
220
0.0
230
1.0
 70
     8
 71
     3
 72
     8
 73
     4
 74
     0
 42
0.0000000001
 43
0.0000000001
 40
11.0
 40
11.0
 40
11.0
 40
11.0
 40
11.72660527220525
 40
11.72660527220525
 40
11.72660527220525
 40
11.72660527220525
 10
-300.380617924489
 20
2772.757541200172
 30
0.0
 10
-295.5362732937857
 20
2823.946116131263
 30
0.0
 10
-292.6438878202826
 20
2889.959347590503
 30
0.0
 10
-291.4244509174706
 20
2921.389777757187
 30
0.0
  0
SPLINE
  5
239BD
330
37
100
AcDbEntity
  8
0
 62
     7
100
AcDbSpline
210
0.0
220
0.0
230
1.0
 70
     8
 71
     3
 72
     8
 73
     4
 74
     0
 42
0.0000000001
 43
0.0000000001
 40
0.3387492658890045
 40
0.3387492658890045
 40
0.3387492658890045
 40
0.3387492658890045
 40
1.0
 40
1.0
 40
1.0
 40
1.0
 10
-276.7105584280285
 20
2902.799168195008
 30
0.0
 10
-278.7836766599486
 20
2846.456123719546
 30
0.0
 10
-280.9122971887297
 20
2818.582595666651
 30
0.0
 10
-286.5767057536547
 20
2756.574689171137
 30
0.0
  0
SPLINE
  5
239BE
330
37
100
AcDbEntity
  8
0
 62
     7
100
AcDbSpline
210
0.0
220
0.0
230
1.0
 70
     8
 71
     3
 72
     8
 73
     4
 74
     0
 42
0.0000000001
 43
0.0000000001
 40
1.0
 40
1.0
 40
1.0
 40
1.0
 40
1.431741972095252
 40
1.431741972095252
 40
1.431741972095252
 40
1.431741972095252
 10
-286.5767057536547
 20
2756.574689171137
 30
0.0
 10
-289.7332028854063
 20
2726.995883102268
 30
0.0
 10
-291.5829257804413
 20
2699.022477805852
 30
0.0
 10
-292.8624613699204
 20
2593.250080943969
 30
0.0
  0
SPLINE
  5
239BF
330
37
100
AcDbEntity
  8
0
 62
     7
100
AcDbSpline
210
0.0
220
0.0
230
1.0
 70
     8
 71
     3
 72
     8
 73
     4
 74
     0
 42
0.0000000001
 43
0.0000000001
 40
1.563506470732074
 40
1.563506470732074
 40
1.563506470732074
 40
1.563506470732074
 40
2.0
 40
2.0
 40
2.0
 40
2.0
 10
-292.8624613699204
 20
2593.250080943969
 30
0.0
 10
-293.0733144226957
 20
2567.631452383816
 30
0.0
 10
-292.3112513119313
 20
2543.691612543959
 30
0.0
 10
-290.8572822500988
 20
2521.459885448396
 30
0.0
  0
SPLINE
  5
239C0
330
37
100
AcDbEntity
  8
0
 62
     7
100
AcDbSpline
210
0.0
220
0.0
230
1.0
 70
     8
 71
     3
 72
     8
 73
     4
 74
     0
 42
0.0000000001
 43
0.0000000001
 40
2.0
 40
2.0
 40
2.0
 40
2.0
 40
3.0
 40
3.0
 40
3.0
 40
3.0
 10
-290.8572822500988
 20
2521.459885448396
 30
0.0
 10
-289.5440670417503
 20
2501.36769276066
 30
0.0
 10
-283.7204626754957
 20
2460.046871147196
 30
0.0
 10
-266.5855296204078
 20
2425.302227230925
 30
0.0
  0
SPLINE
  5
239C1
330
37
100
AcDbEntity
  8
0
 62
     7
100
AcDbSpline
210
0.0
220
0.0
230
1.0
 70
     8
 71
     3
 72
    11
 73
     7
 74
     0
 42
0.0000000001
 43
0.0000000001
 40
5.0
 40
5.0
 40
5.0
 40
5.0
 40
6.0
 40
6.0
 40
6.0
 40
6.558569170143264
 40
6.558569170143264
 40
6.558569170143264
 40
6.558569170143264
 10
-217.2491990272744
 20
2425.387977426722
 30
0.0
 10
-206.3949702474998
 20
2451.152249648979
 30
0.0
 10
-200.1117405583242
 20
2490.80124728566
 30
0.0
 10
-200.1117405583242
 20
2541.536811777439
 30
0.0
 10
-200.1117405583242
 20
2547.613755522756
 30
0.0
 10
-201.0950745866868
 20
2568.547867888911
 30
0.0
 10
-202.5758587333922
 20
2593.250080943968
 30
0.0
  0
SPLINE
  5
239C2
330
37
100
AcDbEntity
  8
0
 62
     7
100
AcDbSpline
210
0.0
220
0.0
230
1.0
 70
     8
 71
     3
 72
     8
 73
     4
 74
     0
 42
0.0000000001
 43
0.0000000001
 40
6.731221004606758
 40
6.731221004606758
 40
6.731221004606758
 40
6.731221004606758
 40
7.0
 40
7.0
 40
7.0
 40
7.0
 10
-202.5758587333922
 20
2593.250080943968
 30
0.0
 10
-204.9153861939259
 20
2685.180449455819
 30
0.0
 10
-205.8339738989908
 20
2697.756891893982
 30
0.0
 10
-206.7788331545559
 20
2709.176656344859
 30
0.0
  0
SPLINE
  5
239C3
330
37
100
AcDbEntity
  8
0
 62
     7
100
AcDbSpline
210
0.0
220
0.0
230
1.0
 70
     8
 71
     3
 72
     8
 73
     4
 74
     0
 42
0.0000000001
 43
0.0000000001
 40
7.0
 40
7.0
 40
7.0
 40
7.0
 40
8.0
 40
8.0
 40
8.0
 40
8.0
 10
-206.7788331545559
 20
2709.176656344859
 30
0.0
 10
-212.4913193108724
 20
2778.196217199031
 30
0.0
 10
-215.8198147812642
 20
2821.03228712982
 30
0.0
 10
-220.1130183470192
 20
2875.308481856416
 30
0.0
  0
SPLINE
  5
239C4
330
37
100
AcDbEntity
  8
0
 62
     7
100
AcDbSpline
210
0.0
220
0.0
230
1.0
 70
     8
 71
     3
 72
     8
 73
     4
 74
     0
 42
0.0000000001
 43
0.0000000001
 40
8.0
 40
8.0
 40
8.0
 40
8.0
 40
8.227602146940672
 40
8.227602146940672
 40
8.227602146940672
 40
8.227602146940672
 10
-220.1130183470192
 20
2875.308481856416
 30
0.0
 10
-221.3315723349589
 20
2890.768023393971
 30
0.0
 10
-223.1294121204947
 20
2913.097884025163
 30
0.0
 10
-225.5470984011723
 20
2942.343111621113
 30
0.0
  0
SPLINE
  5
239C5
330
37
100
AcDbEntity
  8
0
 62
     7
100
AcDbSpline
210
0.0
220
0.0
230
1.0
 70
     8
 71
     3
 72
     8
 73
     4
 74
     0
 42
0.0000000001
 43
0.0000000001
 40
8.382236974960985
 40
8.382236974960985
 40
8.382236974960985
 40
8.382236974960985
 40
9.0
 40
9.0
 40
9.0
 40
9.0
 10
-229.5165573691467
 20
2994.374858602624
 30
0.0
 10
-235.7618639278218
 20
3076.355112915443
 30
0.0
 10
-242.1847833370276
 20
3167.540033083414
 30
0.0
 10
-242.4780835107427
 20
3191.507737092729
 30
0.0
  0
SPLINE
  5
239C6
330
37
100
AcDbEntity
  8
0
 62
     7
100
AcDbSpline
210
0.0
220
0.0
230
1.0
 70
     8
 71
     3
 72
     8
 73
     4
 74
     0
 42
0.0000000001
 43
0.0000000001
 40
9.0
 40
9.0
 40
9.0
 40
9.0
 40
9.918673019641003
 40
9.918673019641003
 40
9.918673019641003
 40
9.918673019641003
 10
-242.4780835107427
 20
3191.507737092729
 30
0.0
 10
-242.9142490715268
 20
3248.798547507635
 30
0.0
 10
-241.0911851389261
 20
3272.691125694868
 30
0.0
 10
-240.6586268911652
 20
3279.3077586441
 30
0.0
  0
SPLINE
  5
239C7
330
37
100
AcDbEntity
  8
0
 62
     7
100
AcDbSpline
210
0.0
220
0.0
230
1.0
 70
  1064
 71
     3
 72
    11
 73
     7
 74
     5
 42
0.0000000001
 43
0.0000000001
 44
0.0000000001
 40
0.0
 40
0.0
 40
0.0
 40
0.0
 40
19.61047051955809
 40
38.74856222010763
 40
54.94240558233471
 40
66.58948698959893
 40
66.58948698959893
 40
66.58948698959893
 40
66.58948698959893
 10
-266.5855296204078
 20
2425.302227230925
 30
0.0
 10
-263.2508729491484
 20
2419.092071936135
 30
0.0
 10
-256.6618851234803
 20
2406.821352138939
 30
0.0
 10
-236.6706651336064
 20
2406.386182048736
 30
0.0
 10
-219.7636213358587
 20
2411.577900983975
 30
0.0
 10
-217.9908338717696
 20
2421.314662510562
 30
0.0
 10
-217.2491990272744
 20
2425.387977426722
 30
0.0
 11
-266.5855296204078
 21
2425.302227230925
 31
0.0
 11
-254.6580097951065
 21
2409.736083687468
 31
0.0
 11
-235.6405607393341
 21
2407.590580168537
 31
0.0
 11
-220.9173796689362
 21
2414.333613759483
 31
0.0
 11
-217.2491990272744
 21
2425.387977426722
 31
0.0
  0
SPLINE
  5
239C8
330
37
100
AcDbEntity
  8
0
 62
     7
100
AcDbSpline
210
0.0
220
0.0
230
1.0
 70
     8
 71
     3
 72
    60
 73
    56
 74
     0
 42
0.0000000001
 43
0.0000000001
 40
0.0
 40
0.0
 40
0.0
 40
0.0
 40
1.618183782933135
 40
1.618183782933135
 40
4.854551348799406
 40
4.854551348799406
 40
8.840488697226144
 40
8.840488697226144
 40
12.82642604565288
 40
12.82642604565288
 40
15.71890138820928
 40
15.71890138820928
 40
17.03623914764234
 40
17.03623914764234
 40
18.07061039498135
 40
18.07061039498135
 40
19.10498164232035
 40
19.10498164232035
 40
21.17372413699836
 40
21.17372413699836
 40
24.57684656429076
 40
24.57684656429076
 40
27.97996899158317
 40
27.97996899158317
 40
31.38309141887557
 40
31.38309141887557
 40
34.78621384616797
 40
34.78621384616797
 40
36.20550090554601
 40
36.20550090554601
 40
39.08410960778276
 40
39.08410960778276
 40
41.96271831001952
 40
41.96271831001952
 40
44.84132701225627
 40
44.84132701225627
 40
47.18792425290361
 40
47.18792425290361
 40
49.53452149355097
 40
49.53452149355097
 40
50.17357623392719
 40
50.17357623392719
 40
50.73225506517273
 40
50.73225506517273
 40
51.29093389641829
 40
51.29093389641829
 40
52.40829155890939
 40
52.40829155890939
 40
54.59175801916332
 40
54.59175801916332
 40
56.77522447941726
 40
56.77522447941726
 40
58.9586909396712
 40
58.9586909396712
 40
61.00312016058165
 40
61.00312016058165
 40
61.00312016058165
 40
61.00312016058165
 10
-280.1937041050411
 20
2418.013885897176
 30
0.0
 10
-279.8933423885988
 20
2417.454520095055
 30
0.0
 10
-279.5845521432349
 20
2416.879388411829
 30
0.0
 10
-278.6278469675664
 20
2415.113108100464
 30
0.0
 10
-277.950224208748
 20
2413.881192948705
 30
0.0
 10
-276.3034262232096
 20
2411.044333469751
 30
0.0
 10
-275.3041386613059
 20
2409.418211100367
 30
0.0
 10
-273.0011069237804
 20
2406.104577062441
 30
0.0
 10
-271.6966050700536
 20
2404.414126016968
 30
0.0
 10
-269.0299936581438
 20
2401.541722013295
 30
0.0
 10
-267.7801968310188
 20
2400.34791984357
 30
0.0
 10
-265.7320120994397
 20
2398.701505804755
 30
0.0
 10
-265.0586311262656
 20
2398.199680764032
 30
0.0
 10
-263.7969763429911
 20
2397.339069597122
 30
0.0
 10
-263.2190320966266
 20
2396.971308619212
 30
0.0
 10
-262.0337029772405
 20
2396.273229893833
 30
0.0
 10
-261.4354887256255
 20
2395.947948912618
 30
0.0
 10
-259.6317920519811
 20
2395.040424568048
 30
0.0
 10
-258.4177222430727
 20
2394.526690159801
 30
0.0
 10
-255.2152822879799
 20
2393.378069591282
 30
0.0
 10
-253.2342909037658
 20
2392.877825071905
 30
0.0
 10
-249.3524601702076
 20
2392.188458020187
 30
0.0
 10
-247.4499897845372
 20
2391.998695552238
 30
0.0
 10
-243.7319122600972
 20
2391.836993594004
 30
0.0
 10
-241.9155023802747
 20
2391.865320074867
 30
0.0
 10
-238.3658561190147
 20
2392.076443204806
 30
0.0
 10
-236.6323797504953
 20
2392.259570733987
 30
0.0
 10
-234.2350077420725
 20
2392.596767942336
 30
0.0
 10
-233.5415669840673
 20
2392.704364337882
 30
0.0
 10
-231.3906338866738
 20
2393.071256586828
 30
0.0
 10
-229.9017567291409
 20
2393.370844718372
 30
0.0
 10
-226.8412835838673
 20
2394.133494549604
 30
0.0
 10
-225.269174958462
 20
2394.595989421728
 30
0.0
 10
-222.0527886443525
 20
2395.77023443443
 30
0.0
 10
-220.4067908492381
 20
2396.481728189607
 30
0.0
 10
-217.3874685583334
 20
2398.119384727374
 30
0.0
 10
-216.0192867287848
 20
2398.982911541674
 30
0.0
 10
-213.330148291827
 20
2401.050040895019
 30
0.0
 10
-212.00890090739
 20
2402.256259462367
 30
0.0
 10
-210.4502218927088
 20
2404.036783895965
 30
0.0
 10
-210.1239364127015
 20
2404.431958799325
 30
0.0
 10
-209.5295810687631
 20
2405.198426730227
 30
0.0
 10
-209.2603113230536
 20
2405.565724147978
 30
0.0
 10
-208.7535827250109
 20
2406.295315930913
 30
0.0
 10
-208.5138346383547
 20
2406.660432721067
 30
0.0
 10
-207.8329571363898
 20
2407.752547060753
 30
0.0
 10
-207.4302573967735
 20
2408.476047735301
 30
0.0
 10
-206.3676793588326
 20
2410.576382079338
 30
0.0
 10
-205.8279036234868
 20
2411.915940994234
 30
0.0
 10
-204.9519269869253
 20
2414.449709207151
 30
0.0
 10
-204.6153117836808
 20
2415.645786281215
 30
0.0
 10
-204.0563496556416
 20
2417.891649157591
 30
0.0
 10
-203.69272952933
 20
2419.244596082449
 30
0.0
 10
-203.1442650878504
 20
2420.717513035522
 30
0.0
 10
-202.8520358075954
 20
2421.519759405813
 30
0.0
 10
-202.5867913719168
 20
2422.258578723237
 30
0.0
  0
SPLINE
  5
239C9
330
37
100
AcDbEntity
  8
0
 62
     7
100
AcDbSpline
210
0.0
220
0.0
230
1.0
 70
     8
 71
     3
 72
     8
 73
     4
 74
     0
 42
0.0000000001
 43
0.0000000001
 40
0.1039131694653133
 40
0.1039131694653133
 40
0.1039131694653133
 40
0.1039131694653133
 40
0.2277651541176758
 40
0.2277651541176758
 40
0.2277651541176758
 40
0.2277651541176758
 10
-276.015394798813
 20
2921.389777757187
 30
0.0
 10
-276.2508944835869
 20
2914.763378973257
 30
0.0
 10
-276.4764425335048
 20
2908.645087619829
 30
0.0
 10
-276.7105584280285
 20
2902.799168195008
 30
0.0
  0
LINE
  5
239CA
330
37
100
AcDbEntity
  8
0
 62
     7
100
AcDbLine
 10
360.2986398621564
 20
3793.970838647815
 30
0.0
 11
360.2986398621564
 21
3822.735419851599
 31
0.0
  0
LINE
  5
239CB
330
37
100
AcDbEntity
  8
0
 62
     7
100
AcDbLine
 10
360.2986398621564
 20
3822.735419851599
 30
0.0
 11
336.2839876621564
 21
3822.735419851599
 31
0.0
  0
LINE
  5
239CC
330
37
100
AcDbEntity
  8
0
 62
     7
100
AcDbLine
 10
336.2839876621564
 20
3822.735419851599
 30
0.0
 11
336.2839876621564
 21
3793.970838647815
 31
0.0
  0
CIRCLE
  5
239CD
330
37
100
AcDbEntity
  8
0
 62
     7
100
AcDbCircle
 10
348.2913137621566
 20
3781.169167882434
 30
0.0
 40
17.55159976916503
  0
LINE
  5
239CE
330
37
100
AcDbEntity
  8
0
 62
     7
100
AcDbLine
 10
365.8770252531966
 20
3807.999156001599
 30
0.0
 11
365.8770252531962
 21
3757.573636434898
 31
0.0
  0
LINE
  5
239CF
330
37
100
AcDbEntity
  8
0
 62
     7
100
AcDbLine
 10
365.8770252531962
 20
3730.496662124014
 30
0.0
 11
365.8770252531966
 21
3726.415814301546
 31
0.0
  0
LINE
  5
239D0
330
37
100
AcDbEntity
  8
0
 62
     7
100
AcDbLine
 10
381.1590766531966
 20
3807.999156001599
 30
0.0
 11
365.8770252531966
 21
3807.999156001599
 31
0.0
  0
LINE
  5
239D1
330
37
100
AcDbEntity
  8
0
 62
     7
100
AcDbLine
 10
373.5180509531964
 20
3807.999156001599
 30
0.0
 11
373.5180509531955
 21
3726.415814301546
 31
0.0
  0
LINE
  5
239D2
330
37
100
AcDbEntity
  8
0
 62
     7
100
AcDbLine
 10
-309.0782408862617
 20
3014.69617587286
 30
0.0
 11
-314.5361163862613
 21
3014.69617587286
 31
0.0
  0
LINE
  5
239D3
330
37
100
AcDbEntity
  8
0
 62
     7
100
AcDbLine
 10
-309.0782408862617
 20
2923.113369450877
 30
0.0
 11
-314.5361163862613
 21
2923.113369450877
 31
0.0
  0
LINE
  5
239D4
330
37
100
AcDbEntity
  8
0
 62
     7
100
AcDbLine
 10
109.4349559410565
 20
3817.2775443516
 30
0.0
 11
109.4349559410565
 21
3769.990473495074
 31
0.0
  0
LINE
  5
239D5
330
37
100
AcDbEntity
  8
0
 62
     7
100
AcDbLine
 10
169.3620844630389
 20
3769.990473495074
 30
0.0
 11
169.3620844630389
 21
3817.2775443516
 31
0.0
  0
ARC
  5
239D6
330
37
100
AcDbEntity
  8
0
 62
     7
100
AcDbCircle
 10
113.9283686082566
 20
3754.511982796418
 30
0.0
 40
0.5457875500000085
100
AcDbArc
 50
89.99999999997395
 51
179.1112951001587
  0
ARC
  5
239D7
330
37
100
AcDbEntity
  8
0
 62
     7
100
AcDbCircle
 10
-323.0629343586425
 20
3761.283024193005
 30
0.0
 40
436.497969836346
100
AcDbArc
 50
354.1218335811634
 51
359.1122923835215
  0
ARC
  5
239D8
330
37
100
AcDbEntity
  8
0
 62
     7
100
AcDbCircle
 10
60.0416685799504
 20
3719.160301210322
 30
0.0
 40
51.16334364806174
100
AcDbArc
 50
350.341196901585
 51
357.1089152098947
  0
ARC
  5
239D9
330
37
100
AcDbEntity
  8
0
 62
     7
100
AcDbCircle
 10
110.3082160210568
 20
3703.480939860031
 30
0.0
 40
0.8732600800000076
100
AcDbArc
 50
172.4060359076993
 51
262.3516695422631
  0
POLYLINE
  5
239DA
330
37
100
AcDbEntity
  8
0
 62
     7
100
AcDb2dPolyline
 66
     1
 10
0.0
 20
0.0
 30
0.0
 70
   128
  0
VERTEX
  5
239DB
330
239DA
100
AcDbEntity
  8
0
 62
     7
100
AcDbVertex
100
AcDb2dVertex
 10
109.4426148969745
 20
3703.59634289859
 30
0.0
  0
VERTEX
  5
239DC
330
239DA
100
AcDbEntity
  8
0
 62
     7
100
AcDbVertex
100
AcDb2dVertex
 10
110.1093245203686
 20
3707.503587299969
 30
0.0
  0
VERTEX
  5
239DD
330
239DA
100
AcDbEntity
  8
0
 62
     7
100
AcDbVertex
100
AcDb2dVertex
 10
110.4797391781789
 20
3710.576085021421
 30
0.0
  0
SEQEND
  5
239DE
330
239DA
100
AcDbEntity
  8
0
 62
     7
  0
ARC
  5
239DF
330
37
100
AcDbEntity
  8
0
 62
     7
100
AcDbCircle
 10
112.2911335137522
 20
3701.263378012202
 30
0.0
 40
1.091575100000006
100
AcDbArc
 50
40.62291532214795
 51
82.85000510118385
  0
ARC
  5
239E0
330
37
100
AcDbEntity
  8
0
 62
     7
100
AcDbCircle
 10
144.6407781069741
 20
3979.433043202251
 30
0.0
 40
278.9528625974412
100
AcDbArc
 50
262.9062507100753
 51
263.36862594956
  0
LINE
  5
239E1
330
37
100
AcDbEntity
  8
0
 62
     7
100
AcDbLine
 10
113.1196509901978
 20
3701.974078364082
 30
0.0
 11
115.3815731100356
 21
3699.337183642294
 31
0.0
  0
ARC
  5
239E2
330
37
100
AcDbEntity
  8
0
 62
     7
100
AcDbCircle
 10
168.4926729011348
 20
3703.480926470398
 30
0.0
 40
0.8732600800000076
100
AcDbArc
 50
277.6483304577106
 51
7.593964092274868
  0
ARC
  5
239E3
330
37
100
AcDbEntity
  8
0
 62
     7
100
AcDbCircle
 10
166.5059068903295
 20
3701.26336462257
 30
0.0
 40
1.091575100000006
100
AcDbArc
 50
97.14999489878993
 51
139.377084677852
  0
ARC
  5
239E4
330
37
100
AcDbEntity
  8
0
 62
     7
100
AcDbCircle
 10
134.1016108220959
 20
3980.380822348741
 30
0.0
 40
279.9006307456155
100
AcDbArc
 50
276.6200814909349
 51
277.0816732439573
  0
POLYLINE
  5
239E5
330
37
100
AcDbEntity
  8
0
 62
     7
100
AcDb2dPolyline
 66
     1
 10
0.0
 20
0.0
 30
0.0
 70
   128
  0
VERTEX
  5
239E6
330
239E5
100
AcDbEntity
  8
0
 62
     7
100
AcDbVertex
100
AcDb2dVertex
 10
169.3582740252176
 20
3703.596329508958
 30
0.0
  0
VERTEX
  5
239E7
330
239E5
100
AcDbEntity
  8
0
 62
     7
100
AcDbVertex
100
AcDb2dVertex
 10
168.687715883714
 20
3707.503573910337
 30
0.0
  0
VERTEX
  5
239E8
330
239E5
100
AcDbEntity
  8
0
 62
     7
100
AcDbVertex
100
AcDb2dVertex
 10
168.3173012259048
 20
3710.576071631788
 30
0.0
  0
SEQEND
  5
239E9
330
239E5
100
AcDbEntity
  8
0
 62
     7
  0
POLYLINE
  5
239EA
330
37
100
AcDbEntity
  8
0
 62
     7
100
AcDb2dPolyline
 66
     1
 10
0.0
 20
0.0
 30
0.0
 70
   128
  0
VERTEX
  5
239EB
330
239EA
100
AcDbEntity
  8
0
 62
     7
100
AcDbVertex
100
AcDb2dVertex
 10
166.2537849361778
 20
3702.325424281524
 30
0.0
  0
VERTEX
  5
239EC
330
239EA
100
AcDbEntity
  8
0
 62
     7
100
AcDbVertex
100
AcDb2dVertex
 10
165.4463300283663
 20
3707.030346155768
 30
0.0
  0
VERTEX
  5
239ED
330
239EA
100
AcDbEntity
  8
0
 62
     7
100
AcDbVertex
100
AcDb2dVertex
 10
164.3996414737824
 20
3716.244358667566
 30
0.0
  0
SEQEND
  5
239EE
330
239EA
100
AcDbEntity
  8
0
 62
     7
  0
POLYLINE
  5
239EF
330
37
100
AcDbEntity
  8
0
 62
     7
100
AcDb2dPolyline
 66
     1
 10
0.0
 20
0.0
 30
0.0
  0
VERTEX
  5
239F0
330
239EF
100
AcDbEntity
  8
0
 62
     7
100
AcDbVertex
100
AcDb2dVertex
 10
164.0990176542021
 20
3701.974065376565
 30
0.0
  0
VERTEX
  5
239F1
330
239EF
100
AcDbEntity
  8
0
 62
     7
100
AcDbVertex
100
AcDb2dVertex
 10
163.284137410042
 20
3706.72225360175
 30
0.0
  0
VERTEX
  5
239F2
330
239EF
100
AcDbEntity
  8
0
 62
     7
100
AcDbVertex
100
AcDb2dVertex
 10
162.2304425007941
 20
3715.997943141786
 30
0.0
  0
SEQEND
  5
239F3
330
239EF
100
AcDbEntity
  8
0
 62
     7
  0
LINE
  5
239F4
330
37
100
AcDbEntity
  8
0
 62
     7
100
AcDbLine
 10
165.6773894138831
 20
3701.974064974451
 30
0.0
 11
163.4154672940448
 21
3699.337170252665
 31
0.0
  0
ARC
  5
239F5
330
37
100
AcDbEntity
  8
0
 62
     7
100
AcDbCircle
 10
218.7553718241355
 20
3719.160287820677
 30
0.0
 40
51.16334364806174
100
AcDbArc
 50
182.8910847901051
 51
189.6588030983885
  0
ARC
  5
239F6
330
37
100
AcDbEntity
  8
0
 62
     7
100
AcDbCircle
 10
162.5869498175988
 20
3700.047870604544
 30
0.0
 40
1.091575100000012
100
AcDbArc
 50
277.6785416019507
 51
319.377084677852
  0
ARC
  5
239F7
330
37
100
AcDbEntity
  8
0
 62
     7
100
AcDbCircle
 10
116.2100905864912
 20
3700.047883994167
 30
0.0
 40
1.091575099999986
100
AcDbArc
 50
220.622915322148
 51
262.3214583980494
  0
ARC
  5
239F8
330
37
100
AcDbEntity
  8
0
 62
     7
100
AcDbCircle
 10
139.3985642840811
 20
3852.610838137316
 30
0.0
 40
155.4065547857233
100
AcDbArc
 50
261.3643693108365
 51
278.6355978118392
  0
ARC
  5
239F9
330
37
100
AcDbEntity
  8
0
 62
     7
100
AcDbCircle
 10
164.8686717958388
 20
3754.511969406788
 30
0.0
 40
0.5457875500000085
100
AcDbArc
 50
0.8887048998151263
 51
90.0
  0
ARC
  5
239FA
330
37
100
AcDbEntity
  8
0
 62
     7
100
AcDbCircle
 10
601.8599747627408
 20
3761.283010803255
 30
0.0
 40
436.497969836346
100
AcDbArc
 50
180.8877076164784
 51
185.8781664188365
  0
ARC
  5
239FB
330
37
100
AcDbEntity
  8
0
 62
     7
100
AcDbCircle
 10
601.8599747627408
 20
3761.283010803255
 30
0.0
 40
439.7726951363459
100
AcDbArc
 50
180.8110841069165
 51
185.8781664188365
  0
ARC
  5
239FC
330
37
100
AcDbEntity
  8
0
 62
     7
100
AcDbCircle
 10
601.7987344087778
 20
3761.280792139118
 30
0.0
 40
441.8945798085982
100
AcDbArc
 50
180.8069014200361
 51
185.8816710440698
  0
ARC
  5
239FD
330
37
100
AcDbEntity
  8
0
 62
     7
100
AcDbCircle
 10
113.9283686082566
 20
3764.623706174194
 30
0.0
 40
1.091575100000005
100
AcDbArc
 50
207.9483032128532
 51
270.0
  0
ARC
  5
239FE
330
37
100
AcDbEntity
  8
0
 62
     7
100
AcDbCircle
 10
110.5265310410567
 20
3769.990473495074
 30
0.0
 40
1.091575100000024
100
AcDbArc
 50
180.0
 51
224.6517139815265
  0
ARC
  5
239FF
330
37
100
AcDbEntity
  8
0
 62
     7
100
AcDbCircle
 10
94.79323703557099
 20
3756.251799130502
 30
0.0
 40
19.79810336919455
100
AcDbArc
 50
23.39223797493017
 51
40.93406227556656
  0
LINE
  5
23A00
330
37
100
AcDbEntity
  8
0
 62
     7
 48
4.0
100
AcDbLine
 10
113.1196509901982
 20
3701.974078364082
 30
0.0
 11
165.6773894138899
 21
3701.97406497446
 31
0.0
  0
LINE
  5
23A01
330
37
100
AcDbEntity
  8
0
 62
     7
 48
4.0
100
AcDbLine
 10
113.9283686082566
 20
3755.057770346418
 30
0.0
 11
113.9283686082566
 21
3763.532131074194
 31
0.0
  0
LINE
  5
23A02
330
37
100
AcDbEntity
  8
0
 62
     7
 48
4.0
100
AcDbLine
 10
113.9283686082566
 20
3763.532131074194
 30
0.0
 11
164.8686717958388
 21
3763.532131074194
 31
0.0
  0
LINE
  5
23A03
330
37
100
AcDbEntity
  8
0
 62
     7
 48
4.0
100
AcDbLine
 10
164.8686717958388
 20
3755.057756956788
 30
0.0
 11
113.9283686082566
 21
3755.057770346411
 31
0.0
  0
ARC
  5
23A04
330
37
100
AcDbEntity
  8
0
 62
     7
100
AcDbCircle
 10
164.8686717958388
 20
3764.623706174194
 30
0.0
 40
1.091575100000005
100
AcDbArc
 50
270.0
 51
332.0516967871468
  0
ARC
  5
23A05
330
37
100
AcDbEntity
  8
0
 62
     7
100
AcDbCircle
 10
168.2705093630387
 20
3769.990473495074
 30
0.0
 40
1.091575100000024
100
AcDbArc
 50
315.3482860184735
 51
0.0
  0
ARC
  5
23A06
330
37
100
AcDbEntity
  8
0
 62
     7
100
AcDbCircle
 10
184.0038033685249
 20
3756.251799130502
 30
0.0
 40
19.79810336919455
100
AcDbArc
 50
139.0659377244683
 51
156.6077620250698
  0
LINE
  5
23A07
330
37
100
AcDbEntity
  8
0
 62
     7
 48
4.0
100
AcDbLine
 10
164.8686717958388
 20
3755.057756956788
 30
0.0
 11
164.8686717958388
 21
3763.532131074194
 31
0.0
  0
LINE
  5
23A08
330
37
100
AcDbEntity
  8
0
 62
     7
100
AcDbLine
 10
185.7357109630387
 20
3822.735419851599
 30
0.0
 11
94.15290454105649
 21
3822.735419851599
 31
0.0
  0
LINE
  5
23A09
330
37
100
AcDbEntity
  8
0
 62
     7
100
AcDbLine
 10
185.7357109630387
 20
3817.2775443516
 30
0.0
 11
94.15290454105649
 21
3817.2775443516
 31
0.0
  0
POLYLINE
  5
23A0A
330
37
100
AcDbEntity
  8
0
 62
     7
100
AcDb2dPolyline
 66
     1
 10
0.0
 20
0.0
 30
0.0
 70
   128
  0
VERTEX
  5
23A0B
330
23A0A
100
AcDbEntity
  8
0
 62
     7
100
AcDbVertex
100
AcDb2dVertex
 10
112.5432554679177
 20
3702.325424281524
 30
0.0
  0
VERTEX
  5
23A0C
330
23A0A
100
AcDbEntity
  8
0
 62
     7
100
AcDbVertex
100
AcDb2dVertex
 10
113.3507103757291
 20
3707.030346155768
 30
0.0
  0
VERTEX
  5
23A0D
330
23A0A
100
AcDbEntity
  8
0
 62
     7
100
AcDbVertex
100
AcDb2dVertex
 10
114.397398930313
 20
3716.244358667566
 30
0.0
  0
SEQEND
  5
23A0E
330
23A0A
100
AcDbEntity
  8
0
 62
     7
  0
POLYLINE
  5
23A0F
330
37
100
AcDbEntity
  8
0
 62
     7
100
AcDb2dPolyline
 66
     1
 10
0.0
 20
0.0
 30
0.0
  0
VERTEX
  5
23A10
330
23A0F
100
AcDbEntity
  8
0
 62
     7
100
AcDbVertex
100
AcDb2dVertex
 10
114.6980227498933
 20
3701.974065376565
 30
0.0
  0
VERTEX
  5
23A11
330
23A0F
100
AcDbEntity
  8
0
 62
     7
100
AcDbVertex
100
AcDb2dVertex
 10
115.5129029940534
 20
3706.72225360175
 30
0.0
  0
VERTEX
  5
23A12
330
23A0F
100
AcDbEntity
  8
0
 62
     7
100
AcDbVertex
100
AcDb2dVertex
 10
116.5665979033014
 20
3715.997943141786
 30
0.0
  0
SEQEND
  5
23A13
330
23A0F
100
AcDbEntity
  8
0
 62
     7
  0
ARC
  5
23A14
330
37
100
AcDbEntity
  8
0
 62
     7
100
AcDbCircle
 10
-323.0629343586449
 20
3761.283010803256
 30
0.0
 40
439.7726951363459
100
AcDbArc
 50
354.1218335811634
 51
359.1889158930572
  0
ARC
  5
23A15
330
37
100
AcDbEntity
  8
0
 62
     7
100
AcDbCircle
 10
-323.0016940046819
 20
3761.28079213912
 30
0.0
 40
441.8945798085982
100
AcDbArc
 50
354.1183289559302
 51
359.1930985799639
  0
LINE
  5
23A16
330
37
100
AcDbEntity
  8
0
 62
     7
100
AcDbLine
 10
185.7357109630387
 20
3817.2775443516
 30
0.0
 11
185.7357109630387
 21
3822.735419851599
 31
0.0
  0
LINE
  5
23A17
330
37
100
AcDbEntity
  8
0
 62
     7
100
AcDbLine
 10
381.1590766531966
 20
3807.999156001599
 30
0.0
 11
381.1590766531966
 21
3727.222598601599
 31
0.0
  0
ARC
  5
23A18
330
37
100
AcDbEntity
  8
0
 62
     7
100
AcDbCircle
 10
380.0675015531964
 20
3727.222598601599
 30
0.0
 40
1.0915751
100
AcDbArc
 50
312.3451051696889
 51
0.0
  0
LINE
  5
23A19
330
37
100
AcDbEntity
  8
0
 62
     7
100
AcDbLine
 10
381.1590766531971
 20
3804.1786431516
 30
0.0
 11
393.1664027531964
 21
3804.1786431516
 31
0.0
  0
LINE
  5
23A1A
330
37
100
AcDbEntity
  8
0
 62
     7
100
AcDbLine
 10
383.3422268531966
 20
3804.1786431516
 30
0.0
 11
383.3422268531966
 21
3793.262892151599
 31
0.0
  0
LINE
  5
23A1B
330
37
100
AcDbEntity
  8
0
 62
     7
100
AcDbLine
 10
381.1590766531966
 20
3804.1786431516
 30
0.0
 11
381.1590766531966
 21
3793.262892151599
 31
0.0
  0
ELLIPSE
  5
23A1C
330
37
100
AcDbEntity
  8
0
 62
     7
100
AcDbEllipse
 10
393.1664027531964
 20
3798.720767651599
 30
0.0
 11
-9.8241759
 21
0.0
 31
0.0
210
0.0
220
0.0
230
1.0
 40
0.5555555555555556
 41
0.0
 42
6.283185307179585
  0
LINE
  5
23A1D
330
37
100
AcDbEntity
  8
0
 62
     7
100
AcDbLine
 10
381.1590766531971
 20
3793.262892151599
 30
0.0
 11
393.1664027531964
 21
3793.262892151599
 31
0.0
  0
LINE
  5
23A1E
330
37
100
AcDbEntity
  8
0
 62
     7
100
AcDbLine
 10
365.8770252531966
 20
3807.999156001599
 30
0.0
 11
360.2986398621564
 21
3807.999156001599
 31
0.0
  0
LINE
  5
23A1F
330
37
100
AcDbEntity
  8
0
 62
     7
100
AcDbLine
 10
336.2839876621564
 20
3807.999156001599
 30
0.0
 11
330.7056022711166
 21
3807.999156001599
 31
0.0
  0
LINE
  5
23A20
330
37
100
AcDbEntity
  8
0
 62
     7
100
AcDbLine
 10
365.8770252531966
 20
3800.358130301599
 30
0.0
 11
360.2986398621564
 21
3800.358130301599
 31
0.0
  0
LINE
  5
23A21
330
37
100
AcDbEntity
  8
0
 62
     7
100
AcDbLine
 10
336.2839876621564
 20
3800.358130301599
 30
0.0
 11
330.7056022711166
 21
3800.358130301599
 31
0.0
  0
LINE
  5
23A22
330
37
100
AcDbEntity
  8
0
 62
     7
100
AcDbLine
 10
330.7056022711166
 20
3807.999156001599
 30
0.0
 11
330.7056022711162
 21
3757.573636434898
 31
0.0
  0
LINE
  5
23A23
330
37
100
AcDbEntity
  8
0
 62
     7
100
AcDbLine
 10
330.7056022711162
 20
3730.496662124016
 30
0.0
 11
330.7056022711166
 21
3726.415814301547
 31
0.0
  0
LINE
  5
23A24
330
37
100
AcDbEntity
  8
0
 62
     7
100
AcDbLine
 10
315.4235508711166
 20
3807.999156001599
 30
0.0
 11
330.7056022711166
 21
3807.999156001599
 31
0.0
  0
LINE
  5
23A25
330
37
100
AcDbEntity
  8
0
 62
     7
100
AcDbLine
 10
323.0645765711164
 20
3807.999156001599
 30
0.0
 11
323.0645765711159
 21
3726.415814301547
 31
0.0
  0
LINE
  5
23A26
330
37
100
AcDbEntity
  8
0
 62
     7
100
AcDbLine
 10
315.4235508711166
 20
3807.999156001599
 30
0.0
 11
315.4235508711166
 21
3727.222598601599
 31
0.0
  0
ARC
  5
23A27
330
37
100
AcDbEntity
  8
0
 62
     7
100
AcDbCircle
 10
316.5151259711164
 20
3727.222598601599
 30
0.0
 40
1.0915751
100
AcDbArc
 50
180.0
 51
227.6548948302061
  0
LINE
  5
23A28
330
37
100
AcDbEntity
  8
0
 62
     7
100
AcDbLine
 10
315.4235508711161
 20
3804.1786431516
 30
0.0
 11
303.4162247711164
 21
3804.1786431516
 31
0.0
  0
LINE
  5
23A29
330
37
100
AcDbEntity
  8
0
 62
     7
100
AcDbLine
 10
313.2404006711166
 20
3804.1786431516
 30
0.0
 11
313.2404006711166
 21
3793.262892151599
 31
0.0
  0
LINE
  5
23A2A
330
37
100
AcDbEntity
  8
0
 62
     7
100
AcDbLine
 10
315.4235508711166
 20
3804.1786431516
 30
0.0
 11
315.4235508711166
 21
3793.262892151599
 31
0.0
  0
ELLIPSE
  5
23A2B
330
37
100
AcDbEntity
  8
0
 62
     7
100
AcDbEllipse
 10
303.4162247711164
 20
3798.720767651599
 30
0.0
 11
9.8241759
 21
0.0
 31
0.0
210
0.0
220
0.0
230
-1.0
 40
0.5555555555555556
 41
0.0
 42
6.283185307179585
  0
LINE
  5
23A2C
330
37
100
AcDbEntity
  8
0
 62
     7
100
AcDbLine
 10
315.4235508711161
 20
3793.262892151599
 30
0.0
 11
303.4162247711164
 21
3793.262892151599
 31
0.0
  0
SPLINE
  5
23A2D
330
37
100
AcDbEntity
  8
0
 62
     7
100
AcDbSpline
210
0.0
220
0.0
230
1.0
 70
     8
 71
     3
 72
    62
 73
    58
 74
     0
 42
0.0000000001
 43
0.0000000001
 40
0.0
 40
0.0
 40
0.0
 40
0.0
 40
12.85706411879222
 40
12.85706411879222
 40
25.71412823758445
 40
25.71412823758445
 40
35.66551705929091
 40
35.66551705929091
 40
39.83156993473148
 40
39.83156993473148
 40
42.9017948499673
 40
42.9017948499673
 40
48.99480495670428
 40
48.99480495670428
 40
55.08781506344128
 40
55.08781506344128
 40
64.94757991313711
 40
64.94757991313711
 40
69.3542744064583
 40
69.3542744064583
 40
73.76096889977948
 40
73.76096889977948
 40
82.57435788642187
 40
82.57435788642187
 40
91.38774687306423
 40
91.38774687306423
 40
97.85898939819837
 40
97.85898939819837
 40
104.3302319233324
 40
104.3302319233324
 40
106.9128859333961
 40
106.9128859333961
 40
109.5849643912503
 40
109.5849643912503
 40
111.2419326797649
 40
111.2419326797649
 40
112.8989009682794
 40
112.8989009682794
 40
116.2128375453085
 40
116.2128375453085
 40
121.2370845707634
 40
121.2370845707634
 40
126.2613315962182
 40
126.2613315962182
 40
131.285578621673
 40
131.285578621673
 40
134.9599824526283
 40
134.9599824526283
 40
136.1285740095333
 40
136.1285740095333
 40
137.3126042619378
 40
137.3126042619378
 40
138.4966345143423
 40
138.4966345143423
 40
140.8646950191514
 40
140.8646950191514
 40
142.5118033998778
 40
142.5118033998778
 40
142.5118033998778
 40
142.5118033998778
 10
169.3620844630385
 20
3787.137087854282
 30
0.0
 10
175.1260550841446
 20
3787.766051653174
 30
0.0
 10
179.9834794122179
 20
3788.383300979
 30
0.0
 10
189.3812510585757
 20
3789.221382241497
 30
0.0
 10
193.9202886608199
 20
3789.440851749373
 30
0.0
 10
201.5259559101336
 20
3789.194183502637
 30
0.0
 10
204.6917715669709
 20
3788.872599869344
 30
0.0
 10
208.9253806233422
 20
3788.03370794025
 30
0.0
 10
210.1432353824929
 20
3787.739065443693
 30
0.0
 10
212.2038048276121
 20
3787.138804237308
 30
0.0
 10
213.0606335407682
 20
3786.856586730779
 30
0.0
 10
215.570460714728
 20
3785.92571777326
 30
0.0
 10
217.2351960949917
 20
3785.168195546297
 30
0.0
 10
220.6072059686534
 20
3783.4027605643
 30
0.0
 10
222.3137560612107
 20
3782.394805458836
 30
0.0
 10
226.8820703780483
 20
3779.487787969169
 30
0.0
 10
229.8040182537242
 20
3777.42201392104
 30
0.0
 10
234.2895153693979
 20
3774.238720460328
 30
0.0
 10
235.7129460505884
 20
3773.22787196083
 30
0.0
 10
238.637065839342
 20
3771.186971751412
 30
0.0
 10
240.135236513869
 20
3770.157977941754
 30
0.0
 10
244.7249725681289
 20
3767.099914499978
 30
0.0
 10
247.910324222254
 20
3765.099344067337
 30
0.0
 10
254.4943825244076
 20
3761.467002238395
 30
0.0
 10
257.8931102614914
 20
3759.833025777105
 30
0.0
 10
263.9817532604392
 20
3757.603357257206
 30
0.0
 10
266.6217665100033
 20
3756.847026786689
 30
0.0
 10
272.0285811904895
 20
3755.885903963972
 30
0.0
 10
274.7988663826922
 20
3755.682367519488
 30
0.0
 10
278.7160522876883
 20
3755.939284231526
 30
0.0
 10
279.8373767500355
 20
3756.074345044928
 30
0.0
 10
282.1152484483476
 20
3756.487337102059
 30
0.0
 10
283.2716112643042
 20
3756.7701337413
 30
0.0
 10
285.1288936811315
 20
3757.353747021562
 30
0.0
 10
285.8253253071342
 20
3757.60396853954
 30
0.0
 10
287.1774809655866
 20
3758.141097616436
 30
0.0
 10
287.8355805149944
 20
3758.42870351799
 30
0.0
 10
289.7620636343016
 20
3759.332584552306
 30
0.0
 10
290.9829169773423
 20
3759.989397931406
 30
0.0
 10
293.9360118627018
 20
3761.692608847662
 30
0.0
 10
295.6089296998529
 20
3762.765202605107
 30
0.0
 10
298.8098391610723
 20
3764.813500085504
 30
0.0
 10
300.3376735119876
 20
3765.789295715205
 30
0.0
 10
303.2533963807554
 20
3767.479628341974
 30
0.0
 10
304.6396076476852
 20
3768.191930189547
 30
0.0
 10
306.8844310992234
 20
3769.10276343519
 30
0.0
 10
307.7829211306201
 20
3769.388780539234
 30
0.0
 10
308.9089008472996
 20
3769.634391511802
 30
0.0
 10
309.1763388008798
 20
3769.683699220406
 30
0.0
 10
309.7080742483889
 20
3769.763281172698
 30
0.0
 10
309.9683288142149
 20
3769.792875358837
 30
0.0
 10
310.540289754453
 20
3769.838427647052
 30
0.0
 10
310.8454575794683
 20
3769.853535501108
 30
0.0
 10
311.8163948589621
 20
3769.876571948773
 30
0.0
 10
312.5374800780954
 20
3769.861444883741
 30
0.0
 10
313.8693484601493
 20
3769.803760168934
 30
0.0
 10
314.4468134820044
 20
3769.771240228634
 30
0.0
 10
315.4235508711166
 20
3769.736891886221
 30
0.0
  0
SPLINE
  5
23A2E
330
37
100
AcDbEntity
  8
0
 62
     7
100
AcDbSpline
210
0.0
220
0.0
230
1.0
 70
     8
 71
     3
 72
    62
 73
    58
 74
     0
 42
0.0000000001
 43
0.0000000001
 40
0.7181225116997135
 40
0.7181225116997135
 40
0.7181225116997135
 40
0.7181225116997135
 40
12.0162296445746
 40
12.0162296445746
 40
24.0324592891492
 40
24.0324592891492
 40
36.0486889337238
 40
36.0486889337238
 40
40.79623443416547
 40
40.79623443416547
 40
43.02918252954571
 40
43.02918252954571
 40
45.26213062492597
 40
45.26213062492597
 40
49.72802681568646
 40
49.72802681568646
 40
58.6968723250334
 40
58.6968723250334
 40
67.66571783438033
 40
67.66571783438033
 40
75.09219837032055
 40
75.09219837032055
 40
82.51867890626082
 40
82.51867890626082
 40
89.94515944220106
 40
89.94515944220106
 40
97.37163997814128
 40
97.37163997814128
 40
102.9031833352193
 40
102.9031833352193
 40
108.4347266922973
 40
108.4347266922973
 40
109.8281657465559
 40
109.8281657465559
 40
111.2216048008145
 40
111.2216048008145
 40
114.0084829093316
 40
114.0084829093316
 40
118.8868132957467
 40
118.8868132957467
 40
123.7651436821618
 40
123.7651436821618
 40
128.6434740685769
 40
128.6434740685769
 40
133.521804454992
 40
133.521804454992
 40
135.2822545418356
 40
135.2822545418356
 40
136.3143121700183
 40
136.3143121700183
 40
137.1556689570555
 40
137.1556689570555
 40
137.9970257440929
 40
137.9970257440929
 40
139.6797393181675
 40
139.6797393181675
 40
142.1794764238875
 40
142.1794764238875
 40
142.1794764238875
 40
142.1794764238875
 10
169.3620844630389
 20
3800.236393371535
 30
0.0
 10
173.7072738169944
 20
3800.789666950595
 30
0.0
 10
178.1107816604075
 20
3801.343077213012
 30
0.0
 10
187.2332820862319
 20
3802.201300572872
 30
0.0
 10
191.9553339017974
 20
3802.489005999414
 30
0.0
 10
201.3620608063001
 20
3802.38407149622
 30
0.0
 10
206.0505828208365
 20
3801.991695716635
 30
0.0
 10
212.486234552256
 20
3800.665537696523
 30
0.0
 10
214.2964341080473
 20
3800.202445006208
 30
0.0
 10
216.9290479605915
 20
3799.372518949021
 30
0.0
 10
217.767800604412
 20
3799.084225704142
 30
0.0
 10
219.430211984978
 20
3798.461836453301
 30
0.0
 10
220.2481423826538
 20
3798.130154540484
 30
0.0
 10
222.665055954635
 20
3797.081614414504
 30
0.0
 10
224.2269907808962
 20
3796.311449656916
 30
0.0
 10
228.8097173779505
 20
3793.839017294193
 30
0.0
 10
231.7139265507179
 20
3791.982277050497
 30
0.0
 10
237.4175707952458
 20
3788.105886998766
 30
0.0
 10
240.2179476265354
 20
3786.084820134732
 30
0.0
 10
245.4146601996316
 20
3782.419349827585
 30
0.0
 10
247.8107242521727
 20
3780.761020557212
 30
0.0
 10
252.6385918831769
 20
3777.606851660021
 30
0.0
 10
255.0689263774419
 20
3776.112381988056
 30
0.0
 10
259.8824410158771
 20
3773.452307360912
 30
0.0
 10
262.2656476424175
 20
3772.287621238456
 30
0.0
 10
266.880058768042
 20
3770.433486199995
 30
0.0
 10
269.1094325400503
 20
3769.745807492364
 30
0.0
 10
272.7685663744582
 20
3769.036991346052
 30
0.0
 10
274.2559337444884
 20
3768.889284956271
 30
0.0
 10
277.0746949113954
 20
3768.907642019121
 30
0.0
 10
278.4054987371354
 20
3769.07111654041
 30
0.0
 10
280.0172114124629
 20
3769.482520912984
 30
0.0
 10
280.3375861434641
 20
3769.575511079906
 30
0.0
 10
280.9806773113209
 20
3769.785817657442
 30
0.0
 10
281.3112827182048
 20
3769.905702125389
 30
0.0
 10
282.3295958710431
 20
3770.309245022352
 30
0.0
 10
283.0438169794796
 20
3770.637204895702
 30
0.0
 10
285.0929439993987
 20
3771.683816394366
 30
0.0
 10
286.489322807104
 20
3772.511874792366
 30
0.0
 10
289.437014141289
 20
3774.356490389612
 30
0.0
 10
290.9881429690971
 20
3775.371911712355
 30
0.0
 10
294.2708844729772
 20
3777.422841427059
 30
0.0
 10
296.0029496393353
 20
3778.459321948535
 30
0.0
 10
299.7257180819169
 20
3780.359291891102
 30
0.0
 10
301.7199884794139
 20
3781.225022427236
 30
0.0
 10
304.6676538374521
 20
3782.10008756036
 30
0.0
 10
305.4713487398239
 20
3782.302563787095
 30
0.0
 10
306.7804979155966
 20
3782.563914022517
 30
0.0
 10
307.2717286745309
 20
3782.647527391968
 30
0.0
 10
308.1760378866964
 20
3782.772717778885
 30
0.0
 10
308.5882891199575
 20
3782.818927589854
 30
0.0
 10
309.39210212162
 20
3782.889858176897
 30
0.0
 10
309.7871256679499
 20
3782.915314623926
 30
0.0
 10
310.9507514404285
 20
3782.968164951043
 30
0.0
 10
311.6978605879367
 20
3782.972253749421
 30
0.0
 10
313.4826528856346
 20
3782.941924356631
 30
0.0
 10
314.4859384514052
 20
3782.888662962391
 30
0.0
 10
315.4235508711166
 20
3782.835800140472
 30
0.0
  0
LINE
  5
23A2F
330
37
100
AcDbEntity
  8
0
  6
Continuous
 62
     7
370
     0
100
AcDbLine
 10
118.1484038312491
 20
2948.864972551621
 30
0.0
 11
118.1484038312491
 21
2987.864972551621
 31
0.0
  0
LINE
  5
23A30
330
37
100
AcDbEntity
  8
0
  6
Continuous
 62
     7
370
     0
100
AcDbLine
 10
161.1484038312495
 20
2948.864972551621
 30
0.0
 11
161.1484038312495
 21
2987.864972551621
 31
0.0
  0
ARC
  5
23A31
330
37
100
AcDbEntity
  8
0
  6
Continuous
 62
     7
370
     0
100
AcDbCircle
 10
139.6484038312486
 20
2952.321736929087
 30
0.0
 40
41.5399999821746
100
AcDbArc
 50
58.83037815689561
 51
121.1696218431044
  0
ARC
  5
23A32
330
37
100
AcDbEntity
  8
0
  6
Continuous
 62
     7
370
     0
100
AcDbCircle
 10
139.6484038312495
 20
2968.364972551621
 30
0.0
 40
25.0
100
AcDbArc
 50
149.3165828910217
 51
210.6834171089782
  0
ARC
  5
23A33
330
37
100
AcDbEntity
  8
0
  6
Continuous
 62
     7
370
     0
100
AcDbCircle
 10
139.6484038312495
 20
2968.364972551621
 30
0.0
 40
25.0
100
AcDbArc
 50
329.3165828910218
 51
30.68341710897822
  0
LINE
  5
23A34
330
37
100
AcDbEntity
  8
0
  6
Continuous
 62
     7
370
     0
100
AcDbLine
 10
127.1484038312481
 20
2943.072829682595
 30
0.0
 11
127.1484038312481
 21
2926.072829682595
 31
0.0
  0
LINE
  5
23A35
330
37
100
AcDbEntity
  8
0
  6
Continuous
 62
     7
370
     0
100
AcDbLine
 10
152.1484038312481
 20
2943.072829682595
 30
0.0
 11
152.1484038312481
 21
2926.072829682595
 31
0.0
  0
LINE
  5
23A36
330
37
100
AcDbEntity
  8
0
  6
Continuous
 62
     7
370
     0
100
AcDbLine
 10
127.1484038312481
 20
2943.072829682595
 30
0.0
 11
135.648403831249
 21
2943.072829682595
 31
0.0
  0
LINE
  5
23A37
330
37
100
AcDbEntity
  8
0
  6
Continuous
 62
     7
370
     0
100
AcDbLine
 10
143.6484038312486
 20
2943.072829682595
 30
0.0
 11
152.1484038312481
 21
2943.072829682595
 31
0.0
  0
LINE
  5
23A38
330
37
100
AcDbEntity
  8
0
  6
Continuous
 62
     7
370
     0
100
AcDbLine
 10
127.1484038312481
 20
2926.072829682595
 30
0.0
 11
143.6484038312491
 21
2926.072829682595
 31
0.0
  0
LINE
  5
23A39
330
37
100
AcDbEntity
  8
0
  6
Continuous
 62
     7
370
     0
100
AcDbLine
 10
143.6484038312491
 20
2926.072829682595
 30
0.0
 11
152.1484038312481
 21
2926.072829682595
 31
0.0
  0
ELLIPSE
  5
23A3A
330
37
100
AcDbEntity
  8
0
  6
Continuous
 62
     7
370
     0
100
AcDbEllipse
 10
129.1484038312481
 20
2934.572829682595
 30
0.0
 11
0.0
 21
8.0
 31
0.0
210
0.0
220
0.0
230
1.0
 40
0.625
 41
2.730075807522305
 42
6.694702153247074
  0
ELLIPSE
  5
23A3B
330
37
100
AcDbEntity
  8
0
  6
Continuous
 62
     7
370
     0
100
AcDbEllipse
 10
150.1484038312481
 20
2934.572829682595
 30
0.0
 11
0.0
 21
8.0
 31
0.0
210
0.0
220
0.0
230
1.0
 40
0.625
 41
5.871668461112097
 42
9.836294806836868
  0
LINE
  5
23A3C
330
37
100
AcDbEntity
  8
0
  6
Continuous
 62
     7
370
     0
100
AcDbLine
 10
129.631539265374
 20
2943.072829682595
 30
0.0
 11
129.6315392653736
 21
2944.116610332709
 31
0.0
  0
LINE
  5
23A3D
330
37
100
AcDbEntity
  8
0
  6
Continuous
 62
     7
370
     0
100
AcDbLine
 10
149.6652683971241
 20
2943.072829682595
 30
0.0
 11
149.6652683971245
 21
2944.116610332709
 31
0.0
  0
LINE
  5
23A3E
330
37
100
AcDbEntity
  8
0
 62
     7
100
AcDbLine
 10
333.3318544121565
 20
3512.978235794099
 30
0.0
 11
333.3318544121565
 21
3448.7079659941
 31
0.0
  0
LINE
  5
23A3F
330
37
100
AcDbEntity
  8
0
 62
     7
100
AcDbLine
 10
327.3480706721565
 20
3519.480268512124
 30
0.0
 11
327.3480706721565
 21
3336.603231346074
 31
0.0
  0
ARC
  5
23A40
330
37
100
AcDbEntity
  8
0
 62
     7
100
AcDbCircle
 10
334.9940165621564
 20
3512.978235794099
 30
0.0
 40
1.662162149999999
100
AcDbArc
 50
90.0
 51
180.0
  0
LINE
  5
23A41
330
37
100
AcDbEntity
  8
0
 62
     7
100
AcDbLine
 10
334.9940165621564
 20
3447.0458038441
 30
0.0
 11
361.5886109621564
 21
3447.0458038441
 31
0.0
  0
ARC
  5
23A42
330
37
100
AcDbEntity
  8
0
 62
     7
100
AcDbCircle
 10
334.9940165621564
 20
3448.7079659941
 30
0.0
 40
1.662162149999999
100
AcDbArc
 50
180.0
 51
270.0
  0
LINE
  5
23A43
330
37
100
AcDbEntity
  8
0
 62
     7
100
AcDbLine
 10
334.9940165621564
 20
3514.6403979441
 30
0.0
 11
361.5886109621564
 21
3514.640397944098
 31
0.0
  0
ARC
  5
23A44
330
37
100
AcDbEntity
  8
0
 62
     7
100
AcDbCircle
 10
361.5886109621564
 20
3512.978235794099
 30
0.0
 40
1.662162149999999
100
AcDbArc
 50
0.0
 51
90.0
  0
LINE
  5
23A45
330
37
100
AcDbEntity
  8
0
 62
     7
100
AcDbLine
 10
363.2507731121567
 20
3448.7079659941
 30
0.0
 11
363.2507731121563
 21
3512.978235794099
 31
0.0
  0
LINE
  5
23A46
330
37
100
AcDbEntity
  8
0
 62
     7
100
AcDbLine
 10
369.2345568521563
 20
3336.603231346074
 30
0.0
 11
369.2345568521563
 21
3519.480268512124
 31
0.0
  0
ARC
  5
23A47
330
37
100
AcDbEntity
  8
0
 62
     7
100
AcDbCircle
 10
361.5886109621564
 20
3448.7079659941
 30
0.0
 40
1.662162149999999
100
AcDbArc
 50
270.0
 51
0.0
  0
CIRCLE
  5
23A48
330
37
100
AcDbEntity
  8
0
 62
     7
100
AcDbCircle
 10
336.8774069556947
 20
3511.597675452057
 30
0.0
 40
0.9520361276207967
  0
CIRCLE
  5
23A49
330
37
100
AcDbEntity
  8
0
 62
     7
100
AcDbCircle
 10
336.877084413053
 20
3507.789066358304
 30
0.0
 40
0.9520361276207967
  0
CIRCLE
  5
23A4A
330
37
100
AcDbEntity
  8
0
 62
     7
100
AcDbCircle
 10
340.1754374294591
 20
3509.693370905182
 30
0.0
 40
0.9520361276207967
  0
CIRCLE
  5
23A4B
330
37
100
AcDbEntity
  8
0
 62
     7
100
AcDbCircle
 10
343.4737904458651
 20
3511.597675452057
 30
0.0
 40
0.9520361276207967
  0
CIRCLE
  5
23A4C
330
37
100
AcDbEntity
  8
0
 62
     7
100
AcDbCircle
 10
336.8774069556947
 20
3503.98045726455
 30
0.0
 40
0.9520361276207967
  0
CIRCLE
  5
23A4D
330
37
100
AcDbEntity
  8
0
 62
     7
100
AcDbCircle
 10
340.1754374294591
 20
3505.884761811427
 30
0.0
 40
0.9520361276207967
  0
CIRCLE
  5
23A4E
330
37
100
AcDbEntity
  8
0
 62
     7
100
AcDbCircle
 10
343.4737904458651
 20
3507.789066358304
 30
0.0
 40
0.9520361276207967
  0
CIRCLE
  5
23A4F
330
37
100
AcDbEntity
  8
0
 62
     7
100
AcDbCircle
 10
346.7721434622716
 20
3509.693370905182
 30
0.0
 40
0.9520361276207967
  0
CIRCLE
  5
23A50
330
37
100
AcDbEntity
  8
0
 62
     7
100
AcDbCircle
 10
336.877084413053
 20
3500.171848170796
 30
0.0
 40
0.9520361276207967
  0
CIRCLE
  5
23A51
330
37
100
AcDbEntity
  8
0
 62
     7
100
AcDbCircle
 10
340.1754374294591
 20
3502.076152717673
 30
0.0
 40
0.9520361276207967
  0
CIRCLE
  5
23A52
330
37
100
AcDbEntity
  8
0
 62
     7
100
AcDbCircle
 10
343.4737904458651
 20
3503.98045726455
 30
0.0
 40
0.9520361276207967
  0
CIRCLE
  5
23A53
330
37
100
AcDbEntity
  8
0
 62
     7
100
AcDbCircle
 10
336.8774069556947
 20
3496.363239077043
 30
0.0
 40
0.9520361276207967
  0
CIRCLE
  5
23A54
330
37
100
AcDbEntity
  8
0
 62
     7
100
AcDbCircle
 10
340.1754374294591
 20
3498.267543623919
 30
0.0
 40
0.9520361276207967
  0
CIRCLE
  5
23A55
330
37
100
AcDbEntity
  8
0
 62
     7
100
AcDbCircle
 10
343.4737904458651
 20
3500.171848170796
 30
0.0
 40
0.9520361276207967
  0
CIRCLE
  5
23A56
330
37
100
AcDbEntity
  8
0
 62
     7
100
AcDbCircle
 10
346.7721434622716
 20
3502.076152717673
 30
0.0
 40
0.9520361276207967
  0
CIRCLE
  5
23A57
330
37
100
AcDbEntity
  8
0
 62
     7
100
AcDbCircle
 10
336.877084413053
 20
3492.554629983289
 30
0.0
 40
0.9520361276207967
  0
CIRCLE
  5
23A58
330
37
100
AcDbEntity
  8
0
 62
     7
100
AcDbCircle
 10
340.1754374294591
 20
3494.458934530166
 30
0.0
 40
0.9520361276207967
  0
CIRCLE
  5
23A59
330
37
100
AcDbEntity
  8
0
 62
     7
100
AcDbCircle
 10
343.4737904458651
 20
3496.363239077043
 30
0.0
 40
0.9520361276207967
  0
CIRCLE
  5
23A5A
330
37
100
AcDbEntity
  8
0
 62
     7
100
AcDbCircle
 10
336.8774069556947
 20
3488.746020889535
 30
0.0
 40
0.9520361276207967
  0
CIRCLE
  5
23A5B
330
37
100
AcDbEntity
  8
0
 62
     7
100
AcDbCircle
 10
340.1754374294591
 20
3490.650325436412
 30
0.0
 40
0.9520361276207967
  0
CIRCLE
  5
23A5C
330
37
100
AcDbEntity
  8
0
 62
     7
100
AcDbCircle
 10
343.4737904458651
 20
3492.554629983289
 30
0.0
 40
0.9520361276207967
  0
CIRCLE
  5
23A5D
330
37
100
AcDbEntity
  8
0
 62
     7
100
AcDbCircle
 10
346.7721434622716
 20
3494.458934530166
 30
0.0
 40
0.9520361276207967
  0
CIRCLE
  5
23A5E
330
37
100
AcDbEntity
  8
0
 62
     7
100
AcDbCircle
 10
336.877084413053
 20
3484.937411795782
 30
0.0
 40
0.9520361276207967
  0
CIRCLE
  5
23A5F
330
37
100
AcDbEntity
  8
0
 62
     7
100
AcDbCircle
 10
340.1754374294591
 20
3486.841716342659
 30
0.0
 40
0.9520361276207967
  0
CIRCLE
  5
23A60
330
37
100
AcDbEntity
  8
0
 62
     7
100
AcDbCircle
 10
343.4737904458651
 20
3488.746020889535
 30
0.0
 40
0.9520361276207967
  0
CIRCLE
  5
23A61
330
37
100
AcDbEntity
  8
0
 62
     7
100
AcDbCircle
 10
336.8774069556947
 20
3481.128802702027
 30
0.0
 40
0.9520361276207967
  0
CIRCLE
  5
23A62
330
37
100
AcDbEntity
  8
0
 62
     7
100
AcDbCircle
 10
340.1754374294591
 20
3483.033107248906
 30
0.0
 40
0.9520361276207967
  0
CIRCLE
  5
23A63
330
37
100
AcDbEntity
  8
0
 62
     7
100
AcDbCircle
 10
343.4737904458651
 20
3484.937411795782
 30
0.0
 40
0.9520361276207967
  0
CIRCLE
  5
23A64
330
37
100
AcDbEntity
  8
0
 62
     7
100
AcDbCircle
 10
346.7721434622716
 20
3486.841716342659
 30
0.0
 40
0.9520361276207967
  0
CIRCLE
  5
23A65
330
37
100
AcDbEntity
  8
0
 62
     7
100
AcDbCircle
 10
336.877084413053
 20
3477.320193608274
 30
0.0
 40
0.9520361276207967
  0
CIRCLE
  5
23A66
330
37
100
AcDbEntity
  8
0
 62
     7
100
AcDbCircle
 10
340.1754374294591
 20
3479.224498155151
 30
0.0
 40
0.9520361276207967
  0
CIRCLE
  5
23A67
330
37
100
AcDbEntity
  8
0
 62
     7
100
AcDbCircle
 10
343.4737904458651
 20
3481.128802702027
 30
0.0
 40
0.9520361276207967
  0
CIRCLE
  5
23A68
330
37
100
AcDbEntity
  8
0
 62
     7
100
AcDbCircle
 10
336.8774069556947
 20
3473.511584514521
 30
0.0
 40
0.9520361276207967
  0
CIRCLE
  5
23A69
330
37
100
AcDbEntity
  8
0
 62
     7
100
AcDbCircle
 10
340.1754374294591
 20
3475.415889061397
 30
0.0
 40
0.9520361276207967
  0
CIRCLE
  5
23A6A
330
37
100
AcDbEntity
  8
0
 62
     7
100
AcDbCircle
 10
343.4737904458651
 20
3477.320193608274
 30
0.0
 40
0.9520361276207967
  0
CIRCLE
  5
23A6B
330
37
100
AcDbEntity
  8
0
 62
     7
100
AcDbCircle
 10
346.7721434622716
 20
3479.224498155151
 30
0.0
 40
0.9520361276207967
  0
CIRCLE
  5
23A6C
330
37
100
AcDbEntity
  8
0
 62
     7
100
AcDbCircle
 10
336.877084413053
 20
3469.702975420766
 30
0.0
 40
0.9520361276207967
  0
CIRCLE
  5
23A6D
330
37
100
AcDbEntity
  8
0
 62
     7
100
AcDbCircle
 10
340.1754374294591
 20
3471.607279967642
 30
0.0
 40
0.9520361276207967
  0
CIRCLE
  5
23A6E
330
37
100
AcDbEntity
  8
0
 62
     7
100
AcDbCircle
 10
343.4737904458651
 20
3473.511584514521
 30
0.0
 40
0.9520361276207967
  0
CIRCLE
  5
23A6F
330
37
100
AcDbEntity
  8
0
 62
     7
100
AcDbCircle
 10
336.8774069556947
 20
3465.894366327013
 30
0.0
 40
0.9520361276207967
  0
CIRCLE
  5
23A70
330
37
100
AcDbEntity
  8
0
 62
     7
100
AcDbCircle
 10
340.1754374294591
 20
3467.798670873889
 30
0.0
 40
0.9520361276207967
  0
CIRCLE
  5
23A71
330
37
100
AcDbEntity
  8
0
 62
     7
100
AcDbCircle
 10
343.4737904458651
 20
3469.702975420766
 30
0.0
 40
0.9520361276207967
  0
CIRCLE
  5
23A72
330
37
100
AcDbEntity
  8
0
 62
     7
100
AcDbCircle
 10
346.7721434622716
 20
3471.607279967642
 30
0.0
 40
0.9520361276207967
  0
CIRCLE
  5
23A73
330
37
100
AcDbEntity
  8
0
 62
     7
100
AcDbCircle
 10
336.877084413053
 20
3462.08575723326
 30
0.0
 40
0.9520361276207967
  0
CIRCLE
  5
23A74
330
37
100
AcDbEntity
  8
0
 62
     7
100
AcDbCircle
 10
340.1754374294591
 20
3463.990061780137
 30
0.0
 40
0.9520361276207967
  0
CIRCLE
  5
23A75
330
37
100
AcDbEntity
  8
0
 62
     7
100
AcDbCircle
 10
343.4737904458651
 20
3465.894366327013
 30
0.0
 40
0.9520361276207967
  0
CIRCLE
  5
23A76
330
37
100
AcDbEntity
  8
0
 62
     7
100
AcDbCircle
 10
336.8774069556947
 20
3458.277148139507
 30
0.0
 40
0.9520361276207967
  0
CIRCLE
  5
23A77
330
37
100
AcDbEntity
  8
0
 62
     7
100
AcDbCircle
 10
340.1754374294591
 20
3460.181452686382
 30
0.0
 40
0.9520361276207967
  0
CIRCLE
  5
23A78
330
37
100
AcDbEntity
  8
0
 62
     7
100
AcDbCircle
 10
343.4737904458651
 20
3462.08575723326
 30
0.0
 40
0.9520361276207967
  0
CIRCLE
  5
23A79
330
37
100
AcDbEntity
  8
0
 62
     7
100
AcDbCircle
 10
346.7721434622716
 20
3463.990061780137
 30
0.0
 40
0.9520361276207967
  0
CIRCLE
  5
23A7A
330
37
100
AcDbEntity
  8
0
 62
     7
100
AcDbCircle
 10
336.877084413053
 20
3454.468539045752
 30
0.0
 40
0.9520361276207967
  0
CIRCLE
  5
23A7B
330
37
100
AcDbEntity
  8
0
 62
     7
100
AcDbCircle
 10
340.1754374294591
 20
3456.372843592629
 30
0.0
 40
0.9520361276207967
  0
CIRCLE
  5
23A7C
330
37
100
AcDbEntity
  8
0
 62
     7
100
AcDbCircle
 10
343.4737904458651
 20
3458.277148139507
 30
0.0
 40
0.9520361276207967
  0
CIRCLE
  5
23A7D
330
37
100
AcDbEntity
  8
0
 62
     7
100
AcDbCircle
 10
336.8774069556947
 20
3450.659929951998
 30
0.0
 40
0.9520361276207967
  0
CIRCLE
  5
23A7E
330
37
100
AcDbEntity
  8
0
 62
     7
100
AcDbCircle
 10
340.1754374294591
 20
3452.564234498876
 30
0.0
 40
0.9520361276207967
  0
CIRCLE
  5
23A7F
330
37
100
AcDbEntity
  8
0
 62
     7
100
AcDbCircle
 10
343.4737904458651
 20
3454.468539045752
 30
0.0
 40
0.9520361276207967
  0
CIRCLE
  5
23A80
330
37
100
AcDbEntity
  8
0
 62
     7
100
AcDbCircle
 10
346.7721434622716
 20
3456.372843592629
 30
0.0
 40
0.9520361276207967
  0
CIRCLE
  5
23A81
330
37
100
AcDbEntity
  8
0
 62
     7
100
AcDbCircle
 10
346.7721434622716
 20
3505.884761811427
 30
0.0
 40
0.9520361276207967
  0
CIRCLE
  5
23A82
330
37
100
AcDbEntity
  8
0
 62
     7
100
AcDbCircle
 10
346.7721434622716
 20
3498.26754362392
 30
0.0
 40
0.9520361276207967
  0
CIRCLE
  5
23A83
330
37
100
AcDbEntity
  8
0
 62
     7
100
AcDbCircle
 10
346.7721434622716
 20
3490.650325436412
 30
0.0
 40
0.9520361276207967
  0
CIRCLE
  5
23A84
330
37
100
AcDbEntity
  8
0
 62
     7
100
AcDbCircle
 10
346.7721434622716
 20
3483.033107248906
 30
0.0
 40
0.9520361276207967
  0
CIRCLE
  5
23A85
330
37
100
AcDbEntity
  8
0
 62
     7
100
AcDbCircle
 10
346.7721434622716
 20
3475.415889061397
 30
0.0
 40
0.9520361276207967
  0
CIRCLE
  5
23A86
330
37
100
AcDbEntity
  8
0
 62
     7
100
AcDbCircle
 10
346.7721434622716
 20
3467.79867087389
 30
0.0
 40
0.9520361276207967
  0
CIRCLE
  5
23A87
330
37
100
AcDbEntity
  8
0
 62
     7
100
AcDbCircle
 10
346.7721434622716
 20
3460.181452686383
 30
0.0
 40
0.9520361276207967
  0
CIRCLE
  5
23A88
330
37
100
AcDbEntity
  8
0
 62
     7
100
AcDbCircle
 10
343.4741129885073
 20
3450.659929951998
 30
0.0
 40
0.9520361276207967
  0
CIRCLE
  5
23A89
330
37
100
AcDbEntity
  8
0
 62
     7
100
AcDbCircle
 10
346.7724660049133
 20
3452.564234498876
 30
0.0
 40
0.9520361276207967
  0
CIRCLE
  5
23A8A
330
37
100
AcDbEntity
  8
0
 62
     7
100
AcDbCircle
 10
359.7052205686181
 20
3511.597675452057
 30
0.0
 40
0.9520361276207967
  0
CIRCLE
  5
23A8B
330
37
100
AcDbEntity
  8
0
 62
     7
100
AcDbCircle
 10
359.7055431112602
 20
3507.789066358304
 30
0.0
 40
0.9520361276207967
  0
CIRCLE
  5
23A8C
330
37
100
AcDbEntity
  8
0
 62
     7
100
AcDbCircle
 10
356.4071900948542
 20
3509.693370905182
 30
0.0
 40
0.9520361276207967
  0
CIRCLE
  5
23A8D
330
37
100
AcDbEntity
  8
0
 62
     7
100
AcDbCircle
 10
353.1088370784477
 20
3511.597675452057
 30
0.0
 40
0.9520361276207967
  0
CIRCLE
  5
23A8E
330
37
100
AcDbEntity
  8
0
 62
     7
100
AcDbCircle
 10
359.7052205686181
 20
3503.98045726455
 30
0.0
 40
0.9520361276207967
  0
CIRCLE
  5
23A8F
330
37
100
AcDbEntity
  8
0
 62
     7
100
AcDbCircle
 10
356.4071900948542
 20
3505.884761811427
 30
0.0
 40
0.9520361276207967
  0
CIRCLE
  5
23A90
330
37
100
AcDbEntity
  8
0
 62
     7
100
AcDbCircle
 10
353.1088370784477
 20
3507.789066358304
 30
0.0
 40
0.9520361276207967
  0
CIRCLE
  5
23A91
330
37
100
AcDbEntity
  8
0
 62
     7
100
AcDbCircle
 10
349.8104840620416
 20
3509.693370905182
 30
0.0
 40
0.9520361276207967
  0
CIRCLE
  5
23A92
330
37
100
AcDbEntity
  8
0
 62
     7
100
AcDbCircle
 10
359.7055431112602
 20
3500.171848170796
 30
0.0
 40
0.9520361276207967
  0
CIRCLE
  5
23A93
330
37
100
AcDbEntity
  8
0
 62
     7
100
AcDbCircle
 10
356.4071900948542
 20
3502.076152717673
 30
0.0
 40
0.9520361276207967
  0
CIRCLE
  5
23A94
330
37
100
AcDbEntity
  8
0
 62
     7
100
AcDbCircle
 10
353.1088370784477
 20
3503.98045726455
 30
0.0
 40
0.9520361276207967
  0
CIRCLE
  5
23A95
330
37
100
AcDbEntity
  8
0
 62
     7
100
AcDbCircle
 10
359.7052205686181
 20
3496.363239077043
 30
0.0
 40
0.9520361276207967
  0
CIRCLE
  5
23A96
330
37
100
AcDbEntity
  8
0
 62
     7
100
AcDbCircle
 10
356.4071900948542
 20
3498.267543623919
 30
0.0
 40
0.9520361276207967
  0
CIRCLE
  5
23A97
330
37
100
AcDbEntity
  8
0
 62
     7
100
AcDbCircle
 10
353.1088370784477
 20
3500.171848170796
 30
0.0
 40
0.9520361276207967
  0
CIRCLE
  5
23A98
330
37
100
AcDbEntity
  8
0
 62
     7
100
AcDbCircle
 10
349.8104840620416
 20
3502.076152717673
 30
0.0
 40
0.9520361276207967
  0
CIRCLE
  5
23A99
330
37
100
AcDbEntity
  8
0
 62
     7
100
AcDbCircle
 10
359.7055431112602
 20
3492.554629983289
 30
0.0
 40
0.9520361276207967
  0
CIRCLE
  5
23A9A
330
37
100
AcDbEntity
  8
0
 62
     7
100
AcDbCircle
 10
356.4071900948542
 20
3494.458934530166
 30
0.0
 40
0.9520361276207967
  0
CIRCLE
  5
23A9B
330
37
100
AcDbEntity
  8
0
 62
     7
100
AcDbCircle
 10
353.1088370784477
 20
3496.363239077043
 30
0.0
 40
0.9520361276207967
  0
CIRCLE
  5
23A9C
330
37
100
AcDbEntity
  8
0
 62
     7
100
AcDbCircle
 10
359.7052205686181
 20
3488.746020889535
 30
0.0
 40
0.9520361276207967
  0
CIRCLE
  5
23A9D
330
37
100
AcDbEntity
  8
0
 62
     7
100
AcDbCircle
 10
356.4071900948542
 20
3490.650325436412
 30
0.0
 40
0.9520361276207967
  0
CIRCLE
  5
23A9E
330
37
100
AcDbEntity
  8
0
 62
     7
100
AcDbCircle
 10
353.1088370784477
 20
3492.554629983289
 30
0.0
 40
0.9520361276207967
  0
CIRCLE
  5
23A9F
330
37
100
AcDbEntity
  8
0
 62
     7
100
AcDbCircle
 10
349.8104840620416
 20
3494.458934530166
 30
0.0
 40
0.9520361276207967
  0
CIRCLE
  5
23AA0
330
37
100
AcDbEntity
  8
0
 62
     7
100
AcDbCircle
 10
359.7055431112602
 20
3484.937411795782
 30
0.0
 40
0.9520361276207967
  0
CIRCLE
  5
23AA1
330
37
100
AcDbEntity
  8
0
 62
     7
100
AcDbCircle
 10
356.4071900948542
 20
3486.841716342659
 30
0.0
 40
0.9520361276207967
  0
CIRCLE
  5
23AA2
330
37
100
AcDbEntity
  8
0
 62
     7
100
AcDbCircle
 10
353.1088370784477
 20
3488.746020889535
 30
0.0
 40
0.9520361276207967
  0
CIRCLE
  5
23AA3
330
37
100
AcDbEntity
  8
0
 62
     7
100
AcDbCircle
 10
359.7052205686181
 20
3481.128802702027
 30
0.0
 40
0.9520361276207967
  0
CIRCLE
  5
23AA4
330
37
100
AcDbEntity
  8
0
 62
     7
100
AcDbCircle
 10
356.4071900948542
 20
3483.033107248906
 30
0.0
 40
0.9520361276207967
  0
CIRCLE
  5
23AA5
330
37
100
AcDbEntity
  8
0
 62
     7
100
AcDbCircle
 10
353.1088370784477
 20
3484.937411795782
 30
0.0
 40
0.9520361276207967
  0
CIRCLE
  5
23AA6
330
37
100
AcDbEntity
  8
0
 62
     7
100
AcDbCircle
 10
349.8104840620416
 20
3486.841716342659
 30
0.0
 40
0.9520361276207967
  0
CIRCLE
  5
23AA7
330
37
100
AcDbEntity
  8
0
 62
     7
100
AcDbCircle
 10
359.7055431112602
 20
3477.320193608274
 30
0.0
 40
0.9520361276207967
  0
CIRCLE
  5
23AA8
330
37
100
AcDbEntity
  8
0
 62
     7
100
AcDbCircle
 10
356.4071900948542
 20
3479.224498155151
 30
0.0
 40
0.9520361276207967
  0
CIRCLE
  5
23AA9
330
37
100
AcDbEntity
  8
0
 62
     7
100
AcDbCircle
 10
353.1088370784477
 20
3481.128802702027
 30
0.0
 40
0.9520361276207967
  0
CIRCLE
  5
23AAA
330
37
100
AcDbEntity
  8
0
 62
     7
100
AcDbCircle
 10
359.7052205686181
 20
3473.511584514521
 30
0.0
 40
0.9520361276207967
  0
CIRCLE
  5
23AAB
330
37
100
AcDbEntity
  8
0
 62
     7
100
AcDbCircle
 10
356.4071900948542
 20
3475.415889061397
 30
0.0
 40
0.9520361276207967
  0
CIRCLE
  5
23AAC
330
37
100
AcDbEntity
  8
0
 62
     7
100
AcDbCircle
 10
353.1088370784477
 20
3477.320193608274
 30
0.0
 40
0.9520361276207967
  0
CIRCLE
  5
23AAD
330
37
100
AcDbEntity
  8
0
 62
     7
100
AcDbCircle
 10
349.8104840620416
 20
3479.224498155151
 30
0.0
 40
0.9520361276207967
  0
CIRCLE
  5
23AAE
330
37
100
AcDbEntity
  8
0
 62
     7
100
AcDbCircle
 10
359.7055431112602
 20
3469.702975420766
 30
0.0
 40
0.9520361276207967
  0
CIRCLE
  5
23AAF
330
37
100
AcDbEntity
  8
0
 62
     7
100
AcDbCircle
 10
356.4071900948542
 20
3471.607279967642
 30
0.0
 40
0.9520361276207967
  0
CIRCLE
  5
23AB0
330
37
100
AcDbEntity
  8
0
 62
     7
100
AcDbCircle
 10
353.1088370784477
 20
3473.511584514521
 30
0.0
 40
0.9520361276207967
  0
CIRCLE
  5
23AB1
330
37
100
AcDbEntity
  8
0
 62
     7
100
AcDbCircle
 10
359.7052205686181
 20
3465.894366327013
 30
0.0
 40
0.9520361276207967
  0
CIRCLE
  5
23AB2
330
37
100
AcDbEntity
  8
0
 62
     7
100
AcDbCircle
 10
356.4071900948542
 20
3467.798670873889
 30
0.0
 40
0.9520361276207967
  0
CIRCLE
  5
23AB3
330
37
100
AcDbEntity
  8
0
 62
     7
100
AcDbCircle
 10
353.1088370784477
 20
3469.702975420766
 30
0.0
 40
0.9520361276207967
  0
CIRCLE
  5
23AB4
330
37
100
AcDbEntity
  8
0
 62
     7
100
AcDbCircle
 10
349.8104840620416
 20
3471.607279967642
 30
0.0
 40
0.9520361276207967
  0
CIRCLE
  5
23AB5
330
37
100
AcDbEntity
  8
0
 62
     7
100
AcDbCircle
 10
359.7055431112602
 20
3462.08575723326
 30
0.0
 40
0.9520361276207967
  0
CIRCLE
  5
23AB6
330
37
100
AcDbEntity
  8
0
 62
     7
100
AcDbCircle
 10
356.4071900948542
 20
3463.990061780137
 30
0.0
 40
0.9520361276207967
  0
CIRCLE
  5
23AB7
330
37
100
AcDbEntity
  8
0
 62
     7
100
AcDbCircle
 10
353.1088370784477
 20
3465.894366327013
 30
0.0
 40
0.9520361276207967
  0
CIRCLE
  5
23AB8
330
37
100
AcDbEntity
  8
0
 62
     7
100
AcDbCircle
 10
359.7052205686181
 20
3458.277148139507
 30
0.0
 40
0.9520361276207967
  0
CIRCLE
  5
23AB9
330
37
100
AcDbEntity
  8
0
 62
     7
100
AcDbCircle
 10
356.4071900948542
 20
3460.181452686382
 30
0.0
 40
0.9520361276207967
  0
CIRCLE
  5
23ABA
330
37
100
AcDbEntity
  8
0
 62
     7
100
AcDbCircle
 10
353.1088370784477
 20
3462.08575723326
 30
0.0
 40
0.9520361276207967
  0
CIRCLE
  5
23ABB
330
37
100
AcDbEntity
  8
0
 62
     7
100
AcDbCircle
 10
349.8104840620416
 20
3463.990061780137
 30
0.0
 40
0.9520361276207967
  0
CIRCLE
  5
23ABC
330
37
100
AcDbEntity
  8
0
 62
     7
100
AcDbCircle
 10
359.7055431112602
 20
3454.468539045752
 30
0.0
 40
0.9520361276207967
  0
CIRCLE
  5
23ABD
330
37
100
AcDbEntity
  8
0
 62
     7
100
AcDbCircle
 10
356.4071900948542
 20
3456.372843592629
 30
0.0
 40
0.9520361276207967
  0
CIRCLE
  5
23ABE
330
37
100
AcDbEntity
  8
0
 62
     7
100
AcDbCircle
 10
353.1088370784477
 20
3458.277148139507
 30
0.0
 40
0.9520361276207967
  0
CIRCLE
  5
23ABF
330
37
100
AcDbEntity
  8
0
 62
     7
100
AcDbCircle
 10
359.7052205686181
 20
3450.659929951998
 30
0.0
 40
0.9520361276207967
  0
CIRCLE
  5
23AC0
330
37
100
AcDbEntity
  8
0
 62
     7
100
AcDbCircle
 10
356.4071900948542
 20
3452.564234498876
 30
0.0
 40
0.9520361276207967
  0
CIRCLE
  5
23AC1
330
37
100
AcDbEntity
  8
0
 62
     7
100
AcDbCircle
 10
353.1088370784477
 20
3454.468539045752
 30
0.0
 40
0.9520361276207967
  0
CIRCLE
  5
23AC2
330
37
100
AcDbEntity
  8
0
 62
     7
100
AcDbCircle
 10
349.8104840620416
 20
3456.372843592629
 30
0.0
 40
0.9520361276207967
  0
CIRCLE
  5
23AC3
330
37
100
AcDbEntity
  8
0
 62
     7
100
AcDbCircle
 10
349.8104840620416
 20
3505.884761811427
 30
0.0
 40
0.9520361276207967
  0
CIRCLE
  5
23AC4
330
37
100
AcDbEntity
  8
0
 62
     7
100
AcDbCircle
 10
349.8104840620416
 20
3498.26754362392
 30
0.0
 40
0.9520361276207967
  0
CIRCLE
  5
23AC5
330
37
100
AcDbEntity
  8
0
 62
     7
100
AcDbCircle
 10
349.8104840620416
 20
3490.650325436412
 30
0.0
 40
0.9520361276207967
  0
CIRCLE
  5
23AC6
330
37
100
AcDbEntity
  8
0
 62
     7
100
AcDbCircle
 10
349.8104840620416
 20
3483.033107248906
 30
0.0
 40
0.9520361276207967
  0
CIRCLE
  5
23AC7
330
37
100
AcDbEntity
  8
0
 62
     7
100
AcDbCircle
 10
349.8104840620416
 20
3475.415889061397
 30
0.0
 40
0.9520361276207967
  0
CIRCLE
  5
23AC8
330
37
100
AcDbEntity
  8
0
 62
     7
100
AcDbCircle
 10
349.8104840620416
 20
3467.79867087389
 30
0.0
 40
0.9520361276207967
  0
CIRCLE
  5
23AC9
330
37
100
AcDbEntity
  8
0
 62
     7
100
AcDbCircle
 10
349.8104840620416
 20
3460.181452686383
 30
0.0
 40
0.9520361276207967
  0
CIRCLE
  5
23ACA
330
37
100
AcDbEntity
  8
0
 62
     7
100
AcDbCircle
 10
353.108514535806
 20
3450.659929951998
 30
0.0
 40
0.9520361276207967
  0
CIRCLE
  5
23ACB
330
37
100
AcDbEntity
  8
0
 62
     7
100
AcDbCircle
 10
349.8101615193994
 20
3452.564234498876
 30
0.0
 40
0.9520361276207967
  0
CIRCLE
  5
23ACC
330
37
100
AcDbEntity
  8
0
 62
     7
100
AcDbCircle
 10
348.2913137621566
 20
3450.659929951998
 30
0.0
 40
0.9520361276207967
  0
CIRCLE
  5
23ACD
330
37
100
AcDbEntity
  8
0
 62
     7
100
AcDbCircle
 10
348.2913137621566
 20
3511.597675452057
 30
0.0
 40
0.9520361276207967
  0
ARC
  5
23ACE
330
37
100
AcDbEntity
  8
0
 62
     7
100
AcDbCircle
 10
348.2913137621557
 20
3423.440331043856
 30
0.0
 40
100.0649317002432
100
AcDbArc
 50
78.96622831792339
 51
101.0337716820766
  0
ARC
  5
23ACF
330
37
100
AcDbEntity
  8
0
 62
     7
100
AcDbCircle
 10
367.0183406521563
 20
3519.480268512124
 30
0.0
 40
2.216216199999998
100
AcDbArc
 50
0.0
 51
78.96622831792339
  0
ARC
  5
23AD0
330
37
100
AcDbEntity
  8
0
 62
     7
100
AcDbCircle
 10
329.5642868721565
 20
3519.480268512124
 30
0.0
 40
2.216216199999998
100
AcDbArc
 50
101.0337716820766
 51
180.0
  0
ARC
  5
23AD1
330
37
100
AcDbEntity
  8
0
 62
     7
100
AcDbCircle
 10
348.2913137621557
 20
3432.643168814344
 30
0.0
 40
100.0649317002432
100
AcDbArc
 50
258.9662283179233
 51
281.0337716820766
  0
ARC
  5
23AD2
330
37
100
AcDbEntity
  8
0
 62
     7
100
AcDbCircle
 10
367.0183406521563
 20
3336.603231346074
 30
0.0
 40
2.216216199999998
100
AcDbArc
 50
281.0337716820766
 51
0.0
  0
ARC
  5
23AD3
330
37
100
AcDbEntity
  8
0
 62
     7
100
AcDbCircle
 10
329.5642868721565
 20
3336.603231346074
 30
0.0
 40
2.216216199999998
100
AcDbArc
 50
180.0
 51
258.9662283179233
  0
ARC
  5
23AD4
330
37
100
AcDbEntity
  8
0
 62
     7
100
AcDbCircle
 10
348.2913137621557
 20
3433.413303943857
 30
0.0
 40
100.0649317002432
100
AcDbArc
 50
78.96622831792339
 51
101.0337716820766
  0
ARC
  5
23AD5
330
37
100
AcDbEntity
  8
0
 62
     7
100
AcDbCircle
 10
367.0183406521563
 20
3529.453241412124
 30
0.0
 40
2.216216199999998
100
AcDbArc
 50
0.0
 51
78.96622831792339
  0
ARC
  5
23AD6
330
37
100
AcDbEntity
  8
0
 62
     7
100
AcDbCircle
 10
329.5642868721565
 20
3529.453241412124
 30
0.0
 40
2.216216199999998
100
AcDbArc
 50
101.0337716820766
 51
180.0
  0
LINE
  5
23AD7
330
37
100
AcDbEntity
  8
0
 62
     7
100
AcDbLine
 10
327.3480706721565
 20
3529.453241412124
 30
0.0
 11
327.3480706721565
 21
3519.480268512124
 31
0.0
  0
LINE
  5
23AD8
330
37
100
AcDbEntity
  8
0
 62
     7
100
AcDbLine
 10
369.2345568521563
 20
3529.453241412124
 30
0.0
 11
369.2345568521563
 21
3519.480268512124
 31
0.0
  0
LINE
  5
23AD9
330
37
100
AcDbEntity
  8
0
 62
     7
100
AcDbLine
 10
333.1505701701029
 20
3325.153912844099
 30
0.0
 11
363.4320573542898
 21
3325.153912844099
 31
0.0
  0
LINE
  5
23ADA
330
37
100
AcDbEntity
  8
0
 62
     7
100
AcDbLine
 10
335.6548944761024
 20
3330.9160749641
 30
0.0
 11
360.927733048289
 21
3330.9160749641
 31
0.0
  0
LINE
  5
23ADB
330
37
100
AcDbEntity
  8
0
 62
     7
100
AcDbLine
 10
333.150570170102
 20
3325.153912844099
 30
0.0
 11
335.654894476102
 21
3330.9160749641
 31
0.0
  0
LINE
  5
23ADC
330
37
100
AcDbEntity
  8
0
 62
     7
100
AcDbLine
 10
363.4320573542894
 20
3325.153912844099
 30
0.0
 11
360.9277330482895
 21
3330.9160749641
 31
0.0
  0
LINE
  5
23ADD
330
37
100
AcDbEntity
  8
0
 62
     7
100
AcDbLine
 10
360.4805028621566
 20
3330.9160749641
 30
0.0
 11
360.4805028621563
 21
3333.3234113375
 31
0.0
  0
LINE
  5
23ADE
330
37
100
AcDbEntity
  8
0
 62
     7
100
AcDbLine
 10
336.1021246621567
 20
3330.9160749641
 30
0.0
 11
336.1021246621567
 21
3333.3234113375
 31
0.0
  0
LINE
  5
23ADF
330
37
100
AcDbEntity
  8
0
  6
Continuous
 62
     7
370
     0
100
AcDbLine
 10
-246.3211312180412
 20
2994.374858602624
 30
0.0
 11
-195.7747620856427
 21
2994.374858602624
 31
0.0
  0
LINE
  5
23AE0
330
37
100
AcDbEntity
  8
0
  6
Continuous
 62
     7
370
     0
100
AcDbLine
 10
-246.8584549251028
 20
2988.374858602624
 30
0.0
 11
-193.7747631046836
 21
2988.374858602624
 31
0.0
  0
LINE
  5
23AE1
330
37
100
AcDbEntity
  8
0
  6
Continuous
 62
     7
370
     0
100
AcDbLine
 10
-246.3211446077386
 20
2942.343111621113
 30
0.0
 11
-202.7769052777409
 21
2942.343111621113
 31
0.0
  0
LINE
  5
23AE2
330
37
100
AcDbEntity
  8
0
  6
Continuous
 62
     7
370
     0
100
AcDbLine
 10
-246.8584654474199
 20
2948.343111621113
 30
0.0
 11
-193.7747733031839
 21
2948.343111621113
 31
0.0
  0
LINE
  5
23AE3
330
37
100
AcDbEntity
  8
0
  6
Continuous
 62
     7
370
     0
100
AcDbLine
 10
-202.7769052777409
 20
2942.343111621113
 30
0.0
 11
-193.7747748317443
 21
2942.343111621113
 31
0.0
  0
LINE
  5
23AE4
330
37
100
AcDbEntity
  8
0
  6
Continuous
 62
     7
370
     0
100
AcDbLine
 10
-295.6079164713502
 20
2938.389777757187
 30
0.0
 11
-295.6079164713502
 21
2921.389777757187
 31
0.0
  0
LINE
  5
23AE5
330
37
100
AcDbEntity
  8
0
  6
Continuous
 62
     7
370
     0
100
AcDbLine
 10
-270.6079164713502
 20
2938.389777757187
 30
0.0
 11
-270.6079164713502
 21
2921.389777757187
 31
0.0
  0
LINE
  5
23AE6
330
37
100
AcDbEntity
  8
0
  6
Continuous
 62
     7
370
     0
100
AcDbLine
 10
-295.6079164713502
 20
2938.389777757187
 30
0.0
 11
-270.6079164713502
 21
2938.389777757187
 31
0.0
  0
LINE
  5
23AE7
330
37
100
AcDbEntity
  8
0
  6
Continuous
 62
     7
370
     0
100
AcDbLine
 10
-295.6079164713502
 20
2921.389777757187
 30
0.0
 11
-270.6079164713502
 21
2921.389777757187
 31
0.0
  0
ELLIPSE
  5
23AE8
330
37
100
AcDbEntity
  8
0
  6
Continuous
 62
     7
370
     0
100
AcDbEllipse
 10
-293.6079164713502
 20
2929.889777757189
 30
0.0
 11
0.0
 21
8.0
 31
0.0
210
0.0
220
0.0
230
1.0
 40
0.625
 41
2.730075807522305
 42
6.694702153247074
  0
ELLIPSE
  5
23AE9
330
37
100
AcDbEntity
  8
0
  6
Continuous
 62
     7
370
     0
100
AcDbEllipse
 10
-272.6079164713502
 20
2929.889777757189
 30
0.0
 11
0.0
 21
8.0
 31
0.0
210
0.0
220
0.0
230
1.0
 40
0.625
 41
5.871668461112097
 42
9.836294806836868
  0
ELLIPSE
  5
23AEA
330
37
100
AcDbEntity
  8
0
  6
Continuous
 62
     7
370
     0
100
AcDbEllipse
 10
-283.1079164713502
 20
2929.889777757191
 30
0.0
 11
0.0000000000051216
 21
-7.999999999996791
 31
0.0
210
0.0
220
0.0
230
1.0
 40
0.6250000000002507
 41
0.0
 42
6.283185307179585
  0
SPLINE
  5
23AEB
330
37
100
AcDbEntity
  8
0
 62
     7
100
AcDbSpline
210
0.0
220
0.0
230
1.0
 70
  1064
 71
     3
 72
    14
 73
    10
 74
     8
 42
0.0000000001
 43
0.0000000001
 44
0.0000000001
 40
0.0
 40
0.0
 40
0.0
 40
0.0
 40
1.000672405649511
 40
2.008159686915479
 40
3.023214669892523
 40
4.029652416123829
 40
5.042016549935363
 40
6.044993466505781
 40
7.045049899448967
 40
7.045049899448967
 40
7.045049899448967
 40
7.045049899448967
 10
-239.7094169555222
 20
3533.478235644099
 30
0.0
 10
-240.0395663083329
 20
3533.537469356147
 30
0.0
 10
-240.7021134288818
 20
3533.656340179377
 30
0.0
 10
-241.7156261590165
 20
3533.50293407165
 30
0.0
 10
-242.6556689966537
 20
3533.110500982061
 30
0.0
 10
-243.464908980654
 20
3532.482302165454
 30
0.0
 10
-244.0769730341114
 20
3531.671111575312
 30
0.0
 10
-244.4769906781027
 20
3530.730359849965
 30
0.0
 10
-244.5273080251099
 20
3530.060841757832
 30
0.0
 10
-244.5524300165013
 20
3529.72657080065
 30
0.0
 11
-239.7094169555222
 21
3533.478235644099
 31
0.0
 11
-240.7025157155477
 21
3533.601118174445
 31
0.0
 11
-241.7005959874283
 21
3533.463763186202
 31
0.0
 11
-242.6361140683772
 21
3533.06988180979
 31
0.0
 11
-243.4311236790082
 21
3532.452729757178
 31
0.0
 11
-244.0433312716615
 21
3531.646452507762
 31
0.0
 11
-244.4233705227513
 21
3530.718264561921
 31
0.0
 11
-244.5524300165013
 21
3529.72657080065
 31
0.0
  0
LINE
  5
23AEC
330
37
100
AcDbEntity
  8
0
 62
     7
100
AcDbLine
 10
-221.3717847382296
 20
3509.023382238019
 30
0.0
 11
-221.3717847382296
 21
3506.675127074046
 31
0.0
  0
LINE
  5
23AED
330
37
100
AcDbEntity
  8
0
 62
     7
100
AcDbLine
 10
-221.3717847382296
 20
3506.675127074046
 30
0.000000000000126
 11
-221.2461872408568
 21
3506.675127074046
 31
0.000000000000126
  0
ARC
  5
23AEE
330
37
100
AcDbEntity
  8
0
 62
     7
100
AcDbCircle
 10
-221.4810132299459
 20
3523.270437229193
 30
0.0
 40
0.2348255149060452
100
AcDbArc
 50
0.0000000076862557
 51
90.00000026300019
  0
LINE
  5
23AEF
330
37
100
AcDbEntity
  8
0
 62
     7
100
AcDbLine
 10
-221.3717847382296
 20
3509.023382238019
 30
0.0
 11
-221.2461872408568
 21
3509.023382238019
 31
0.0
  0
LINE
  5
23AF0
330
37
100
AcDbEntity
  8
0
 62
     7
100
AcDbLine
 10
-221.2461872408568
 20
3509.023382238019
 30
0.0
 11
-221.2461872408568
 21
3512.545764982485
 31
0.0
  0
LINE
  5
23AF1
330
37
100
AcDbEntity
  8
0
 62
     7
100
AcDbLine
 10
-221.2461872408568
 20
3514.894020146457
 30
0.0
 11
-221.2461872408563
 21
3518.416402890923
 31
0.0
  0
LINE
  5
23AF2
330
37
100
AcDbEntity
  8
0
 62
     7
100
AcDbLine
 10
-221.2461872408563
 20
3520.764658054896
 30
0.0
 11
-221.2461872408568
 21
3523.270191784233
 31
0.0
  0
LINE
  5
23AF3
330
37
100
AcDbEntity
  8
0
 62
     7
100
AcDbLine
 10
-221.2461872408568
 20
3492.58559609618
 30
0.000000000000126
 11
-221.2461872408568
 21
3498.456234004617
 31
0.000000000000126
  0
LINE
  5
23AF4
330
37
100
AcDbEntity
  8
0
 62
     7
100
AcDbLine
 10
-221.3717847382296
 20
3492.58559609618
 30
0.0
 11
-221.2461872408568
 21
3492.58559609618
 31
0.0
  0
LINE
  5
23AF5
330
37
100
AcDbEntity
  8
0
 62
     7
100
AcDbLine
 10
-221.3717847382296
 20
3492.58559609618
 30
0.0
 11
-221.3717847382296
 21
3490.237340932207
 31
0.0
  0
LINE
  5
23AF6
330
37
100
AcDbEntity
  8
0
 62
     7
100
AcDbLine
 10
-221.3717847382296
 20
3490.237340932207
 30
0.0
 11
-221.2461872408568
 21
3490.237340932207
 31
0.0
  0
LINE
  5
23AF7
330
37
100
AcDbEntity
  8
0
 62
     7
100
AcDbLine
 10
-221.3717847382287
 20
3500.804489165608
 30
0.0
 11
-221.2461872408568
 21
3500.804489165608
 31
0.0
  0
LINE
  5
23AF8
330
37
100
AcDbEntity
  8
0
 62
     7
100
AcDbLine
 10
-221.3717847382296
 20
3498.456234004617
 30
0.000000000000126
 11
-221.2461872408568
 21
3498.456234004617
 31
0.000000000000126
  0
LINE
  5
23AF9
330
37
100
AcDbEntity
  8
0
 62
     7
100
AcDbLine
 10
-221.3717847382287
 20
3500.804489165608
 30
0.0
 11
-221.3717847382296
 21
3498.456234004617
 31
0.0
  0
LINE
  5
23AFA
330
37
100
AcDbEntity
  8
0
 62
     7
100
AcDbLine
 10
-221.2461872408568
 20
3500.804489165608
 30
0.000000000000126
 11
-221.2461872408568
 21
3506.675127074046
 31
0.000000000000126
  0
LINE
  5
23AFB
330
37
100
AcDbEntity
  8
0
 62
     7
100
AcDbLine
 10
-221.2461872408568
 20
3476.14780995136
 30
0.0
 11
-221.2461872408568
 21
3482.018447859797
 31
0.0
  0
LINE
  5
23AFC
330
37
100
AcDbEntity
  8
0
 62
     7
100
AcDbLine
 10
-221.3717847382296
 20
3476.14780995136
 30
0.0
 11
-221.2461872408568
 21
3476.14780995136
 31
0.0
  0
LINE
  5
23AFD
330
37
100
AcDbEntity
  8
0
 62
     7
100
AcDbLine
 10
-221.3717847382287
 20
3484.366703023769
 30
0.0
 11
-221.3717847382296
 21
3482.018447859797
 31
0.0
  0
LINE
  5
23AFE
330
37
100
AcDbEntity
  8
0
 62
     7
100
AcDbLine
 10
-221.3717847382296
 20
3482.018447859797
 30
0.0
 11
-221.2461872408568
 21
3482.018447859797
 31
0.0
  0
LINE
  5
23AFF
330
37
100
AcDbEntity
  8
0
 62
     7
100
AcDbLine
 10
-221.3717847382287
 20
3484.366703023769
 30
0.0
 11
-221.2461872408568
 21
3484.366703023769
 31
0.0
  0
LINE
  5
23B00
330
37
100
AcDbEntity
  8
0
 62
     7
100
AcDbLine
 10
-221.3717847382296
 20
3467.928916878948
 30
0.0
 11
-221.3717847382296
 21
3465.580661714977
 31
0.0
  0
LINE
  5
23B01
330
37
100
AcDbEntity
  8
0
 62
     7
100
AcDbLine
 10
-221.3717847382296
 20
3465.580661714977
 30
0.0
 11
-221.2461872408568
 21
3465.580661714977
 31
0.0
  0
LINE
  5
23B02
330
37
100
AcDbEntity
  8
0
 62
     7
100
AcDbLine
 10
-221.3717847382296
 20
3473.799554787387
 30
0.0
 11
-221.2461872408568
 21
3473.799554787387
 31
0.0
  0
LINE
  5
23B03
330
37
100
AcDbEntity
  8
0
 62
     7
100
AcDbLine
 10
-221.3717847382296
 20
3467.928916878948
 30
0.0
 11
-221.2461872408568
 21
3467.928916878948
 31
0.0
  0
LINE
  5
23B04
330
37
100
AcDbEntity
  8
0
 62
     7
100
AcDbLine
 10
-221.2461872408568
 20
3467.928916878948
 30
0.0
 11
-221.2461872408568
 21
3473.799554787387
 31
0.0
  0
LINE
  5
23B05
330
37
100
AcDbEntity
  8
0
 62
     7
100
AcDbLine
 10
-221.3717847382296
 20
3476.14780995136
 30
0.0
 11
-221.3717847382296
 21
3473.799554787387
 31
0.0
  0
LINE
  5
23B06
330
37
100
AcDbEntity
  8
0
 62
     7
100
AcDbLine
 10
-221.2461872408568
 20
3484.366703023769
 30
0.0
 11
-221.2461872408568
 21
3490.237340932207
 31
0.0
  0
LINE
  5
23B07
330
37
100
AcDbEntity
  8
0
 62
     7
100
AcDbLine
 10
-221.2461872408568
 20
3451.491130737109
 30
0.0
 11
-221.2461872408568
 21
3457.361768645549
 31
0.0
  0
LINE
  5
23B08
330
37
100
AcDbEntity
  8
0
 62
     7
100
AcDbLine
 10
-221.2461872408568
 20
3451.491130737109
 30
0.0
 11
-221.3717847382296
 21
3451.491130737109
 31
0.0
  0
LINE
  5
23B09
330
37
100
AcDbEntity
  8
0
 62
     7
100
AcDbLine
 10
-221.3717847382296
 20
3449.142875573137
 30
0.0
 11
-221.3717847382296
 21
3451.491130737109
 31
0.0
  0
LINE
  5
23B0A
330
37
100
AcDbEntity
  8
0
 62
     7
100
AcDbLine
 10
-221.2461872408577
 20
3449.142875573137
 30
0.0
 11
-221.3717847382296
 21
3449.142875573137
 31
0.0
  0
LINE
  5
23B0B
330
37
100
AcDbEntity
  8
0
 62
     7
100
AcDbLine
 10
-221.3717847382296
 20
3459.710023806538
 30
0.0
 11
-221.2461874734751
 21
3459.710023806538
 31
0.0
  0
LINE
  5
23B0C
330
37
100
AcDbEntity
  8
0
 62
     7
100
AcDbLine
 10
-221.3717847382296
 20
3457.361768645549
 30
0.0
 11
-221.2461872408568
 21
3457.361768645549
 31
0.0
  0
LINE
  5
23B0D
330
37
100
AcDbEntity
  8
0
 62
     7
100
AcDbLine
 10
-221.3717847382296
 20
3459.710023806538
 30
0.0
 11
-221.3717847382296
 21
3457.361768645549
 31
0.0
  0
LINE
  5
23B0E
330
37
100
AcDbEntity
  8
0
 62
     7
100
AcDbLine
 10
-227.6084610761555
 20
3446.790852859414
 30
0.0
 11
-225.7760144442437
 21
3446.789793492472
 31
0.0
  0
SPLINE
  5
23B0F
330
37
100
AcDbEntity
  8
0
 62
     7
100
AcDbSpline
210
0.0
220
0.0
230
1.0
 70
  1064
 71
     3
 72
     9
 73
     5
 74
     3
 42
0.0000000001
 43
0.0000000001
 44
0.0000000001
 40
0.0
 40
0.0
 40
0.0
 40
0.0
 40
0.0859396220380056
 40
0.2613484133592921
 40
0.2613484133592921
 40
0.2613484133592921
 40
0.2613484133592921
 10
-227.8803505127618
 20
3447.0458038441
 30
0.0
 10
-227.8668482337634
 20
3447.020435008854
 30
0.0
 10
-227.8257868570749
 20
3446.943286602996
 30
0.0
 10
-227.7651269232613
 20
3446.87985485722
 30
0.0
 10
-227.7244138937268
 20
3446.83728147514
 30
0.0
 11
-227.8803505127618
 21
3447.0458038441
 31
0.0
 11
-227.8377244791979
 21
3446.971180524027
 31
0.0
 11
-227.7244138937268
 21
3446.83728147514
 31
0.0
  0
SPLINE
  5
23B10
330
37
100
AcDbEntity
  8
0
 62
     7
100
AcDbSpline
210
0.0
220
0.0
230
1.0
 70
  1080
 71
     3
 72
     8
 73
     4
 74
     2
 42
0.0000000001
 43
0.0000000001
 44
0.0000000001
 40
0.0
 40
0.0
 40
0.0
 40
0.0
 40
0.1249026511369171
 40
0.1249026511369171
 40
0.1249026511369171
 40
0.1249026511369171
 10
-227.7244138937268
 20
3446.83728147514
 30
0.0
 10
-227.6857629545363
 20
3446.821805269898
 30
0.0
 10
-227.6471120153457
 20
3446.806329064656
 30
0.0
 10
-227.6084610761551
 20
3446.790852859414
 30
0.0
 11
-227.7244138937268
 21
3446.83728147514
 31
0.0
 11
-227.6084610761551
 21
3446.790852859414
 31
0.0
  0
ARC
  5
23B11
330
37
100
AcDbEntity
  8
0
 62
     7
100
AcDbCircle
 10
-221.4810129883809
 20
3447.282782764925
 30
0.0
 40
0.2348255149060452
100
AcDbArc
 50
269.9999997269425
 51
0.0
  0
LINE
  5
23B12
330
37
100
AcDbEntity
  8
0
 62
     7
100
AcDbLine
 10
-227.8803505127618
 20
3447.0458038441
 30
0.0
 11
-221.4810129913632
 21
3447.047957250019
 31
0.0
  0
LINE
  5
23B13
330
37
100
AcDbEntity
  8
0
 62
     7
100
AcDbLine
 10
-221.7158385062699
 20
3446.754360859275
 30
0.0
 11
-225.7760146947554
 21
3446.789793480542
 31
0.0
  0
LINE
  5
23B14
330
37
100
AcDbEntity
  8
0
 62
     7
100
AcDbLine
 10
-221.2461872408568
 20
3447.282782764925
 30
0.0
 11
-221.2461872408577
 21
3449.142875573137
 31
0.0
  0
LINE
  5
23B15
330
37
100
AcDbEntity
  8
0
 62
     7
100
AcDbLine
 10
-221.2461872408568
 20
3459.708904770057
 30
0.0
 11
-221.2461872408568
 21
3465.580661714977
 31
0.0
  0
LINE
  5
23B16
330
37
100
AcDbEntity
  8
0
 62
     7
100
AcDbLine
 10
-221.7158382736512
 20
3333.5782371141
 30
0.0
 11
-221.7158382736512
 21
3446.754360880151
 31
0.0
  0
ARC
  5
23B17
330
37
100
AcDbEntity
  8
0
 62
     7
100
AcDbCircle
 10
-222.7158382736512
 20
3333.5782371141
 30
0.0
 40
1.0
100
AcDbArc
 50
270.0
 51
0.0
  0
LINE
  5
23B18
330
37
100
AcDbEntity
  8
0
 62
     7
100
AcDbLine
 10
-244.5524181798156
 20
3333.5782371141
 30
0.0
 11
-244.5524181798156
 21
3529.726570800651
 31
0.0
  0
LINE
  5
23B19
330
37
100
AcDbEntity
  8
0
 62
     7
100
AcDbLine
 10
-227.8803505127618
 20
3447.0458038441
 30
0.0
 11
-244.5524181798156
 21
3447.0458038441
 31
0.0
  0
ARC
  5
23B1A
330
37
100
AcDbEntity
  8
0
 62
     7
100
AcDbCircle
 10
-247.1365247802934
 20
3498.257868669417
 30
0.0
 40
35.99494659632656
100
AcDbArc
 50
44.54063706984412
 51
78.09219289767908
  0
LINE
  5
23B1B
330
37
100
AcDbEntity
  8
0
 62
     7
100
AcDbLine
 10
-221.3717847382296
 20
3514.894020146457
 30
0.000000000000126
 11
-221.3717847382296
 21
3512.545764982485
 31
0.000000000000126
  0
LINE
  5
23B1C
330
37
100
AcDbEntity
  8
0
 62
     7
100
AcDbLine
 10
-221.3717847382296
 20
3512.545764982485
 30
0.000000000000252
 11
-221.2461872408568
 21
3512.545764982485
 31
0.000000000000252
  0
LINE
  5
23B1D
330
37
100
AcDbEntity
  8
0
 62
     7
100
AcDbLine
 10
-221.3717847382296
 20
3514.894020146457
 30
0.000000000000126
 11
-221.2461872408568
 21
3514.894020146457
 31
0.000000000000126
  0
LINE
  5
23B1E
330
37
100
AcDbEntity
  8
0
 62
     7
100
AcDbLine
 10
-221.3717847382296
 20
3520.764658054896
 30
0.000000000000252
 11
-221.3717847382296
 21
3518.416402890923
 31
0.000000000000252
  0
LINE
  5
23B1F
330
37
100
AcDbEntity
  8
0
 62
     7
100
AcDbLine
 10
-221.3717847382296
 20
3518.416402890923
 30
0.0000000000003779
 11
-221.2461872408568
 21
3518.416402890923
 31
0.0000000000003779
  0
LINE
  5
23B20
330
37
100
AcDbEntity
  8
0
 62
     7
100
AcDbLine
 10
-221.3717847382296
 20
3520.764658054896
 30
0.000000000000252
 11
-221.2461872408568
 21
3520.764658054896
 31
0.000000000000252
  0
LINE
  5
23B21
330
37
100
AcDbEntity
  8
0
 62
     7
100
AcDbLine
 10
-222.7158382736512
 20
3332.578237114099
 30
0.0
 11
-243.5524181798156
 21
3332.578237114099
 31
0.0
  0
ARC
  5
23B22
330
37
100
AcDbEntity
  8
0
 62
     7
100
AcDbCircle
 10
-243.5524181798156
 20
3333.5782371141
 30
0.0
 40
1.0
100
AcDbArc
 50
180.0
 51
270.0
  0
LINE
  5
23B23
330
37
100
AcDbEntity
  8
0
 62
     7
100
AcDbLine
 10
-221.7158382736512
 20
3336.603231346074
 30
0.0
 11
-244.5524181798161
 21
3336.603231346074
 31
0.0
  0
LINE
  5
23B24
330
37
100
AcDbEntity
  8
0
 62
     7
100
AcDbLine
 10
-238.1341282267332
 20
3330.920852758751
 30
0.0
 11
-238.1341282267332
 21
3332.578237114099
 31
0.0
  0
LINE
  5
23B25
330
37
100
AcDbEntity
  8
0
 62
     7
100
AcDbLine
 10
-228.1341282267336
 20
3330.920852758751
 30
0.0
 11
-228.1341282267332
 21
3332.578237114099
 31
0.0
  0
LINE
  5
23B26
330
37
100
AcDbEntity
  8
0
 62
     7
100
AcDbLine
 10
-244.2432765562736
 20
3325.153912844099
 30
0.0
 11
-222.0249798971928
 21
3325.153912844099
 31
0.0
  0
LINE
  5
23B27
330
37
100
AcDbEntity
  8
0
 62
     7
100
AcDbLine
 10
-244.2432765562736
 20
3325.153912844099
 30
0.0
 11
-241.7368757472133
 21
3330.920852758751
 31
0.0
  0
LINE
  5
23B28
330
37
100
AcDbEntity
  8
0
 62
     7
100
AcDbLine
 10
-222.0249798971928
 20
3325.153912844099
 30
0.0
 11
-224.5313807062531
 21
3330.920852758751
 31
0.0
  0
LINE
  5
23B29
330
37
100
AcDbEntity
  8
0
 62
     7
100
AcDbLine
 10
-241.7368757472133
 20
3330.920852758751
 30
0.0
 11
-224.5313807062531
 21
3330.920852758751
 31
0.0
  0
LINE
  5
23B2A
330
37
100
AcDbEntity
  8
0
 62
     7
100
AcDbLine
 10
327.3480706721565
 20
3754.759650332952
 30
0.0
 11
327.3480706721565
 21
3733.31064822596
 31
0.0
  0
LINE
  5
23B2B
330
37
100
AcDbEntity
  8
0
 62
     7
100
AcDbLine
 10
369.2345568521563
 20
3733.31064822596
 30
0.0
 11
369.2345568521563
 21
3754.759650332952
 31
0.0
  0
ARC
  5
23B2C
330
37
100
AcDbEntity
  8
0
 62
     7
100
AcDbCircle
 10
348.2913137621566
 20
3708.962142779331
 30
0.0
 40
51.69462800012476
100
AcDbArc
 50
67.75989044776524
 51
112.2401095522347
  0
ARC
  5
23B2D
330
37
100
AcDbEntity
  8
0
 62
     7
100
AcDbCircle
 10
367.0183406521563
 20
3754.759650332952
 30
0.0
 40
2.216216199999998
100
AcDbArc
 50
0.0
 51
67.75989044776524
  0
ARC
  5
23B2E
330
37
100
AcDbEntity
  8
0
 62
     7
100
AcDbCircle
 10
329.5642868721565
 20
3754.759650332952
 30
0.0
 40
2.216216199999998
100
AcDbArc
 50
112.2401095522347
 51
180.0
  0
ARC
  5
23B2F
330
37
100
AcDbEntity
  8
0
 62
     7
100
AcDbCircle
 10
348.2913137621566
 20
3779.108155779582
 30
0.0
 40
51.69462800012476
100
AcDbArc
 50
247.7598904477652
 51
292.2401095522347
  0
ARC
  5
23B30
330
37
100
AcDbEntity
  8
0
 62
     7
100
AcDbCircle
 10
367.0183406521563
 20
3733.31064822596
 30
0.0
 40
2.216216199999998
100
AcDbArc
 50
292.2401095522347
 51
0.0
  0
ARC
  5
23B31
330
37
100
AcDbEntity
  8
0
 62
     7
100
AcDbCircle
 10
329.5642868721565
 20
3733.31064822596
 30
0.0
 40
2.216216199999998
100
AcDbArc
 50
180.0
 51
247.7598904477652
  0
LINE
  5
23B32
330
37
100
AcDbEntity
  8
0
 62
     7
100
AcDbLine
 10
315.7798469137987
 20
3726.415814301547
 30
0.0
 11
323.0645765711159
 21
3726.415814301547
 31
0.0
  0
LINE
  5
23B33
330
37
100
AcDbEntity
  8
0
 62
     7
100
AcDbLine
 10
380.8027806105128
 20
3726.415814301546
 30
0.0
 11
373.5180509531955
 21
3726.415814301546
 31
0.0
  0
LINE
  5
23B34
330
37
100
AcDbEntity
  8
0
 62
     7
100
AcDbLine
 10
323.0645765711159
 20
3726.415814301547
 30
0.0
 11
330.7056022711166
 21
3726.415814301547
 31
0.0
  0
LINE
  5
23B35
330
37
100
AcDbEntity
  8
0
 62
     7
100
AcDbLine
 10
373.5180509531955
 20
3726.415814301546
 30
0.0
 11
365.8770252531966
 21
3726.415814301546
 31
0.0
  0
ARC
  5
23B36
330
37
100
AcDbEntity
  8
0
  6
Continuous
 62
     7
370
     0
100
AcDbCircle
 10
139.6484038312486
 20
2984.408208174156
 30
0.0
 40
41.5399999821746
100
AcDbArc
 50
238.8303781568956
 51
301.1696218431044
  0
ELLIPSE
  5
23B37
330
37
100
AcDbEntity
  8
0
  6
Continuous
 62
     7
370
     0
100
AcDbEllipse
 10
139.8854619276243
 20
2934.054546838627
 30
0.0
 11
0.0000000000051216
 21
-7.999999999996791
 31
0.0
210
0.0
220
0.0
230
1.0
 40
0.6250000000002507
 41
0.0
 42
6.283185307179585
  0
VIEWPORT
  5
681
330
33
100
AcDbEntity
 67
     1
  8
0
100
AcDbViewport
 10
7.964339747748193
 20
4.021928068178644
 30
0.0
 40
18.57874920435417
 41
8.006379969207074
 68
     1
 69
     1
 12
7.964339747748193
 22
4.021928068178644
 13
0.0
 23
0.0
 14
0.5
 24
0.5
 15
0.5
 25
0.5
 16
0.0
 26
0.0
 36
1.0
 17
0.0
 27
0.0
 37
0.0
 42
50.0
 43
0.0
 44
0.0
 45
8.006379969207074
 50
0.0
 51
0.0
 72
  1000
 90
   819232
  1

281
     0
 71
     1
 74
     0
110
0.0
120
0.0
130
0.0
111
1.0
121
0.0
131
0.0
112
0.0
122
1.0
132
0.0
 79
     0
146
0.0
170
     0
  0
VIEWPORT
  5
683
330
33
100
AcDbEntity
 67
     1
  8
0
 62
   202
100
AcDbViewport
 10
5.259040990474268
 20
4.022045044704723
 30
0.0
 40
10.38848651841358
 41
7.938910900561668
 68
     2
 69
     2
 12
59.80507494910205
 22
3119.189454806579
 13
0.0
 23
0.0
 14
0.5
 24
0.5
 15
0.5
 25
0.5
 16
0.0
 26
0.0
 36
1.0
 17
0.0
 27
0.0
 37
0.0
 42
50.0
 43
0.0
 44
0.0
 45
1619.327688463564
 50
0.0
 51
0.0
 72
  1000
 90
   835680
  1

281
     0
 71
     1
 74
     0
110
0.0
120
0.0
130
0.0
111
1.0
121
0.0
131
0.0
112
0.0
122
1.0
132
0.0
 79
     0
146
0.0
170
     0
  0
TEXT
  5
763
330
33
100
AcDbEntity
 67
     1
  8
text
100
AcDbText
 10
9.476213194763881
 20
0.1221524116516797
 30
0.0
 40
0.1125
  1
SCALE: 1:4
100
AcDbText
  0
MTEXT
  5
23BDC
330
33
100
AcDbEntity
 67
     1
  8
text
100
AcDbMText
 10
0.1535458797170328
 20
0.3001430460500591
 30
0.0
 40
0.1125
 41
4.025000000000002
 71
     1
 72
     1
  1
AD-00078, TS960H, V.01
 73
     1
 44
1.0
  0
ENDSEC
  0
SECTION
  2
OBJECTS
  0
DICTIONARY
  5
C
330
0
100
AcDbDictionary
281
     1
  3
ACAD_CIP_PREVIOUS_PRODUCT_INFO
350
23C6F
  3
ACAD_COLOR
350
30
  3
ACAD_GROUP
350
D
  3
ACAD_LAYOUT
350
2F
  3
ACAD_MATERIAL
350
10
  3
ACAD_MLEADERSTYLE
350
23C69
  3
ACAD_MLINESTYLE
350
2C
  3
ACAD_PLOTSETTINGS
350
2E
  3
ACAD_PLOTSTYLENAME
350
E
  3
ACAD_SCALELIST
350
23C57
  3
ACAD_TABLESTYLE
350
31
  3
ACAD_VISUALSTYLE
350
14
  3
ACDB_RECOMPOSE_DATA
350
23C83
  3
AcDbVariableDictionary
350
704
  3
ASE_INDEX_DICTIONARY
350
1023
  0
DICTIONARY
  5
226D6
330
8
100
AcDbDictionary
280
     1
281
     1
  0
DICTIONARY
  5
47
330
2
100
AcDbDictionary
280
     1
281
     1
  3
ACAD_LAYERFILTERS
360
373E
  3
ACAD_LAYERSTATES
360
48
  3
ACLYDICTIONARY
360
373D
  0
DICTIONARY
  5
23C77
330
25
100
AcDbDictionary
280
     1
281
     1
  3
ADSK_XREC_LAYER_RECONCILED
360
23C78
  0
DICTIONARY
  5
23C79
330
764
100
AcDbDictionary
280
     1
281
     1
  3
ADSK_XREC_LAYER_RECONCILED
360
23C7A
  0
DICTIONARY
  5
23C7B
330
197C
100
AcDbDictionary
280
     1
281
     1
  3
ADSK_XREC_LAYER_RECONCILED
360
23C7C
  0
DICTIONARY
  5
FF7
330
37
100
AcDbDictionary
280
     1
281
     1
  3
ACAD_SORTENTS
360
FF8
  0
DICTIONARY
  5
F8E
330
33
100
AcDbDictionary
280
     1
281
     1
  3
ACAD_SORTENTS
360
F8F
  0
XRECORD
  5
23C6F
102
{ACAD_REACTORS
330
C
102
}
330
C
100
AcDbXrecord
280
     1
300
ACD
300
2012
300
85730ACD_2012_0F
  0
DICTIONARY
  5
30
102
{ACAD_REACTORS
330
C
102
}
330
C
100
AcDbDictionary
281
     1
  0
DICTIONARY
  5
D
102
{ACAD_REACTORS
330
C
102
}
330
C
100
AcDbDictionary
281
     1
  0
DICTIONARY
  5
2F
102
{ACAD_REACTORS
330
C
102
}
330
C
100
AcDbDictionary
281
     1
  3
Layout1
350
36
  3
Model
350
3A
  0
DICTIONARY
  5
10
102
{ACAD_REACTORS
330
C
102
}
330
C
100
AcDbDictionary
281
     1
  3
ByBlock
350
12
  3
ByLayer
350
11
  3
Global
350
13
  0
DICTIONARY
  5
23C69
102
{ACAD_REACTORS
330
C
102
}
330
C
100
AcDbDictionary
281
     1
  3
Standard
350
23C6A
  0
DICTIONARY
  5
2C
102
{ACAD_REACTORS
330
C
102
}
330
C
100
AcDbDictionary
281
     1
  3
Standard
350
2D
  0
DICTIONARY
  5
2E
102
{ACAD_REACTORS
330
C
102
}
330
C
100
AcDbDictionary
281
     1
  0
ACDBDICTIONARYWDFLT
  5
E
102
{ACAD_REACTORS
330
C
102
}
330
C
100
AcDbDictionary
281
     1
  3
Normal
350
F
100
AcDbDictionaryWithDefault
340
F
  0
DICTIONARY
  5
23C57
102
{ACAD_REACTORS
330
C
102
}
330
C
100
AcDbDictionary
281
     1
  3
A0
350
23C58
  3
A1
350
23C59
  3
A2
350
23C5A
  3
A3
350
23C5B
  3
A4
350
23C5C
  3
A5
350
23C5D
  3
A6
350
23C5E
  3
A7
350
23C5F
  3
A8
350
23C60
  3
A9
350
23C61
  3
B0
350
23C62
  3
B1
350
23C63
  3
B2
350
23C64
  3
B3
350
23C65
  3
B4
350
23C66
  3
B5
350
23C67
  3
B6
350
23C68
  0
DICTIONARY
  5
31
102
{ACAD_REACTORS
330
C
102
}
330
C
100
AcDbDictionary
281
     1
  3
Standard
350
32
  0
DICTIONARY
  5
14
102
{ACAD_REACTORS
330
C
102
}
330
C
100
AcDbDictionary
281
     1
  3
2dWireframe
350
1A
  3
3D Hidden
350
1C
  3
3dWireframe
350
1B
  3
Basic
350
19
  3
Brighten
350
20
  3
ColorChange
350
24
  3
Conceptual
350
1D
  3
Dim
350
1F
  3
EdgeColorOff
350
23C56
  3
Facepattern
350
23
  3
Flat
350
15
  3
FlatWithEdges
350
16
  3
Gouraud
350
17
  3
GouraudWithEdges
350
18
  3
Hidden
350
23C4E
  3
JitterOff
350
23C54
  3
Linepattern
350
22
  3
OverhangOff
350
23C55
  3
Realistic
350
1E
  3
Shaded
350
23C53
  3
Shaded with edges
350
23C52
  3
Shades of Gray
350
23C4F
  3
Sketchy
350
23C50
  3
Thicken
350
21
  3
Wireframe
350
23C4D
  3
X-Ray
350
23C51
  0
XRECORD
  5
23C83
102
{ACAD_REACTORS
330
C
102
}
330
C
100
AcDbXrecord
280
     1
 90
        1
330
32
  0
DICTIONARY
  5
704
102
{ACAD_REACTORS
330
C
102
}
330
C
100
AcDbDictionary
281
     1
  3
CANNOSCALE
350
23C7E
  3
CMLEADERSTYLE
350
23C7D
  3
CTABLESTYLE
350
705
  3
DIMASSOC
350
22718
  3
HIDETEXT
350
22717
  3
INDEXCTL
350
22716
  3
SORTENTS
350
22715
  3
XCLIPFRAME
350
23C7F
  0
DICTIONARY
  5
1023
102
{ACAD_REACTORS
330
C
102
}
330
C
100
AcDbDictionary
281
     1
  3
ASEBlockHierarchyIndexRecord
350
1024
1001
DCO15
1040
1636783171.603
  0
DICTIONARY
  5
373E
102
{ACAD_REACTORS
330
47
102
}
330
47
100
AcDbDictionary
281
     1
  0
DICTIONARY
  5
48
102
{ACAD_REACTORS
330
47
102
}
330
47
100
AcDbDictionary
281
     1
  0
DICTIONARY
  5
373D
102
{ACAD_REACTORS
330
47
102
}
330
47
100
AcDbDictionary
281
     1
1001
ACAD
1000
<All
  0
XRECORD
  5
23C78
102
{ACAD_REACTORS
330
23C77
102
}
330
23C77
100
AcDbXrecord
280
     1
290
     1
  0
XRECORD
  5
23C7A
102
{ACAD_REACTORS
330
23C79
102
}
330
23C79
100
AcDbXrecord
280
     1
290
     1
  0
XRECORD
  5
23C7C
102
{ACAD_REACTORS
330
23C7B
102
}
330
23C7B
100
AcDbXrecord
280
     1
290
     1
  0
SORTENTSTABLE
  5
FF8
102
{ACAD_REACTORS
330
FF7
102
}
330
FF7
100
AcDbSortentsTable
330
37
  0
SORTENTSTABLE
  5
F8F
102
{ACAD_REACTORS
330
F8E
102
}
330
F8E
100
AcDbSortentsTable
330
33
331
681
  5
681
331
683
  5
683
331
763
  5
763
  0
LAYOUT
  5
36
102
{ACAD_XDICTIONARY
360
688
102
}
102
{ACAD_REACTORS
330
2F
102
}
330
2F
100
AcDbPlotSettings
  1

  2
KONICA MINOLTA C351 PCL
  4
Letter
  6

 40
5.027082920074462
 41
5.027085781097412
 42
5.027069091796875
 43
5.027069091796875
 44
215.8999938964844
 45
279.3999938964844
 46
0.0
 47
0.0
 48
0.0
 49
0.0
140
0.0
141
0.0
142
1.0
143
1.0
 70
   688
 72
     0
 73
     1
 74
     5
  7

 75
    16
147
1.0
 76
     0
 77
     2
 78
   300
148
0.0
149
0.0
100
AcDbLayout
  1
Layout1
 70
     1
 71
     1
 10
-0.1979161059762549
 20
-0.1979166503966324
 11
10.80208365372785
 21
8.302083109307478
 12
0.0
 22
0.0
 32
0.0
 14
0.0647977312674781
 24
0.0525895944238895
 34
0.0
 15
10.45328424968106
 25
7.991500494985558
 35
0.0
146
0.0
 13
0.0
 23
0.0
 33
0.0
 16
1.0
 26
0.0
 36
0.0
 17
0.0
 27
1.0
 37
0.0
 76
     0
330
33
331
681
1001
ACAD_PSEXT
1000
KONICA MINOLTA C351 PCL
1000
KONICA MINOLTA C351 PCL
1000
IP_172.16.33.8
1000

1070
     0
  0
LAYOUT
  5
3A
102
{ACAD_REACTORS
330
2F
102
}
330
2F
100
AcDbPlotSettings
  1

  2
KONICA MINOLTA C351 PCL
  4

  6

 40
0.0
 41
0.0
 42
0.0
 43
0.0
 44
0.0
 45
0.0
 46
0.0
 47
0.0
 48
0.0
 49
0.0
140
0.0
141
0.0
142
1.0
143
1.0
 70
  1712
 72
     0
 73
     0
 74
     0
  7

 75
     0
147
1.0
 76
     0
 77
     2
 78
   300
148
0.0
149
0.0
100
AcDbLayout
  1
Model
 70
     1
 71
     0
 10
0.0
 20
0.0
 11
12.0
 21
9.0
 12
0.0
 22
0.0
 32
0.0
 14
0.0
 24
0.0
 34
0.0
 15
0.0
 25
0.0
 35
0.0
146
0.0
 13
0.0
 23
0.0
 33
0.0
 16
1.0
 26
0.0
 36
0.0
 17
0.0
 27
1.0
 37
0.0
 76
     0
330
37
331
28
  0
MATERIAL
  5
12
102
{ACAD_XDICTIONARY
360
23C3A
102
}
102
{ACAD_REACTORS
330
10
102
}
330
10
100
AcDbMaterial
  1
ByBlock
  0
MATERIAL
  5
11
102
{ACAD_XDICTIONARY
360
23C38
102
}
102
{ACAD_REACTORS
330
10
102
}
330
10
100
AcDbMaterial
  1
ByLayer
  0
MATERIAL
  5
13
102
{ACAD_XDICTIONARY
360
23C3C
102
}
102
{ACAD_REACTORS
330
10
102
}
330
10
100
AcDbMaterial
  1
Global
  0
MLEADERSTYLE
  5
23C6A
102
{ACAD_REACTORS
330
23C69
102
}
330
23C69
100
AcDbMLeaderStyle
170
     2
171
     1
172
     0
 90
        2
 40
0.0
 41
0.0
173
     1
 91
-1056964608
340
29
 92
       -2
290
     1
 42
0.09
291
     1
 43
0.36
  3
Standard
 44
0.18
300

342
26
174
     1
178
     6
175
     1
176
     0
 93
-1056964608
 45
0.18
292
     0
297
     0
 46
0.18
 94
-1056964608
 47
1.0
 49
1.0
140
1.0
293
     1
141
0.0
294
     1
177
     0
142
1.0
295
     0
296
     0
143
0.125
1001
ACAD_MLEADERVER
1070
     2
  0
MLINESTYLE
  5
2D
102
{ACAD_REACTORS
330
2C
102
}
330
2C
100
AcDbMlineStyle
  2
STANDARD
 70
     0
  3

 62
   256
 51
90.0
 52
90.0
 71
     2
 49
0.5
 62
   256
  6
BYLAYER
 49
-0.5
 62
   256
  6
BYLAYER
  0
ACDBPLACEHOLDER
  5
F
102
{ACAD_REACTORS
330
E
102
}
330
E
  0
SCALE
  5
23C58
102
{ACAD_REACTORS
330
23C57
102
}
330
23C57
100
AcDbScale
 70
     0
300
1:1
140
1.0
141
1.0
290
     1
  0
SCALE
  5
23C59
102
{ACAD_REACTORS
330
23C57
102
}
330
23C57
100
AcDbScale
 70
     0
300
1/128" = 1'-0"
140
0.0078125
141
12.0
290
     0
  0
SCALE
  5
23C5A
102
{ACAD_REACTORS
330
23C57
102
}
330
23C57
100
AcDbScale
 70
     0
300
1/64" = 1'-0"
140
0.015625
141
12.0
290
     0
  0
SCALE
  5
23C5B
102
{ACAD_REACTORS
330
23C57
102
}
330
23C57
100
AcDbScale
 70
     0
300
1/32" = 1'-0"
140
0.03125
141
12.0
290
     0
  0
SCALE
  5
23C5C
102
{ACAD_REACTORS
330
23C57
102
}
330
23C57
100
AcDbScale
 70
     0
300
1/16" = 1'-0"
140
0.0625
141
12.0
290
     0
  0
SCALE
  5
23C5D
102
{ACAD_REACTORS
330
23C57
102
}
330
23C57
100
AcDbScale
 70
     0
300
3/32" = 1'-0"
140
0.09375
141
12.0
290
     0
  0
SCALE
  5
23C5E
102
{ACAD_REACTORS
330
23C57
102
}
330
23C57
100
AcDbScale
 70
     0
300
1/8" = 1'-0"
140
0.125
141
12.0
290
     0
  0
SCALE
  5
23C5F
102
{ACAD_REACTORS
330
23C57
102
}
330
23C57
100
AcDbScale
 70
     0
300
3/16" = 1'-0"
140
0.1875
141
12.0
290
     0
  0
SCALE
  5
23C60
102
{ACAD_REACTORS
330
23C57
102
}
330
23C57
100
AcDbScale
 70
     0
300
1/4" = 1'-0"
140
0.25
141
12.0
290
     0
  0
SCALE
  5
23C61
102
{ACAD_REACTORS
330
23C57
102
}
330
23C57
100
AcDbScale
 70
     0
300
3/8" = 1'-0"
140
0.375
141
12.0
290
     0
  0
SCALE
  5
23C62
102
{ACAD_REACTORS
330
23C57
102
}
330
23C57
100
AcDbScale
 70
     0
300
1/2" = 1'-0"
140
0.5
141
12.0
290
     0
  0
SCALE
  5
23C63
102
{ACAD_REACTORS
330
23C57
102
}
330
23C57
100
AcDbScale
 70
     0
300
3/4" = 1'-0"
140
0.75
141
12.0
290
     0
  0
SCALE
  5
23C64
102
{ACAD_REACTORS
330
23C57
102
}
330
23C57
100
AcDbScale
 70
     0
300
1" = 1'-0"
140
1.0
141
12.0
290
     0
  0
SCALE
  5
23C65
102
{ACAD_REACTORS
330
23C57
102
}
330
23C57
100
AcDbScale
 70
     0
300
1-1/2" = 1'-0"
140
1.5
141
12.0
290
     0
  0
SCALE
  5
23C66
102
{ACAD_REACTORS
330
23C57
102
}
330
23C57
100
AcDbScale
 70
     0
300
3" = 1'-0"
140
3.0
141
12.0
290
     0
  0
SCALE
  5
23C67
102
{ACAD_REACTORS
330
23C57
102
}
330
23C57
100
AcDbScale
 70
     0
300
6" = 1'-0"
140
6.0
141
12.0
290
     0
  0
SCALE
  5
23C68
102
{ACAD_REACTORS
330
23C57
102
}
330
23C57
100
AcDbScale
 70
     0
300
1'-0" = 1'-0"
140
12.0
141
12.0
290
     0
  0
TABLESTYLE
  5
32
102
{ACAD_XDICTIONARY
360
23C81
102
}
102
{ACAD_REACTORS
330
31
102
}
330
31
100
AcDbTableStyle
  3
Standard
 70
     0
 71
     0
 40
0.06
 41
0.06
280
     0
281
     0
  7
Standard
140
0.18
170
     2
 62
     0
 63
     7
283
     0
274
    -2
284
     1
 64
     0
275
    -2
285
     1
 65
     0
276
    -2
286
     1
 66
     0
277
    -2
287
     1
 67
     0
278
    -2
288
     1
 68
     0
279
    -2
289
     1
 69
     0
  7
Standard
140
0.25
170
     5
 62
     0
 63
     7
283
     0
274
    -2
284
     1
 64
     0
275
    -2
285
     1
 65
     0
276
    -2
286
     1
 66
     0
277
    -2
287
     1
 67
     0
278
    -2
288
     1
 68
     0
279
    -2
289
     1
 69
     0
  7
Standard
140
0.18
170
     5
 62
     0
 63
     7
283
     0
274
    -2
284
     1
 64
     0
275
    -2
285
     1
 65
     0
276
    -2
286
     1
 66
     0
277
    -2
287
     1
 67
     0
278
    -2
288
     1
 68
     0
279
    -2
289
     1
 69
     0
  0
VISUALSTYLE
  5
1A
102
{ACAD_XDICTIONARY
360
23C8E
102
}
102
{ACAD_REACTORS
330
14
102
}
330
14
100
AcDbVisualStyle
  2

 70
     4
 71
     0
 72
     2
 73
     0
 90
        0
 40
-0.6
 41
-30.0
 62
     5
 63
     7
 74
     1
 91
        4
 64
     7
 65
   257
 75
     1
175
     1
 42
1.0
 92
        0
 66
   257
 43
1.0
 76
     1
 77
     6
 78
     2
 67
     7
 79
     5
170
     0
171
     0
290
     0
174
     0
 93
        1
 44
0.0
173
     0
291
     0
 45
0.0
1001
ACAD
1000
AcDbSavedByObjectVersion
1070
     0
  0
VISUALSTYLE
  5
1C
102
{ACAD_XDICTIONARY
360
23C92
102
}
102
{ACAD_REACTORS
330
14
102
}
330
14
100
AcDbVisualStyle
  2

 70
     6
 71
     1
 72
     2
 73
     2
 90
        0
 40
-0.6
 41
-30.0
 62
     5
 63
     7
 74
     2
 91
        2
 64
     7
 65
   257
 75
     2
175
     1
 42
40.0
 92
        0
 66
   257
 43
1.0
 76
     1
 77
     6
 78
     2
 67
     7
 79
     3
170
     0
171
     0
290
     0
174
     0
 93
        1
 44
0.0
173
     0
291
     0
 45
0.0
1001
ACAD
1000
AcDbSavedByObjectVersion
1070
     0
  0
VISUALSTYLE
  5
1B
102
{ACAD_XDICTIONARY
360
23C90
102
}
102
{ACAD_REACTORS
330
14
102
}
330
14
100
AcDbVisualStyle
  2

 70
     5
 71
     0
 72
     2
 73
     0
 90
        0
 40
-0.6
 41
-30.0
 62
     5
 63
     7
 74
     1
 91
        4
 64
     7
 65
   257
 75
     1
175
     1
 42
1.0
 92
        0
 66
   257
 43
1.0
 76
     1
 77
     6
 78
     2
 67
     7
 79
     5
170
     0
171
     0
290
     0
174
     0
 93
        1
 44
0.0
173
     0
291
     0
 45
0.0
1001
ACAD
1000
AcDbSavedByObjectVersion
1070
     0
  0
VISUALSTYLE
  5
19
102
{ACAD_XDICTIONARY
360
23C8C
102
}
102
{ACAD_REACTORS
330
14
102
}
330
14
100
AcDbVisualStyle
  2

 70
     7
 71
     1
 72
     0
 73
     1
 90
        0
 40
-0.6
 41
-30.0
 62
     5
 63
     7
 74
     0
 91
        4
 64
     7
 65
   257
 75
     1
175
     1
 42
1.0
 92
        8
 66
     7
 43
1.0
 76
     1
 77
     6
 78
     2
 67
     7
 79
     5
170
     0
171
     0
290
     0
174
     0
 93
        1
 44
0.0
173
     0
291
     1
 45
0.0
1001
ACAD
1000
AcDbSavedByObjectVersion
1070
     0
  0
VISUALSTYLE
  5
20
102
{ACAD_XDICTIONARY
360
23C9A
102
}
102
{ACAD_REACTORS
330
14
102
}
330
14
100
AcDbVisualStyle
  2

 70
    12
 71
     2
 72
     2
 73
     0
 90
        0
 40
-0.6
 41
-30.0
 62
     5
 63
     7
 74
     1
 91
        4
 64
     7
 65
   257
 75
     1
175
     1
 42
1.0
 92
        8
 66
     7
 43
1.0
 76
     1
 77
     6
 78
     2
 67
     7
 79
     5
170
     0
171
     0
290
     0
174
     0
 93
        1
 44
50.0
173
     0
291
     1
 45
0.0
1001
ACAD
1000
AcDbSavedByObjectVersion
1070
     0
  0
VISUALSTYLE
  5
24
102
{ACAD_XDICTIONARY
360
23CA2
102
}
102
{ACAD_REACTORS
330
14
102
}
330
14
100
AcDbVisualStyle
  2

 70
    16
 71
     2
 72
     2
 73
     3
 90
        0
 40
-0.6
 41
-30.0
 62
     5
 63
     8
 74
     1
 91
        4
 64
     7
 65
   257
 75
     1
175
     1
 42
1.0
 92
        8
 66
     8
 43
1.0
 76
     1
 77
     6
 78
     2
 67
     7
 79
     5
170
     0
171
     0
290
     0
174
     0
 93
        1
 44
0.0
173
     0
291
     1
 45
0.0
1001
ACAD
1000
AcDbSavedByObjectVersion
1070
     0
  0
VISUALSTYLE
  5
1D
102
{ACAD_XDICTIONARY
360
23C94
102
}
102
{ACAD_REACTORS
330
14
102
}
330
14
100
AcDbVisualStyle
  2

 70
     9
 71
     3
 72
     2
 73
     0
 90
        0
 40
-0.6
 41
-30.0
 62
     5
 63
     7
 74
     2
 91
        2
 64
     7
 65
   257
 75
     1
175
     1
 42
40.0
 92
        8
 66
     7
 43
1.0
 76
     1
 77
     6
 78
     2
 67
     7
 79
     3
170
     0
171
     0
290
     0
174
     0
 93
        1
 44
0.0
173
     0
291
     0
 45
0.0
1001
ACAD
1000
AcDbSavedByObjectVersion
1070
     0
  0
VISUALSTYLE
  5
1F
102
{ACAD_XDICTIONARY
360
23C98
102
}
102
{ACAD_REACTORS
330
14
102
}
330
14
100
AcDbVisualStyle
  2

 70
    11
 71
     2
 72
     2
 73
     0
 90
        0
 40
-0.6
 41
-30.0
 62
     5
 63
     7
 74
     1
 91
        4
 64
     7
 65
   257
 75
     1
175
     1
 42
1.0
 92
        8
 66
     7
 43
1.0
 76
     1
 77
     6
 78
     2
 67
     7
 79
     5
170
     0
171
     0
290
     0
174
     0
 93
        1
 44
-50.0
173
     0
291
     1
 45
0.0
1001
ACAD
1000
AcDbSavedByObjectVersion
1070
     0
  0
VISUALSTYLE
  5
23C56
102
{ACAD_XDICTIONARY
360
23CB7
102
}
102
{ACAD_REACTORS
330
14
102
}
330
14
100
AcDbVisualStyle
  2
EdgeColorOff
 70
    22
 71
     2
 72
     2
 73
     0
 90
        0
 40
-0.6
 41
-30.0
 62
     5
 63
     7
421
 16777215
 74
     1
 91
        4
 64
     7
 65
   257
 75
     1
175
     1
 42
1.0
 92
        8
 66
     7
 43
1.0
 76
     1
 77
     6
 78
     2
 67
     7
 79
     5
170
     0
171
     0
290
     0
174
     0
 93
        1
 44
0.0
173
     0
291
     1
 45
0.0
1001
ACAD
1000
AcDbSavedByObjectVersion
1070
     0
  0
VISUALSTYLE
  5
23
102
{ACAD_XDICTIONARY
360
23CA0
102
}
102
{ACAD_REACTORS
330
14
102
}
330
14
100
AcDbVisualStyle
  2

 70
    15
 71
     2
 72
     2
 73
     0
 90
        0
 40
-0.6
 41
-30.0
 62
     5
 63
     7
 74
     1
 91
        4
 64
     7
 65
   257
 75
     1
175
     1
 42
1.0
 92
        8
 66
     7
 43
1.0
 76
     1
 77
     6
 78
     2
 67
     7
 79
     5
170
     0
171
     0
290
     0
174
     0
 93
        1
 44
0.0
173
     0
291
     1
 45
0.0
1001
ACAD
1000
AcDbSavedByObjectVersion
1070
     0
  0
VISUALSTYLE
  5
15
102
{ACAD_XDICTIONARY
360
23C84
102
}
102
{ACAD_REACTORS
330
14
102
}
330
14
100
AcDbVisualStyle
  2

 70
     0
 71
     2
 72
     1
 73
     1
 90
        2
 40
-0.6
 41
30.0
 62
     5
 63
     7
 74
     0
 91
        4
 64
     7
 65
   257
 75
     1
175
     1
 42
1.0
 92
        8
 66
     7
 43
1.0
 76
     1
 77
     6
 78
     2
 67
     7
 79
     5
170
     0
171
     0
290
     0
174
     0
 93
       13
 44
0.0
173
     0
291
     1
 45
0.0
1001
ACAD
1000
AcDbSavedByObjectVersion
1070
     0
  0
VISUALSTYLE
  5
16
102
{ACAD_XDICTIONARY
360
23C86
102
}
102
{ACAD_REACTORS
330
14
102
}
330
14
100
AcDbVisualStyle
  2

 70
     1
 71
     2
 72
     1
 73
     1
 90
        2
 40
-0.6
 41
30.0
 62
     5
 63
     7
 74
     1
 91
        4
 64
     7
 65
   257
 75
     1
175
     1
 42
1.0
 92
        0
 66
   257
 43
1.0
 76
     1
 77
     6
 78
     2
 67
     7
 79
     5
170
     0
171
     0
290
     0
174
     0
 93
       13
 44
0.0
173
     0
291
     1
 45
0.0
1001
ACAD
1000
AcDbSavedByObjectVersion
1070
     0
  0
VISUALSTYLE
  5
17
102
{ACAD_XDICTIONARY
360
23C88
102
}
102
{ACAD_REACTORS
330
14
102
}
330
14
100
AcDbVisualStyle
  2

 70
     2
 71
     2
 72
     2
 73
     1
 90
        2
 40
-0.6
 41
30.0
 62
     5
 63
     7
 74
     0
 91
        4
 64
     7
 65
   257
 75
     1
175
     1
 42
1.0
 92
        0
 66
     7
 43
1.0
 76
     1
 77
     6
 78
     2
 67
     7
 79
     5
170
     0
171
     0
290
     0
174
     0
 93
       13
 44
0.0
173
     0
291
     1
 45
0.0
1001
ACAD
1000
AcDbSavedByObjectVersion
1070
     0
  0
VISUALSTYLE
  5
18
102
{ACAD_XDICTIONARY
360
23C8A
102
}
102
{ACAD_REACTORS
330
14
102
}
330
14
100
AcDbVisualStyle
  2

 70
     3
 71
     2
 72
     2
 73
     1
 90
        2
 40
-0.6
 41
30.0
 62
     5
 63
     7
 74
     1
 91
        4
 64
     7
 65
   257
 75
     1
175
     1
 42
1.0
 92
        0
 66
   257
 43
1.0
 76
     1
 77
     6
 78
     2
 67
     7
 79
     5
170
     0
171
     0
290
     0
174
     0
 93
       13
 44
0.0
173
     0
291
     1
 45
0.0
1001
ACAD
1000
AcDbSavedByObjectVersion
1070
     0
  0
VISUALSTYLE
  5
23C4E
102
{ACAD_XDICTIONARY
360
23CA7
102
}
102
{ACAD_REACTORS
330
14
102
}
330
14
100
AcDbVisualStyle
  2
Hidden
 70
     6
 71
     1
 72
     2
 73
     2
 90
        0
 40
-0.6
 41
-30.0
 62
     5
 63
     7
421
 16777215
 74
     2
 91
        2
 64
     7
 65
   257
 75
     2
175
     1
 42
40.0
 92
        0
 66
   257
 43
1.0
 76
     1
 77
     6
 78
     2
 67
     7
 79
     3
170
     0
171
     0
290
     0
174
     0
 93
        1
 44
0.0
173
     0
291
     0
 45
0.0
1001
ACAD
1000
AcDbSavedByObjectVersion
1070
     0
  0
VISUALSTYLE
  5
23C54
102
{ACAD_XDICTIONARY
360
23CB3
102
}
102
{ACAD_REACTORS
330
14
102
}
330
14
100
AcDbVisualStyle
  2
JitterOff
 70
    20
 71
     2
 72
     2
 73
     0
 90
        0
 40
-0.6
 41
-30.0
 62
     5
 63
     7
421
 16777215
 74
     1
 91
        4
 64
     7
 65
   257
 75
     1
175
     1
 42
1.0
 92
       10
 66
     7
 43
1.0
 76
     1
 77
     6
 78
     2
 67
     7
 79
     5
170
     0
171
     0
290
     0
174
     0
 93
        1
 44
0.0
173
     0
291
     1
 45
0.0
1001
ACAD
1000
AcDbSavedByObjectVersion
1070
     0
  0
VISUALSTYLE
  5
22
102
{ACAD_XDICTIONARY
360
23C9E
102
}
102
{ACAD_REACTORS
330
14
102
}
330
14
100
AcDbVisualStyle
  2

 70
    14
 71
     2
 72
     2
 73
     0
 90
        0
 40
-0.6
 41
-30.0
 62
     5
 63
     7
 74
     1
 91
        4
 64
     7
 65
   257
 75
     7
175
     7
 42
1.0
 92
        8
 66
     7
 43
1.0
 76
     1
 77
     6
 78
     2
 67
     7
 79
     5
170
     0
171
     0
290
     0
174
     0
 93
        1
 44
0.0
173
     0
291
     1
 45
0.0
1001
ACAD
1000
AcDbSavedByObjectVersion
1070
     0
  0
VISUALSTYLE
  5
23C55
102
{ACAD_XDICTIONARY
360
23CB5
102
}
102
{ACAD_REACTORS
330
14
102
}
330
14
100
AcDbVisualStyle
  2
OverhangOff
 70
    21
 71
     2
 72
     2
 73
     0
 90
        0
 40
-0.6
 41
-30.0
 62
     5
 63
     7
421
 16777215
 74
     1
 91
        4
 64
     7
 65
   257
 75
     1
175
     1
 42
1.0
 92
        9
 66
     7
 43
1.0
 76
     1
 77
     6
 78
     2
 67
     7
 79
     5
170
     0
171
     0
290
     0
174
     0
 93
        1
 44
0.0
173
     0
291
     1
 45
0.0
1001
ACAD
1000
AcDbSavedByObjectVersion
1070
     0
  0
VISUALSTYLE
  5
1E
102
{ACAD_XDICTIONARY
360
23C96
102
}
102
{ACAD_REACTORS
330
14
102
}
330
14
100
AcDbVisualStyle
  2

 70
     8
 71
     2
 72
     2
 73
     0
 90
        0
 40
-0.6
 41
-30.0
 62
     5
 63
     7
 74
     1
 91
        0
 64
     7
 65
   257
 75
     1
175
     1
 42
1.0
 92
        8
 66
     8
 43
1.0
 76
     1
 77
     6
 78
     2
 67
     7
 79
     5
170
     0
171
     0
290
     0
174
     0
 93
       13
 44
0.0
173
     0
291
     0
 45
0.0
1001
ACAD
1000
AcDbSavedByObjectVersion
1070
     0
  0
VISUALSTYLE
  5
23C53
102
{ACAD_XDICTIONARY
360
23CB1
102
}
102
{ACAD_REACTORS
330
14
102
}
330
14
100
AcDbVisualStyle
  2
Shaded
 70
    27
 71
     2
 72
     2
 73
     1
 90
        2
 40
-0.6
 41
30.0
 62
     5
 63
     7
421
 16777215
 74
     0
 91
        4
 64
     7
 65
   257
 75
     1
175
     1
 42
1.0
 92
        8
 66
   257
 43
1.0
 76
     1
 77
     6
 78
     2
 67
     8
425
  7895160
 79
     3
170
     0
171
     0
290
     0
174
     0
 93
        5
 44
0.0
173
     0
291
     0
 45
0.0
1001
ACAD
1000
AcDbSavedByObjectVersion
1070
     0
  0
VISUALSTYLE
  5
23C52
102
{ACAD_XDICTIONARY
360
23CAF
102
}
102
{ACAD_REACTORS
330
14
102
}
330
14
100
AcDbVisualStyle
  2
Shaded with edges
 70
    26
 71
     2
 72
     2
 73
     1
 90
        2
 40
-0.6
 41
30.0
 62
     5
 63
     7
421
 16777215
 74
     1
 91
       10
 64
     7
 65
   257
 75
     2
175
     1
 42
1.0
 92
        8
 66
   257
 43
1.0
 76
     1
 77
     6
 78
     2
 67
     7
 79
     3
170
     0
171
     0
290
     0
174
     0
 93
        5
 44
0.0
173
     0
291
     0
 45
0.0
1001
ACAD
1000
AcDbSavedByObjectVersion
1070
     0
  0
VISUALSTYLE
  5
23C4F
102
{ACAD_XDICTIONARY
360
23CA9
102
}
102
{ACAD_REACTORS
330
14
102
}
330
14
100
AcDbVisualStyle
  2
Shades of Gray
 70
    23
 71
     2
 72
     2
 73
     3
 90
        0
 40
-0.6
 41
-30.0
 62
     5
 63
     7
421
 16777215
 74
     2
 91
        2
 64
     7
 65
     7
 75
     1
175
     1
 42
40.0
 92
        8
 66
     7
 43
1.0
 76
     1
 77
     6
 78
     2
 67
     7
 79
     3
170
     0
171
     0
290
     0
174
     0
 93
        1
 44
0.0
173
     0
291
     0
 45
0.0
1001
ACAD
1000
AcDbSavedByObjectVersion
1070
     0
  0
VISUALSTYLE
  5
23C50
102
{ACAD_XDICTIONARY
360
23CAB
102
}
102
{ACAD_REACTORS
330
14
102
}
330
14
100
AcDbVisualStyle
  2
Sketchy
 70
    24
 71
     1
 72
     2
 73
     2
 90
        0
 40
-0.6
 41
-30.0
 62
     5
 63
     7
421
 16777215
 74
     2
 91
        2
 64
     7
 65
     7
 75
     1
175
     1
 42
40.0
 92
       11
 66
     7
 43
1.0
 76
     1
 77
     6
 78
     2
 67
     7
 79
     6
170
     0
171
     0
290
     0
174
     0
 93
        1
 44
0.0
173
     0
291
     0
 45
0.0
1001
ACAD
1000
AcDbSavedByObjectVersion
1070
     0
  0
VISUALSTYLE
  5
21
102
{ACAD_XDICTIONARY
360
23C9C
102
}
102
{ACAD_REACTORS
330
14
102
}
330
14
100
AcDbVisualStyle
  2

 70
    13
 71
     2
 72
     2
 73
     0
 90
        0
 40
-0.6
 41
-30.0
 62
     5
 63
     7
 74
     1
 91
        4
 64
     7
 65
   257
 75
     1
175
     1
 42
1.0
 92
       12
 66
     7
 43
1.0
 76
     1
 77
     6
 78
     2
 67
     7
 79
     5
170
     0
171
     0
290
     0
174
     0
 93
        1
 44
0.0
173
     0
291
     1
 45
0.0
1001
ACAD
1000
AcDbSavedByObjectVersion
1070
     0
  0
VISUALSTYLE
  5
23C4D
102
{ACAD_XDICTIONARY
360
23CA5
102
}
102
{ACAD_REACTORS
330
14
102
}
330
14
100
AcDbVisualStyle
  2
Wireframe
 70
     5
 71
     0
 72
     2
 73
     0
 90
        0
 40
-0.6
 41
-30.0
 62
     5
 63
     7
421
 16777215
 74
     1
 91
        4
 64
     7
 65
   257
 75
     1
175
     1
 42
1.0
 92
        0
 66
   257
 43
1.0
 76
     1
 77
     6
 78
     2
 67
     7
 79
     3
170
     0
171
     0
290
     0
174
     0
 93
        1
 44
0.0
173
     0
291
     0
 45
0.0
1001
ACAD
1000
AcDbSavedByObjectVersion
1070
     0
  0
VISUALSTYLE
  5
23C51
102
{ACAD_XDICTIONARY
360
23CAD
102
}
102
{ACAD_REACTORS
330
14
102
}
330
14
100
AcDbVisualStyle
  2
X-Ray
 70
    25
 71
     2
 72
     2
 73
     1
 90
        1
 40
0.5
 41
-30.0
 62
     5
 63
     7
421
 16777215
 74
     1
 91
        0
 64
     7
 65
   257
 75
     1
175
     1
 42
1.0
 92
        8
 66
     7
 43
1.0
 76
     1
 77
     6
 78
     2
 67
     7
 79
     3
170
     0
171
     0
290
     0
174
     0
 93
       13
 44
0.0
173
     0
291
     0
 45
0.0
1001
ACAD
1000
AcDbSavedByObjectVersion
1070
     0
  0
DICTIONARYVAR
  5
23C7E
102
{ACAD_REACTORS
330
704
102
}
330
704
100
DictionaryVariables
280
     0
  1
1:1
  0
DICTIONARYVAR
  5
23C7D
102
{ACAD_REACTORS
330
704
102
}
330
704
100
DictionaryVariables
280
     0
  1
STANDARD
  0
DICTIONARYVAR
  5
705
102
{ACAD_REACTORS
330
704
102
}
330
704
100
DictionaryVariables
280
     0
  1
STANDARD
  0
DICTIONARYVAR
  5
22718
102
{ACAD_REACTORS
330
704
102
}
330
704
100
DictionaryVariables
280
     0
  1
2
  0
DICTIONARYVAR
  5
22717
102
{ACAD_REACTORS
330
704
102
}
330
704
100
DictionaryVariables
280
     0
  1
1
  0
DICTIONARYVAR
  5
22716
102
{ACAD_REACTORS
330
704
102
}
330
704
100
DictionaryVariables
280
     0
  1
0
  0
DICTIONARYVAR
  5
22715
102
{ACAD_REACTORS
330
704
102
}
330
704
100
DictionaryVariables
280
     0
  1
127
  0
DICTIONARYVAR
  5
23C7F
102
{ACAD_REACTORS
330
704
102
}
330
704
100
DictionaryVariables
280
     0
  1
2
  0
XRECORD
  5
1024
102
{ACAD_REACTORS
330
1023
102
}
330
1023
100
AcDbXrecord
280
     1
  0
DICTIONARY
  5
688
330
36
100
AcDbDictionary
280
     1
281
     1
  3
ADSK_XREC_LAYOUTTHUMBNAIL
360
689
  0
DICTIONARY
  5
23C3A
330
12
100
AcDbDictionary
280
     1
281
     1
  3
ACAD_XREC_ROUNDTRIP
360
23C3B
  0
DICTIONARY
  5
23C38
330
11
100
AcDbDictionary
280
     1
281
     1
  3
ACAD_XREC_ROUNDTRIP
360
23C39
  0
DICTIONARY
  5
23C3C
330
13
100
AcDbDictionary
280
     1
281
     1
  3
ACAD_XREC_ROUNDTRIP
360
23C3D
  0
DICTIONARY
  5
23C81
330
32
100
AcDbDictionary
280
     1
281
     1
  3
ACAD_ROUNDTRIP_2008_TABLESTYLE_CELLSTYLEMAP
360
23C82
  3
ACAD_XREC_ROUNDTRIP
360
23CA4
  0
DICTIONARY
  5
23C8E
330
1A
100
AcDbDictionary
280
     1
281
     1
  3
ACAD_XREC_ROUNDTRIP
360
23C8F
  0
DICTIONARY
  5
23C92
330
1C
100
AcDbDictionary
280
     1
281
     1
  3
ACAD_XREC_ROUNDTRIP
360
23C93
  0
DICTIONARY
  5
23C90
330
1B
100
AcDbDictionary
280
     1
281
     1
  3
ACAD_XREC_ROUNDTRIP
360
23C91
  0
DICTIONARY
  5
23C8C
330
19
100
AcDbDictionary
280
     1
281
     1
  3
ACAD_XREC_ROUNDTRIP
360
23C8D
  0
DICTIONARY
  5
23C9A
330
20
100
AcDbDictionary
280
     1
281
     1
  3
ACAD_XREC_ROUNDTRIP
360
23C9B
  0
DICTIONARY
  5
23CA2
330
24
100
AcDbDictionary
280
     1
281
     1
  3
ACAD_XREC_ROUNDTRIP
360
23CA3
  0
DICTIONARY
  5
23C94
330
1D
100
AcDbDictionary
280
     1
281
     1
  3
ACAD_XREC_ROUNDTRIP
360
23C95
  0
DICTIONARY
  5
23C98
330
1F
100
AcDbDictionary
280
     1
281
     1
  3
ACAD_XREC_ROUNDTRIP
360
23C99
  0
DICTIONARY
  5
23CB7
330
23C56
100
AcDbDictionary
280
     1
281
     1
  3
ACAD_XREC_ROUNDTRIP
360
23CB8
  0
DICTIONARY
  5
23CA0
330
23
100
AcDbDictionary
280
     1
281
     1
  3
ACAD_XREC_ROUNDTRIP
360
23CA1
  0
DICTIONARY
  5
23C84
330
15
100
AcDbDictionary
280
     1
281
     1
  3
ACAD_XREC_ROUNDTRIP
360
23C85
  0
DICTIONARY
  5
23C86
330
16
100
AcDbDictionary
280
     1
281
     1
  3
ACAD_XREC_ROUNDTRIP
360
23C87
  0
DICTIONARY
  5
23C88
330
17
100
AcDbDictionary
280
     1
281
     1
  3
ACAD_XREC_ROUNDTRIP
360
23C89
  0
DICTIONARY
  5
23C8A
330
18
100
AcDbDictionary
280
     1
281
     1
  3
ACAD_XREC_ROUNDTRIP
360
23C8B
  0
DICTIONARY
  5
23CA7
330
23C4E
100
AcDbDictionary
280
     1
281
     1
  3
ACAD_XREC_ROUNDTRIP
360
23CA8
  0
DICTIONARY
  5
23CB3
330
23C54
100
AcDbDictionary
280
     1
281
     1
  3
ACAD_XREC_ROUNDTRIP
360
23CB4
  0
DICTIONARY
  5
23C9E
330
22
100
AcDbDictionary
280
     1
281
     1
  3
ACAD_XREC_ROUNDTRIP
360
23C9F
  0
DICTIONARY
  5
23CB5
330
23C55
100
AcDbDictionary
280
     1
281
     1
  3
ACAD_XREC_ROUNDTRIP
360
23CB6
  0
DICTIONARY
  5
23C96
330
1E
100
AcDbDictionary
280
     1
281
     1
  3
ACAD_XREC_ROUNDTRIP
360
23C97
  0
DICTIONARY
  5
23CB1
330
23C53
100
AcDbDictionary
280
     1
281
     1
  3
ACAD_XREC_ROUNDTRIP
360
23CB2
  0
DICTIONARY
  5
23CAF
330
23C52
100
AcDbDictionary
280
     1
281
     1
  3
ACAD_XREC_ROUNDTRIP
360
23CB0
  0
DICTIONARY
  5
23CA9
330
23C4F
100
AcDbDictionary
280
     1
281
     1
  3
ACAD_XREC_ROUNDTRIP
360
23CAA
  0
DICTIONARY
  5
23CAB
330
23C50
100
AcDbDictionary
280
     1
281
     1
  3
ACAD_XREC_ROUNDTRIP
360
23CAC
  0
DICTIONARY
  5
23C9C
330
21
100
AcDbDictionary
280
     1
281
     1
  3
ACAD_XREC_ROUNDTRIP
360
23C9D
  0
DICTIONARY
  5
23CA5
330
23C4D
100
AcDbDictionary
280
     1
281
     1
  3
ACAD_XREC_ROUNDTRIP
360
23CA6
  0
DICTIONARY
  5
23CAD
330
23C51
100
AcDbDictionary
280
     1
281
     1
  3
ACAD_XREC_ROUNDTRIP
360
23CAE
  0
XRECORD
  5
689
102
{ACAD_REACTORS
330
688
102
}
330
688
100
AcDbXrecord
280
     1
310
28000000B40000008B0000000100080000000000BC61000000000000000000000001000000000000FFFFFF0000000000C8C8C8000000000000000000000000000000000000000000000000000000000000000000330000006600000099000000CC000000FF00000000330000333300006633000099330000CC330000FF3300
310
0000660000336600006666000099660000CC660000FF66000000990000339900006699000099990000CC990000FF99000000CC000033CC000066CC000099CC0000CCCC0000FFCC000000FF000033FF000066FF000099FF0000CCFF0000FFFF000000003300330033006600330099003300CC003300FF003300003333003333
310
33006633330099333300CC333300FF33330000663300336633006666330099663300CC663300FF66330000993300339933006699330099993300CC993300FF99330000CC330033CC330066CC330099CC3300CCCC3300FFCC330000FF330033FF330066FF330099FF3300CCFF3300FFFF330000006600330066006600660099
310
006600CC006600FF00660000336600333366006633660099336600CC336600FF33660000666600336666006666660099666600CC666600FF66660000996600339966006699660099996600CC996600FF99660000CC660033CC660066CC660099CC6600CCCC6600FFCC660000FF660033FF660066FF660099FF6600CCFF6600
310
FFFF660000009900330099006600990099009900CC009900FF00990000339900333399006633990099339900CC339900FF33990000669900336699006666990099669900CC669900FF66990000999900339999006699990099999900CC999900FF99990000CC990033CC990066CC990099CC9900CCCC9900FFCC990000FF99
310
0033FF990066FF990099FF9900CCFF9900FFFF99000000CC003300CC006600CC009900CC00CC00CC00FF00CC000033CC003333CC006633CC009933CC00CC33CC00FF33CC000066CC003366CC006666CC009966CC00CC66CC00FF66CC000099CC003399CC006699CC009999CC00CC99CC00FF99CC0000CCCC0033CCCC0066CC
310
CC0099CCCC00CCCCCC00FFCCCC0000FFCC0033FFCC0066FFCC0099FFCC00CCFFCC00FFFFCC000000FF003300FF006600FF009900FF00CC00FF00FF00FF000033FF003333FF006633FF009933FF00CC33FF00FF33FF000066FF003366FF006666FF009966FF00CC66FF00FF66FF000099FF003399FF006699FF009999FF00CC
310
99FF00FF99FF0000CCFF0033CCFF0066CCFF0099CCFF00CCCCFF00FFCCFF0000FFFF0033FFFF0066FFFF0099FFFF00CCFFFF00FFFFFF00000000000D0D0D001A1A1A00282828003535350043434300505050005D5D5D006B6B6B00787878008686860093939300A1A1A100AEAEAE00BBBBBB00C9C9C900D6D6D600E4E4E400
310
F1F1F100FFFFFF0000000000000000000000000000000000000000000000000000000000000000000000000000000000E2E2E2E2E2E2E2E2E2E2E2E2E2E2E2E2E2E2E2E2E2E2E2E2E2E2E2E2E2E2E2E2E2E2E2E2E2E2E2E2E2E2E2E2E2E2E2E2E2E2E2E2E2E2E2E2E2E2E2E2E2E2E2E2E2E2E2E2E2E2E2E2E2E2E2E2E2E2E2
310
E2E2E2E2E2E2E2E2E2E2E2E2E2E2E2E2E2E2E2E2E2E2E2E2E2E2E2E2E2E2E2E2E2E2E2E2E2E2E2E2E2E2E2E2E2E2E2E2E2E2E2E2E2E2E2E2E2E2E2E2E2E2E2E2E2E2E2E2E2E2E2E2E2E2E2E2E2E2E2E2E2E2E2E2E2E2E2E2E2E2E2E2E2E2E2E2E2E2E2E2E2E200000000000000000000000000000000000000000000000000
310
00000000000000000000000000000000000000000000000000000000000000000000000000000000000000000000000000000000000000000000000000000000000000000000000000000000000000000000000000000000000000000000000000000000000000000000000000000000000000000000000000000000000000
310
000000000000000000000000000000000000000000000000E2E2E2E2000000000000000000000000000000000000000000000000000000000000000000000000000000000000000000000000000000000000000000000000000000000000000000000000000000000000000000000000000000000000000000000000000000
310
0000000000000000000000000000000000000000000000000000000000000000000000000000000000000000000000000000000000000000000000000000000000000000000000000000000000E2E2E2E200000000000000000000000000000000000000000000000000000000000000000000000000000000000000000000
310
00000000000000000000000000000000000000000000000000000000000000000000000000000000000000000000000000000000000000000000000000000000000000000000000000000000000000000000000000000000000000000000000000000000000000000000000000000000000000000000000000000000000000
310
000000E2E2E2E20000E2555555555555555555555555555555555555555555555555555555555555555555555555555555555555555555555555555555555555555555555555555555555555555555555555555555555555555555555555555555555555555555555555555555555555555555555555555555555555555555
310
55555555555555555555555555555555555555555555555555555555555555555555555555555555555555555555555555555555E2E20000E2E2E2E20000E255000000000000000000000000000000000000000000000000000000000000000000000000000000000000000000000000000000000000000000000000000000
310
00000000000000000000000000000000000000000000000000000000000000000000000000000000000000000000000000000000000000000000000000000000000000000000000000000000000000000000000000000000000000000000000000000000000000005500E20000E2E2E2E20000E25500000000000000000000
310
00000000C3000000000000000000000000C300000000000000000000000000000000000000000000000000000000000000000000000000000000000000000000000000000000000000000000000000000000000000000000000000000000000000000000000000000000000000000000000000000000000000000000000000
310
0000000000000000000000000000C3C3C3C3C3C3C3C3C3C30000C3C3C3C35500E20000E2E2E2E20000E255C3C3C3C30000C3C3C3C3C3C3C3C3C30000C3C3C3C3C3C3C3C3C300C3C30000C3C3C3C3C3000000000000000000000000000000000000000000000000000000000000000000000000000000000000000000000000
310
00000000000000000000000000000000000000000000000000000000000000000000000000000000000000000000000000000000000000000000000000000000000000C3C3C3C3C3C300C3C3C30000C3C3C3005500E20000E2E2E2E20000E25500C3C3C3C3C3C3C3C3C3C3C3C3C3000000C3C3C3C3C3C3C3C3C3C3C30000C3
310
00C3C3C3C30000000000000000000000000000000000000000000000000000000000000000000000000000000000000000000000000000000000000000000000000000000000000000000000000000000000000000000000000000000000000000000000000000000000000000000000000000000000000000000000000000
310
0000000000000000005500E20000E2E2E2E20000E255000000000000000000000000000000000000000000000000000000000000000000000000000000000000000000000000000000000000000000000000000000000000000000000000000000000000000000000000000000000000000000000000000000000000000000
310
00000000000000000000000000000000000000000000000000000000000000000000000000000000000000000000000000000000000000000000000000005500E20000E2E2E2E20000E25500000000000000000000000000000000000000000000000000000000000000000000000000000000000000000000000000000000
310
000000000000000000000000000000000000000000000000000000000000000000000000000000000000000000000000000000000000000000000000000000000000000000000000000000000000000000000000000000000000000000000000000000000000000000000000000000000000005500E20000E2E2E2E20000E2
310
5500000000000000000000000000000000000000000000000000000000000000000000000000000000000000000000000000000000000000000000E2E2E2000000000000000000000000000000000000000000000000000000000000000000000000E2E2E2E2E2000000000000000000000000000000000000000000000000
310
00000000000000000000000000000000000000000000000000000000000000000000000000000000005500E20000E2E2E2E20000E255000000000000000000000000000000000000000000000000000000000000000000000000000000000000000000000000000000000000000000E2E2E2E2E2E200000000000000000000
310
00000000000000000000000000000000000000000000E2E2E200E2E2E2E2E2E200000000000000000000000000000000000000000000000000000000000000000000000000000000000000000000000000000000000000000000000000005500E20000E2E2E2E2000000550000000000000000000000000000000000000000
310
000000000000000000000000000000000000000000000000000000000000000000000000E2E2E200E2E2E2000000000000000000000000000000000000000000000000000000000000E2E2E2E2E2E20000E2E2E2E2E20000000000000000000000000000000000000000000000000000000000000000000000000000000000
310
00000000000000000000000000000000000000005500000000E2E2E2E2000000550000000000000000000000000000000000000000000000000000000000000000000000000000000000000000000000000000000000000000E2E2000000E2E20000000000000000000000000000000000000000000000000000000000E2E2
310
E2E20000000000000000E2E2E20000000000000000000000000000000000000000000000000000000000000000000000000000000000000000000000000000000000000000000000005500000000E2E2E2E2000000550000000000000000000000000000000000000000000000000000000000000000000000000000000000
310
0000000000000000000000000000E200E2000000E200E2000000000000000000000000000000000000000000000000000000E2E2E20000000000000000000000E2E2E2000000000000000000000000000000000000000000000000000000000000000000000000000000000000000000000000000000000000000000000055
310
00000000E2E2E2E20000005500000000000000000000000000000000000000000000000000000000000000000000000000000000000000000000000000000000000000E2E20000000000E2E2000000000000000000000000000000000000000000000000000000E2E200000000000000000000000000E2E2E2000000000000
310
000000000000000000000000000000000000000000000000000000000000000000000000000000000000000000000000000000005500000000E2E2E2E20000005500000000000000000000000000000000000000000000000000000000000000000000000000000000000000000000000000000000000000E2E20000000000
310
E2E20000000000000000000000000000000000000000000000000000E2E2E20000000000000000000000000000E2E2000000000000000000000000000000000000000000000000000000000000000000000000000000000000000000000000000000000000000000005500000000E2E2E2E200000055000000000000000000
310
000000000000000000000000000000000000000000000000000000000000000000000000000000000000000000E200E20000000000E2E200000000000000000000000000000000000000000000000000E2E2E2000000000000000000000000000000E2E2000000000000000000000000000000000000000000000000000000
310
000000000000000000000000000000000000000000000000000000000000005500000000E2E2E2E200000055000000000000000000000000000000000000000000000000000000000000000000000000000000000000000000000000000000000000E2E2E20000000000E2E200000000000000000000000000000000000000
310
000000000000E2E200000000000000000000000000000000E2E2E20000000000000000000000000000000000000000000000000000000000000000000000000000000000000000000000000000000000000000005500000000E2E2E2E200000055000000000000000000000000000000000000000000000000000000000000
310
000000000000000000000000000000000000000000000000E2E2000000000000E2E200000000000000000000000000000000000000000000000000E2E20000000000000000000000000000000000E2E20000000000000000000000000000000000000000000000000000000000000000000000000000000000000000000000
310
000000000000000000005500000000E2E2E2E200000055000000000000000000000000000000000000000000000000000000000000000000000000000000000000000000000000000000000000E2E2000000000000E2E2000000000000000000000000000000000000000000000000E200E200000000000000000000000000
310
00000000E2E20000000000000000000000000000000000000000000000000000000000000000000000000000000000000000000000000000000000000000005500000000E2E2E2E20000E255000000000000000000000000000000000000000000000000000000000000000000000000000000000000000000000000000000
310
000000E2E2000000000000E2E2000000000000000000000000000000000000000000000000E2E2000000000000000000000000000000000000E2E20000000000000000000000000000000000000000000000000000000000000000000000000000000000000000000000000000000000000000005500E20000E2E2E2E20000
310
E255000000000000000000000000000000000000000000000000000000000000000000000000000000000000000000000000000000000000E2E2000000000000E2E2000000000000000000000000000000000000000000000000E2E2000000000000000000000000000000000000E2E2E20000000000000000000000000000
310
0000000000000000000000000000000000000000000000000000000000000000000000000000000000005500E20000E2E2E2E20000E255000000000000000000000000000000000000000000000000000000000000000000000000000000000000000000000000000000000000E2E2000000000000E2E20000000000000000
310
00000000000000000000000000000000E2E2000000000000000000000000000000000000E200E200000000000000000000000000000000000000000000000000000000000000000000000000000000000000000000000000000000000000005500E20000E2E2E2E20000E25500000000000000000000000000000000000000
310
0000000000000000000000000000000000000000000000000000000000000000000000E2E2000000000000E2E2000000000000000000000000000000000000000000000000E2E2000000000000000000000000000000000000E2E2E20000000000000000000000000000000000000000000000000000000000000000000000
310
0000000000000000000000000000000000000000005500E20000E2E2E2E20000E255000000000000000000000000000000000000000000000000000000000000000000000000000000000000000000000000000000000000E2E2000000000000E2E2000000000000000000000000000000000000000000000000E2E2000000
310
00000000000000000000000000000000E2E200000000000000000000000000000000000000000000000000000000000000000000000000000000000000000000000000000000000000005500E20000E2E2E2E20000E25500000000000000000000000000000000000000000000000000000000000000000000000000000000
310
0000000000000000000000000000E2E2000000000000E2E20000000000000000000000000000000000000000000000E200E200000000000000000000000000000000000000E2E20000000000000000000000000000000000000000000000000000000000000000000000000000000000000000000000000000000000000000
310
5500E20000E2E2E2E20000E255000000000000000000000000000000000000000000000000000000000000000000000000000000000000000000000000000000000000E2E2000000000000E2E20000000000000000000000000000000000000000000000E200E200000000000000000000000000000000000000E2E2000000
310
00000000000000000000000000000000000000000000000000000000000000000000000000000000000000000000000000000000005500E20000E2E2E2E20000E255000000000000000000000000000000000000000000000000000000000000000000000000000000000000000000000000000000000000E2E20000000000
310
00E2E20000000000000000000000000000000000000000000000E200E2000000000000000000000000000000000000E2E2E200000000000000000000000000000000000000000000000000000000000000000000000000000000000000000000000000000000000000005500E20000E2E2E2E20000E2550000000000000000
310
00000000000000000000000000000000000000000000000000000000000000000000000000000000000000000000E2E2000000000000E2E20000000000000000000000000000000000000000000000E200E2000000000000000000000000000000000000E200E2000000000000000000000000000000000000000000000000
310
00000000000000000000000000000000000000000000000000000000000000005500E20000E2E2E2E20000E255000000000000000000000000000000000000000000000000000000000000000000000000000000000000000000000000000000000000E2E2000000000000E2E2000000000000000000000000000000000000
310
0000000000E200E2000000000000000000000000000000000000E200E200000000000000000000000000000000000000000000000000000000000000000000000000000000000000000000000000000000000000005500E20000E2E2E2E20000E2550000000000000000000000000000000000000000000000000000000000
310
00000000000000000000000000000000000000000000000000E2E2000000000000E2E20000000000000000000000000000000000000000000000E200E2000000000000000000000000000000000000E200E2000000000000000000000000000000000000000000000000000000000000000000000000000000000000000000
310
00000000000000000000005500E20000E2E2E2E20000E255000000000000000000000000000000000000000000000000000000000000000000000000000000000000000000000000000000000000E2E2000000000000E2E20000000000000000000000000000000000000000000000E200E200000000000000000000000000
310
0000000000E200E200000000000000000000000000000000000000000000000000000000000000000000000000000000000000000000000000000000000000005500E20000E2E2E2E20000E2550000000000000000000000000000000000000000000000000000000000000000000000000000000000000000000000000000
310
00000000E2E2000000000000E2E20000000000000000000000000000000000000000000000E200E2000000000000000000000000000000000000E2E20000000000000000000000000000000000000000000000000000000000000000000000000000000000000000000000000000000000000000005500E20000E2E2E2E200
310
00E255000000000000000000000000000000000000000000000000000000000000000000000000000000000000000000000000000000000000E2E2000000000000E2E20000000000000000000000000000000000000000000000E200E2000000000000000000000000000000000000E2E20000000000000000000000000000
310
000000000000000000000000000000000000000000000000000000000000000000000000000000000000005500E20000E2E2E2E20000E255000000000000000000000000000000000000000000000000000000000000000000000000000000000000000000000000000000000000E2E2000000000000E2E200000000000000
310
00000000000000000000000000000000E200E2000000000000000000000000000000000000E2E20000000000000000000000000000000000000000000000000000000000000000000000000000000000000000000000000000000000000000005500E20000E2E2E2E20000E255000000000000000000000000000000000000
310
000000000000000000000000000000000000000000000000000000000000000000000000E2E2000000000000E2E2000000000000000000000000000000000000000000000000E2E2000000000000000000000000000000000000E2E20000000000000000000000000000000000000000000000000000000000000000000000
310
000000000000000000000000000000000000000000005500E20000E2E2E2E20000E255000000000000000000000000000000000000000000000000000000000000000000000000000000000000000000000000000000000000E2E2000000000000E2E2000000000000000000000000000000000000000000000000E2E20000
310
00000000000000000000000000000000E2E20000000000000000000000000000000000000000000000000000000000000000000000000000000000000000000000000000000000000000005500E20000E2E2E2E200000055000000000000000000000000000000000000000000000000000000000000000000000000000000
310
000000000000000000000000000000E2E2000000000000E2E2000000000000000000000000000000000000000000000000E2E2000000000000000000000000000000000000E2E20000000000000000000000000000000000000000000000000000000000000000000000000000000000000000000000000000000000000000
310
005500000000E2E2E2E200000055000000000000000000000000000000000000000000000000000000000000000000000000000000000000000000000000000000000000E2E2E2E2E20000E200E2000000000000000000000000000000000000000000000000E2E2000000000000000000000000000000E2E2E2E2E2000000
310
0000000000000000000000000000000000000000000000000000000000000000000000000000000000000000000000000000000000005500000000E2E2E2E200000055000000000000000000000000000000000000000000000000000000000000000000000000000000000000000000000000000000000000E200E200E200
310
00E200E2000000000000000000000000000000000000000000000000E2E2000000000000000000000000000000E200E2E2E20000000000000000000000000000000000000000000000000000000000000000000000000000000000000000000000000000000000000000005500000000E2E2E2E20000005500000000000000
310
00000000000000000000000000000000000000000000000000000000000000000000000000000000000000000000E2E200E200E20000E2E200000000000000000000000000000000000000000000000000E2E2000000000000000000000000000000E200E200E2000000000000000000000000000000000000000000000000
310
0000000000000000000000000000000000000000000000000000000000000000005500000000E2E2E2E2000000550000000000000000000000000000000000000000000000000000000000000000000000000000000000000000000000000000000000E200E2E200E20000E2E2000000000000000000000000000000000000
310
00000000000000E2E2000000000000000000000000000000E200E200E20000000000000000000000000000000000000000000000000000000000000000000000000000000000000000000000000000000000000000005500000000E2E2E2E20000005500000000000000000000000000000000000000000000000000000000
310
00000000000000000000000000000000000000000000000000E200E2E200E20000E2E200000000000000000000000000000000000000000000000000E2E2000000000000000000000000000000E200E200E2000000000000000000000000000000000000000000000000000000000000000000000000000000000000000000
310
0000000000000000000000005500000000E2E2E2E2000000550000000000000000000000000000000000000000000000000000000000000000000000000000000000000000000000000000000000E200E2E200E20000E2E200000000000000000000000000000000000000000000000000E2E2000000000000000000000000
310
000000E200E2E2000000000000000000000000000000000000000000000000000000000000000000000000000000000000000000000000000000000000000000005500000000E2E2E2E20000005500000000000000000000000000000000000000000000000000000000000000000000000000000000000000000000000000
310
00000000E2E2E2E2E2E20000E2E200000000000000000000000000000000000000000000000000E2E2000000000000000000000000000000E2E2E2E2000000000000000000000000000000000000000000000000000000000000000000000000000000000000000000000000000000000000000000005500000000E2E2E2E2
310
0000005500000000000000000000000000000000000000000000000000000000000000000000000000000000000000000000000000000000000000E2E200E20000E2E200000000000000000000000000000000000000000000000000E200E20000000000000000000000000000E200E2E20000000000000000000000000000
310
00000000000000000000000000000000000000000000000000000000000000000000000000000000000000005500000000E2E2E2E20000E25500000000000000000000000000000000000000000000000000000000000000000000000000000000000000000000000000000000000000E2E200E20000E2E200000000000000
310
000000000000000000000000000000000000E200E20000000000000000000000000000E200E2E2000000000000000000000000000000000000000000000000000000000000000000000000000000000000000000000000000000000000000000005500E20000E2E2E2E20000E2550000000000000000000000000000000000
310
0000000000000000000000000000000000000000000000000000000000000000000000000000E2E200E20000E2E200000000000000000000000000000000000000000000000000E200E20000000000000000000000000000E200E2E20000000000000000000000000000000000000000000000000000000000000000000000
310
00000000000000000000000000000000000000000000005500E20000E2E2E2E20000E25500000000000000000000000000000000000000000000000000000000000000000000000000000000000000000000000000000000000000E2E200E20000E2E20000000000000000000000000000000000000000000000000000E2E2
310
0000000000000000000000000000E200E2E2000000000000000000000000000000000000000000000000000000000000000000000000000000000000000000000000000000000000000000005500E20000E2E2E2E20000E2550000000000000000000000000000000000000000000000000000000000000000000000000000
310
0000000000000000000000000000000000E2E200E20000E2E20000000000000000000000000000000000000000000000000000E2E20000000000000000000000000000E200E2E20000000000000000000000000000000000000000000000000000000000000000000000000000000000000000000000000000000000000000
310
00005500E20000E2E2E2E20000E25500000000000000000000000000000000000000000000000000000000000000000000000000000000000000000000000000000000000000E2E200E20000E2E20000000000000000000000000000000000000000000000000000E2E20000000000000000000000000000E200E2E2000000
310
000000000000000000000000000000000000000000000000000000000000000000000000000000000000000000000000000000000000005500E20000E2E2E2E20000E2550000000000000000000000000000000000000000000000000000000000000000000000000000000000000000000000000000000000E2E2E2E2E2E2
310
00E200E200000000000000000000000000000000000000000000000000E2E2E20000000000000000000000000000E200E2E2000000000000000000000000000000000000000000000000000000000000000000000000000000000000000000000000000000000000000000005500E20000E2E2E2E20000E255000000000000
310
0000000000000000000000000000000000000000000000000000000000000000000000000000000000000000000000E2E2E2E2E2E200E200E200000000000000000000000000000000000000000000000000E2E2E20000000000000000000000000000E200E2E2000000000000000000000000000000000000000000000000
310
000000000000000000000000000000000000000000000000000000000000000000005500E20000E2E2E2E20000E2550000000000000000000000000000000000000000000000000000000000000000000000000000000000000000000000000000000000E2E2000000E2E2E2E2E2E200000000000000000000000000000000
310
0000000000000000E2E2E2E200000000000000000000000000E200E2E2000000000000000000000000000000000000000000000000000000000000000000000000000000000000000000000000000000000000000000005500E20000E2E2E2E20000E255000000000000000000000000000000000000000000000000000000
310
0000000000000000000000000000000000000000000000000000E2E2000000E2E2000000E20000000000000000000000000000000000000000000000E2E20000E200000000000000000000000000E2E200E2000000000000000000000000000000000000000000000000000000000000000000000000000000000000000000
310
000000000000000000000000005500E20000E2E2E2E20000E2550000000000000000000000000000000000000000000000000000000000000000000000000000000000000000000000000000000000E2E2000000E2E2000000E20000000000000000000000000000000000000000000000E2E20000E2000000000000000000
310
00000000E2E200E2000000000000000000000000000000000000000000000000000000000000000000000000000000000000000000000000000000000000000000005500E20000E2E2E2E20000E255000000000000000000000000000000000000000000000000000000000000000000000000000000000000000000000000
310
0000000000E2E2000000E2E2E2E2E2E2000000000000000000000000000000000000000000000000E20000E200000000000000000000000000E2E200E2000000000000000000000000000000000000000000000000000000000000000000000000000000000000000000000000000000000000000000005500E20000E2E2E2
310
E20000E2550000000000000000000000000000000000000000000000000000000000000000000000000000000000000000000000000000000000E2E2E2E2E2E2E2E2E2E2E200000000000000000000000000000000000000000000000000E2E20000000000000000000000000000E2E2E20000000000000000000000000000
310
0000000000000000000000000000000000000000000000000000000000000000000000000000000000000000005500E20000E2E2E2E20000E2550000000000000000000000000000000000000000000000000000000000000000000000000000000000000000000000000000000000E2E2E20000E200E2E200000000000000
310
000000000000000000000000000000000000000000000000000000000000000000000000E2E2E200000000000000000000000000000000000000000000000000000000000000000000000000000000000000000000000000000000000000000000005500E20000E2E2E2E20000E25500000000000000000000000000000000
310
000000000000000000000000000000000000000000000000000000000000000000000000000000E20000E200E2E200000000000000000000000000000000000000000000000000000000000000000000000000000000000000E2E2E20000000000000000000000000000000000000000000000000000000000000000000000
310
0000000000000000000000000000000000000000000000005500E20000E2E2E2E20000E25500000000000000000000000000000000000000000000000000000000000000000000000000000000000000000000000000000000000000E20000E200E2E200000000000000000000000000000000000000000000000000000000
310
000000000000000000000000000000E2E2E200000000000000000000000000000000000000000000000000000000000000000000000000000000000000000000000000000000000000000000005500E20000E2E2E2E20000E25500000000000000000000000000000000000000000000000000000000000000000000000000
310
000000000000000000000000000000000000E20000E200E2E200000000000000000000000000000000000000000000000000000000000000000000000000000000000000E2E2E20000000000000000000000000000000000000000000000000000000000000000000000000000000000000000000000000000000000000000
310
0000005500E20000E2E2E2E20000E25500000000000000000000000000000000000000000000000000000000000000000000000000000000000000000000000000000000000000E20000E200E2E200000000000000000000000000000000000000000000000000000000000000000000000000000000000000E2E2E2000000
310
00000000000000000000000000000000000000000000000000000000000000000000000000000000000000000000000000000000000000005500E20000E2E2E2E20000005500000000000000000000000000000000000000000000000000000000000000000000000000000000000000000000000000000000000000E20000
310
E200E2E200000000000000000000000000000000000000000000000000000000000000000000000000000000000000E2E2E200000000000000000000000000000000000000000000000000000000000000000000000000000000000000000000000000000000000000000000005500000000E2E2E2E2000000550000000000
310
0000000000000000000000000000000000000000000000000000000000000000000000000000000000000000000000000000E20000E2E200E200000000000000000000000000000000000000000000000000000000000000000000000000000000000000E2E2E2000000000000000000000000000000000000000000000000
310
00000000000000000000000000000000000000000000000000000000000000000000005500000000E2E2E2E20000005500000000000000000000000000000000000000000000000000000000000000000000000000000000000000000000000000000000000000E20000E2E200E20000000000000000000000000000000000
310
0000000000000000000000000000000000000000000000000000E2E2E200000000000000000000000000000000000000000000000000000000000000000000000000000000000000000000000000000000000000000000005500000000E2E2E2E2000000550000000000000000000000000000000000000000000000000000
310
0000000000000000000000000000000000000000000000000000000000E20000E2E2E20000000000000000000000000000000000000000000000000000000000000000000000000000000000000000E2E2E2000000000000000000000000000000000000000000000000000000000000000000000000000000000000000000
310
00000000000000000000000000005500000000E2E2E2E20000005500000000000000000000000000000000000000000000000000000000000000000000000000000000000000000000000000000000000000E20000E2E2E2000000000000000000000000000000000000000000000000000000000000000000000000000000
310
0000000000E200E200000000000000000000000000000000000000000000000000000000000000000000000000000000000000000000000000000000000000000000005500000000E2E2E2E2000000550000000000000000000000000000000000000000000000000000000000000000000000000000000000000000000000
310
0000000000000000E20000E2E2E20000000000000000000000000000000000000000000000000000000000000000000000000000000000000000E200E200000000000000000000000000000000000000000000000000000000000000000000000000000000000000000000000000000000000000000000005500000000E2E2
310
E2E20000005500000000000000000000000000000000000000000000000000000000000000000000000000000000000000000000000000000000000000E20000E2E2E20000000000000000000000000000000000000000000000000000000000000000000000000000000000000000E200E200000000000000000000000000
310
000000000000000000000000000000000000000000000000000000000000000000000000000000000000000000005500000000E2E2E2E20000005500000000000000000000000000000000000000000000000000000000000000000000000000000000000000000000000000000000000000E20000E2E2E200000000000000
310
00000000000000000000000000000000000000000000000000000000000000000000000000E2E2E200000000000000000000000000000000000000000000000000000000000000000000000000000000000000000000000000000000000000000000005500000000E2E2E2E200000055000000000000000000000000000000
310
00000000000000000000000000000000000000000000000000000000000000000000000000000000E20000E2E2E20000000000000000000000000000000000000000000000000000000000000000000000000000000000000000E2E2E200000000000000000000000000000000000000000000000000000000000000000000
310
000000000000000000000000000000000000000000000000005500000000E2E2E2E20000E25500000000000000000000000000000000000000000000000000000000000000000000000000000000000000000000000000000000000000E20000E2E2E200000000000000000000000000000000000000000000000000000000
310
00000000000000000000000000000000E2E2E200000000000000000000000000000000000000000000000000000000000000000000000000000000000000000000000000000000000000000000005500E20000E2E2E2E20000E255000000000000000000000000000000000000000000000000000000000000000000000000
310
00000000000000000000000000000000000000E20000E2E2E20000000000000000000000000000000000000000000000000000000000000000000000000000000000000000E2E2E200000000000000000000000000000000000000000000000000000000000000000000000000000000000000000000000000000000000000
310
000000005500E20000E2E2E2E20000E25500000000000000000000000000000000000000000000000000000000000000000000000000000000000000000000000000000000000000E20000E2E2E20000000000000000000000000000000000000000000000000000000000000000000000000000000000000000E2E2E20000
310
0000000000000000000000000000000000000000000000000000000000000000000000000000000000000000000000000000000000000000005500E20000E2E2E2E20000E25500000000000000000000000000000000000000000000000000000000000000000000000000000000000000000000000000000000000000E200
310
00E2E2E20000000000000000000000000000000000000000000000000000000000000000000000000000000000000000E2E2E200000000000000000000000000000000000000000000000000000000000000000000000000000000000000000000000000000000000000000000005500E20000E2E2E2E20000E25500000000
310
000000000000000000000000000000000000000000000000000000000000000000000000000000000000000000000000000000E20000E2E2E20000000000000000000000000000000000000000000000000000000000000000000000000000000000000000E2E2E20000000000000000000000000000000000000000000000
310
0000000000000000000000000000000000000000000000000000000000000000000000005500E20000E2E2E2E20000E25500000000000000000000000000000000000000000000000000000000000000000000000000000000000000000000000000000000000000E20000E2E2E20000000000000000000000000000000000
310
000000000000000000000000000000000000000000000000000000E2E2E200000000000000000000000000000000000000000000000000000000000000000000000000000000000000000000000000000000000000000000005500E20000E2E2E2E20000E25500000000000000000000000000000000000000000000000000
310
000000000000000000000000000000000000000000000000000000000000E20000E2E2E200000000000000000000000000000000000000000000000000000000000000000000000000000000000000E2E2E2E2E200000000000000000000000000000000000000000000000000000000000000000000000000000000000000
310
0000000000000000000000000000005500E20000E2E2E2E20000E25500000000000000000000000000000000000000000000000000000000000000000000000000000000000000000000000000000000000000E2E2E2E2E2E2E200000000000000000000000000000000000000000000000000000000000000000000000000
310
00000000E2E2E2E2E2E2E20000000000000000000000000000000000000000000000000000000000000000000000000000000000000000000000000000000000000000005500E20000E2E2E2E20000E25500000000000000000000000000000000000000000000000000000000000000000000000000000000000000000000
310
000000000000000000E2E2E2E2E2E2E200000000000000000000000000000000000000000000000000000000000000000000000000000000E2E2E2E200E2E2E2E200000000000000000000000000000000000000000000000000000000000000000000000000000000000000000000000000000000000000005500E20000E2
310
E2E2E20000E25500000000000000000000000000000000000000000000000000000000000000000000000000000000000000000000000000000000000000E2E200000000E20000000000000000000000000000000000000000000000000000000000000000000000000000000000E2E2E200E2E2E200000000000000000000
310
00000000000000000000000000000000000000000000000000000000000000000000000000000000000000000000005500E20000E2E2E2E20000E25500000000000000000000000000000000000000000000000000000000000000000000000000000000000000000000000000000000000000E2E2E2E2E2E2E20000000000
310
000000000000000000000000000000000000000000000000000000000000000000000000E2E2E200E2E2E20000000000000000000000000000000000000000000000000000000000000000000000000000000000000000000000000000000000000000005500E20000E2E2E2E20000E2550000000000000000000000000000
310
0000000000000000000000000000000000000000000000000000000000000000000000000000000000E2E2E2E2E2E2E20000000000000000000000000000000000000000000000000000000000000000000000000000000000E2E2E2E2E2E2E200000000000000000000000000000000000000000000000000000000000000
310
00000000000000000000000000000000000000000000000000005500E20000E2E2E2E20000E25500000000000000000000000000000000000000000000000000000000000000000000000000000000000000000000000000000000000000E20000E2E2E2E20000000000000000000000000000000000000000000000000000
310
00000000000000000000000000000000E2000000E2000000000000000000000000000000000000000000000000000000000000000000000000000000000000000000000000000000000000000000005500E20000E2E2E2E20000E2550000000000000000000000000000000000000000000000000000000000000000000000
310
0000000000000000000000000000000000000000E20000E2E200E2000000000000000000000000000000000000000000000000000000000000000000000000000000000000E2000000E20000000000000000000000000000000000000000000000000000000000000000000000000000000000000000000000000000000000
310
00000000005500E20000E2E2E2E20000E25500000000000000000000000000000000000000000000000000000000000000000000000000000000000000000000000000000000000000E20000E2E200E2000000000000000000000000000000000000000000000000000000000000000000000000000000000000E2000000E2
310
000000000000000000000000000000000000000000000000000000000000000000000000000000000000000000000000000000000000000000005500E20000E2E2E2E20000E25500000000000000000000000000000000000000000000000000000000000000000000000000000000000000000000000000000000000000E2
310
0000E2E200E2000000000000000000000000000000000000000000000000000000000000000000000000000000000000E2000000E2000000000000000000000000000000000000000000000000000000000000000000000000000000000000000000000000000000000000000000005500E20000E2E2E2E20000E255000000
310
00000000000000000000000000000000000000000000000000000000000000000000000000000000000000000000000000000000E20000E2E200E2000000000000000000000000000000000000000000000000000000000000000000000000000000000000E2000000E2000000000000000000000000000000000000000000
310
000000000000000000000000000000000000000000000000000000000000000000000000005500E20000E2E2E2E20000005500000000000000000000000000000000000000000000000000000000000000000000000000000000000000000000000000000000000000E20000E2E200E2000000000000000000000000000000
310
000000000000000000000000000000000000000000000000000000E2000000E2000000000000000000000000000000000000000000000000000000000000000000000000000000000000000000000000000000000000000000005500000000E2E2E2E200000055000000000000000000000000000000000000000000000000
310
00000000000000000000000000000000000000000000000000000000000000E20000E2E200E2000000000000000000000000000000000000000000000000000000000000000000000000000000000000E2000000E2000000000000000000000000000000000000000000000000000000000000000000000000000000000000
310
000000000000000000000000000000005500000000E2E2E2E20000005500000000000000000000000000000000000000000000000000000000000000000000000000000000000000000000000000000000000000E20000E2E200E2000000000000000000000000000000000000000000000000000000000000000000000000
310
000000000000E2000000E2000000000000000000000000000000000000000000000000000000000000000000000000000000000000000000000000000000000000000000005500000000E2E2E2E200000055000000000000000000000000000000000000000000000000000000000000000000000000000000000000000000
310
00000000000000000000E20000E2E2E2E2000000000000000000000000000000000000000000000000000000000000000000000000000000000000E2E2E2E2E2000000000000000000000000000000000000000000000000000000000000000000000000000000000000000000000000000000000000000000005500000000
310
E2E2E2E20000005500000000000000000000000000000000000000000000000000000000000000000000000000000000000000000000000000000000000000E20000E2E200E2000000000000000000000000000000000000000000000000000000000000000000000000000000000000E2E2E2E2E200000000000000000000
310
0000000000000000000000000000000000000000000000000000000000000000000000000000000000000000000000005500000000E2E2E2E20000005500000000000000000000000000000000000000000000000000000000000000000000000000000000000000000000000000000000000000E20000E2E200E200000000
310
0000000000000000000000000000000000000000000000000000000000000000000000000000E2E2E2E2E2000000000000000000000000000000000000000000000000000000000000000000000000000000000000000000000000000000000000000000005500000000E2E2E2E20000005500000000000000000000000000
310
000000000000000000000000000000000000000000000000000000000000000000000000000000000000E20000E2E200E2000000000000000000000000000000000000000000000000000000000000000000000000000000000000E2E2E2E2E200000000000000000000000000000000000000000000000000000000000000
310
0000000000000000000000000000000000000000000000000000005500000000E2E2E2E20000005500000000000000000000000000000000000000000000000000000000000000000000000000000000000000000000000000000000000000E20000E2E200E200000000000000000000000000000000000000000000000000
310
0000000000000000000000000000000000E2E2E2E2E2000000000000000000000000000000000000000000000000000000000000000000000000000000000000000000000000000000000000000000005500000000E2E2E2E20000005500000000000000000000000000000000000000000000000000000000000000000000
310
000000000000000000000000000000000000000000E20000E2E200E2000000000000000000000000000000000000000000000000000000000000000000000000000000000000E2E2E2E2E200000000000000000000000000000000000000000000000000000000000000000000000000000000000000000000000000000000
310
0000000000005500000000E2E2E2E20000E25500000000000000000000000000000000000000000000000000000000000000000000000000000000000000000000000000000000000000E20000E2E200E2000000000000000000000000000000000000000000000000000000000000000000000000000000000000E2E2E2E2
310
E2000000000000000000000000000000000000000000000000000000000000000000000000000000000000000000000000000000000000000000005500E20000E2E2E2E20000E25500000000000000000000000000000000000000000000000000000000000000000000000000000000000000000000000000000000000000
310
E20000E2E2E200000000000000000000000000000000000000000000000000000000000000000000000000000000000000E2E2E2E2E2000000000000000000000000000000000000000000000000000000000000000000000000000000000000000000000000000000000000000000005500E20000E2E2E2E20000E2550000
310
0000000000000000000000000000000000000000000000000000000000000000000000000000000000000000000000000000000000E2E2E2E200000000000000000000000000000000000000000000000000000000000000000000000000000000000000000000E2E2E2000000000000000000000000000000000000000000
310
00000000000000000000000000000000000000000000000000000000000000000000000000005500E20000E2E2E2E20000E25500000000000000000000000000000000000000000000000000000000000000000000000000000000000000000000000000000000000000E2E2E2E20000000000000000000000000000000000
310
0000000000000000000000000000000000000000000000000000000000E200E200000000000000000000000000000000000000000000000000000000000000000000000000000000000000000000000000000000000000000000005500E20000E2E2E2E20000E2550000000000000000000000000000000000000000000000
310
000000000000000000000000000000000000000000000000000000000000E2E2E20000E200000000000000000000000000000000000000000000000000000000000000000000000000000000000000000000E200E2000000000000000000000000000000000000000000000000000000000000000000000000000000000000
310
00000000000000000000000000000000005500E20000E2E2E2E20000E2550000000000000000000000000000000000000000000000000000000000000000000000000000000000000000000000000000000000E200E20000E20000000000000000000000000000000000000000000000000000000000000000000000000000
310
0000000000000000E200E200000000000000000000000000000000000000000000000000000000000000000000000000000000000000000000000000000000000000000000005500E20000E2E2E2E20000E2550000000000000000000000000000000000000000000000000000000000000000000000000000000000000000
310
000000000000000000E200E20000E200000000000000000000000000000000000000000000000000000000000000000000000000000000000000000000E200E200000000000000000000000000000000000000000000000000000000000000000000000000000000000000000000000000000000000000000000005500E200
310
00E2E2E2E20000E2550000000000000000000000000000000000000000000000000000000000000000000000000000000000000000000000000000000000E2E2E20000E200000000000000000000000000000000000000000000000000000000000000000000000000000000000000000000E200E200000000000000000000
310
000000000000000000000000000000000000000000000000000000000000000000000000000000000000000000000000005500E20000E2E2E2E20000E25500000000000000000000000000000000000000000000000000000000000000000000000000000000000000000000000000000000000000E20000E2000000000000
310
00000000000000000000000000000000000000000000000000000000000000000000000000000000E200E200000000000000000000000000000000000000000000000000000000000000000000000000000000000000000000000000000000000000000000005500E20000E2E2E2E20000E255000000000000000000000000
310
00000000000000000000000000000000000000000000000000000000000000000000000000000000000000E2E2E2E200000000000000000000000000000000000000000000000000000000000000000000000000000000000000000000E2E2E200000000000000000000000000000000000000000000000000000000000000
310
000000000000000000000000000000000000000000000000000000005500E20000E2E2E2E20000E2550000000000000000000000000000000000000000000000000000000000000000000000000000000000000000000000000000000000000000000000000000000000000000000000000000000000000000000000000000
310
0000000000000000000000000000000000000000000000000000000000000000000000000000000000000000000000000000000000000000000000000000000000000000000000000000000000000000005500E20000E2E2E2E20000E255000000000000000000000000000000000000000000000000000000000000000000
310
00000000000000000000000000000000000000000000000000000000000000000000000000000000000000000000000000000000000000000000000000000000000000000000000000000000000000000000000000000000000000000000000000000000000000000000000000000000000000000000000000000000000000
310
000000000000005500E20000E2E2E2E20000E2550000000000000000000000000000000000000000000000000000000000000000000000000000000000000000000000000000000000000000000000000000000000000000000000000000000000000000000000000000000000000000000000000000000000000000000000
310
0000000000000000000000000000000000000000000000000000000000000000000000000000000000000000000000000000000000000000000000005500E20000E2E2E2E20000E255000000000000000000000000000000000000000000000000000000000000000000000000000000000000000000000000000000000000
310
00000000000000000000000000000000000000000000000000000000000000000000000000000000000000000000000000000000000000000000000000000000000000000000000000000000000000000000000000000000000000000000000000000000000000000000000000000000005500E20000E2E2E2E20000E25500
310
0000000000000000000000000000000000000000000000000000000000000000000000000000000000000000000000000000000000000000000000000000000000000000000000000000000000000000000000000000E2E2E2E2E2E20000000000000000000000000000000000000000000000000000000000000000000000
310
0000000000000000000000000000000000000000000000000000000000000000000000000000005500E20000E2E2E2E20000E255000000000000000000000000000000000000000000000000000000000000000000000000000000000000000000000000000000000000000000000000000000000000000000000000000000
310
000000000000000000000000E2E20000E2E200000000000000000000000000000000000000000000000000000000000000000000000000000000000000000000000000000000000000000000000000000000000000000000000000005500E20000E2E2E2E20000E25500000000000000000000000000000000000000000000
310
0000000000000000000000000000000000000000000000000000000000000000000000000000000000000000000000000000000000000000000000000000000000E2E20000E2E200000000000000000000E2E2E2E2E2E2E2000000000000000000000000000000000000000000000000000000000000000000000000000000
310
0000000000000000000000000000000000005500E20000E2E2E2E200000055000000000000000000000000000000000000000000000000000000000000000000000000000000000000000000000000000000000000000000000000000000000000000000000000000000000000000000000000000000E2E20000E200000000
310
00000000000000E2E2E200E2E2E20000000000000000000000000000000000000000000000000000000000000000000000000000000000000000000000000000000000000000005500000000E2E2E2E20000005500000000000000000000000000000000000000000000000000000000000000000000000000000000000000
310
0000000000000000000000000000000000000000000000000000000000000000000000000000000000000000E2E20000E20000000000000000000000E2E2000000E2E2000000000000000000000000000000000000000000000000000000000000000000000000000000000000000000000000000000000000000000550000
310
0000E2E2E2E200000055000000000000000000000000000000000000000000000000000000000000000000000000000000000000000000000000000000000000000000000000000000000000000000000000000000000000000000000000000000E2E2E2E2E2000000000000E2E2E2E2E2E2E2E2E2E2E2E200000000000000
310
00000000000000000000000000000000000000000000000000000000000000000000000000000000000000000000000000005500000000E2E2E2E20000005500000000000000000000000000000000000000000000000000000000000000000000000000000000000000000000000000000000000000000000000000000000
310
0000000000000000000000000000000000000000000000E200000000E2000000E2E200E2E2E2E2E2E2E200E2E2E20000000000000000000000000000000000000000000000000000000000000000000000000000000000000000000000000000000000000000005500000000E2E2E2E2000000550000000000000000000000
310
00000000000000000000000000000000000000000000000000000000000000000000000000000000000000000000000000000000000000000000000000000000000000000000000000000000E200000000E2E2E2E2E2E2E2000000E2E2E2E200E2E2E200000000000000000000000000000000000000000000000000000000
310
00000000000000000000000000000000000000000000000000000000005500000000E2E2E2E20000005500000000000000000000000000000000000000000000000000000000000000000000000000000000000000000000000000000000000000000000000000000000000000000000000000000000000000000000000000
310
0000E200000000E2E2E2E2E2E200000000E2E2E2E2E2E2E2E2E200000000000000000000000000000000000000000000000000000000000000000000000000000000000000000000000000000000000000005500000000E2E2E2E2000000550000000000000000000000000000000000000000000000000000000000000000
310
000000000000000000000000000000000000000000000000000000000000000000000000000000000000000000000000000000000000E2E2E2E2E2E2E2E2000000000000000000E2E2E200E2E2E200000000000000000000000000000000000000000000000000000000000000000000000000000000000000000000000000
310
00000000000000005500000000E2E2E2E2000000550000000000000000000000000000000000000000000000000000000000000000000000000000000000000000000000000000000000000000000000000000000000000000000000000000000000000000000000000000E2E2E2E2E2E2E2E20000000000000000000000E2
310
E2E200000000000000000000000000000000000000000000000000000000000000000000000000000000000000000000000000000000000000000000005500000000E2E2E2E2000000550000000000000000000000000000000000000000000000000000000000000000000000000000000000000000000000000000000000
310
0000000000000000000000000000000000000000000000000000000000000000000000000000000000000000000000000000000000000000000000000000000000000000000000000000000000000000000000000000000000000000000000000000000000000000000000000000000000005500000000E2E2E2E20000E255
310
00000000000000000000000000000000000000000000000000000000000000000000000000000000000000000000000000000000000000000000000000000000000000000000000000000000000000000000000000000000000000000000000000000000000000000000000000000000000000000000000000000000000000
310
000000000000000000000000000000000000000000000000000000000000000000000000000000005500E20000E2E2E2E20000E2550000000000000000000000000000000000000000000000000000000000000000000000000000000000000000000000000000000000000000000000000000000000000000000000000000
310
0000000000000000000000000000000000000000000000000000000000000000000000000000000000000000000000000000000000000000000000000000000000000000000000000000000000000000000000000000000000000000005500E20000E2E2E2E20000E255000000000000000000000000000000000000000000
310
00000000000000000000000000000000000000000000000000000000000000000000000000000000000000000000000000000000000000000000000000000000000000000000000000000000000000000000000000000000000000000000000000000000000000000000000000000000000000000000000000000000000000
310
000000000000000000000000000000000000005500E20000E2E2E2E20000E2550000000000000000000000000000000000000000000000000000000000000000000000000000000000000000000000000000000000000000000000000000000000000000000000000000000000000000000000000000000000000000000000
310
0000000000000000000000000000000000000000000000000000000000000000000000000000000000000000000000000000000000000000000000000000000000000000000000005500E20000E2E2E2E20000E255000000000000000000000000000000000000000000000000000000000000000000000000000000000000
310
00000000000000000000000000000000000000000000000000000000000000000000000000000000000000000000000000000000000000000000000000000000000000000000000000000000000000000000000000000000000000000000000000000000000000000000000000000000000000000000000000000000005500
310
E20000E2E2E2E20000E2550000000000000000000000000000000000000000000000000000000000000000000000000000000000000000000000000000000000000000000000000000000000000000000000000000000000000000000000000000000000000000000000000000000000000000000000000000000000000000
310
0000000000000000000000000000000000000000000000000000000000000000000000000000000000000000000000000000005500E20000E2E2E2E20000E255000000000000000000000000000000000000000000000000000000000000000000000000000000000000000000000000000000000000000000000000000000
310
00000000000000000000000000000000000000000000000000000000000000000000000000000000000000000000000000000000000000000000000000000000000000000000000000000000000000000000000000000000000000000000000000000000000000005500E20000E2E2E2E20000E25555555555555555555555
310
55555555555555555555555555555555555555555555555555555555555555555555555555555555555555555555555555555555555555555555555555555555555555555555555555555555555555555555555555555555555555555555555555555555555555555555555555555555555555555555555555555555555555
310
5555555555555555555555555555555555555555555555555555555555555500E20000E2E2E2E20000E2E2E2E2E2E2E2E2000000000000000000E2E2E2E2E2E2E2E2E2E2E2E2E2E2E2E2000000000000000000E2E2E2E2E2E2E2E2E2E2E2E2E2E2E2000000000000000000E2E2E2E2E2E2E2E2E2E2E2E2E2E2E2E200000000
310
00000000E2E2E2E2E2E2E2E2E2E2E2E2E2E2E2E2000000000000000000E2E2E2E2E2E2E2E2E2E2E2E2E2E2E2000000000000000000E2E2E2E2E2E2E2E2E2E2E2E2E2E2E2E2000000000000000000E2E2E2E2E2E2E2E20000E2E2E2E20000000000000000000000000000000000000000000000000000000000000000000000
310
00000000000000000000000000000000000000000000000000000000000000000000000000000000000000000000000000000000000000000000000000000000000000000000000000000000000000000000000000000000000000000000000000000000000000000000000000000000000000000000000000000000000000
310
0000000000000000000000000000E2E2E2E200000000000000000000000000000000000000000000000000000000000000000000000000000000000000000000000000000000000000000000000000000000000000000000000000000000000000000000000000000000000000000000000000000000000000000000000000
310
00000000000000000000000000000000000000000000000000000000000000000000000000000000000000000000000000000000000000000000000000000000000000E2E1E1E20000000000000000000000000000000000000000000000000000000000000000000000000000000000000000000000000000000000000000
310
000000000000000000000000000000000000000000000000000000000000000000000000000000000000000000000000000000000000000000000000000000000000000000000000000000000000000000000000000000000000000000000000000000000000000000000000000000000000000000000000E2E1E1E2E2E2E2
310
E2E2E2E2E2E2E2E2E2E2E2E2E2E2E2E2E2E2E2E2E2E2E2E2E2E2E2E2E2E2E2E2E2E2E2E2E2E2E2E2E2E2E2E2E2E2E2E2E2E2E2E2E2E2E2E2E2E2E2E2E2E2E2E2E2E2E2E2E2E2E2E2E2E2E2E2E2E2E2E2E2E2E2E2E2E2E2E2E2E2E2E2E2E2E2E2E2E2E2E2E2E2E2E2E2E2E2E2E2E2E2E2E2E2E2E2E2E2E2E2E2E2E2E2E2E2E2
310
E2E2E2E2E2E2E2E2E2E2E2E2E2E2E2E2E2E2E2E2E2E2E2E2E2E2E2E2E2E2E2E2E2E2E2E2E2E2E2E2E2E2E2E2E2E2E2E1E1
  0
XRECORD
  5
23C3B
102
{ACAD_REACTORS
330
23C3A
102
}
330
23C3A
100
AcDbXrecord
280
     1
102
MATERIAL
148
0.0
149
0.0
149
0.0
 93
        0
 94
      127
282
     0
 72
     1
 77
     1
171
     1
175
     1
179
     1
273
     0
  0
XRECORD
  5
23C39
102
{ACAD_REACTORS
330
23C38
102
}
330
23C38
100
AcDbXrecord
280
     1
102
MATERIAL
148
0.0
149
0.0
149
0.0
 93
        0
 94
      127
282
     0
 72
     1
 77
     1
171
     1
175
     1
179
     1
273
     0
  0
XRECORD
  5
23C3D
102
{ACAD_REACTORS
330
23C3C
102
}
330
23C3C
100
AcDbXrecord
280
     1
102
MATERIAL
148
0.0
149
0.0
149
0.0
 93
        0
 94
      127
282
     0
 72
     1
 77
     1
171
     1
175
     1
179
     1
273
     0
  0
CELLSTYLEMAP
  5
23C82
102
{ACAD_REACTORS
330
23C81
102
}
330
23C81
100
AcDbCellStyleMap
 90
        3
300
CELLSTYLE
  1
TABLEFORMAT_BEGIN
 90
        5
170
     1
 91
        0
 92
    32768
 62
   257
 93
        1
300
CONTENTFORMAT
  1
CONTENTFORMAT_BEGIN
 90
        0
 91
        0
 92
      512
 93
        0
300

 40
0.0
140
1.0
 94
        5
 62
     0
340
26
144
0.25
309
CONTENTFORMAT_END
171
     0
 94
        6
 95
        1
302
GRIDFORMAT
  1
GRIDFORMAT_BEGIN
 90
        0
 91
        1
 62
     0
 92
       -2
340
0
 93
        0
 40
0.045
309
GRIDFORMAT_END
 95
        2
302
GRIDFORMAT
  1
GRIDFORMAT_BEGIN
 90
        0
 91
        1
 62
     0
 92
       -2
340
0
 93
        0
 40
0.045
309
GRIDFORMAT_END
 95
        4
302
GRIDFORMAT
  1
GRIDFORMAT_BEGIN
 90
        0
 91
        1
 62
     0
 92
       -2
340
0
 93
        0
 40
0.045
309
GRIDFORMAT_END
 95
        8
302
GRIDFORMAT
  1
GRIDFORMAT_BEGIN
 90
        0
 91
        1
 62
     0
 92
       -2
340
0
 93
        0
 40
0.045
309
GRIDFORMAT_END
 95
       16
302
GRIDFORMAT
  1
GRIDFORMAT_BEGIN
 90
        0
 91
        1
 62
     0
 92
       -2
340
0
 93
        0
 40
0.045
309
GRIDFORMAT_END
 95
       32
302
GRIDFORMAT
  1
GRIDFORMAT_BEGIN
 90
        0
 91
        1
 62
     0
 92
       -2
340
0
 93
        0
 40
0.045
309
GRIDFORMAT_END
309
TABLEFORMAT_END
  1
CELLSTYLE_BEGIN
 90
        1
 91
        1
300
_TITLE
309
CELLSTYLE_END
300
CELLSTYLE
  1
TABLEFORMAT_BEGIN
 90
        5
170
     1
 91
        0
 92
        0
 62
   257
 93
        1
300
CONTENTFORMAT
  1
CONTENTFORMAT_BEGIN
 90
        0
 91
        0
 92
      512
 93
        0
300

 40
0.0
140
1.0
 94
        5
 62
     0
340
26
144
0.18
309
CONTENTFORMAT_END
171
     0
 94
        6
 95
        1
302
GRIDFORMAT
  1
GRIDFORMAT_BEGIN
 90
        0
 91
        1
 62
     0
 92
       -2
340
0
 93
        0
 40
0.045
309
GRIDFORMAT_END
 95
        2
302
GRIDFORMAT
  1
GRIDFORMAT_BEGIN
 90
        0
 91
        1
 62
     0
 92
       -2
340
0
 93
        0
 40
0.045
309
GRIDFORMAT_END
 95
        4
302
GRIDFORMAT
  1
GRIDFORMAT_BEGIN
 90
        0
 91
        1
 62
     0
 92
       -2
340
0
 93
        0
 40
0.045
309
GRIDFORMAT_END
 95
        8
302
GRIDFORMAT
  1
GRIDFORMAT_BEGIN
 90
        0
 91
        1
 62
     0
 92
       -2
340
0
 93
        0
 40
0.045
309
GRIDFORMAT_END
 95
       16
302
GRIDFORMAT
  1
GRIDFORMAT_BEGIN
 90
        0
 91
        1
 62
     0
 92
       -2
340
0
 93
        0
 40
0.045
309
GRIDFORMAT_END
 95
       32
302
GRIDFORMAT
  1
GRIDFORMAT_BEGIN
 90
        0
 91
        1
 62
     0
 92
       -2
340
0
 93
        0
 40
0.045
309
GRIDFORMAT_END
309
TABLEFORMAT_END
  1
CELLSTYLE_BEGIN
 90
        2
 91
        1
300
_HEADER
309
CELLSTYLE_END
300
CELLSTYLE
  1
TABLEFORMAT_BEGIN
 90
        5
170
     1
 91
        0
 92
        0
 62
   257
 93
        1
300
CONTENTFORMAT
  1
CONTENTFORMAT_BEGIN
 90
        0
 91
        0
 92
      512
 93
        0
300

 40
0.0
140
1.0
 94
        2
 62
     0
340
26
144
0.18
309
CONTENTFORMAT_END
171
     0
 94
        6
 95
        1
302
GRIDFORMAT
  1
GRIDFORMAT_BEGIN
 90
        0
 91
        1
 62
     0
 92
       -2
340
0
 93
        0
 40
0.045
309
GRIDFORMAT_END
 95
        2
302
GRIDFORMAT
  1
GRIDFORMAT_BEGIN
 90
        0
 91
        1
 62
     0
 92
       -2
340
0
 93
        0
 40
0.045
309
GRIDFORMAT_END
 95
        4
302
GRIDFORMAT
  1
GRIDFORMAT_BEGIN
 90
        0
 91
        1
 62
     0
 92
       -2
340
0
 93
        0
 40
0.045
309
GRIDFORMAT_END
 95
        8
302
GRIDFORMAT
  1
GRIDFORMAT_BEGIN
 90
        0
 91
        1
 62
     0
 92
       -2
340
0
 93
        0
 40
0.045
309
GRIDFORMAT_END
 95
       16
302
GRIDFORMAT
  1
GRIDFORMAT_BEGIN
 90
        0
 91
        1
 62
     0
 92
       -2
340
0
 93
        0
 40
0.045
309
GRIDFORMAT_END
 95
       32
302
GRIDFORMAT
  1
GRIDFORMAT_BEGIN
 90
        0
 91
        1
 62
     0
 92
       -2
340
0
 93
        0
 40
0.045
309
GRIDFORMAT_END
309
TABLEFORMAT_END
  1
CELLSTYLE_BEGIN
 90
        3
 91
        2
300
_DATA
309
CELLSTYLE_END
  0
XRECORD
  5
23CA4
102
{ACAD_REACTORS
330
23C81
102
}
330
23C81
100
AcDbXrecord
280
     1
102
ACAD_ROUNDTRIP_PRE2007_TABLESTYLE
 90
      512
 91
        0
  1

 92
      512
 93
        0
  2

 94
      512
 95
        0
  3

  0
XRECORD
  5
23C8F
102
{ACAD_REACTORS
330
23C8E
102
}
330
23C8E
100
AcDbXrecord
280
     1
102
RTVSPropertyOp0
 70
     1
102
RTVSPropertyOp1
 70
     1
102
RTVSPropertyOp2
 70
     1
102
RTVSPropertyOp3
 70
     1
102
RTVSPropertyOp4
 70
     1
102
RTVSPropertyOp5
 70
     1
102
RTVSPropertyOp6
 70
     1
102
RTVSPropertyOp7
 70
     1
102
RTVSPropertyOp8
 70
     1
102
RTVSPropertyOp9
 70
     1
102
RTVSPropertyOp10
 70
     1
102
RTVSPropertyOp11
 70
     1
102
RTVSPropertyOp12
 70
     1
102
RTVSPropertyOp13
 70
     1
102
RTVSPropertyOp14
 70
     1
102
RTVSPropertyOp15
 70
     1
102
RTVSPropertyOp16
 70
     1
102
RTVSPropertyOp17
 70
     1
102
RTVSPropertyOp18
 70
     1
102
RTVSPropertyOp19
 70
     1
102
RTVSPropertyOp20
 70
     1
102
RTVSPropertyOp21
 70
     1
102
RTVSPropertyOp22
 70
     1
102
RTVSPropertyOp23
 70
     1
102
RTVSPropertyOp24
 70
     1
102
RTVSPropertyOp25
 70
     1
102
RTVSPropertyOp26
 70
     1
102
RTVSPropertyOp27
 70
     1
102
RTVSPropertyOp28
 70
     1
102
RTVSPropertyOp29
 70
     1
102
RTVSPropertyOp30
 70
     1
102
RTVSPropertyOp31
 70
     1
102
RTVSPropertyOp32
 70
     1
  0
XRECORD
  5
23C93
102
{ACAD_REACTORS
330
23C92
102
}
330
23C92
100
AcDbXrecord
280
     1
102
RTVSPropertyOp0
 70
     1
102
RTVSPropertyOp1
 70
     1
102
RTVSPropertyOp2
 70
     1
102
RTVSPropertyOp3
 70
     1
102
RTVSPropertyOp4
 70
     1
102
RTVSPropertyOp5
 70
     1
102
RTVSPropertyOp6
 70
     1
102
RTVSPropertyOp7
 70
     1
102
RTVSPropertyOp8
 70
     1
102
RTVSPropertyOp9
 70
     1
102
RTVSPropertyOp10
 70
     1
102
RTVSPropertyOp11
 70
     1
102
RTVSPropertyOp12
 70
     1
102
RTVSPropertyOp13
 70
     1
102
RTVSPropertyOp14
 70
     1
102
RTVSPropertyOp15
 70
     1
102
RTVSPropertyOp16
 70
     1
102
RTVSPropertyOp17
 70
     1
102
RTVSPropertyOp18
 70
     1
102
RTVSPropertyOp19
 70
     1
102
RTVSPropertyOp20
 70
     1
102
RTVSPropertyOp21
 70
     1
102
RTVSPropertyOp22
 70
     1
102
RTVSPropertyOp23
 70
     1
102
RTVSPropertyOp24
 70
     1
102
RTVSPropertyOp25
 70
     1
102
RTVSPropertyOp26
 70
     1
102
RTVSPropertyOp27
 70
     1
102
RTVSPropertyOp28
 70
     1
102
RTVSPropertyOp29
 70
     1
102
RTVSPropertyOp30
 70
     1
102
RTVSPropertyOp31
 70
     1
102
RTVSPropertyOp32
 70
     1
  0
XRECORD
  5
23C91
102
{ACAD_REACTORS
330
23C90
102
}
330
23C90
100
AcDbXrecord
280
     1
102
RTVSPropertyOp0
 70
     1
102
RTVSPropertyOp1
 70
     1
102
RTVSPropertyOp2
 70
     1
102
RTVSPropertyOp3
 70
     1
102
RTVSPropertyOp4
 70
     1
102
RTVSPropertyOp5
 70
     1
102
RTVSPropertyOp6
 70
     1
102
RTVSPropertyOp7
 70
     1
102
RTVSPropertyOp8
 70
     1
102
RTVSPropertyOp9
 70
     1
102
RTVSPropertyOp10
 70
     1
102
RTVSPropertyOp11
 70
     1
102
RTVSPropertyOp12
 70
     1
102
RTVSPropertyOp13
 70
     1
102
RTVSPropertyOp14
 70
     1
102
RTVSPropertyOp15
 70
     1
102
RTVSPropertyOp16
 70
     1
102
RTVSPropertyOp17
 70
     1
102
RTVSPropertyOp18
 70
     1
102
RTVSPropertyOp19
 70
     1
102
RTVSPropertyOp20
 70
     1
102
RTVSPropertyOp21
 70
     1
102
RTVSPropertyOp22
 70
     1
102
RTVSPropertyOp23
 70
     1
102
RTVSPropertyOp24
 70
     1
102
RTVSPropertyOp25
 70
     1
102
RTVSPropertyOp26
 70
     1
102
RTVSPropertyOp27
 70
     1
102
RTVSPropertyOp28
 70
     1
102
RTVSPropertyOp29
 70
     1
102
RTVSPropertyOp30
 70
     1
102
RTVSPropertyOp31
 70
     1
102
RTVSPropertyOp32
 70
     1
  0
XRECORD
  5
23C8D
102
{ACAD_REACTORS
330
23C8C
102
}
330
23C8C
100
AcDbXrecord
280
     1
102
RTVSPropertyOp0
 70
     1
102
RTVSPropertyOp1
 70
     1
102
RTVSPropertyOp2
 70
     1
102
RTVSPropertyOp3
 70
     1
102
RTVSPropertyOp4
 70
     1
102
RTVSPropertyOp5
 70
     1
102
RTVSPropertyOp6
 70
     1
102
RTVSPropertyOp7
 70
     1
102
RTVSPropertyOp8
 70
     1
102
RTVSPropertyOp9
 70
     1
102
RTVSPropertyOp10
 70
     1
102
RTVSPropertyOp11
 70
     1
102
RTVSPropertyOp12
 70
     1
102
RTVSPropertyOp13
 70
     1
102
RTVSPropertyOp14
 70
     1
102
RTVSPropertyOp15
 70
     1
102
RTVSPropertyOp16
 70
     1
102
RTVSPropertyOp17
 70
     1
102
RTVSPropertyOp18
 70
     1
102
RTVSPropertyOp19
 70
     1
102
RTVSPropertyOp20
 70
     1
102
RTVSPropertyOp21
 70
     1
102
RTVSPropertyOp22
 70
     1
102
RTVSPropertyOp23
 70
     1
102
RTVSPropertyOp24
 70
     1
102
RTVSPropertyOp25
 70
     1
102
RTVSPropertyOp26
 70
     1
102
RTVSPropertyOp27
 70
     1
102
RTVSPropertyOp28
 70
     1
102
RTVSPropertyOp29
 70
     1
102
RTVSPropertyOp30
 70
     1
102
RTVSPropertyOp31
 70
     1
102
RTVSPropertyOp32
 70
     1
  0
XRECORD
  5
23C9B
102
{ACAD_REACTORS
330
23C9A
102
}
330
23C9A
100
AcDbXrecord
280
     1
102
RTVSPropertyOp0
 70
     1
102
RTVSPropertyOp1
 70
     1
102
RTVSPropertyOp2
 70
     1
102
RTVSPropertyOp3
 70
     1
102
RTVSPropertyOp4
 70
     1
102
RTVSPropertyOp5
 70
     1
102
RTVSPropertyOp6
 70
     1
102
RTVSPropertyOp7
 70
     1
102
RTVSPropertyOp8
 70
     1
102
RTVSPropertyOp9
 70
     1
102
RTVSPropertyOp10
 70
     1
102
RTVSPropertyOp11
 70
     1
102
RTVSPropertyOp12
 70
     1
102
RTVSPropertyOp13
 70
     1
102
RTVSPropertyOp14
 70
     1
102
RTVSPropertyOp15
 70
     1
102
RTVSPropertyOp16
 70
     1
102
RTVSPropertyOp17
 70
     1
102
RTVSPropertyOp18
 70
     1
102
RTVSPropertyOp19
 70
     1
102
RTVSPropertyOp20
 70
     1
102
RTVSPropertyOp21
 70
     1
102
RTVSPropertyOp22
 70
     1
102
RTVSPropertyOp23
 70
     1
102
RTVSPropertyOp24
 70
     1
102
RTVSPropertyOp25
 70
     1
102
RTVSPropertyOp26
 70
     1
102
RTVSPropertyOp27
 70
     1
102
RTVSPropertyOp28
 70
     1
102
RTVSPropertyOp29
 70
     1
102
RTVSPropertyOp30
 70
     1
102
RTVSPropertyOp31
 70
     1
102
RTVSPropertyOp32
 70
     1
  0
XRECORD
  5
23CA3
102
{ACAD_REACTORS
330
23CA2
102
}
330
23CA2
100
AcDbXrecord
280
     1
102
RTVSPropertyOp0
 70
     1
102
RTVSPropertyOp1
 70
     1
102
RTVSPropertyOp2
 70
     1
102
RTVSPropertyOp3
 70
     1
102
RTVSPropertyOp4
 70
     1
102
RTVSPropertyOp5
 70
     1
102
RTVSPropertyOp6
 70
     1
102
RTVSPropertyOp7
 70
     1
102
RTVSPropertyOp8
 70
     1
102
RTVSPropertyOp9
 70
     1
102
RTVSPropertyOp10
 70
     1
102
RTVSPropertyOp11
 70
     1
102
RTVSPropertyOp12
 70
     1
102
RTVSPropertyOp13
 70
     1
102
RTVSPropertyOp14
 70
     1
102
RTVSPropertyOp15
 70
     1
102
RTVSPropertyOp16
 70
     1
102
RTVSPropertyOp17
 70
     1
102
RTVSPropertyOp18
 70
     1
102
RTVSPropertyOp19
 70
     1
102
RTVSPropertyOp20
 70
     1
102
RTVSPropertyOp21
 70
     1
102
RTVSPropertyOp22
 70
     1
102
RTVSPropertyOp23
 70
     1
102
RTVSPropertyOp24
 70
     1
102
RTVSPropertyOp25
 70
     1
102
RTVSPropertyOp26
 70
     1
102
RTVSPropertyOp27
 70
     1
102
RTVSPropertyOp28
 70
     1
102
RTVSPropertyOp29
 70
     1
102
RTVSPropertyOp30
 70
     1
102
RTVSPropertyOp31
 70
     1
102
RTVSPropertyOp32
 70
     1
  0
XRECORD
  5
23C95
102
{ACAD_REACTORS
330
23C94
102
}
330
23C94
100
AcDbXrecord
280
     1
102
RTVSPropertyOp0
 70
     1
102
RTVSPropertyOp1
 70
     1
102
RTVSPropertyOp2
 70
     1
102
RTVSPropertyOp3
 70
     1
102
RTVSPropertyOp4
 70
     1
102
RTVSPropertyOp5
 70
     1
102
RTVSPropertyOp6
 70
     1
102
RTVSPropertyOp7
 70
     1
102
RTVSPropertyOp8
 70
     1
102
RTVSPropertyOp9
 70
     1
102
RTVSPropertyOp10
 70
     1
102
RTVSPropertyOp11
 70
     1
102
RTVSPropertyOp12
 70
     1
102
RTVSPropertyOp13
 70
     1
102
RTVSPropertyOp14
 70
     1
102
RTVSPropertyOp15
 70
     1
102
RTVSPropertyOp16
 70
     1
102
RTVSPropertyOp17
 70
     1
102
RTVSPropertyOp18
 70
     1
102
RTVSPropertyOp19
 70
     1
102
RTVSPropertyOp20
 70
     1
102
RTVSPropertyOp21
 70
     1
102
RTVSPropertyOp22
 70
     1
102
RTVSPropertyOp23
 70
     1
102
RTVSPropertyOp24
 70
     1
102
RTVSPropertyOp25
 70
     1
102
RTVSPropertyOp26
 70
     1
102
RTVSPropertyOp27
 70
     1
102
RTVSPropertyOp28
 70
     1
102
RTVSPropertyOp29
 70
     1
102
RTVSPropertyOp30
 70
     1
102
RTVSPropertyOp31
 70
     1
102
RTVSPropertyOp32
 70
     1
  0
XRECORD
  5
23C99
102
{ACAD_REACTORS
330
23C98
102
}
330
23C98
100
AcDbXrecord
280
     1
102
RTVSPropertyOp0
 70
     1
102
RTVSPropertyOp1
 70
     1
102
RTVSPropertyOp2
 70
     1
102
RTVSPropertyOp3
 70
     1
102
RTVSPropertyOp4
 70
     1
102
RTVSPropertyOp5
 70
     1
102
RTVSPropertyOp6
 70
     1
102
RTVSPropertyOp7
 70
     1
102
RTVSPropertyOp8
 70
     1
102
RTVSPropertyOp9
 70
     1
102
RTVSPropertyOp10
 70
     1
102
RTVSPropertyOp11
 70
     1
102
RTVSPropertyOp12
 70
     1
102
RTVSPropertyOp13
 70
     1
102
RTVSPropertyOp14
 70
     1
102
RTVSPropertyOp15
 70
     1
102
RTVSPropertyOp16
 70
     1
102
RTVSPropertyOp17
 70
     1
102
RTVSPropertyOp18
 70
     1
102
RTVSPropertyOp19
 70
     1
102
RTVSPropertyOp20
 70
     1
102
RTVSPropertyOp21
 70
     1
102
RTVSPropertyOp22
 70
     1
102
RTVSPropertyOp23
 70
     1
102
RTVSPropertyOp24
 70
     1
102
RTVSPropertyOp25
 70
     1
102
RTVSPropertyOp26
 70
     1
102
RTVSPropertyOp27
 70
     1
102
RTVSPropertyOp28
 70
     1
102
RTVSPropertyOp29
 70
     1
102
RTVSPropertyOp30
 70
     1
102
RTVSPropertyOp31
 70
     1
102
RTVSPropertyOp32
 70
     1
  0
XRECORD
  5
23CB8
102
{ACAD_REACTORS
330
23CB7
102
}
330
23CB7
100
AcDbXrecord
280
     1
102
RTVSPropertyOp0
 70
     0
102
RTVSPropertyOp1
 70
     0
102
RTVSPropertyOp2
 70
     0
102
RTVSPropertyOp3
 70
     0
102
RTVSPropertyOp4
 70
     0
102
RTVSPropertyOp5
 70
     0
102
RTVSPropertyOp6
 70
     0
102
RTVSPropertyOp7
 70
     0
102
RTVSPropertyOp8
 70
     0
102
RTVSPropertyOp9
 70
     0
102
RTVSPropertyOp10
 70
     0
102
RTVSPropertyOp11
 70
     0
102
RTVSPropertyOp12
 70
     0
102
RTVSPropertyOp13
 70
     0
102
RTVSPropertyOp14
 70
     2
102
RTVSPropertyOp15
 70
     0
102
RTVSPropertyOp16
 70
     0
102
RTVSPropertyOp17
 70
     0
102
RTVSPropertyOp18
 70
     0
102
RTVSPropertyOp19
 70
     0
102
RTVSPropertyOp20
 70
     0
102
RTVSPropertyOp21
 70
     0
102
RTVSPropertyOp22
 70
     0
102
RTVSPropertyOp23
 70
     0
102
RTVSPropertyOp24
 70
     0
102
RTVSPropertyOp25
 70
     0
102
RTVSPropertyOp26
 70
     0
102
RTVSPropertyOp27
 70
     0
102
RTVSPropertyOp28
 70
     0
102
RTVSPropertyOp29
 70
     0
102
RTVSPropertyOp30
 70
     0
102
RTVSPropertyOp31
 70
     0
102
RTVSPropertyOp32
 70
     0
  0
XRECORD
  5
23CA1
102
{ACAD_REACTORS
330
23CA0
102
}
330
23CA0
100
AcDbXrecord
280
     1
102
RTVSPropertyOp0
 70
     1
102
RTVSPropertyOp1
 70
     1
102
RTVSPropertyOp2
 70
     1
102
RTVSPropertyOp3
 70
     1
102
RTVSPropertyOp4
 70
     1
102
RTVSPropertyOp5
 70
     1
102
RTVSPropertyOp6
 70
     1
102
RTVSPropertyOp7
 70
     1
102
RTVSPropertyOp8
 70
     1
102
RTVSPropertyOp9
 70
     1
102
RTVSPropertyOp10
 70
     1
102
RTVSPropertyOp11
 70
     1
102
RTVSPropertyOp12
 70
     1
102
RTVSPropertyOp13
 70
     1
102
RTVSPropertyOp14
 70
     1
102
RTVSPropertyOp15
 70
     1
102
RTVSPropertyOp16
 70
     1
102
RTVSPropertyOp17
 70
     1
102
RTVSPropertyOp18
 70
     1
102
RTVSPropertyOp19
 70
     1
102
RTVSPropertyOp20
 70
     1
102
RTVSPropertyOp21
 70
     1
102
RTVSPropertyOp22
 70
     1
102
RTVSPropertyOp23
 70
     1
102
RTVSPropertyOp24
 70
     1
102
RTVSPropertyOp25
 70
     1
102
RTVSPropertyOp26
 70
     1
102
RTVSPropertyOp27
 70
     1
102
RTVSPropertyOp28
 70
     1
102
RTVSPropertyOp29
 70
     1
102
RTVSPropertyOp30
 70
     1
102
RTVSPropertyOp31
 70
     1
102
RTVSPropertyOp32
 70
     1
  0
XRECORD
  5
23C85
102
{ACAD_REACTORS
330
23C84
102
}
330
23C84
100
AcDbXrecord
280
     1
102
RTVSPropertyOp0
 70
     1
102
RTVSPropertyOp1
 70
     1
102
RTVSPropertyOp2
 70
     1
102
RTVSPropertyOp3
 70
     1
102
RTVSPropertyOp4
 70
     1
102
RTVSPropertyOp5
 70
     1
102
RTVSPropertyOp6
 70
     1
102
RTVSPropertyOp7
 70
     1
102
RTVSPropertyOp8
 70
     1
102
RTVSPropertyOp9
 70
     1
102
RTVSPropertyOp10
 70
     1
102
RTVSPropertyOp11
 70
     1
102
RTVSPropertyOp12
 70
     1
102
RTVSPropertyOp13
 70
     1
102
RTVSPropertyOp14
 70
     1
102
RTVSPropertyOp15
 70
     1
102
RTVSPropertyOp16
 70
     1
102
RTVSPropertyOp17
 70
     1
102
RTVSPropertyOp18
 70
     1
102
RTVSPropertyOp19
 70
     1
102
RTVSPropertyOp20
 70
     1
102
RTVSPropertyOp21
 70
     1
102
RTVSPropertyOp22
 70
     1
102
RTVSPropertyOp23
 70
     1
102
RTVSPropertyOp24
 70
     1
102
RTVSPropertyOp25
 70
     1
102
RTVSPropertyOp26
 70
     1
102
RTVSPropertyOp27
 70
     1
102
RTVSPropertyOp28
 70
     1
102
RTVSPropertyOp29
 70
     1
102
RTVSPropertyOp30
 70
     1
102
RTVSPropertyOp31
 70
     1
102
RTVSPropertyOp32
 70
     1
  0
XRECORD
  5
23C87
102
{ACAD_REACTORS
330
23C86
102
}
330
23C86
100
AcDbXrecord
280
     1
102
RTVSPropertyOp0
 70
     1
102
RTVSPropertyOp1
 70
     1
102
RTVSPropertyOp2
 70
     1
102
RTVSPropertyOp3
 70
     1
102
RTVSPropertyOp4
 70
     1
102
RTVSPropertyOp5
 70
     1
102
RTVSPropertyOp6
 70
     1
102
RTVSPropertyOp7
 70
     1
102
RTVSPropertyOp8
 70
     1
102
RTVSPropertyOp9
 70
     1
102
RTVSPropertyOp10
 70
     1
102
RTVSPropertyOp11
 70
     1
102
RTVSPropertyOp12
 70
     1
102
RTVSPropertyOp13
 70
     1
102
RTVSPropertyOp14
 70
     1
102
RTVSPropertyOp15
 70
     1
102
RTVSPropertyOp16
 70
     1
102
RTVSPropertyOp17
 70
     1
102
RTVSPropertyOp18
 70
     1
102
RTVSPropertyOp19
 70
     1
102
RTVSPropertyOp20
 70
     1
102
RTVSPropertyOp21
 70
     1
102
RTVSPropertyOp22
 70
     1
102
RTVSPropertyOp23
 70
     1
102
RTVSPropertyOp24
 70
     1
102
RTVSPropertyOp25
 70
     1
102
RTVSPropertyOp26
 70
     1
102
RTVSPropertyOp27
 70
     1
102
RTVSPropertyOp28
 70
     1
102
RTVSPropertyOp29
 70
     1
102
RTVSPropertyOp30
 70
     1
102
RTVSPropertyOp31
 70
     1
102
RTVSPropertyOp32
 70
     1
  0
XRECORD
  5
23C89
102
{ACAD_REACTORS
330
23C88
102
}
330
23C88
100
AcDbXrecord
280
     1
102
RTVSPropertyOp0
 70
     1
102
RTVSPropertyOp1
 70
     1
102
RTVSPropertyOp2
 70
     1
102
RTVSPropertyOp3
 70
     1
102
RTVSPropertyOp4
 70
     1
102
RTVSPropertyOp5
 70
     1
102
RTVSPropertyOp6
 70
     1
102
RTVSPropertyOp7
 70
     1
102
RTVSPropertyOp8
 70
     1
102
RTVSPropertyOp9
 70
     1
102
RTVSPropertyOp10
 70
     1
102
RTVSPropertyOp11
 70
     1
102
RTVSPropertyOp12
 70
     1
102
RTVSPropertyOp13
 70
     1
102
RTVSPropertyOp14
 70
     1
102
RTVSPropertyOp15
 70
     1
102
RTVSPropertyOp16
 70
     1
102
RTVSPropertyOp17
 70
     1
102
RTVSPropertyOp18
 70
     1
102
RTVSPropertyOp19
 70
     1
102
RTVSPropertyOp20
 70
     1
102
RTVSPropertyOp21
 70
     1
102
RTVSPropertyOp22
 70
     1
102
RTVSPropertyOp23
 70
     1
102
RTVSPropertyOp24
 70
     1
102
RTVSPropertyOp25
 70
     1
102
RTVSPropertyOp26
 70
     1
102
RTVSPropertyOp27
 70
     1
102
RTVSPropertyOp28
 70
     1
102
RTVSPropertyOp29
 70
     1
102
RTVSPropertyOp30
 70
     1
102
RTVSPropertyOp31
 70
     1
102
RTVSPropertyOp32
 70
     1
  0
XRECORD
  5
23C8B
102
{ACAD_REACTORS
330
23C8A
102
}
330
23C8A
100
AcDbXrecord
280
     1
102
RTVSPropertyOp0
 70
     1
102
RTVSPropertyOp1
 70
     1
102
RTVSPropertyOp2
 70
     1
102
RTVSPropertyOp3
 70
     1
102
RTVSPropertyOp4
 70
     1
102
RTVSPropertyOp5
 70
     1
102
RTVSPropertyOp6
 70
     1
102
RTVSPropertyOp7
 70
     1
102
RTVSPropertyOp8
 70
     1
102
RTVSPropertyOp9
 70
     1
102
RTVSPropertyOp10
 70
     1
102
RTVSPropertyOp11
 70
     1
102
RTVSPropertyOp12
 70
     1
102
RTVSPropertyOp13
 70
     1
102
RTVSPropertyOp14
 70
     1
102
RTVSPropertyOp15
 70
     1
102
RTVSPropertyOp16
 70
     1
102
RTVSPropertyOp17
 70
     1
102
RTVSPropertyOp18
 70
     1
102
RTVSPropertyOp19
 70
     1
102
RTVSPropertyOp20
 70
     1
102
RTVSPropertyOp21
 70
     1
102
RTVSPropertyOp22
 70
     1
102
RTVSPropertyOp23
 70
     1
102
RTVSPropertyOp24
 70
     1
102
RTVSPropertyOp25
 70
     1
102
RTVSPropertyOp26
 70
     1
102
RTVSPropertyOp27
 70
     1
102
RTVSPropertyOp28
 70
     1
102
RTVSPropertyOp29
 70
     1
102
RTVSPropertyOp30
 70
     1
102
RTVSPropertyOp31
 70
     1
102
RTVSPropertyOp32
 70
     1
  0
XRECORD
  5
23CA8
102
{ACAD_REACTORS
330
23CA7
102
}
330
23CA7
100
AcDbXrecord
280
     1
102
RTVSPropertyOp0
 70
     1
102
RTVSPropertyOp1
 70
     1
102
RTVSPropertyOp2
 70
     1
102
RTVSPropertyOp3
 70
     1
102
RTVSPropertyOp4
 70
     1
102
RTVSPropertyOp5
 70
     1
102
RTVSPropertyOp6
 70
     1
102
RTVSPropertyOp7
 70
     1
102
RTVSPropertyOp8
 70
     1
102
RTVSPropertyOp9
 70
     1
102
RTVSPropertyOp10
 70
     1
102
RTVSPropertyOp11
 70
     1
102
RTVSPropertyOp12
 70
     1
102
RTVSPropertyOp13
 70
     1
102
RTVSPropertyOp14
 70
     1
102
RTVSPropertyOp15
 70
     1
102
RTVSPropertyOp16
 70
     1
102
RTVSPropertyOp17
 70
     1
102
RTVSPropertyOp18
 70
     1
102
RTVSPropertyOp19
 70
     1
102
RTVSPropertyOp20
 70
     1
102
RTVSPropertyOp21
 70
     1
102
RTVSPropertyOp22
 70
     1
102
RTVSPropertyOp23
 70
     1
102
RTVSPropertyOp24
 70
     1
102
RTVSPropertyOp25
 70
     1
102
RTVSPropertyOp26
 70
     1
102
RTVSPropertyOp27
 70
     1
102
RTVSPropertyOp28
 70
     1
102
RTVSPropertyOp29
 70
     1
102
RTVSPropertyOp30
 70
     1
102
RTVSPropertyOp31
 70
     1
102
RTVSPropertyOp32
 70
     1
  0
XRECORD
  5
23CB4
102
{ACAD_REACTORS
330
23CB3
102
}
330
23CB3
100
AcDbXrecord
280
     1
102
RTVSPropertyOp0
 70
     0
102
RTVSPropertyOp1
 70
     0
102
RTVSPropertyOp2
 70
     0
102
RTVSPropertyOp3
 70
     0
102
RTVSPropertyOp4
 70
     0
102
RTVSPropertyOp5
 70
     0
102
RTVSPropertyOp6
 70
     0
102
RTVSPropertyOp7
 70
     0
102
RTVSPropertyOp8
 70
     0
102
RTVSPropertyOp9
 70
     0
102
RTVSPropertyOp10
 70
     0
102
RTVSPropertyOp11
 70
     0
102
RTVSPropertyOp12
 70
     0
102
RTVSPropertyOp13
 70
     0
102
RTVSPropertyOp14
 70
     2
102
RTVSPropertyOp15
 70
     0
102
RTVSPropertyOp16
 70
     0
102
RTVSPropertyOp17
 70
     0
102
RTVSPropertyOp18
 70
     0
102
RTVSPropertyOp19
 70
     0
102
RTVSPropertyOp20
 70
     0
102
RTVSPropertyOp21
 70
     0
102
RTVSPropertyOp22
 70
     0
102
RTVSPropertyOp23
 70
     0
102
RTVSPropertyOp24
 70
     0
102
RTVSPropertyOp25
 70
     0
102
RTVSPropertyOp26
 70
     0
102
RTVSPropertyOp27
 70
     0
102
RTVSPropertyOp28
 70
     0
102
RTVSPropertyOp29
 70
     0
102
RTVSPropertyOp30
 70
     0
102
RTVSPropertyOp31
 70
     0
102
RTVSPropertyOp32
 70
     0
  0
XRECORD
  5
23C9F
102
{ACAD_REACTORS
330
23C9E
102
}
330
23C9E
100
AcDbXrecord
280
     1
102
RTVSPropertyOp0
 70
     1
102
RTVSPropertyOp1
 70
     1
102
RTVSPropertyOp2
 70
     1
102
RTVSPropertyOp3
 70
     1
102
RTVSPropertyOp4
 70
     1
102
RTVSPropertyOp5
 70
     1
102
RTVSPropertyOp6
 70
     1
102
RTVSPropertyOp7
 70
     1
102
RTVSPropertyOp8
 70
     1
102
RTVSPropertyOp9
 70
     1
102
RTVSPropertyOp10
 70
     1
102
RTVSPropertyOp11
 70
     1
102
RTVSPropertyOp12
 70
     1
102
RTVSPropertyOp13
 70
     1
102
RTVSPropertyOp14
 70
     1
102
RTVSPropertyOp15
 70
     1
102
RTVSPropertyOp16
 70
     1
102
RTVSPropertyOp17
 70
     1
102
RTVSPropertyOp18
 70
     1
102
RTVSPropertyOp19
 70
     1
102
RTVSPropertyOp20
 70
     1
102
RTVSPropertyOp21
 70
     1
102
RTVSPropertyOp22
 70
     1
102
RTVSPropertyOp23
 70
     1
102
RTVSPropertyOp24
 70
     1
102
RTVSPropertyOp25
 70
     1
102
RTVSPropertyOp26
 70
     1
102
RTVSPropertyOp27
 70
     1
102
RTVSPropertyOp28
 70
     1
102
RTVSPropertyOp29
 70
     1
102
RTVSPropertyOp30
 70
     1
102
RTVSPropertyOp31
 70
     1
102
RTVSPropertyOp32
 70
     1
  0
XRECORD
  5
23CB6
102
{ACAD_REACTORS
330
23CB5
102
}
330
23CB5
100
AcDbXrecord
280
     1
102
RTVSPropertyOp0
 70
     0
102
RTVSPropertyOp1
 70
     0
102
RTVSPropertyOp2
 70
     0
102
RTVSPropertyOp3
 70
     0
102
RTVSPropertyOp4
 70
     0
102
RTVSPropertyOp5
 70
     0
102
RTVSPropertyOp6
 70
     0
102
RTVSPropertyOp7
 70
     0
102
RTVSPropertyOp8
 70
     0
102
RTVSPropertyOp9
 70
     0
102
RTVSPropertyOp10
 70
     0
102
RTVSPropertyOp11
 70
     0
102
RTVSPropertyOp12
 70
     0
102
RTVSPropertyOp13
 70
     0
102
RTVSPropertyOp14
 70
     2
102
RTVSPropertyOp15
 70
     0
102
RTVSPropertyOp16
 70
     0
102
RTVSPropertyOp17
 70
     0
102
RTVSPropertyOp18
 70
     0
102
RTVSPropertyOp19
 70
     0
102
RTVSPropertyOp20
 70
     0
102
RTVSPropertyOp21
 70
     0
102
RTVSPropertyOp22
 70
     0
102
RTVSPropertyOp23
 70
     0
102
RTVSPropertyOp24
 70
     0
102
RTVSPropertyOp25
 70
     0
102
RTVSPropertyOp26
 70
     0
102
RTVSPropertyOp27
 70
     0
102
RTVSPropertyOp28
 70
     0
102
RTVSPropertyOp29
 70
     0
102
RTVSPropertyOp30
 70
     0
102
RTVSPropertyOp31
 70
     0
102
RTVSPropertyOp32
 70
     0
  0
XRECORD
  5
23C97
102
{ACAD_REACTORS
330
23C96
102
}
330
23C96
100
AcDbXrecord
280
     1
102
RTVSPropertyOp0
 70
     1
102
RTVSPropertyOp1
 70
     1
102
RTVSPropertyOp2
 70
     1
102
RTVSPropertyOp3
 70
     1
102
RTVSPropertyOp4
 70
     1
102
RTVSPropertyOp5
 70
     1
102
RTVSPropertyOp6
 70
     1
102
RTVSPropertyOp7
 70
     1
102
RTVSPropertyOp8
 70
     1
102
RTVSPropertyOp9
 70
     1
102
RTVSPropertyOp10
 70
     1
102
RTVSPropertyOp11
 70
     1
102
RTVSPropertyOp12
 70
     1
102
RTVSPropertyOp13
 70
     1
102
RTVSPropertyOp14
 70
     1
102
RTVSPropertyOp15
 70
     1
102
RTVSPropertyOp16
 70
     1
102
RTVSPropertyOp17
 70
     1
102
RTVSPropertyOp18
 70
     1
102
RTVSPropertyOp19
 70
     1
102
RTVSPropertyOp20
 70
     1
102
RTVSPropertyOp21
 70
     1
102
RTVSPropertyOp22
 70
     1
102
RTVSPropertyOp23
 70
     1
102
RTVSPropertyOp24
 70
     1
102
RTVSPropertyOp25
 70
     1
102
RTVSPropertyOp26
 70
     1
102
RTVSPropertyOp27
 70
     1
102
RTVSPropertyOp28
 70
     1
102
RTVSPropertyOp29
 70
     1
102
RTVSPropertyOp30
 70
     1
102
RTVSPropertyOp31
 70
     1
102
RTVSPropertyOp32
 70
     1
  0
XRECORD
  5
23CB2
102
{ACAD_REACTORS
330
23CB1
102
}
330
23CB1
100
AcDbXrecord
280
     1
102
RTVSPropertyOp0
 70
     1
102
RTVSPropertyOp1
 70
     1
102
RTVSPropertyOp2
 70
     1
102
RTVSPropertyOp3
 70
     1
102
RTVSPropertyOp4
 70
     1
102
RTVSPropertyOp5
 70
     1
102
RTVSPropertyOp6
 70
     1
102
RTVSPropertyOp7
 70
     1
102
RTVSPropertyOp8
 70
     1
102
RTVSPropertyOp9
 70
     1
102
RTVSPropertyOp10
 70
     1
102
RTVSPropertyOp11
 70
     1
102
RTVSPropertyOp12
 70
     1
102
RTVSPropertyOp13
 70
     1
102
RTVSPropertyOp14
 70
     1
102
RTVSPropertyOp15
 70
     1
102
RTVSPropertyOp16
 70
     1
102
RTVSPropertyOp17
 70
     1
102
RTVSPropertyOp18
 70
     1
102
RTVSPropertyOp19
 70
     1
102
RTVSPropertyOp20
 70
     1
102
RTVSPropertyOp21
 70
     1
102
RTVSPropertyOp22
 70
     1
102
RTVSPropertyOp23
 70
     1
102
RTVSPropertyOp24
 70
     1
102
RTVSPropertyOp25
 70
     1
102
RTVSPropertyOp26
 70
     1
102
RTVSPropertyOp27
 70
     1
102
RTVSPropertyOp28
 70
     1
102
RTVSPropertyOp29
 70
     1
102
RTVSPropertyOp30
 70
     1
102
RTVSPropertyOp31
 70
     1
102
RTVSPropertyOp32
 70
     1
  0
XRECORD
  5
23CB0
102
{ACAD_REACTORS
330
23CAF
102
}
330
23CAF
100
AcDbXrecord
280
     1
102
RTVSPropertyOp0
 70
     1
102
RTVSPropertyOp1
 70
     1
102
RTVSPropertyOp2
 70
     1
102
RTVSPropertyOp3
 70
     1
102
RTVSPropertyOp4
 70
     1
102
RTVSPropertyOp5
 70
     1
102
RTVSPropertyOp6
 70
     1
102
RTVSPropertyOp7
 70
     1
102
RTVSPropertyOp8
 70
     1
102
RTVSPropertyOp9
 70
     1
102
RTVSPropertyOp10
 70
     1
102
RTVSPropertyOp11
 70
     1
102
RTVSPropertyOp12
 70
     1
102
RTVSPropertyOp13
 70
     1
102
RTVSPropertyOp14
 70
     1
102
RTVSPropertyOp15
 70
     1
102
RTVSPropertyOp16
 70
     1
102
RTVSPropertyOp17
 70
     1
102
RTVSPropertyOp18
 70
     1
102
RTVSPropertyOp19
 70
     1
102
RTVSPropertyOp20
 70
     1
102
RTVSPropertyOp21
 70
     1
102
RTVSPropertyOp22
 70
     1
102
RTVSPropertyOp23
 70
     1
102
RTVSPropertyOp24
 70
     1
102
RTVSPropertyOp25
 70
     1
102
RTVSPropertyOp26
 70
     1
102
RTVSPropertyOp27
 70
     1
102
RTVSPropertyOp28
 70
     1
102
RTVSPropertyOp29
 70
     1
102
RTVSPropertyOp30
 70
     1
102
RTVSPropertyOp31
 70
     1
102
RTVSPropertyOp32
 70
     1
  0
XRECORD
  5
23CAA
102
{ACAD_REACTORS
330
23CA9
102
}
330
23CA9
100
AcDbXrecord
280
     1
102
RTVSPropertyOp0
 70
     1
102
RTVSPropertyOp1
 70
     1
102
RTVSPropertyOp2
 70
     1
102
RTVSPropertyOp3
 70
     1
102
RTVSPropertyOp4
 70
     1
102
RTVSPropertyOp5
 70
     1
102
RTVSPropertyOp6
 70
     1
102
RTVSPropertyOp7
 70
     1
102
RTVSPropertyOp8
 70
     1
102
RTVSPropertyOp9
 70
     1
102
RTVSPropertyOp10
 70
     1
102
RTVSPropertyOp11
 70
     1
102
RTVSPropertyOp12
 70
     1
102
RTVSPropertyOp13
 70
     1
102
RTVSPropertyOp14
 70
     1
102
RTVSPropertyOp15
 70
     1
102
RTVSPropertyOp16
 70
     1
102
RTVSPropertyOp17
 70
     1
102
RTVSPropertyOp18
 70
     1
102
RTVSPropertyOp19
 70
     1
102
RTVSPropertyOp20
 70
     1
102
RTVSPropertyOp21
 70
     1
102
RTVSPropertyOp22
 70
     1
102
RTVSPropertyOp23
 70
     1
102
RTVSPropertyOp24
 70
     1
102
RTVSPropertyOp25
 70
     1
102
RTVSPropertyOp26
 70
     1
102
RTVSPropertyOp27
 70
     1
102
RTVSPropertyOp28
 70
     1
102
RTVSPropertyOp29
 70
     1
102
RTVSPropertyOp30
 70
     1
102
RTVSPropertyOp31
 70
     1
102
RTVSPropertyOp32
 70
     1
  0
XRECORD
  5
23CAC
102
{ACAD_REACTORS
330
23CAB
102
}
330
23CAB
100
AcDbXrecord
280
     1
102
RTVSPropertyOp0
 70
     1
102
RTVSPropertyOp1
 70
     1
102
RTVSPropertyOp2
 70
     1
102
RTVSPropertyOp3
 70
     1
102
RTVSPropertyOp4
 70
     1
102
RTVSPropertyOp5
 70
     1
102
RTVSPropertyOp6
 70
     1
102
RTVSPropertyOp7
 70
     1
102
RTVSPropertyOp8
 70
     1
102
RTVSPropertyOp9
 70
     1
102
RTVSPropertyOp10
 70
     1
102
RTVSPropertyOp11
 70
     1
102
RTVSPropertyOp12
 70
     1
102
RTVSPropertyOp13
 70
     1
102
RTVSPropertyOp14
 70
     1
102
RTVSPropertyOp15
 70
     1
102
RTVSPropertyOp16
 70
     1
102
RTVSPropertyOp17
 70
     1
102
RTVSPropertyOp18
 70
     1
102
RTVSPropertyOp19
 70
     1
102
RTVSPropertyOp20
 70
     1
102
RTVSPropertyOp21
 70
     1
102
RTVSPropertyOp22
 70
     1
102
RTVSPropertyOp23
 70
     1
102
RTVSPropertyOp24
 70
     1
102
RTVSPropertyOp25
 70
     1
102
RTVSPropertyOp26
 70
     1
102
RTVSPropertyOp27
 70
     1
102
RTVSPropertyOp28
 70
     1
102
RTVSPropertyOp29
 70
     1
102
RTVSPropertyOp30
 70
     1
102
RTVSPropertyOp31
 70
     1
102
RTVSPropertyOp32
 70
     1
  0
XRECORD
  5
23C9D
102
{ACAD_REACTORS
330
23C9C
102
}
330
23C9C
100
AcDbXrecord
280
     1
102
RTVSPropertyOp0
 70
     1
102
RTVSPropertyOp1
 70
     1
102
RTVSPropertyOp2
 70
     1
102
RTVSPropertyOp3
 70
     1
102
RTVSPropertyOp4
 70
     1
102
RTVSPropertyOp5
 70
     1
102
RTVSPropertyOp6
 70
     1
102
RTVSPropertyOp7
 70
     1
102
RTVSPropertyOp8
 70
     1
102
RTVSPropertyOp9
 70
     1
102
RTVSPropertyOp10
 70
     1
102
RTVSPropertyOp11
 70
     1
102
RTVSPropertyOp12
 70
     1
102
RTVSPropertyOp13
 70
     1
102
RTVSPropertyOp14
 70
     1
102
RTVSPropertyOp15
 70
     1
102
RTVSPropertyOp16
 70
     1
102
RTVSPropertyOp17
 70
     1
102
RTVSPropertyOp18
 70
     1
102
RTVSPropertyOp19
 70
     1
102
RTVSPropertyOp20
 70
     1
102
RTVSPropertyOp21
 70
     1
102
RTVSPropertyOp22
 70
     1
102
RTVSPropertyOp23
 70
     1
102
RTVSPropertyOp24
 70
     1
102
RTVSPropertyOp25
 70
     1
102
RTVSPropertyOp26
 70
     1
102
RTVSPropertyOp27
 70
     1
102
RTVSPropertyOp28
 70
     1
102
RTVSPropertyOp29
 70
     1
102
RTVSPropertyOp30
 70
     1
102
RTVSPropertyOp31
 70
     1
102
RTVSPropertyOp32
 70
     1
  0
XRECORD
  5
23CA6
102
{ACAD_REACTORS
330
23CA5
102
}
330
23CA5
100
AcDbXrecord
280
     1
102
RTVSPropertyOp0
 70
     1
102
RTVSPropertyOp1
 70
     1
102
RTVSPropertyOp2
 70
     1
102
RTVSPropertyOp3
 70
     1
102
RTVSPropertyOp4
 70
     1
102
RTVSPropertyOp5
 70
     1
102
RTVSPropertyOp6
 70
     1
102
RTVSPropertyOp7
 70
     1
102
RTVSPropertyOp8
 70
     1
102
RTVSPropertyOp9
 70
     1
102
RTVSPropertyOp10
 70
     1
102
RTVSPropertyOp11
 70
     1
102
RTVSPropertyOp12
 70
     1
102
RTVSPropertyOp13
 70
     1
102
RTVSPropertyOp14
 70
     1
102
RTVSPropertyOp15
 70
     1
102
RTVSPropertyOp16
 70
     1
102
RTVSPropertyOp17
 70
     1
102
RTVSPropertyOp18
 70
     1
102
RTVSPropertyOp19
 70
     1
102
RTVSPropertyOp20
 70
     1
102
RTVSPropertyOp21
 70
     1
102
RTVSPropertyOp22
 70
     1
102
RTVSPropertyOp23
 70
     1
102
RTVSPropertyOp24
 70
     1
102
RTVSPropertyOp25
 70
     1
102
RTVSPropertyOp26
 70
     1
102
RTVSPropertyOp27
 70
     1
102
RTVSPropertyOp28
 70
     1
102
RTVSPropertyOp29
 70
     1
102
RTVSPropertyOp30
 70
     1
102
RTVSPropertyOp31
 70
     1
102
RTVSPropertyOp32
 70
     1
  0
XRECORD
  5
23CAE
102
{ACAD_REACTORS
330
23CAD
102
}
330
23CAD
100
AcDbXrecord
280
     1
102
RTVSPropertyOp0
 70
     1
102
RTVSPropertyOp1
 70
     1
102
RTVSPropertyOp2
 70
     1
102
RTVSPropertyOp3
 70
     1
102
RTVSPropertyOp4
 70
     1
102
RTVSPropertyOp5
 70
     1
102
RTVSPropertyOp6
 70
     1
102
RTVSPropertyOp7
 70
     1
102
RTVSPropertyOp8
 70
     1
102
RTVSPropertyOp9
 70
     1
102
RTVSPropertyOp10
 70
     1
102
RTVSPropertyOp11
 70
     1
102
RTVSPropertyOp12
 70
     1
102
RTVSPropertyOp13
 70
     1
102
RTVSPropertyOp14
 70
     1
102
RTVSPropertyOp15
 70
     1
102
RTVSPropertyOp16
 70
     1
102
RTVSPropertyOp17
 70
     1
102
RTVSPropertyOp18
 70
     1
102
RTVSPropertyOp19
 70
     1
102
RTVSPropertyOp20
 70
     1
102
RTVSPropertyOp21
 70
     1
102
RTVSPropertyOp22
 70
     1
102
RTVSPropertyOp23
 70
     1
102
RTVSPropertyOp24
 70
     1
102
RTVSPropertyOp25
 70
     1
102
RTVSPropertyOp26
 70
     1
102
RTVSPropertyOp27
 70
     1
102
RTVSPropertyOp28
 70
     1
102
RTVSPropertyOp29
 70
     1
102
RTVSPropertyOp30
 70
     1
102
RTVSPropertyOp31
 70
     1
102
RTVSPropertyOp32
 70
     1
  0
ENDSEC
  0
EOF
