  0
SECTION
  2
HEADER
  9
$ACADVER
  1
AC1015
  9
$ACADMAINTVER
 70
     6
  9
$DWGCODEPAGE
  3
ANSI_1252
  9
$INSBASE
 10
0.0
 20
0.0
 30
0.0
  9
$EXTMIN
 10
0.0
 20
0.0
 30
0.0
  9
$EXTMAX
 10
909.0
 20
680.0
 30
0.0
  9
$LIMMIN
 10
0.0
 20
0.0
  9
$LIMMAX
 10
909.0
 20
680.0
  9
$ORTHOMODE
 70
     0
  9
$REGENMODE
 70
     1
  9
$FILLMODE
 70
     1
  9
$QTEXTMODE
 70
     0
  9
$MIRRTEXT
 70
     1
  9
$LTSCALE
 40
1.0
  9
$ATTMODE
 70
     1
  9
$TEXTSIZE
 40
9.8777777778
  9
$TRACEWID
 40
1.0
  9
$TEXTSTYLE
  7
Standard
  9
$CLAYER
  8
0
  9
$CELTYPE
  6
ByLayer
  9
$CECOLOR
 62
   256
  9
$CELTSCALE
 40
1.0
  9
$DISPSILH
 70
     0
  9
$DIMSCALE
 40
1.0
  9
$DIMASZ
 40
7.1912923177
  9
$DIMEXO
 40
1.0
  9
$DIMDLI
 40
3.75
  9
$DIMRND
 40
0.0
  9
$DIMDLE
 40
0.0
  9
$DIMEXE
 40
1.0
  9
$DIMTP
 40
0.0
  9
$DIMTM
 40
0.0
  9
$DIMTXT
 40
9.8777777778
  9
$DIMCEN
 40
2.5
  9
$DIMTSZ
 40
0.0
  9
$DIMTOL
 70
     0
  9
$DIMLIM
 70
     0
  9
$DIMTIH
 70
     1
  9
$DIMTOH
 70
     1
  9
$DIMSE1
 70
     0
  9
$DIMSE2
 70
     0
  9
$DIMTAD
 70
     1
  9
$DIMZIN
 70
     0
  9
$DIMBLK
  1

  9
$DIMASO
 70
     1
  9
$DIMSHO
 70
     1
  9
$DIMPOST
  1

  9
$DIMAPOST
  1

  9
$DIMALT
 70
     0
  9
$DIMALTD
 70
     3
  9
$DIMALTF
 40
0.0393700787
  9
$DIMLFAC
 40
10.0
  9
$DIMTOFL
 70
     1
  9
$DIMTVP
 40
0.0
  9
$DIMTIX
 70
     0
  9
$DIMSOXD
 70
     0
  9
$DIMSAH
 70
     0
  9
$DIMBLK1
  1

  9
$DIMBLK2
  1

  9
$DIMSTYLE
  2
ISO-25
  9
$DIMCLRD
 70
     0
  9
$DIMCLRE
 70
     0
  9
$DIMCLRT
 70
     0
  9
$DIMTFAC
 40
1.0
  9
$DIMGAP
 40
1.524
  9
$DIMJUST
 70
     0
  9
$DIMSD1
 70
     0
  9
$DIMSD2
 70
     0
  9
$DIMTOLJ
 70
     0
  9
$DIMTZIN
 70
     0
  9
$DIMALTZ
 70
     0
  9
$DIMALTTZ
 70
     0
  9
$DIMUPT
 70
     0
  9
$DIMDEC
 70
     2
  9
$DIMTDEC
 70
     2
  9
$DIMALTU
 70
     2
  9
$DIMALTTD
 70
     3
  9
$DIMTXSTY
  7
Standard
  9
$DIMAUNIT
 70
     0
  9
$DIMADEC
 70
     0
  9
$DIMALTRND
 40
0.0
  9
$DIMAZIN
 70
     0
  9
$DIMDSEP
 70
    44
  9
$DIMATFIT
 70
     3
  9
$DIMFRAC
 70
     0
  9
$DIMLDRBLK
  1

  9
$DIMLUNIT
 70
     2
  9
$DIMLWD
 70
    -2
  9
$DIMLWE
 70
    -2
  9
$DIMTMOVE
 70
     0
  9
$LUNITS
 70
     2
  9
$LUPREC
 70
     2
  9
$SKETCHINC
 40
1.0
  9
$FILLETRAD
 40
10.0
  9
$AUNITS
 70
     0
  9
$AUPREC
 70
     0
  9
$MENU
  1
.
  9
$ELEVATION
 40
0.0
  9
$PELEVATION
 40
0.0
  9
$THICKNESS
 40
0.0
  9
$LIMCHECK
 70
     0
  9
$CHAMFERA
 40
10.0
  9
$CHAMFERB
 40
10.0
  9
$CHAMFERC
 40
20.0
  9
$CHAMFERD
 40
0.0
  9
$SKPOLY
 70
     0
  9
$TDCREATE
 40
2454929.671395069
  9
$TDUCREATE
 40
2454929.838061736
  9
$TDUPDATE
 40
2454929.671395081
  9
$TDUUPDATE
 40
2454929.838061748
  9
$TDINDWG
 40
0.0000000116
  9
$TDUSRTIMER
 40
0.0000000116
  9
$USRTIMER
 70
     1
  9
$ANGBASE
 50
0.0
  9
$ANGDIR
 70
     0
  9
$PDMODE
 70
     0
  9
$PDSIZE
 40
-1.0
  9
$PLINEWID
 40
0.0
  9
$SPLFRAME
 70
     0
  9
$SPLINETYPE
 70
     6
  9
$SPLINESEGS
 70
     8
  9
$HANDSEED
  5
25E
  9
$SURFTAB1
 70
     6
  9
$SURFTAB2
 70
     6
  9
$SURFTYPE
 70
     6
  9
$SURFU
 70
     6
  9
$SURFV
 70
     6
  9
$UCSBASE
  2

  9
$UCSNAME
  2

  9
$UCSORG
 10
0.0
 20
0.0
 30
0.0
  9
$UCSXDIR
 10
1.0
 20
0.0
 30
0.0
  9
$UCSYDIR
 10
0.0
 20
1.0
 30
0.0
  9
$UCSORTHOREF
  2

  9
$UCSORTHOVIEW
 70
     0
  9
$UCSORGTOP
 10
0.0
 20
0.0
 30
0.0
  9
$UCSORGBOTTOM
 10
0.0
 20
0.0
 30
0.0
  9
$UCSORGLEFT
 10
0.0
 20
0.0
 30
0.0
  9
$UCSORGRIGHT
 10
0.0
 20
0.0
 30
0.0
  9
$UCSORGFRONT
 10
0.0
 20
0.0
 30
0.0
  9
$UCSORGBACK
 10
0.0
 20
0.0
 30
0.0
  9
$PUCSBASE
  2

  9
$PUCSNAME
  2

  9
$PUCSORG
 10
0.0
 20
0.0
 30
0.0
  9
$PUCSXDIR
 10
1.0
 20
0.0
 30
0.0
  9
$PUCSYDIR
 10
0.0
 20
1.0
 30
0.0
  9
$PUCSORTHOREF
  2

  9
$PUCSORTHOVIEW
 70
     0
  9
$PUCSORGTOP
 10
0.0
 20
0.0
 30
0.0
  9
$PUCSORGBOTTOM
 10
0.0
 20
0.0
 30
0.0
  9
$PUCSORGLEFT
 10
0.0
 20
0.0
 30
0.0
  9
$PUCSORGRIGHT
 10
0.0
 20
0.0
 30
0.0
  9
$PUCSORGFRONT
 10
0.0
 20
0.0
 30
0.0
  9
$PUCSORGBACK
 10
0.0
 20
0.0
 30
0.0
  9
$USERI1
 70
     0
  9
$USERI2
 70
     0
  9
$USERI3
 70
     0
  9
$USERI4
 70
     0
  9
$USERI5
 70
     0
  9
$USERR1
 40
0.0
  9
$USERR2
 40
0.0
  9
$USERR3
 40
0.0
  9
$USERR4
 40
0.0
  9
$USERR5
 40
0.0
  9
$WORLDVIEW
 70
     1
  9
$SHADEDGE
 70
     3
  9
$SHADEDIF
 70
    70
  9
$TILEMODE
 70
     1
  9
$MAXACTVP
 70
    64
  9
$PINSBASE
 10
0.0
 20
0.0
 30
0.0
  9
$PLIMCHECK
 70
     0
  9
$PEXTMIN
 10
1.0000000000E+20
 20
1.0000000000E+20
 30
1.0000000000E+20
  9
$PEXTMAX
 10
-1.0000000000E+20
 20
-1.0000000000E+20
 30
-1.0000000000E+20
  9
$PLIMMIN
 10
0.0
 20
0.0
  9
$PLIMMAX
 10
420.0
 20
297.0
  9
$UNITMODE
 70
     0
  9
$VISRETAIN
 70
     1
  9
$PLINEGEN
 70
     0
  9
$PSLTSCALE
 70
     1
  9
$TREEDEPTH
 70
  3020
  9
$CMLSTYLE
  2
Standard
  9
$CMLJUST
 70
     0
  9
$CMLSCALE
 40
20.0
  9
$PROXYGRAPHICS
 70
     1
  9
$MEASUREMENT
 70
     1
  9
$CELWEIGHT
370
    -1
  9
$ENDCAPS
280
     0
  9
$JOINSTYLE
280
     0
  9
$LWDISPLAY
290
     1
  9
$INSUNITS
 70
     4
  9
$HYPERLINKBASE
  1

  9
$STYLESHEET
  1

  9
$XEDIT
290
     1
  9
$CEPSNTYPE
380
     0
  9
$PSTYLEMODE
290
     1
  9
$FINGERPRINTGUID
  2
{256B18AF-0E2C-4CCD-A5C5-FDF60485B897}
  9
$VERSIONGUID
  2
{FAEB1C32-E019-11D5-929B-00C0DF256EC4}
  9
$EXTNAMES
290
     1
  9
$PSVPSCALE
 40
0.0
  9
$OLESTARTUP
290
     0
  0
ENDSEC
  0
SECTION
  2
CLASSES
  0
CLASS
  1
ACDBDICTIONARYWDFLT
  2
AcDbDictionaryWithDefault
  3
ObjectDBX Classes
 90
        0
280
     0
281
     0
  0
CLASS
  1
VISUALSTYLE
  2
AcDbVisualStyle
  3
ObjectDBX Classes
 90
     4095
280
     0
281
     0
  0
CLASS
  1
SCALE
  2
AcDbScale
  3
ObjectDBX Classes
 90
     1153
280
     0
281
     0
  0
CLASS
  1
DICTIONARYVAR
  2
AcDbDictionaryVar
  3
ObjectDBX Classes
 90
        0
280
     0
281
     0
  0
CLASS
  1
ACDBPLACEHOLDER
  2
AcDbPlaceHolder
  3
ObjectDBX Classes
 90
        0
280
     0
281
     0
  0
CLASS
  1
LAYOUT
  2
AcDbLayout
  3
ObjectDBX Classes
 90
        0
280
     0
281
     0
  0
ENDSEC
  0
SECTION
  2
TABLES
  0
TABLE
  2
VPORT
  5
8
330
0
100
AcDbSymbolTable
 70
     1
  0
VPORT
  5
29
330
8
100
AcDbSymbolTableRecord
100
AcDbViewportTableRecord
  2
*Active
 70
     0
 10
0.0
 20
0.0
 11
1.0
 21
1.0
 12
454.5
 22
340.0
 13
0.0
 23
0.0
 14
10.0
 24
10.0
 15
10.0
 25
10.0
 16
0.0
 26
0.0
 36
1.0
 17
0.0
 27
0.0
 37
0.0
 40
680.0
 41
1.3367647059
 42
50.0
 43
0.0
 44
0.0
 50
0.0
 51
0.0
 71
     0
 72
  2000
 73
     1
 74
     3
 75
     0
 76
     0
 77
     0
 78
     0
281
     0
 65
     1
110
0.0
120
0.0
130
0.0
111
1.0
121
0.0
131
0.0
112
0.0
122
1.0
132
0.0
 79
     0
146
0.0
  0
ENDTAB
  0
TABLE
  2
LTYPE
  5
5
330
0
100
AcDbSymbolTable
 70
     6
  0
LTYPE
  5
14
330
5
100
AcDbSymbolTableRecord
100
AcDbLinetypeTableRecord
  2
ByBlock
 70
     0
  3

 72
    65
 73
     0
 40
0.0
  0
LTYPE
  5
15
330
5
100
AcDbSymbolTableRecord
100
AcDbLinetypeTableRecord
  2
ByLayer
 70
     0
  3

 72
    65
 73
     0
 40
0.0
  0
LTYPE
  5
16
330
5
100
AcDbSymbolTableRecord
100
AcDbLinetypeTableRecord
  2
Continuous
 70
     0
  3
Solid line
 72
    65
 73
     0
 40
0.0
  0
LTYPE
  5
5D
330
5
100
AcDbSymbolTableRecord
100
AcDbLinetypeTableRecord
  2
HIDDEN
 70
     0
  3
Hidden __ __ __ __ __ __ __ __ __ __ __ __ __ __
 72
    65
 73
     2
 40
1.905
 49
1.27
 74
     0
 49
-0.635
 74
     0
  0
LTYPE
  5
5E
330
5
100
AcDbSymbolTableRecord
100
AcDbLinetypeTableRecord
  2
PHANTOM
 70
     0
  3
Phantom ______  __  __  ______  __  __  ______
 72
    65
 73
     6
 40
12.7
 49
6.35
 74
     0
 49
-1.27
 74
     0
 49
1.27
 74
     0
 49
-1.27
 74
     0
 49
1.27
 74
     0
 49
-1.27
 74
     0
  0
LTYPE
  5
5F
330
5
100
AcDbSymbolTableRecord
100
AcDbLinetypeTableRecord
  2
CENTER
 70
     0
  3
Center ____ _ ____ _ ____ _ ____ _ ____ _ ____
 72
    65
 73
     4
 40
10.16
 49
6.35
 74
     0
 49
-1.27
 74
     0
 49
1.27
 74
     0
 49
-1.27
 74
     0
  0
LTYPE
  5
60
330
5
100
AcDbSymbolTableRecord
100
AcDbLinetypeTableRecord
  2
CENTERX2
 70
     0
  3
Center (2x) ________  __  ________  __  _____
 72
    65
 73
     4
 40
20.32
 49
12.7
 74
     0
 49
-2.54
 74
     0
 49
2.54
 74
     0
 49
-2.54
 74
     0
  0
LTYPE
  5
61
330
5
100
AcDbSymbolTableRecord
100
AcDbLinetypeTableRecord
  2
DOT2
 70
     0
  3
Dot (.5x) ........................................
 72
    65
 73
     2
 40
0.635
 49
0.0
 74
     0
 49
-0.635
 74
     0
  0
ENDTAB
  0
TABLE
  2
LAYER
  5
2
330
0
100
AcDbSymbolTable
 70
     5
  0
LAYER
  5
10
330
2
100
AcDbSymbolTableRecord
100
AcDbLayerTableRecord
  2
0
 70
     0
 62
     7
  6
Continuous
370
    -3
390
F
  0
LAYER
  5
62
330
2
100
AcDbSymbolTableRecord
100
AcDbLayerTableRecord
  2
FORMAT
 70
     0
 62
     7
  6
Continuous
370
    -3
390
F
  0
LAYER
  5
63
330
2
100
AcDbSymbolTableRecord
100
AcDbLayerTableRecord
  2
SLD-0
 70
     0
 62
    -4
  6
Continuous
370
    -3
390
F
  0
LAYER
  5
64
330
2
100
AcDbSymbolTableRecord
100
AcDbLayerTableRecord
  2
GRS_GAMBAR
 70
     0
 62
     4
  6
Continuous
370
    -3
390
F
  0
LAYER
  5
65
330
2
100
AcDbSymbolTableRecord
100
AcDbLayerTableRecord
  2
G__TOTO
 70
     0
 62
   179
  6
Continuous
370
    -3
390
F
  0
ENDTAB
  0
TABLE
  2
STYLE
  5
3
330
0
100
AcDbSymbolTable
 70
     5
  0
STYLE
  5
11
330
3
100
AcDbSymbolTableRecord
100
AcDbTextStyleTableRecord
  2
Standard
 70
     0
 40
0.0
 41
1.0
 50
0.0
 71
     0
 42
2.5
  3
txt
  4

  0
STYLE
  5
BA
330
3
100
AcDbSymbolTableRecord
100
AcDbTextStyleTableRecord
  2
SLDTEXTSTYLE0
 70
     0
 40
0.0
 41
0.638185654
 50
0.0
 71
     0
 42
0.2
  3
TXT
  4

  0
STYLE
  5
C9
330
3
100
AcDbSymbolTableRecord
100
AcDbTextStyleTableRecord
  2
SLDTEXTSTYLE1
 70
     0
 40
0.0
 41
0.5168
 50
0.0
 71
     0
 42
0.2
  3
TXT
  4

  0
STYLE
  5
CB
330
3
100
AcDbSymbolTableRecord
100
AcDbTextStyleTableRecord
  2
SLDTEXTSTYLE2
 70
     0
 40
0.0
 41
0.605
 50
0.0
 71
     0
 42
0.2
  3
TXT
  4

  0
STYLE
  5
22C
330
3
100
AcDbSymbolTableRecord
100
AcDbTextStyleTableRecord
  2
SLDTEXTSTYLE3
 70
     0
 40
0.0
 41
0.5648529412
 50
0.0
 71
     0
 42
0.2
  3
TXT
  4

  0
ENDTAB
  0
TABLE
  2
VIEW
  5
6
330
0
100
AcDbSymbolTable
 70
     0
  0
ENDTAB
  0
TABLE
  2
UCS
  5
7
330
0
100
AcDbSymbolTable
 70
     0
  0
ENDTAB
  0
TABLE
  2
APPID
  5
9
330
0
100
AcDbSymbolTable
 70
     1
  0
APPID
  5
12
330
9
100
AcDbSymbolTableRecord
100
AcDbRegAppTableRecord
  2
ACAD
 70
     0
  0
ENDTAB
  0
TABLE
  2
DIMSTYLE
  5
A
330
0
100
AcDbSymbolTable
 70
     2
100
AcDbDimStyleTable
  0
DIMSTYLE
105
27
330
A
100
AcDbSymbolTableRecord
100
AcDbDimStyleTableRecord
  2
ISO-25
 70
     0
 41
2.5
 42
0.625
 43
3.75
 44
1.25
 73
     0
 74
     0
 77
     1
 78
     8
140
2.5
141
2.5
143
0.0393700787
147
0.625
171
     3
172
     1
271
     2
272
     2
274
     3
278
    44
283
     0
284
     8
340
11
  0
DIMSTYLE
105
24D
330
A
100
AcDbSymbolTableRecord
100
AcDbDimStyleTableRecord
  2
SLDDIMSTYLE0
 70
     0
 41
7.1912923177
 44
0.0
 45
0.000000001
140
7.1912923177
147
1.7978230794
173
     1
271
     0
272
     0
340
11
  0
ENDTAB
  0
TABLE
  2
BLOCK_RECORD
  5
1
330
0
100
AcDbSymbolTable
 70
     8
  0
BLOCK_RECORD
  5
1F
330
1
100
AcDbSymbolTableRecord
100
AcDbBlockTableRecord
  2
*Model_Space
340
22
  0
BLOCK_RECORD
  5
1B
330
1
100
AcDbSymbolTableRecord
100
AcDbBlockTableRecord
  2
*Paper_Space
340
1E
  0
BLOCK_RECORD
  5
23
330
1
100
AcDbSymbolTableRecord
100
AcDbBlockTableRecord
  2
*Paper_Space0
340
26
  0
BLOCK_RECORD
  5
66
330
1
100
AcDbSymbolTableRecord
100
AcDbBlockTableRecord
  2
Block1
340
0
102
{BLKREFS
331
21B
102
}
  0
BLOCK_RECORD
  5
BC
330
1
100
AcDbSymbolTableRecord
100
AcDbBlockTableRecord
  2
template line scale
340
0
102
{BLKREFS
331
245
102
}
  0
BLOCK_RECORD
  5
C6
330
1
100
AcDbSymbolTableRecord
100
AcDbBlockTableRecord
  2
SW_NOTE_0
340
0
102
{BLKREFS
331
CD
102
}
  0
BLOCK_RECORD
  5
220
330
1
100
AcDbSymbolTableRecord
100
AcDbBlockTableRecord
  2
SW_NOTE_1
340
0
102
{BLKREFS
331
226
102
}
  0
BLOCK_RECORD
  5
227
330
1
100
AcDbSymbolTableRecord
100
AcDbBlockTableRecord
  2
SW_NOTE_2
340
0
102
{BLKREFS
331
233
102
}
  0
BLOCK_RECORD
  5
246
330
1
100
AcDbSymbolTableRecord
100
AcDbBlockTableRecord
  2
SW_NOTE_3
340
0
102
{BLKREFS
331
24C
102
}
  0
BLOCK_RECORD
  5
24F
330
1
100
AcDbSymbolTableRecord
100
AcDbBlockTableRecord
  2
SW_NOTE_4
340
0
102
{BLKREFS
331
255
102
}
  0
ENDTAB
  0
ENDSEC
  0
SECTION
  2
BLOCKS
  0
BLOCK
  5
20
330
1F
100
AcDbEntity
  8
0
100
AcDbBlockBegin
  2
*Model_Space
 70
     0
 10
0.0
 20
0.0
 30
0.0
  3
*Model_Space
  1

  0
ENDBLK
  5
21
330
1F
100
AcDbEntity
  8
0
100
AcDbBlockEnd
  0
BLOCK
  5
1C
330
1B
100
AcDbEntity
 67
     1
  8
0
100
AcDbBlockBegin
  2
*Paper_Space
 70
     0
 10
0.0
 20
0.0
 30
0.0
  3
*Paper_Space
  1

  0
ENDBLK
  5
1D
330
1B
100
AcDbEntity
 67
     1
  8
0
100
AcDbBlockEnd
  0
BLOCK
  5
24
330
23
100
AcDbEntity
  8
0
100
AcDbBlockBegin
  2
*Paper_Space0
 70
     0
 10
0.0
 20
0.0
 30
0.0
  3
*Paper_Space0
  1

  0
ENDBLK
  5
25
330
23
100
AcDbEntity
  8
0
100
AcDbBlockEnd
  0
BLOCK
  5
67
330
66
100
AcDbEntity
  8
0
100
AcDbBlockBegin
  2
Block1
 70
     0
 10
0.0
 20
0.0
 30
0.0
  3
Block1
  1

  0
ARC
  5
69
330
66
100
AcDbEntity
  8
GRS_GAMBAR
100
AcDbCircle
 10
50.5596373054
 20
89.8512807409
 30
0.0
 40
12.70000000005831
100
AcDbArc
 50
77.678118321
 51
90.0
  0
ARC
  5
6A
330
66
100
AcDbEntity
  8
GRS_GAMBAR
100
AcDbCircle
 10
40.7895241947
 20
89.8512807404
 30
0.0
 40
12.70000000055211
100
AcDbArc
 50
89.999999997
 51
140.1728016809
  0
ARC
  5
6B
330
66
100
AcDbEntity
  8
GRS_GAMBAR
100
AcDbCircle
 10
12.6999999999
 20
44.4801911215
 30
0.0
 40
12.69999999987897
100
AcDbArc
 50
197.678118321
 51
210.0000000016
  0
ARC
  5
6C
330
66
100
AcDbEntity
  8
GRS_GAMBAR
100
AcDbCircle
 10
17.5850565553
 20
36.0190249697
 30
0.0
 40
12.6999999998536
100
AcDbArc
 50
210.0000000007
 51
260.1728016814
  0
ARC
  5
6D
330
66
100
AcDbEntity
  8
GRS_GAMBAR
100
AcDbCircle
 10
70.92233486
 20
34.3783282473
 30
0.0
 40
12.70000000079826
100
AcDbArc
 50
317.67811832
 51
329.9999999985
  0
ARC
  5
6E
330
66
100
AcDbEntity
  8
GRS_GAMBAR
100
AcDbCircle
 10
75.8073914162
 20
42.8394943984
 30
0.0
 40
12.69999999977296
100
AcDbArc
 50
329.9999999983
 51
20.1728016817
  0
ARC
  5
6F
330
66
100
AcDbEntity
  8
GRS_GAMBAR
100
AcDbCircle
 10
50.5596373054
 20
89.8512807409
 30
0.0
 40
12.7000000000583
100
AcDbArc
 50
33.4734623705
 51
77.678118321
  0
ARC
  5
70
330
66
100
AcDbEntity
  8
GRS_GAMBAR
100
AcDbCircle
 10
12.6999999999
 20
44.4801911215
 30
0.0
 40
12.69999999987897
100
AcDbArc
 50
153.4734623698
 51
197.678118321
  0
ARC
  5
71
330
66
100
AcDbEntity
  8
GRS_GAMBAR
100
AcDbCircle
 10
70.92233486
 20
34.3783282473
 30
0.0
 40
12.70000000079826
100
AcDbArc
 50
273.4734623732
 51
317.67811832
  0
ARC
  5
72
330
66
100
AcDbEntity
  8
GRS_GAMBAR
  6
Continuous
 62
   179
100
AcDbCircle
 10
40.7895241947
 20
89.8512807404
 30
0.0
 40
12.70000000055211
100
AcDbArc
 50
89.999999997
 51
140.1728016809
  0
ARC
  5
73
330
66
100
AcDbEntity
  8
GRS_GAMBAR
  6
Continuous
 62
   179
100
AcDbCircle
 10
50.5596373054
 20
89.8512807409
 30
0.0
 40
12.70000000005831
100
AcDbArc
 50
33.4734623705
 51
90.0
  0
ARC
  5
74
330
66
100
AcDbEntity
  8
GRS_GAMBAR
  6
Continuous
 62
   179
100
AcDbCircle
 10
17.5850565553
 20
36.0190249697
 30
0.0
 40
12.6999999998536
100
AcDbArc
 50
210.0000000007
 51
260.1728016814
  0
ARC
  5
75
330
66
100
AcDbEntity
  8
GRS_GAMBAR
  6
Continuous
 62
   179
100
AcDbCircle
 10
12.6999999999
 20
44.4801911215
 30
0.0
 40
12.69999999987897
100
AcDbArc
 50
153.4734623698
 51
210.0000000016
  0
ARC
  5
76
330
66
100
AcDbEntity
  8
GRS_GAMBAR
  6
Continuous
 62
   179
100
AcDbCircle
 10
75.8073914162
 20
42.8394943984
 30
0.0
 40
12.69999999977296
100
AcDbArc
 50
329.9999999983
 51
20.1728016817
  0
ARC
  5
77
330
66
100
AcDbEntity
  8
GRS_GAMBAR
  6
Continuous
 62
   179
100
AcDbCircle
 10
70.92233486
 20
34.3783282473
 30
0.0
 40
12.70000000079806
100
AcDbArc
 50
273.4734623732
 51
329.9999999985
  0
LINE
  5
78
330
66
100
AcDbEntity
  8
GRS_GAMBAR
100
AcDbLine
 10
50.5596373054
 20
102.551280741
 30
0.0
 11
40.7895241953
 21
102.551280741
 31
0.0
  0
LINE
  5
79
330
66
100
AcDbEntity
  8
GRS_GAMBAR
100
AcDbLine
 10
31.0361835686
 20
97.9853047535
 30
0.0
 11
18.4601962959
 21
78.0611782485
 31
0.0
  0
LINE
  5
7A
330
66
100
AcDbEntity
  8
GRS_GAMBAR
100
AcDbLine
 10
18.4601962959
 20
78.0611782485
 30
0.0
 11
32.530085145
 21
70.0624494887
 31
0.0
  0
LINE
  5
7B
330
66
100
AcDbEntity
  8
GRS_GAMBAR
100
AcDbLine
 10
32.530085145
 20
70.0624494887
 30
0.0
 11
53.2698619029
 21
102.2587253865
 31
0.0
  0
LINE
  5
7C
330
66
100
AcDbEntity
  8
GRS_GAMBAR
100
AcDbLine
 10
1.7014773721
 20
38.1301911212
 30
0.0
 11
6.5865339274
 21
29.6690249696
 31
0.0
  0
LINE
  5
7D
330
66
100
AcDbEntity
  8
GRS_GAMBAR
100
AcDbLine
 10
15.4174554383
 20
23.5053722098
 30
0.0
 11
38.9602487761
 21
22.5763110067
 31
0.0
  0
LINE
  5
7E
330
66
100
AcDbEntity
  8
GRS_GAMBAR
100
AcDbLine
 10
38.9602487761
 20
22.5763110067
 30
0.0
 11
38.8524066559
 21
38.760556558
 31
0.0
  0
LINE
  5
7F
330
66
100
AcDbEntity
  8
GRS_GAMBAR
100
AcDbLine
 10
38.8524066559
 20
38.760556558
 30
0.0
 11
0.5997254422
 21
40.6235921501
 31
0.0
  0
LINE
  5
80
330
66
100
AcDbEntity
  8
GRS_GAMBAR
100
AcDbLine
 10
81.9208574885
 20
28.0283282466
 30
0.0
 11
86.8059140438
 21
36.4894943982
 31
0.0
  0
LINE
  5
81
330
66
100
AcDbEntity
  8
GRS_GAMBAR
100
AcDbLine
 10
87.7283331587
 20
47.2191231458
 30
0.0
 11
76.7615270935
 21
68.0723108539
 31
0.0
  0
LINE
  5
82
330
66
100
AcDbEntity
  8
GRS_GAMBAR
100
AcDbLine
 10
76.7615270935
 20
68.0723108539
 30
0.0
 11
62.7994803649
 21
59.8867940624
 31
0.0
  0
LINE
  5
83
330
66
100
AcDbEntity
  8
GRS_GAMBAR
100
AcDbLine
 10
62.7994803649
 20
59.8867940624
 30
0.0
 11
80.3123848207
 21
25.8274825725
 31
0.0
  0
LINE
  5
84
330
66
100
AcDbEntity
  8
GRS_GAMBAR
100
AcDbLine
 10
53.2698619029
 20
102.2587253865
 30
0.0
 11
45.3678063337
 21
89.9916328218
 31
0.0
  0
LINE
  5
85
330
66
100
AcDbEntity
  8
GRS_GAMBAR
100
AcDbLine
 10
45.3678063337
 20
89.9916328218
 30
0.0
 11
57.680146021
 21
77.9774401014
 31
0.0
  0
LINE
  5
86
330
66
100
AcDbEntity
  8
GRS_GAMBAR
100
AcDbLine
 10
57.680146021
 20
77.9774401014
 30
0.0
 11
52.1174939067
 21
74.4668795831
 31
0.0
  0
LINE
  5
87
330
66
100
AcDbEntity
  8
GRS_GAMBAR
100
AcDbLine
 10
52.1174939067
 20
74.4668795831
 30
0.0
 11
68.8005549205
 21
74.5270047811
 31
0.0
  0
LINE
  5
88
330
66
100
AcDbEntity
  8
GRS_GAMBAR
100
AcDbLine
 10
68.8005549205
 20
74.5270047811
 30
0.0
 11
73.782472283
 21
89.9718154402
 31
0.0
  0
LINE
  5
89
330
66
100
AcDbEntity
  8
GRS_GAMBAR
100
AcDbLine
 10
73.782472283
 20
89.9718154402
 30
0.0
 11
69.4181110421
 21
86.9876719853
 31
0.0
  0
LINE
  5
8A
330
66
100
AcDbEntity
  8
GRS_GAMBAR
100
AcDbLine
 10
69.4181110421
 20
86.9876719853
 30
0.0
 11
61.153232739
 21
96.8559745808
 31
0.0
  0
LINE
  5
8B
330
66
100
AcDbEntity
  8
GRS_GAMBAR
100
AcDbLine
 10
19.4227932766
 20
56.5836528762
 30
0.0
 11
25.244353924
 21
53.5215350928
 31
0.0
  0
LINE
  5
8C
330
66
100
AcDbEntity
  8
GRS_GAMBAR
100
AcDbLine
 10
25.244353924
 20
53.5215350928
 30
0.0
 11
16.8507534682
 21
67.9394271442
 31
0.0
  0
LINE
  5
8D
330
66
100
AcDbEntity
  8
GRS_GAMBAR
100
AcDbLine
 10
16.8507534682
 20
67.9394271442
 30
0.0
 11
0.9841963998
 21
64.5314888101
 31
0.0
  0
LINE
  5
8E
330
66
100
AcDbEntity
  8
GRS_GAMBAR
100
AcDbLine
 10
0.9841963998
 20
64.5314888101
 30
0.0
 11
5.7507210602
 21
62.2439128323
 31
0.0
  0
LINE
  5
8F
330
66
100
AcDbEntity
  8
GRS_GAMBAR
100
AcDbLine
 10
5.7507210602
 20
62.2439128323
 30
0.0
 11
1.3369594722
 21
50.1521669645
 31
0.0
  0
LINE
  5
90
330
66
100
AcDbEntity
  8
GRS_GAMBAR
100
AcDbLine
 10
0.5997254422
 20
40.6235921501
 30
0.0
 11
15.1743670181
 21
39.9137575676
 31
0.0
  0
LINE
  5
91
330
66
100
AcDbEntity
  8
GRS_GAMBAR
100
AcDbLine
 10
15.1743670181
 20
39.9137575676
 30
0.0
 11
19.4227932766
 21
56.5836528762
 31
0.0
  0
LINE
  5
92
330
66
100
AcDbEntity
  8
GRS_GAMBAR
100
AcDbLine
 10
80.3123848207
 20
25.8274825725
 30
0.0
 11
73.6397988137
 21
38.8044097196
 31
0.0
  0
LINE
  5
93
330
66
100
AcDbEntity
  8
GRS_GAMBAR
100
AcDbLine
 10
73.6397988137
 20
38.8044097196
 30
0.0
 11
57.0790328685
 21
34.1487071314
 31
0.0
  0
LINE
  5
94
330
66
100
AcDbEntity
  8
GRS_GAMBAR
100
AcDbLine
 10
57.0790328685
 20
34.1487071314
 30
0.0
 11
56.8201243354
 21
40.7213854332
 31
0.0
  0
LINE
  5
95
330
66
100
AcDbEntity
  8
GRS_GAMBAR
100
AcDbLine
 10
56.8201243354
 20
40.7213854332
 30
0.0
 11
48.5306637774
 21
26.2433681838
 31
0.0
  0
LINE
  5
96
330
66
100
AcDbEntity
  8
GRS_GAMBAR
100
AcDbLine
 10
48.5306637774
 20
26.2433681838
 30
0.0
 11
59.4153034836
 21
14.2064958587
 31
0.0
  0
LINE
  5
97
330
66
100
AcDbEntity
  8
GRS_GAMBAR
100
AcDbLine
 10
59.4153034836
 20
14.2064958587
 30
0.0
 11
59.013140063
 21
19.4782152915
 31
0.0
  0
LINE
  5
98
330
66
100
AcDbEntity
  8
GRS_GAMBAR
100
AcDbLine
 10
59.013140063
 20
19.4782152915
 30
0.0
 11
71.6917799549
 21
21.7016585637
 31
0.0
  0
LINE
  5
99
330
66
100
AcDbEntity
  8
GRS_GAMBAR
  6
Continuous
 62
   179
100
AcDbLine
 10
18.4601962959
 20
78.0611782485
 30
0.0
 11
31.0361835686
 21
97.9853047535
 31
0.0
  0
LINE
  5
9A
330
66
100
AcDbEntity
  8
GRS_GAMBAR
  6
Continuous
 62
   179
100
AcDbLine
 10
40.7895241953
 20
102.551280741
 30
0.0
 11
50.5596373054
 21
102.551280741
 31
0.0
  0
LINE
  5
9B
330
66
100
AcDbEntity
  8
GRS_GAMBAR
  6
Continuous
 62
   179
100
AcDbLine
 10
61.153232739
 20
96.8559745808
 30
0.0
 11
69.4181110421
 21
86.9876719853
 31
0.0
  0
LINE
  5
9C
330
66
100
AcDbEntity
  8
GRS_GAMBAR
  6
Continuous
 62
   179
100
AcDbLine
 10
69.4181110421
 20
86.9876719853
 30
0.0
 11
73.782472283
 21
89.9718154402
 31
0.0
  0
LINE
  5
9D
330
66
100
AcDbEntity
  8
GRS_GAMBAR
  6
Continuous
 62
   179
100
AcDbLine
 10
73.782472283
 20
89.9718154402
 30
0.0
 11
68.8005549205
 21
74.5270047811
 31
0.0
  0
LINE
  5
9E
330
66
100
AcDbEntity
  8
GRS_GAMBAR
  6
Continuous
 62
   179
100
AcDbLine
 10
68.8005549205
 20
74.5270047811
 30
0.0
 11
52.1174939067
 21
74.4668795831
 31
0.0
  0
LINE
  5
9F
330
66
100
AcDbEntity
  8
GRS_GAMBAR
  6
Continuous
 62
   179
100
AcDbLine
 10
52.1174939067
 20
74.4668795831
 30
0.0
 11
57.680146021
 21
77.9774401014
 31
0.0
  0
LINE
  5
A0
330
66
100
AcDbEntity
  8
GRS_GAMBAR
  6
Continuous
 62
   179
100
AcDbLine
 10
57.680146021
 20
77.9774401014
 30
0.0
 11
45.3678063337
 21
89.9916328218
 31
0.0
  0
LINE
  5
A1
330
66
100
AcDbEntity
  8
GRS_GAMBAR
  6
Continuous
 62
   179
370
    30
100
AcDbLine
 10
53.2698619029
 20
102.2587253865
 30
0.0
 11
32.530085145
 21
70.0624494887
 31
0.0
  0
LINE
  5
A2
330
66
100
AcDbEntity
  8
GRS_GAMBAR
  6
Continuous
 62
   179
100
AcDbLine
 10
32.530085145
 20
70.0624494887
 30
0.0
 11
18.4601962959
 21
78.0611782485
 31
0.0
  0
LINE
  5
A3
330
66
100
AcDbEntity
  8
GRS_GAMBAR
  6
Continuous
 62
   179
100
AcDbLine
 10
38.9602487761
 20
22.5763110067
 30
0.0
 11
15.4174554383
 21
23.5053722098
 31
0.0
  0
LINE
  5
A4
330
66
100
AcDbEntity
  8
GRS_GAMBAR
  6
Continuous
 62
   179
100
AcDbLine
 10
6.5865339274
 20
29.6690249696
 30
0.0
 11
1.7014773721
 21
38.1301911212
 31
0.0
  0
LINE
  5
A5
330
66
100
AcDbEntity
  8
GRS_GAMBAR
  6
Continuous
 62
   179
100
AcDbLine
 10
1.3369594722
 20
50.1521669645
 30
0.0
 11
5.7507210602
 21
62.2439128323
 31
0.0
  0
LINE
  5
A6
330
66
100
AcDbEntity
  8
GRS_GAMBAR
  6
Continuous
 62
   179
100
AcDbLine
 10
5.7507210602
 20
62.2439128323
 30
0.0
 11
0.9841963998
 21
64.5314888101
 31
0.0
  0
LINE
  5
A7
330
66
100
AcDbEntity
  8
GRS_GAMBAR
  6
Continuous
 62
   179
100
AcDbLine
 10
0.9841963998
 20
64.5314888101
 30
0.0
 11
16.8507534682
 21
67.9394271442
 31
0.0
  0
LINE
  5
A8
330
66
100
AcDbEntity
  8
GRS_GAMBAR
  6
Continuous
 62
   179
100
AcDbLine
 10
16.8507534682
 20
67.9394271442
 30
0.0
 11
25.244353924
 21
53.5215350928
 31
0.0
  0
LINE
  5
A9
330
66
100
AcDbEntity
  8
GRS_GAMBAR
  6
Continuous
 62
   179
100
AcDbLine
 10
25.244353924
 20
53.5215350928
 30
0.0
 11
19.4227932766
 21
56.5836528762
 31
0.0
  0
LINE
  5
AA
330
66
100
AcDbEntity
  8
GRS_GAMBAR
  6
Continuous
 62
   179
100
AcDbLine
 10
19.4227932766
 20
56.5836528762
 30
0.0
 11
15.1743670181
 21
39.9137575676
 31
0.0
  0
LINE
  5
AB
330
66
100
AcDbEntity
  8
GRS_GAMBAR
  6
Continuous
 62
   179
370
    30
100
AcDbLine
 10
0.5997254422
 20
40.6235921501
 30
0.0
 11
38.8524066559
 21
38.760556558
 31
0.0
  0
LINE
  5
AC
330
66
100
AcDbEntity
  8
GRS_GAMBAR
  6
Continuous
 62
   179
100
AcDbLine
 10
38.8524066559
 20
38.760556558
 30
0.0
 11
38.9602487761
 21
22.5763110067
 31
0.0
  0
LINE
  5
AD
330
66
100
AcDbEntity
  8
GRS_GAMBAR
  6
Continuous
 62
   179
100
AcDbLine
 10
76.7615270935
 20
68.0723108539
 30
0.0
 11
87.7283331587
 21
47.2191231458
 31
0.0
  0
LINE
  5
AE
330
66
100
AcDbEntity
  8
GRS_GAMBAR
  6
Continuous
 62
   179
100
AcDbLine
 10
86.8059140438
 20
36.4894943982
 30
0.0
 11
81.9208574885
 21
28.0283282466
 31
0.0
  0
LINE
  5
AF
330
66
100
AcDbEntity
  8
GRS_GAMBAR
  6
Continuous
 62
   179
100
AcDbLine
 10
71.6917799549
 20
21.7016585637
 30
0.0
 11
59.013140063
 21
19.4782152915
 31
0.0
  0
LINE
  5
B0
330
66
100
AcDbEntity
  8
GRS_GAMBAR
  6
Continuous
 62
   179
100
AcDbLine
 10
59.013140063
 20
19.4782152915
 30
0.0
 11
59.4153034836
 21
14.2064958587
 31
0.0
  0
LINE
  5
B1
330
66
100
AcDbEntity
  8
GRS_GAMBAR
  6
Continuous
 62
   179
100
AcDbLine
 10
59.4153034836
 20
14.2064958587
 30
0.0
 11
48.5306637774
 21
26.2433681838
 31
0.0
  0
LINE
  5
B2
330
66
100
AcDbEntity
  8
GRS_GAMBAR
  6
Continuous
 62
   179
100
AcDbLine
 10
48.5306637774
 20
26.2433681838
 30
0.0
 11
56.8201243354
 21
40.7213854332
 31
0.0
  0
LINE
  5
B3
330
66
100
AcDbEntity
  8
GRS_GAMBAR
  6
Continuous
 62
   179
100
AcDbLine
 10
56.8201243354
 20
40.7213854332
 30
0.0
 11
57.0790328685
 21
34.1487071314
 31
0.0
  0
LINE
  5
B4
330
66
100
AcDbEntity
  8
GRS_GAMBAR
  6
Continuous
 62
   179
100
AcDbLine
 10
57.0790328685
 20
34.1487071314
 30
0.0
 11
73.6397988137
 21
38.8044097196
 31
0.0
  0
LINE
  5
B5
330
66
100
AcDbEntity
  8
GRS_GAMBAR
  6
Continuous
 62
   179
370
    30
100
AcDbLine
 10
80.3123848207
 20
25.8274825725
 30
0.0
 11
62.7994803649
 21
59.8867940624
 31
0.0
  0
LINE
  5
B6
330
66
100
AcDbEntity
  8
GRS_GAMBAR
  6
Continuous
 62
   179
100
AcDbLine
 10
62.7994803649
 20
59.8867940624
 30
0.0
 11
76.7615270935
 21
68.0723108539
 31
0.0
  0
HATCH
  5
B7
330
66
100
AcDbEntity
  8
GRS_GAMBAR
 62
   179
100
AcDbHatch
 10
0.0
 20
0.0
 30
0.0
210
0.0
220
0.0
230
1.0
  2
SOLID
 70
     1
 71
     0
 91
        1
 92
        0
 93
        6
 72
     1
 10
81.92085748854794
 20
28.02832824659674
 11
86.80591404383442
 21
36.48949439819749
 72
     2
 10
75.80739141615211
 20
42.83949439840096
 40
12.69999999977226
 50
329.9999999983485
 51
380.1728016816779
 73
     1
 72
     1
 10
87.72833315870798
 20
47.2191231457717
 11
76.76152709348116
 21
68.07231085394116
 72
     1
 10
76.76152709348116
 20
68.07231085394116
 11
62.79948036490168
 21
59.88679406240527
 72
     1
 10
62.79948036490168
 20
59.88679406240527
 11
80.31238482072922
 21
25.82748257246781
 72
     2
 10
70.92233485996502
 20
34.37832824729004
 40
12.70000000079782
 50
317.678118319967
 51
329.9999999984663
 73
     1
 97
        0
 75
     0
 76
     1
 98
        1
 10
0.0
 20
0.0
  0
HATCH
  5
B8
330
66
100
AcDbEntity
  8
GRS_GAMBAR
 62
   179
100
AcDbHatch
 10
0.0
 20
0.0
 30
0.0
210
0.0
220
0.0
230
1.0
  2
SOLID
 70
     1
 71
     0
 91
        1
 92
        0
 93
        6
 72
     1
 10
1.701477372096249
 20
38.13019112124682
 11
6.586533927391613
 21
29.66902496963009
 72
     2
 10
17.58505655525155
 20
36.0190249696879
 40
12.69999999985368
 50
210.0000000006833
 51
260.1728016813727
 73
     1
 72
     1
 10
15.41745543826067
 20
23.50537220984572
 11
38.9602487760925
 21
22.57631100665058
 72
     1
 10
38.9602487760925
 20
22.57631100665058
 11
38.85240665591994
 21
38.76055655804001
 72
     1
 10
38.85240665591994
 20
38.76055655804001
 11
0.5997254422069886
 21
40.62359215012768
 72
     2
 10
12.69999999987803
 20
44.48019112149226
 40
12.69999999987985
 50
197.678118321045
 51
210.0000000015927
 73
     1
 97
        0
 75
     0
 76
     1
 98
        1
 10
0.0
 20
0.0
  0
HATCH
  5
B9
330
66
100
AcDbEntity
  8
GRS_GAMBAR
 62
   179
100
AcDbHatch
 10
0.0
 20
0.0
 30
0.0
210
0.0
220
0.0
230
1.0
  2
SOLID
 70
     1
 71
     0
 91
        1
 92
        0
 93
        6
 72
     1
 10
50.55963730542246
 20
102.5512807409807
 11
40.78952419534332
 21
102.5512807409807
 72
     2
 10
40.78952419468607
 20
89.8512807404288
 40
12.70000000055234
 50
89.99999999703482
 51
140.1728016808893
 73
     1
 72
     1
 10
31.03618356855264
 20
97.98530475346534
 11
18.46019629594764
 21
78.06117824848124
 72
     1
 10
18.46019629594764
 20
78.06117824848124
 11
32.53008514500522
 21
70.0624494886548
 72
     1
 10
32.53008514500522
 20
70.0624494886548
 11
53.26986190289063
 21
102.2587253864873
 72
     2
 10
50.55963730542246
 20
89.85128074092263
 40
12.70000000005804
 50
77.6781183210196
 51
90.0
 73
     1
 97
        0
 75
     0
 76
     1
 98
        1
 10
0.0
 20
0.0
  0
MTEXT
  5
BB
330
66
100
AcDbEntity
  8
GRS_GAMBAR
100
AcDbMText
 10
8.1315783618
 20
3.5176739225
 30
0.0
 40
15.875
 41
0.0
 71
     1
 72
     1
  1
Recycled
  7
SLDTEXTSTYLE0
 73
     1
 44
1.0
  0
ENDBLK
  5
68
330
66
100
AcDbEntity
  8
0
100
AcDbBlockEnd
  0
BLOCK
  5
BD
330
BC
100
AcDbEntity
  8
0
100
AcDbBlockBegin
  2
template line scale
 70
     0
 10
0.0
 20
0.0
 30
0.0
  3
template line scale
  1

  0
LINE
  5
BF
330
BC
100
AcDbEntity
  8
FORMAT
370
     0
100
AcDbLine
 10
308.8291516468
 20
-142.8002221194
 30
0.0
 11
334.2291516468
 21
-142.8002221194
 31
0.0
  0
LINE
  5
C0
330
BC
100
AcDbEntity
  8
FORMAT
370
    15
100
AcDbLine
 10
308.8291516468
 20
-140.5853455549
 30
0.0
 11
308.8291516468
 21
-145.8397463772
 31
0.0
  0
LINE
  5
C1
330
BC
100
AcDbEntity
  8
FORMAT
370
     0
100
AcDbLine
 10
334.2291516468
 20
-142.8002221194
 30
0.0
 11
359.6291516468
 21
-142.8002221194
 31
0.0
  0
LINE
  5
C2
330
BC
100
AcDbEntity
  8
FORMAT
370
     0
100
AcDbLine
 10
359.6291516468
 20
-142.8002221194
 30
0.0
 11
385.0291516468
 21
-142.8002221194
 31
0.0
  0
LINE
  5
C3
330
BC
100
AcDbEntity
  8
FORMAT
370
    15
100
AcDbLine
 10
334.2291516468
 20
-140.5853455549
 30
0.0
 11
334.2291516468
 21
-145.8397463772
 31
0.0
  0
LINE
  5
C4
330
BC
100
AcDbEntity
  8
FORMAT
370
    15
100
AcDbLine
 10
359.6291516468
 20
-145.8397463772
 30
0.0
 11
359.6291516468
 21
-140.5853455549
 31
0.0
  0
LINE
  5
C5
330
BC
100
AcDbEntity
  8
FORMAT
370
    15
100
AcDbLine
 10
385.0291516468
 20
-140.5853455549
 30
0.0
 11
385.0291516468
 21
-145.8397463772
 31
0.0
  0
INSERT
  5
CD
330
BC
100
AcDbEntity
  8
FORMAT
 62
     7
100
AcDbBlockReference
  2
SW_NOTE_0
 10
306.9904107435
 20
-163.4539217701
 30
0.0
  0
ENDBLK
  5
BE
330
BC
100
AcDbEntity
  8
0
100
AcDbBlockEnd
  0
BLOCK
  5
C7
330
C6
100
AcDbEntity
  8
0
100
AcDbBlockBegin
  2
SW_NOTE_0
 70
     0
 10
0.0
 20
0.0
 30
0.0
  3
SW_NOTE_0
  1

  0
MTEXT
  5
CA
330
C6
100
AcDbEntity
  8
FORMAT
 62
     0
100
AcDbMText
 10
0.0
 20
9.5498435055
 30
0.0
 40
7.4083333333
 41
0.0
 71
     1
 72
     1
  1
0       1       2       3
  7
SLDTEXTSTYLE1
 73
     1
 44
1.0
  0
MTEXT
  5
CC
330
C6
100
AcDbEntity
  8
FORMAT
 62
     0
100
AcDbMText
 10
6.2284767628
 20
-10.2057118113
 30
0.0
 40
7.4083333333
 41
0.0
 71
     1
 72
     1
  1
SCALE: 1" = 1"
  7
SLDTEXTSTYLE2
 73
     1
 44
1.0
  0
ENDBLK
  5
C8
330
C6
100
AcDbEntity
  8
0
100
AcDbBlockEnd
  0
BLOCK
  5
221
330
220
100
AcDbEntity
  8
0
100
AcDbBlockBegin
  2
SW_NOTE_1
 70
     0
 10
0.0
 20
0.0
 30
0.0
  3
SW_NOTE_1
  1

  0
MTEXT
  5
223
330
220
100
AcDbEntity
  8
GRS_GAMBAR
 62
     0
100
AcDbMText
 10
0.0
 20
8.1855801476
 30
0.0
 40
6.35
 41
0.0
 71
     1
 72
     1
  1
LT180 & 182
  7
SLDTEXTSTYLE0
 73
     1
 44
1.0
  0
MTEXT
  5
224
330
220
100
AcDbEntity
  8
GRS_GAMBAR
 62
     0
100
AcDbMText
 10
9.419163689
 20
-0.2810864168
 30
0.0
 40
6.35
 41
0.0
 71
     1
 72
     1
  1
0GU159
  7
SLDTEXTSTYLE0
 73
     1
 44
1.0
  0
MTEXT
  5
225
330
220
100
AcDbEntity
  8
GRS_GAMBAR
 62
     0
100
AcDbMText
 10
5.4504144937
 20
-8.7477529811
 30
0.0
 40
6.35
 41
0.0
 71
     1
 72
     1
  1
APR 2009
  7
SLDTEXTSTYLE0
 73
     1
 44
1.0
  0
ENDBLK
  5
222
330
220
100
AcDbEntity
  8
0
100
AcDbBlockEnd
  0
BLOCK
  5
228
330
227
100
AcDbEntity
  8
0
100
AcDbBlockBegin
  2
SW_NOTE_2
 70
     0
 10
0.0
 20
0.0
 30
0.0
  3
SW_NOTE_2
  1

  0
MTEXT
  5
22A
330
227
100
AcDbEntity
  8
FORMAT
 62
     0
100
AcDbMText
 10
0.0
 20
8.1855801476
 30
0.0
 40
6.35
 41
0.0
 71
     1
 72
     1
  1
PAPER SIZE:
  7
SLDTEXTSTYLE2
 73
     1
 44
1.0
  0
MTEXT
  5
22B
330
227
100
AcDbEntity
  8
FORMAT
 62
     0
100
AcDbMText
 10
0.0
 20
-0.0936955305
 30
0.0
 40
2.1166666667
 41
0.0
 71
     1
 72
     1
  1
                                     .
  7
SLDTEXTSTYLE2
 73
     1
 44
1.0
  0
MTEXT
  5
22D
330
227
100
AcDbEntity
  8
FORMAT
 62
     0
100
AcDbMText
 10
10.0
 20
-3.1033086049
 30
0.0
 40
6.35
 41
0.0
 71
     1
 72
     1
  1
23" X 35"    25" X 38"   26" X 40"
  7
SLDTEXTSTYLE3
 73
     1
 44
1.0
  0
MTEXT
  5
22E
330
227
100
AcDbEntity
  8
FORMAT
 62
     0
100
AcDbMText
 10
10.0
 20
-11.3825842829
 30
0.0
 40
2.1166666667
 41
0.0
 71
     1
 72
     1
  1
                         .
  7
SLDTEXTSTYLE2
 73
     1
 44
1.0
  0
MTEXT
  5
22F
330
227
100
AcDbEntity
  8
FORMAT
 62
     0
100
AcDbMText
 10
0.0
 20
-14.3921973574
 30
0.0
 40
6.35
 41
0.0
 71
     1
 72
     1
  1
LINE WEIGHT: 1.00mm
  7
SLDTEXTSTYLE2
 73
     1
 44
1.0
  0
MTEXT
  5
230
330
227
100
AcDbEntity
  8
FORMAT
 62
     0
100
AcDbMText
 10
0.0
 20
-22.8588639217
 30
0.0
 40
6.35
 41
0.0
 71
     1
 72
     1
  1
PAPER SPEC:
  7
SLDTEXTSTYLE2
 73
     1
 44
1.0
  0
MTEXT
  5
231
330
227
100
AcDbEntity
  8
FORMAT
 62
     0
100
AcDbMText
 10
10.0
 20
-31.3255304861
 30
0.0
 40
6.35
 41
0.0
 71
     1
 72
     1
  1
70# OFFSET UNCOATED SHEET
  7
SLDTEXTSTYLE2
 73
     1
 44
1.0
  0
MTEXT
  5
232
330
227
100
AcDbEntity
  8
FORMAT
 62
     0
100
AcDbMText
 10
10.0
 20
-39.7921970504
 30
0.0
 40
6.35
 41
0.0
 71
     1
 72
     1
  1
BRIGHTNESS FACTOR- 86% OR HIGHER 
  7
SLDTEXTSTYLE2
 73
     1
 44
1.0
  0
ENDBLK
  5
229
330
227
100
AcDbEntity
  8
0
100
AcDbBlockEnd
  0
BLOCK
  5
247
330
246
100
AcDbEntity
  8
0
100
AcDbBlockBegin
  2
SW_NOTE_3
 70
     0
 10
0.0
 20
0.0
 30
0.0
  3
SW_NOTE_3
  1

  0
MTEXT
  5
249
330
246
100
AcDbEntity
  8
0
  6
Continuous
 62
     0
370
     0
100
AcDbMText
 10
0.5093939478
 20
3.5608032625
 30
0.0
 40
7.4083333333
 41
0.0
 71
     1
 72
     1
  1
CUT ALONG THIS LINE
  7
SLDTEXTSTYLE2
 73
     1
 44
1.0
  0
MTEXT
  5
24A
330
246
100
AcDbEntity
  8
0
  6
Continuous
 62
     0
370
     0
100
AcDbMText
 10
0.5093939478
 20
-6.3169743959
 30
0.0
 40
7.4083333333
 41
0.0
 71
     1
 72
     1
  1
CORTE A LO LARGO DE ESTA LINEA
  7
SLDTEXTSTYLE2
 73
     1
 44
1.0
  0
MTEXT
  5
24B
330
246
100
AcDbEntity
  8
0
  6
Continuous
 62
     0
370
     0
100
AcDbMText
 10
0.5093939478
 20
-16.1947520543
 30
0.0
 40
7.4083333333
 41
0.0
 71
     1
 72
     1
  1
DECOUPER AU LONG DE CETTE LIGNE
  7
SLDTEXTSTYLE2
 73
     1
 44
1.0
  0
ENDBLK
  5
248
330
246
100
AcDbEntity
  8
0
100
AcDbBlockEnd
  0
BLOCK
  5
250
330
24F
100
AcDbEntity
  8
0
100
AcDbBlockBegin
  2
SW_NOTE_4
 70
     0
 10
0.0
 20
0.0
 30
0.0
  3
SW_NOTE_4
  1

  0
MTEXT
  5
252
330
24F
100
AcDbEntity
  8
0
  6
Continuous
 62
     0
370
     0
100
AcDbMText
 10
0.5072746187
 20
3.5571010713
 30
0.0
 40
7.4083333333
 41
0.0
 71
     1
 72
     1
  1
RIM OF LAVATORY
  7
SLDTEXTSTYLE2
 73
     1
 44
1.0
  0
MTEXT
  5
253
330
24F
100
AcDbEntity
  8
0
  6
Continuous
 62
     0
370
     0
100
AcDbMText
 10
0.5072746187
 20
-6.3206765871
 30
0.0
 40
7.4083333333
 41
0.0
 71
     1
 72
     1
  1
BORDE DEL LAVABO
  7
SLDTEXTSTYLE2
 73
     1
 44
1.0
  0
MTEXT
  5
254
330
24F
100
AcDbEntity
  8
0
  6
Continuous
 62
     0
370
     0
100
AcDbMText
 10
0.5072746187
 20
-16.1984542455
 30
0.0
 40
7.4083333333
 41
0.0
 71
     1
 72
     1
  1
REBORD DE LAVABO
  7
SLDTEXTSTYLE2
 73
     1
 44
1.0
  0
ENDBLK
  5
251
330
24F
100
AcDbEntity
  8
0
100
AcDbBlockEnd
  0
ENDSEC
  0
SECTION
  2
ENTITIES
  0
LINE
  5
CE
330
1F
100
AcDbEntity
  8
FORMAT
100
AcDbLine
 10
774.2243109125
 20
147.3418842047
 30
0.0
 11
776.408304565
 21
147.3418842047
 31
0.0
  0
LINE
  5
CF
330
1F
100
AcDbEntity
  8
FORMAT
100
AcDbLine
 10
781.2928297463
 20
142.4563308106
 30
0.0
 11
781.2925528741
 21
141.1409110095
 31
0.0
  0
LINE
  5
D0
330
1F
100
AcDbEntity
  8
FORMAT
100
AcDbLine
 10
781.2925528741
 20
141.1409110095
 30
0.0
 11
784.1868200095
 21
141.1409110095
 31
0.0
  0
LINE
  5
D1
330
1F
100
AcDbEntity
  8
FORMAT
100
AcDbLine
 10
784.1868200095
 20
141.1409110095
 30
0.0
 11
784.1887343939
 21
150.236151276
 31
0.0
  0
LINE
  5
D2
330
1F
100
AcDbEntity
  8
FORMAT
100
AcDbLine
 10
784.1887343939
 20
150.236151276
 30
0.0
 11
758.3891611444
 21
150.236151276
 31
0.0
  0
LINE
  5
D3
330
1F
100
AcDbEntity
  8
FORMAT
100
AcDbLine
 10
758.3891611444
 20
150.236151276
 30
0.0
 11
758.3889727142
 21
141.1409110095
 31
0.0
  0
LINE
  5
D4
330
1F
100
AcDbEntity
  8
FORMAT
100
AcDbLine
 10
758.3889727142
 20
141.1409110095
 30
0.0
 11
761.2826641593
 21
141.1409110095
 31
0.0
  0
LINE
  5
D5
330
1F
100
AcDbEntity
  8
FORMAT
100
AcDbLine
 10
761.2826641593
 20
141.1409110095
 30
0.0
 11
761.2829414643
 21
142.4583870199
 31
0.0
  0
LINE
  5
D6
330
1F
100
AcDbEntity
  8
FORMAT
100
AcDbLine
 10
766.1674666456
 20
147.3418842047
 30
0.0
 11
768.3536485053
 21
147.3418842047
 31
0.0
  0
LINE
  5
D7
330
1F
100
AcDbEntity
  8
FORMAT
100
AcDbLine
 10
768.3536485053
 20
147.3418842047
 30
0.0
 11
768.3500836808
 21
130.9698157803
 31
0.0
  0
LINE
  5
D8
330
1F
100
AcDbEntity
  8
FORMAT
100
AcDbLine
 10
766.5306759854
 20
129.1508041963
 30
0.0
 11
763.4297931598
 21
129.1508041963
 31
0.0
  0
LINE
  5
D9
330
1F
100
AcDbEntity
  8
FORMAT
100
AcDbLine
 10
763.4297931598
 20
129.1508041963
 30
0.0
 11
763.4291629673
 21
126.256537125
 31
0.0
  0
LINE
  5
DA
330
1F
100
AcDbEntity
  8
FORMAT
100
AcDbLine
 10
763.4291629673
 20
126.256537125
 30
0.0
 11
779.1396142799
 21
126.256537125
 31
0.0
  0
LINE
  5
DB
330
1F
100
AcDbEntity
  8
FORMAT
100
AcDbLine
 10
779.1396142799
 20
126.256537125
 30
0.0
 11
779.1402444724
 21
129.1508041963
 31
0.0
  0
LINE
  5
DC
330
1F
100
AcDbEntity
  8
FORMAT
100
AcDbLine
 10
779.1402444724
 20
129.1508041963
 30
0.0
 11
776.0401539558
 21
129.1508041963
 31
0.0
  0
LINE
  5
DD
330
1F
100
AcDbEntity
  8
FORMAT
100
AcDbLine
 10
774.2207462604
 20
130.9706080894
 30
0.0
 11
774.2243109125
 21
147.3418842047
 31
0.0
  0
LINE
  5
DE
330
1F
100
AcDbEntity
  8
FORMAT
100
AcDbLine
 10
836.0848737943
 20
147.3418842047
 30
0.0
 11
838.2688674469
 21
147.3418842047
 31
0.0
  0
LINE
  5
DF
330
1F
100
AcDbEntity
  8
FORMAT
100
AcDbLine
 10
843.1533926281
 20
142.4563308106
 30
0.0
 11
843.1531157559
 21
141.1409110095
 31
0.0
  0
LINE
  5
E0
330
1F
100
AcDbEntity
  8
FORMAT
100
AcDbLine
 10
843.1531157559
 20
141.1409110095
 30
0.0
 11
846.0473828914
 21
141.1409110095
 31
0.0
  0
LINE
  5
E1
330
1F
100
AcDbEntity
  8
FORMAT
100
AcDbLine
 10
846.0473828914
 20
141.1409110095
 30
0.0
 11
846.0492972758
 21
150.236151276
 31
0.0
  0
LINE
  5
E2
330
1F
100
AcDbEntity
  8
FORMAT
100
AcDbLine
 10
846.0492972758
 20
150.236151276
 30
0.0
 11
820.2497240263
 21
150.236151276
 31
0.0
  0
LINE
  5
E3
330
1F
100
AcDbEntity
  8
FORMAT
100
AcDbLine
 10
820.2497240263
 20
150.236151276
 30
0.0
 11
820.249535596
 21
141.1409110095
 31
0.0
  0
LINE
  5
E4
330
1F
100
AcDbEntity
  8
FORMAT
100
AcDbLine
 10
820.249535596
 20
141.1409110095
 30
0.0
 11
823.1432270412
 21
141.1409110095
 31
0.0
  0
LINE
  5
E5
330
1F
100
AcDbEntity
  8
FORMAT
100
AcDbLine
 10
823.1432270412
 20
141.1409110095
 30
0.0
 11
823.1435043462
 21
142.4583870199
 31
0.0
  0
LINE
  5
E6
330
1F
100
AcDbEntity
  8
FORMAT
100
AcDbLine
 10
828.0280295274
 20
147.3418842047
 30
0.0
 11
830.2142113872
 21
147.3418842047
 31
0.0
  0
LINE
  5
E7
330
1F
100
AcDbEntity
  8
FORMAT
100
AcDbLine
 10
830.2142113872
 20
147.3418842047
 30
0.0
 11
830.2106465626
 21
130.9698157803
 31
0.0
  0
LINE
  5
E8
330
1F
100
AcDbEntity
  8
FORMAT
100
AcDbLine
 10
828.3912388672
 20
129.1508041963
 30
0.0
 11
825.2903560416
 21
129.1508041963
 31
0.0
  0
LINE
  5
E9
330
1F
100
AcDbEntity
  8
FORMAT
100
AcDbLine
 10
825.2903560416
 20
129.1508041963
 30
0.0
 11
825.2897258491
 21
126.256537125
 31
0.0
  0
LINE
  5
EA
330
1F
100
AcDbEntity
  8
FORMAT
100
AcDbLine
 10
825.2897258491
 20
126.256537125
 30
0.0
 11
841.0001771617
 21
126.256537125
 31
0.0
  0
LINE
  5
EB
330
1F
100
AcDbEntity
  8
FORMAT
100
AcDbLine
 10
841.0001771617
 20
126.256537125
 30
0.0
 11
841.0008073542
 21
129.1508041963
 31
0.0
  0
LINE
  5
EC
330
1F
100
AcDbEntity
  8
FORMAT
100
AcDbLine
 10
841.0008073542
 20
129.1508041963
 30
0.0
 11
837.9007168377
 21
129.1508041963
 31
0.0
  0
LINE
  5
ED
330
1F
100
AcDbEntity
  8
FORMAT
100
AcDbLine
 10
836.0813091423
 20
130.9706080894
 30
0.0
 11
836.0848737943
 21
147.3418842047
 31
0.0
  0
LINE
  5
EE
330
1F
100
AcDbEntity
  8
FORMAT
100
AcDbLine
 10
881.8596065515
 20
129.9654036626
 30
0.0
 11
881.8790021634
 21
129.9651379342
 31
0.0
  0
LINE
  5
EF
330
1F
100
AcDbEntity
  8
FORMAT
100
AcDbLine
 10
881.8790021634
 20
129.9651379342
 30
0.0
 11
881.9188571552
 21
129.9638092921
 31
0.0
  0
LINE
  5
F0
330
1F
100
AcDbEntity
  8
FORMAT
100
AcDbLine
 10
881.9188571552
 20
129.9638092921
 30
0.0
 11
881.9573835049
 21
129.9608871338
 31
0.0
  0
LINE
  5
F1
330
1F
100
AcDbEntity
  8
FORMAT
100
AcDbLine
 10
881.9573835049
 20
129.9608871338
 30
0.0
 11
881.9951118149
 21
129.956635479
 31
0.0
  0
LINE
  5
F2
330
1F
100
AcDbEntity
  8
FORMAT
100
AcDbLine
 10
881.9951118149
 20
129.956635479
 30
0.0
 11
882.0315123371
 21
129.950790308
 31
0.0
  0
LINE
  5
F3
330
1F
100
AcDbEntity
  8
FORMAT
100
AcDbLine
 10
882.0315123371
 20
129.950790308
 30
0.0
 11
882.0671165286
 21
129.9433507665
 31
0.0
  0
LINE
  5
F4
330
1F
100
AcDbEntity
  8
FORMAT
100
AcDbLine
 10
882.0671165286
 20
129.9433507665
 30
0.0
 11
882.1016569519
 21
129.9348483113
 31
0.0
  0
LINE
  5
F5
330
1F
100
AcDbEntity
  8
FORMAT
100
AcDbLine
 10
882.1016569519
 20
129.9348483113
 30
0.0
 11
882.134868733
 21
129.9244857571
 31
0.0
  0
LINE
  5
F6
330
1F
100
AcDbEntity
  8
FORMAT
100
AcDbLine
 10
882.134868733
 20
129.9244857571
 30
0.0
 11
882.1672841833
 21
129.9127954152
 31
0.0
  0
LINE
  5
F7
330
1F
100
AcDbEntity
  8
FORMAT
100
AcDbLine
 10
882.1672841833
 20
129.9127954152
 30
0.0
 11
882.1986367199
 21
129.8997764312
 31
0.0
  0
LINE
  5
F8
330
1F
100
AcDbEntity
  8
FORMAT
100
AcDbLine
 10
882.1986367199
 20
129.8997764312
 30
0.0
 11
882.2289263428
 21
129.8851630766
 31
0.0
  0
LINE
  5
F9
330
1F
100
AcDbEntity
  8
FORMAT
100
AcDbLine
 10
882.2289263428
 20
129.8851630766
 30
0.0
 11
882.258153052
 21
129.8692210798
 31
0.0
  0
LINE
  5
FA
330
1F
100
AcDbEntity
  8
FORMAT
100
AcDbLine
 10
882.258153052
 20
129.8692210798
 30
0.0
 11
882.2860511191
 21
129.8516847126
 31
0.0
  0
LINE
  5
FB
330
1F
100
AcDbEntity
  8
FORMAT
100
AcDbLine
 10
882.2860511191
 20
129.8516847126
 30
0.0
 11
882.3131520009
 21
129.8328205576
 31
0.0
  0
LINE
  5
FC
330
1F
100
AcDbEntity
  8
FORMAT
100
AcDbLine
 10
882.3131520009
 20
129.8328205576
 30
0.0
 11
882.3391908234
 21
129.812362032
 31
0.0
  0
LINE
  5
FD
330
1F
100
AcDbEntity
  8
FORMAT
100
AcDbLine
 10
882.3391908234
 20
129.812362032
 30
0.0
 11
882.3609779911
 21
129.7926998373
 31
0.0
  0
LINE
  5
FE
330
1F
100
AcDbEntity
  8
FORMAT
100
AcDbLine
 10
882.3609779911
 20
129.7926998373
 30
0.0
 11
882.3851558601
 21
129.7682562398
 31
0.0
  0
LINE
  5
FF
330
1F
100
AcDbEntity
  8
FORMAT
100
AcDbLine
 10
882.3851558601
 20
129.7682562398
 30
0.0
 11
882.4072087562
 21
129.7424831457
 31
0.0
  0
LINE
  5
100
330
1F
100
AcDbEntity
  8
FORMAT
100
AcDbLine
 10
882.4072087562
 20
129.7424831457
 30
0.0
 11
882.4274024078
 21
129.7156479924
 31
0.0
  0
LINE
  5
101
330
1F
100
AcDbEntity
  8
FORMAT
100
AcDbLine
 10
882.4274024078
 20
129.7156479924
 30
0.0
 11
882.4457351059
 21
129.6874841969
 31
0.0
  0
LINE
  5
102
330
1F
100
AcDbEntity
  8
FORMAT
100
AcDbLine
 10
882.4457351059
 20
129.6874841969
 30
0.0
 11
882.4622085595
 21
129.6582574877
 31
0.0
  0
LINE
  5
103
330
1F
100
AcDbEntity
  8
FORMAT
100
AcDbLine
 10
882.4622085595
 20
129.6582574877
 30
0.0
 11
882.4765561857
 21
129.6277021364
 31
0.0
  0
LINE
  5
104
330
1F
100
AcDbEntity
  8
FORMAT
100
AcDbLine
 10
882.4765561857
 20
129.6277021364
 30
0.0
 11
882.4890437129
 21
129.5958181429
 31
0.0
  0
LINE
  5
105
330
1F
100
AcDbEntity
  8
FORMAT
100
AcDbLine
 10
882.4890437129
 20
129.5958181429
 30
0.0
 11
882.4996719955
 21
129.5628720902
 31
0.0
  0
LINE
  5
106
330
1F
100
AcDbEntity
  8
FORMAT
100
AcDbLine
 10
882.4996719955
 20
129.5628720902
 30
0.0
 11
882.5081744507
 21
129.5288622693
 31
0.0
  0
LINE
  5
107
330
1F
100
AcDbEntity
  8
FORMAT
100
AcDbLine
 10
882.5081744507
 20
129.5288622693
 30
0.0
 11
882.5150825354
 21
129.4932589323
 31
0.0
  0
LINE
  5
108
330
1F
100
AcDbEntity
  8
FORMAT
100
AcDbLine
 10
882.5150825354
 20
129.4932589323
 30
0.0
 11
882.5198647926
 21
129.45685841
 31
0.0
  0
LINE
  5
109
330
1F
100
AcDbEntity
  8
FORMAT
100
AcDbLine
 10
882.5198647926
 20
129.45685841
 30
0.0
 11
882.5227878053
 21
129.4188635172
 31
0.0
  0
LINE
  5
10A
330
1F
100
AcDbEntity
  8
FORMAT
100
AcDbLine
 10
882.5227878053
 20
129.4188635172
 30
0.0
 11
882.5235849906
 21
129.3798065651
 31
0.0
  0
LINE
  5
10B
330
1F
100
AcDbEntity
  8
FORMAT
100
AcDbLine
 10
882.5235849906
 20
129.3798065651
 30
0.0
 11
882.5233192622
 21
129.3513761867
 31
0.0
  0
LINE
  5
10C
330
1F
100
AcDbEntity
  8
FORMAT
100
AcDbLine
 10
882.5233192622
 20
129.3513761867
 30
0.0
 11
882.5222563485
 21
129.3104591356
 31
0.0
  0
LINE
  5
10D
330
1F
100
AcDbEntity
  8
FORMAT
100
AcDbLine
 10
882.5222563485
 20
129.3104591356
 30
0.0
 11
882.5198647926
 21
129.2708698722
 31
0.0
  0
LINE
  5
10E
330
1F
100
AcDbEntity
  8
FORMAT
100
AcDbLine
 10
882.5198647926
 20
129.2708698722
 30
0.0
 11
882.5161454491
 21
129.2326101054
 31
0.0
  0
LINE
  5
10F
330
1F
100
AcDbEntity
  8
FORMAT
100
AcDbLine
 10
882.5161454491
 20
129.2326101054
 30
0.0
 11
882.5116280658
 21
129.1954123979
 31
0.0
  0
LINE
  5
110
330
1F
100
AcDbEntity
  8
FORMAT
100
AcDbLine
 10
882.5116280658
 20
129.1954123979
 30
0.0
 11
882.5060486233
 21
129.159277604
 31
0.0
  0
LINE
  5
111
330
1F
100
AcDbEntity
  8
FORMAT
100
AcDbLine
 10
882.5060486233
 20
129.159277604
 30
0.0
 11
882.4991405387
 21
129.1247363263
 31
0.0
  0
LINE
  5
112
330
1F
100
AcDbEntity
  8
FORMAT
100
AcDbLine
 10
882.4991405387
 20
129.1247363263
 30
0.0
 11
882.4914352687
 21
129.0909930883
 31
0.0
  0
LINE
  5
113
330
1F
100
AcDbEntity
  8
FORMAT
100
AcDbLine
 10
882.4914352687
 20
129.0909930883
 30
0.0
 11
882.4824013567
 21
129.0588433664
 31
0.0
  0
LINE
  5
114
330
1F
100
AcDbEntity
  8
FORMAT
100
AcDbLine
 10
882.4824013567
 20
129.0588433664
 30
0.0
 11
882.4723053853
 21
129.0277565582
 31
0.0
  0
LINE
  5
115
330
1F
100
AcDbEntity
  8
FORMAT
100
AcDbLine
 10
882.4723053853
 20
129.0277565582
 30
0.0
 11
882.4611456458
 21
128.9977326637
 31
0.0
  0
LINE
  5
116
330
1F
100
AcDbEntity
  8
FORMAT
100
AcDbLine
 10
882.4611456458
 20
128.9977326637
 30
0.0
 11
882.4489238471
 21
128.9693031398
 31
0.0
  0
LINE
  5
117
330
1F
100
AcDbEntity
  8
FORMAT
100
AcDbLine
 10
882.4489238471
 20
128.9693031398
 30
0.0
 11
882.4356391346
 21
128.9416708012
 31
0.0
  0
LINE
  5
118
330
1F
100
AcDbEntity
  8
FORMAT
100
AcDbLine
 10
882.4356391346
 20
128.9416708012
 30
0.0
 11
882.4210249256
 21
128.9156328331
 31
0.0
  0
LINE
  5
119
330
1F
100
AcDbEntity
  8
FORMAT
100
AcDbLine
 10
882.4210249256
 20
128.9156328331
 30
0.0
 11
882.4056152401
 21
128.8906569243
 31
0.0
  0
LINE
  5
11A
330
1F
100
AcDbEntity
  8
FORMAT
100
AcDbLine
 10
882.4056152401
 20
128.8906569243
 30
0.0
 11
882.3888760581
 21
128.8667439292
 31
0.0
  0
LINE
  5
11B
330
1F
100
AcDbEntity
  8
FORMAT
100
AcDbLine
 10
882.3888760581
 20
128.8667439292
 30
0.0
 11
882.3713396908
 21
128.8441595763
 31
0.0
  0
LINE
  5
11C
330
1F
100
AcDbEntity
  8
FORMAT
100
AcDbLine
 10
882.3713396908
 20
128.8441595763
 30
0.0
 11
882.3524755358
 21
128.8229038654
 31
0.0
  0
LINE
  5
11D
330
1F
100
AcDbEntity
  8
FORMAT
100
AcDbLine
 10
882.3524755358
 20
128.8229038654
 30
0.0
 11
882.3325484672
 21
128.8029767968
 31
0.0
  0
LINE
  5
11E
330
1F
100
AcDbEntity
  8
FORMAT
100
AcDbLine
 10
882.3325484672
 20
128.8029767968
 30
0.0
 11
882.3115576303
 21
128.7838469133
 31
0.0
  0
LINE
  5
11F
330
1F
100
AcDbEntity
  8
FORMAT
100
AcDbLine
 10
882.3115576303
 20
128.7838469133
 30
0.0
 11
882.2895047342
 21
128.766310546
 31
0.0
  0
LINE
  5
120
330
1F
100
AcDbEntity
  8
FORMAT
100
AcDbLine
 10
882.2895047342
 20
128.766310546
 30
0.0
 11
882.2661240504
 21
128.7498370925
 31
0.0
  0
LINE
  5
121
330
1F
100
AcDbEntity
  8
FORMAT
100
AcDbLine
 10
882.2661240504
 20
128.7498370925
 30
0.0
 11
882.2419453269
 21
128.734692281
 31
0.0
  0
LINE
  5
122
330
1F
100
AcDbEntity
  8
FORMAT
100
AcDbLine
 10
882.2419453269
 20
128.734692281
 30
0.0
 11
882.2164379612
 21
128.7206103833
 31
0.0
  0
LINE
  5
123
330
1F
100
AcDbEntity
  8
FORMAT
100
AcDbLine
 10
882.2164379612
 20
128.7206103833
 30
0.0
 11
882.1901342647
 21
128.7078571277
 31
0.0
  0
LINE
  5
124
330
1F
100
AcDbEntity
  8
FORMAT
100
AcDbLine
 10
882.1901342647
 20
128.7078571277
 30
0.0
 11
882.1625019261
 21
128.6961659313
 31
0.0
  0
LINE
  5
125
330
1F
100
AcDbEntity
  8
FORMAT
100
AcDbLine
 10
882.1625019261
 20
128.6961659313
 30
0.0
 11
882.1338066738
 21
128.6858042315
 31
0.0
  0
LINE
  5
126
330
1F
100
AcDbEntity
  8
FORMAT
100
AcDbLine
 10
882.1338066738
 20
128.6858042315
 30
0.0
 11
882.1040485077
 21
128.6767703195
 31
0.0
  0
LINE
  5
127
330
1F
100
AcDbEntity
  8
FORMAT
100
AcDbLine
 10
882.1040485077
 20
128.6767703195
 30
0.0
 11
882.073227428
 21
128.6687993211
 31
0.0
  0
LINE
  5
128
330
1F
100
AcDbEntity
  8
FORMAT
100
AcDbLine
 10
882.073227428
 20
128.6687993211
 30
0.0
 11
882.0410777061
 21
128.6621569649
 31
0.0
  0
LINE
  5
129
330
1F
100
AcDbEntity
  8
FORMAT
100
AcDbLine
 10
882.0410777061
 20
128.6621569649
 30
0.0
 11
882.0081316533
 21
128.6565775224
 31
0.0
  0
LINE
  5
12A
330
1F
100
AcDbEntity
  8
FORMAT
100
AcDbLine
 10
882.0081316533
 20
128.6565775224
 30
0.0
 11
881.973856104
 21
128.6523258675
 31
0.0
  0
LINE
  5
12B
330
1F
100
AcDbEntity
  8
FORMAT
100
AcDbLine
 10
881.973856104
 20
128.6523258675
 30
0.0
 11
881.9387842239
 21
128.6494037093
 31
0.0
  0
LINE
  5
12C
330
1F
100
AcDbEntity
  8
FORMAT
100
AcDbLine
 10
881.9387842239
 20
128.6494037093
 30
0.0
 11
881.9023837016
 21
128.6475436103
 31
0.0
  0
LINE
  5
12D
330
1F
100
AcDbEntity
  8
FORMAT
100
AcDbLine
 10
881.9023837016
 20
128.6475436103
 30
0.0
 11
881.8649202657
 21
128.646746425
 31
0.0
  0
LINE
  5
12E
330
1F
100
AcDbEntity
  8
FORMAT
100
AcDbLine
 10
881.8649202657
 20
128.646746425
 30
0.0
 11
880.5738962211
 21
128.646746425
 31
0.0
  0
LINE
  5
12F
330
1F
100
AcDbEntity
  8
FORMAT
100
AcDbLine
 10
880.5738962211
 20
128.646746425
 30
0.0
 11
880.5738962211
 21
129.9654036626
 31
0.0
  0
LINE
  5
130
330
1F
100
AcDbEntity
  8
FORMAT
100
AcDbLine
 10
880.5738962211
 20
129.9654036626
 30
0.0
 11
881.8596065515
 21
129.9654036626
 31
0.0
  0
LINE
  5
131
330
1F
100
AcDbEntity
  8
FORMAT
100
AcDbLine
 10
882.6314579153
 20
128.3760007722
 30
0.0
 11
882.5961203067
 21
128.4023044687
 31
0.0
  0
LINE
  5
132
330
1F
100
AcDbEntity
  8
FORMAT
100
AcDbLine
 10
882.5961203067
 20
128.4023044687
 30
0.0
 11
882.5583911423
 21
128.4294062049
 31
0.0
  0
LINE
  5
133
330
1F
100
AcDbEntity
  8
FORMAT
100
AcDbLine
 10
882.5583911423
 20
128.4294062049
 30
0.0
 11
882.5185361505
 21
128.4570385436
 31
0.0
  0
LINE
  5
134
330
1F
100
AcDbEntity
  8
FORMAT
100
AcDbLine
 10
882.5185361505
 20
128.4570385436
 30
0.0
 11
882.5419176888
 21
128.474043454
 31
0.0
  0
LINE
  5
135
330
1F
100
AcDbEntity
  8
FORMAT
100
AcDbLine
 10
882.5419176888
 20
128.474043454
 30
0.0
 11
882.5743331391
 21
128.4987527799
 31
0.0
  0
LINE
  5
136
330
1F
100
AcDbEntity
  8
FORMAT
100
AcDbLine
 10
882.5743331391
 20
128.4987527799
 30
0.0
 11
882.6054190928
 21
128.5234629603
 31
0.0
  0
LINE
  5
137
330
1F
100
AcDbEntity
  8
FORMAT
100
AcDbLine
 10
882.6054190928
 20
128.5234629603
 30
0.0
 11
882.6354429873
 21
128.5487045975
 31
0.0
  0
LINE
  5
138
330
1F
100
AcDbEntity
  8
FORMAT
100
AcDbLine
 10
882.6354429873
 20
128.5487045975
 30
0.0
 11
882.6644039681
 21
128.5742111088
 31
0.0
  0
LINE
  5
139
330
1F
100
AcDbEntity
  8
FORMAT
100
AcDbLine
 10
882.6644039681
 20
128.5742111088
 30
0.0
 11
882.6923028896
 21
128.5999842028
 31
0.0
  0
LINE
  5
13A
330
1F
100
AcDbEntity
  8
FORMAT
100
AcDbLine
 10
882.6923028896
 20
128.5999842028
 30
0.0
 11
882.7188723145
 21
128.6260221709
 31
0.0
  0
LINE
  5
13B
330
1F
100
AcDbEntity
  8
FORMAT
100
AcDbLine
 10
882.7188723145
 20
128.6260221709
 30
0.0
 11
882.7443796801
 21
128.6525915958
 31
0.0
  0
LINE
  5
13C
330
1F
100
AcDbEntity
  8
FORMAT
100
AcDbLine
 10
882.7443796801
 20
128.6525915958
 30
0.0
 11
882.7688232776
 21
128.6794276036
 31
0.0
  0
LINE
  5
13D
330
1F
100
AcDbEntity
  8
FORMAT
100
AcDbLine
 10
882.7688232776
 20
128.6794276036
 30
0.0
 11
882.7922048159
 21
128.7065284854
 31
0.0
  0
LINE
  5
13E
330
1F
100
AcDbEntity
  8
FORMAT
100
AcDbLine
 10
882.7922048159
 20
128.7065284854
 30
0.0
 11
882.814257712
 21
128.7338950956
 31
0.0
  0
LINE
  5
13F
330
1F
100
AcDbEntity
  8
FORMAT
100
AcDbLine
 10
882.814257712
 20
128.7338950956
 30
0.0
 11
882.8352476944
 21
128.7617940171
 31
0.0
  0
LINE
  5
140
330
1F
100
AcDbEntity
  8
FORMAT
100
AcDbLine
 10
882.8352476944
 20
128.7617940171
 30
0.0
 11
882.8551747631
 21
128.7896920842
 31
0.0
  0
LINE
  5
141
330
1F
100
AcDbEntity
  8
FORMAT
100
AcDbLine
 10
882.8551747631
 20
128.7896920842
 30
0.0
 11
882.8737740441
 21
128.8181216081
 31
0.0
  0
LINE
  5
142
330
1F
100
AcDbEntity
  8
FORMAT
100
AcDbLine
 10
882.8737740441
 20
128.8181216081
 30
0.0
 11
882.8913104114
 21
128.8468168604
 31
0.0
  0
LINE
  5
143
330
1F
100
AcDbEntity
  8
FORMAT
100
AcDbLine
 10
882.8913104114
 20
128.8468168604
 30
0.0
 11
882.9077830105
 21
128.8760435696
 31
0.0
  0
LINE
  5
144
330
1F
100
AcDbEntity
  8
FORMAT
100
AcDbLine
 10
882.9077830105
 20
128.8760435696
 30
0.0
 11
882.9231935504
 21
128.9052702788
 31
0.0
  0
LINE
  5
145
330
1F
100
AcDbEntity
  8
FORMAT
100
AcDbLine
 10
882.9231935504
 20
128.9052702788
 30
0.0
 11
882.9372754482
 21
128.9350284448
 31
0.0
  0
LINE
  5
146
330
1F
100
AcDbEntity
  8
FORMAT
100
AcDbLine
 10
882.9372754482
 20
128.9350284448
 30
0.0
 11
882.9502952866
 21
128.9650523393
 31
0.0
  0
LINE
  5
147
330
1F
100
AcDbEntity
  8
FORMAT
100
AcDbLine
 10
882.9502952866
 20
128.9650523393
 30
0.0
 11
882.9622513569
 21
128.9953419622
 31
0.0
  0
LINE
  5
148
330
1F
100
AcDbEntity
  8
FORMAT
100
AcDbLine
 10
882.9622513569
 20
128.9953419622
 30
0.0
 11
882.9731445136
 21
129.026163042
 31
0.0
  0
LINE
  5
149
330
1F
100
AcDbEntity
  8
FORMAT
100
AcDbLine
 10
882.9731445136
 20
129.026163042
 30
0.0
 11
882.9827098825
 21
129.0569832673
 31
0.0
  0
LINE
  5
14A
330
1F
100
AcDbEntity
  8
FORMAT
100
AcDbLine
 10
882.9827098825
 20
129.0569832673
 30
0.0
 11
882.9912123377
 21
129.0883358039
 31
0.0
  0
LINE
  5
14B
330
1F
100
AcDbEntity
  8
FORMAT
100
AcDbLine
 10
882.9912123377
 20
129.0883358039
 30
0.0
 11
882.9986518792
 21
129.1199540689
 31
0.0
  0
LINE
  5
14C
330
1F
100
AcDbEntity
  8
FORMAT
100
AcDbLine
 10
882.9986518792
 20
129.1199540689
 30
0.0
 11
883.0047627786
 21
129.1521037908
 31
0.0
  0
LINE
  5
14D
330
1F
100
AcDbEntity
  8
FORMAT
100
AcDbLine
 10
883.0047627786
 20
129.1521037908
 30
0.0
 11
883.0100764927
 21
129.1842526583
 31
0.0
  0
LINE
  5
14E
330
1F
100
AcDbEntity
  8
FORMAT
100
AcDbLine
 10
883.0100764927
 20
129.1842526583
 30
0.0
 11
883.0137966907
 21
129.216933837
 31
0.0
  0
LINE
  5
14F
330
1F
100
AcDbEntity
  8
FORMAT
100
AcDbLine
 10
883.0137966907
 20
129.216933837
 30
0.0
 11
883.0167188489
 21
129.2498798897
 31
0.0
  0
LINE
  5
150
330
1F
100
AcDbEntity
  8
FORMAT
100
AcDbLine
 10
883.0167188489
 20
129.2498798897
 30
0.0
 11
883.0185789479
 21
129.2830925253
 31
0.0
  0
LINE
  5
151
330
1F
100
AcDbEntity
  8
FORMAT
100
AcDbLine
 10
883.0185789479
 20
129.2830925253
 30
0.0
 11
883.0191104048
 21
129.3165700349
 31
0.0
  0
LINE
  5
152
330
1F
100
AcDbEntity
  8
FORMAT
100
AcDbLine
 10
883.0191104048
 20
129.3165700349
 30
0.0
 11
883.0188446764
 21
129.3479225715
 31
0.0
  0
LINE
  5
153
330
1F
100
AcDbEntity
  8
FORMAT
100
AcDbLine
 10
883.0188446764
 20
129.3479225715
 30
0.0
 11
883.0177817626
 21
129.3912311785
 31
0.0
  0
LINE
  5
154
330
1F
100
AcDbEntity
  8
FORMAT
100
AcDbLine
 10
883.0177817626
 20
129.3912311785
 30
0.0
 11
883.0159225181
 21
129.4337426001
 31
0.0
  0
LINE
  5
155
330
1F
100
AcDbEntity
  8
FORMAT
100
AcDbLine
 10
883.0159225181
 20
129.4337426001
 30
0.0
 11
883.0132652338
 21
129.4749262341
 31
0.0
  0
LINE
  5
156
330
1F
100
AcDbEntity
  8
FORMAT
100
AcDbLine
 10
883.0132652338
 20
129.4749262341
 30
0.0
 11
883.0098107643
 21
129.5155775567
 31
0.0
  0
LINE
  5
157
330
1F
100
AcDbEntity
  8
FORMAT
100
AcDbLine
 10
883.0098107643
 20
129.5155775567
 30
0.0
 11
883.0052942355
 21
129.5549010917
 31
0.0
  0
LINE
  5
158
330
1F
100
AcDbEntity
  8
FORMAT
100
AcDbLine
 10
883.0052942355
 20
129.5549010917
 30
0.0
 11
882.9999805214
 21
129.5936923154
 31
0.0
  0
LINE
  5
159
330
1F
100
AcDbEntity
  8
FORMAT
100
AcDbLine
 10
882.9999805214
 20
129.5936923154
 30
0.0
 11
882.993869622
 21
129.6311557514
 31
0.0
  0
LINE
  5
15A
330
1F
100
AcDbEntity
  8
FORMAT
100
AcDbLine
 10
882.993869622
 20
129.6311557514
 30
0.0
 11
882.9869615373
 21
129.6678220021
 31
0.0
  0
LINE
  5
15B
330
1F
100
AcDbEntity
  8
FORMAT
100
AcDbLine
 10
882.9869615373
 20
129.6678220021
 30
0.0
 11
882.9792562674
 21
129.7034261935
 31
0.0
  0
LINE
  5
15C
330
1F
100
AcDbEntity
  8
FORMAT
100
AcDbLine
 10
882.9792562674
 20
129.7034261935
 30
0.0
 11
882.9707538122
 21
129.7382323452
 31
0.0
  0
LINE
  5
15D
330
1F
100
AcDbEntity
  8
FORMAT
100
AcDbLine
 10
882.9707538122
 20
129.7382323452
 30
0.0
 11
882.9611884432
 21
129.7719755833
 31
0.0
  0
LINE
  5
15E
330
1F
100
AcDbEntity
  8
FORMAT
100
AcDbLine
 10
882.9611884432
 20
129.7719755833
 30
0.0
 11
882.950825889
 21
129.804656762
 31
0.0
  0
LINE
  5
15F
330
1F
100
AcDbEntity
  8
FORMAT
100
AcDbLine
 10
882.950825889
 20
129.804656762
 30
0.0
 11
882.939667004
 21
129.836539901
 31
0.0
  0
LINE
  5
160
330
1F
100
AcDbEntity
  8
FORMAT
100
AcDbLine
 10
882.939667004
 20
129.836539901
 30
0.0
 11
882.9277109337
 21
129.8676267092
 31
0.0
  0
LINE
  5
161
330
1F
100
AcDbEntity
  8
FORMAT
100
AcDbLine
 10
882.9277109337
 20
129.8676267092
 30
0.0
 11
882.9149568236
 21
129.8973848752
 31
0.0
  0
LINE
  5
162
330
1F
100
AcDbEntity
  8
FORMAT
100
AcDbLine
 10
882.9149568236
 20
129.8973848752
 30
0.0
 11
882.9011406543
 21
129.926345856
 31
0.0
  0
LINE
  5
163
330
1F
100
AcDbEntity
  8
FORMAT
100
AcDbLine
 10
882.9011406543
 20
129.926345856
 30
0.0
 11
882.8867930281
 21
129.9545096515
 31
0.0
  0
LINE
  5
164
330
1F
100
AcDbEntity
  8
FORMAT
100
AcDbLine
 10
882.8867930281
 20
129.9545096515
 30
0.0
 11
882.8713824883
 21
129.9816113877
 31
0.0
  0
LINE
  5
165
330
1F
100
AcDbEntity
  8
FORMAT
100
AcDbLine
 10
882.8713824883
 20
129.9816113877
 30
0.0
 11
882.8551747631
 21
130.0076493558
 31
0.0
  0
LINE
  5
166
330
1F
100
AcDbEntity
  8
FORMAT
100
AcDbLine
 10
882.8551747631
 20
130.0076493558
 30
0.0
 11
882.8381707071
 21
130.032890993
 31
0.0
  0
LINE
  5
167
330
1F
100
AcDbEntity
  8
FORMAT
100
AcDbLine
 10
882.8381707071
 20
130.032890993
 30
0.0
 11
882.8201028829
 21
130.0570688621
 31
0.0
  0
LINE
  5
168
330
1F
100
AcDbEntity
  8
FORMAT
100
AcDbLine
 10
882.8201028829
 20
130.0570688621
 30
0.0
 11
882.8015044564
 21
130.0801846719
 31
0.0
  0
LINE
  5
169
330
1F
100
AcDbEntity
  8
FORMAT
100
AcDbLine
 10
882.8015044564
 20
130.0801846719
 30
0.0
 11
882.7818422617
 21
130.1025032964
 31
0.0
  0
LINE
  5
16A
330
1F
100
AcDbEntity
  8
FORMAT
100
AcDbLine
 10
882.7818422617
 20
130.1025032964
 30
0.0
 11
882.7643067488
 21
130.120836849
 31
0.0
  0
LINE
  5
16B
330
1F
100
AcDbEntity
  8
FORMAT
100
AcDbLine
 10
882.7643067488
 20
130.120836849
 30
0.0
 11
882.7435824948
 21
130.1404981893
 31
0.0
  0
LINE
  5
16C
330
1F
100
AcDbEntity
  8
FORMAT
100
AcDbLine
 10
882.7435824948
 20
130.1404981893
 30
0.0
 11
882.7220610556
 21
130.1596289271
 31
0.0
  0
LINE
  5
16D
330
1F
100
AcDbEntity
  8
FORMAT
100
AcDbLine
 10
882.7220610556
 20
130.1596289271
 30
0.0
 11
882.6997424311
 21
130.1779616253
 31
0.0
  0
LINE
  5
16E
330
1F
100
AcDbEntity
  8
FORMAT
100
AcDbLine
 10
882.6997424311
 20
130.1779616253
 30
0.0
 11
882.6763608928
 21
130.1954979926
 31
0.0
  0
LINE
  5
16F
330
1F
100
AcDbEntity
  8
FORMAT
100
AcDbLine
 10
882.6763608928
 20
130.1954979926
 30
0.0
 11
882.6519164409
 21
130.2125020486
 31
0.0
  0
LINE
  5
170
330
1F
100
AcDbEntity
  8
FORMAT
100
AcDbLine
 10
882.6519164409
 20
130.2125020486
 30
0.0
 11
882.6266756581
 21
130.2287097738
 31
0.0
  0
LINE
  5
171
330
1F
100
AcDbEntity
  8
FORMAT
100
AcDbLine
 10
882.6266756581
 20
130.2287097738
 30
0.0
 11
882.6006368356
 21
130.2441203136
 31
0.0
  0
LINE
  5
172
330
1F
100
AcDbEntity
  8
FORMAT
100
AcDbLine
 10
882.6006368356
 20
130.2441203136
 30
0.0
 11
882.5735359538
 21
130.2589993967
 31
0.0
  0
LINE
  5
173
330
1F
100
AcDbEntity
  8
FORMAT
100
AcDbLine
 10
882.5735359538
 20
130.2589993967
 30
0.0
 11
882.5456378867
 21
130.2730812944
 31
0.0
  0
LINE
  5
174
330
1F
100
AcDbEntity
  8
FORMAT
100
AcDbLine
 10
882.5456378867
 20
130.2730812944
 30
0.0
 11
882.5166760515
 21
130.2863660069
 31
0.0
  0
LINE
  5
175
330
1F
100
AcDbEntity
  8
FORMAT
100
AcDbLine
 10
882.5166760515
 20
130.2863660069
 30
0.0
 11
882.4869187399
 21
130.2991201169
 31
0.0
  0
LINE
  5
176
330
1F
100
AcDbEntity
  8
FORMAT
100
AcDbLine
 10
882.4869187399
 20
130.2991201169
 30
0.0
 11
882.4560976601
 21
130.3108104588
 31
0.0
  0
LINE
  5
177
330
1F
100
AcDbEntity
  8
FORMAT
100
AcDbLine
 10
882.4560976601
 20
130.3108104588
 30
0.0
 11
882.4244793951
 21
130.3219693439
 31
0.0
  0
LINE
  5
178
330
1F
100
AcDbEntity
  8
FORMAT
100
AcDbLine
 10
882.4244793951
 20
130.3219693439
 30
0.0
 11
882.3917982164
 21
130.3325976265
 31
0.0
  0
LINE
  5
179
330
1F
100
AcDbEntity
  8
FORMAT
100
AcDbLine
 10
882.3917982164
 20
130.3325976265
 30
0.0
 11
882.3583207068
 21
130.3421629954
 31
0.0
  0
LINE
  5
17A
330
1F
100
AcDbEntity
  8
FORMAT
100
AcDbLine
 10
882.3583207068
 20
130.3421629954
 30
0.0
 11
882.3237802835
 21
130.3511960531
 31
0.0
  0
LINE
  5
17B
330
1F
100
AcDbEntity
  8
FORMAT
100
AcDbLine
 10
882.3237802835
 20
130.3511960531
 30
0.0
 11
882.2884426749
 21
130.3594327799
 31
0.0
  0
LINE
  5
17C
330
1F
100
AcDbEntity
  8
FORMAT
100
AcDbLine
 10
882.2884426749
 20
130.3594327799
 30
0.0
 11
882.2523070267
 21
130.3671380498
 31
0.0
  0
LINE
  5
17D
330
1F
100
AcDbEntity
  8
FORMAT
100
AcDbLine
 10
882.2523070267
 20
130.3671380498
 30
0.0
 11
882.2148444451
 21
130.373780406
 31
0.0
  0
LINE
  5
17E
330
1F
100
AcDbEntity
  8
FORMAT
100
AcDbLine
 10
882.2148444451
 20
130.373780406
 30
0.0
 11
882.1768495523
 21
130.3801578883
 31
0.0
  0
LINE
  5
17F
330
1F
100
AcDbEntity
  8
FORMAT
100
AcDbLine
 10
882.1768495523
 20
130.3801578883
 30
0.0
 11
882.1377917457
 21
130.3854716024
 31
0.0
  0
LINE
  5
180
330
1F
100
AcDbEntity
  8
FORMAT
100
AcDbLine
 10
882.1377917457
 20
130.3854716024
 30
0.0
 11
882.0979367539
 21
130.3899881312
 31
0.0
  0
LINE
  5
181
330
1F
100
AcDbEntity
  8
FORMAT
100
AcDbLine
 10
882.0979367539
 20
130.3899881312
 30
0.0
 11
882.0570197028
 21
130.3939740576
 31
0.0
  0
LINE
  5
182
330
1F
100
AcDbEntity
  8
FORMAT
100
AcDbLine
 10
882.0570197028
 20
130.3939740576
 30
0.0
 11
882.015039738
 21
130.3974276727
 31
0.0
  0
LINE
  5
183
330
1F
100
AcDbEntity
  8
FORMAT
100
AcDbLine
 10
882.015039738
 20
130.3974276727
 30
0.0
 11
881.9722625879
 21
130.3998192285
 31
0.0
  0
LINE
  5
184
330
1F
100
AcDbEntity
  8
FORMAT
100
AcDbLine
 10
881.9722625879
 20
130.3998192285
 30
0.0
 11
881.9286873981
 21
130.4016793275
 31
0.0
  0
LINE
  5
185
330
1F
100
AcDbEntity
  8
FORMAT
100
AcDbLine
 10
881.9286873981
 20
130.4016793275
 30
0.0
 11
881.8840501491
 21
130.4027413868
 31
0.0
  0
LINE
  5
186
330
1F
100
AcDbEntity
  8
FORMAT
100
AcDbLine
 10
881.8840501491
 20
130.4027413868
 30
0.0
 11
881.8386165691
 21
130.4030071152
 31
0.0
  0
LINE
  5
187
330
1F
100
AcDbEntity
  8
FORMAT
100
AcDbLine
 10
881.8386165691
 20
130.4030071152
 30
0.0
 11
880.078635681
 21
130.4030071152
 31
0.0
  0
LINE
  5
188
330
1F
100
AcDbEntity
  8
FORMAT
100
AcDbLine
 10
880.078635681
 20
130.4030071152
 30
0.0
 11
880.078635681
 21
126.5583636511
 31
0.0
  0
LINE
  5
189
330
1F
100
AcDbEntity
  8
FORMAT
100
AcDbLine
 10
880.078635681
 20
126.5583636511
 30
0.0
 11
880.5738962211
 21
126.5583636511
 31
0.0
  0
LINE
  5
18A
330
1F
100
AcDbEntity
  8
FORMAT
100
AcDbLine
 10
880.5738962211
 20
126.5583636511
 30
0.0
 11
880.5738962211
 21
128.2091429725
 31
0.0
  0
LINE
  5
18B
330
1F
100
AcDbEntity
  8
FORMAT
100
AcDbLine
 10
880.5738962211
 20
128.2091429725
 30
0.0
 11
881.8649202656
 21
128.2091429725
 31
0.0
  0
LINE
  5
18C
330
1F
100
AcDbEntity
  8
FORMAT
100
AcDbLine
 10
881.8649202656
 20
128.2091429725
 30
0.0
 11
881.8941469748
 21
128.2086115156
 31
0.0
  0
LINE
  5
18D
330
1F
100
AcDbEntity
  8
FORMAT
100
AcDbLine
 10
881.8941469748
 20
128.2086115156
 30
0.0
 11
881.9286873981
 21
128.2067514167
 31
0.0
  0
LINE
  5
18E
330
1F
100
AcDbEntity
  8
FORMAT
100
AcDbLine
 10
881.9286873981
 20
128.2067514167
 30
0.0
 11
881.9624314906
 21
128.2035626755
 31
0.0
  0
LINE
  5
18F
330
1F
100
AcDbEntity
  8
FORMAT
100
AcDbLine
 10
881.9624314906
 20
128.2035626755
 30
0.0
 11
881.9948460865
 21
128.1990461467
 31
0.0
  0
LINE
  5
190
330
1F
100
AcDbEntity
  8
FORMAT
100
AcDbLine
 10
881.9948460865
 20
128.1990461467
 30
0.0
 11
882.0261986231
 21
128.1932009758
 31
0.0
  0
LINE
  5
191
330
1F
100
AcDbEntity
  8
FORMAT
100
AcDbLine
 10
882.0261986231
 20
128.1932009758
 30
0.0
 11
882.056488246
 21
128.1857614343
 31
0.0
  0
LINE
  5
192
330
1F
100
AcDbEntity
  8
FORMAT
100
AcDbLine
 10
882.056488246
 20
128.1857614343
 30
0.0
 11
882.0857149551
 21
128.177258979
 31
0.0
  0
LINE
  5
193
330
1F
100
AcDbEntity
  8
FORMAT
100
AcDbLine
 10
882.0857149551
 20
128.177258979
 30
0.0
 11
882.1138787506
 21
128.1671621533
 31
0.0
  0
LINE
  5
194
330
1F
100
AcDbEntity
  8
FORMAT
100
AcDbLine
 10
882.1138787506
 20
128.1671621533
 30
0.0
 11
882.1409804868
 21
128.1557375398
 31
0.0
  0
LINE
  5
195
330
1F
100
AcDbEntity
  8
FORMAT
100
AcDbLine
 10
882.1409804868
 20
128.1557375398
 30
0.0
 11
882.1667527265
 21
128.1427185557
 31
0.0
  0
LINE
  5
196
330
1F
100
AcDbEntity
  8
FORMAT
100
AcDbLine
 10
882.1667527265
 20
128.1427185557
 30
0.0
 11
882.1917286353
 21
128.128636658
 31
0.0
  0
LINE
  5
197
330
1F
100
AcDbEntity
  8
FORMAT
100
AcDbLine
 10
882.1917286353
 20
128.128636658
 30
0.0
 11
882.2153750475
 21
128.1129603897
 31
0.0
  0
LINE
  5
198
330
1F
100
AcDbEntity
  8
FORMAT
100
AcDbLine
 10
882.2153750475
 20
128.1129603897
 30
0.0
 11
882.2379594005
 21
128.0962212077
 31
0.0
  0
LINE
  5
199
330
1F
100
AcDbEntity
  8
FORMAT
100
AcDbLine
 10
882.2379594005
 20
128.0962212077
 30
0.0
 11
882.2594808397
 21
128.0778885096
 31
0.0
  0
LINE
  5
19A
330
1F
100
AcDbEntity
  8
FORMAT
100
AcDbLine
 10
882.2594808397
 20
128.0778885096
 30
0.0
 11
882.2799402197
 21
128.0582263149
 31
0.0
  0
LINE
  5
19B
330
1F
100
AcDbEntity
  8
FORMAT
100
AcDbLine
 10
882.2799402197
 20
128.0582263149
 30
0.0
 11
882.2993358316
 21
128.036970604
 31
0.0
  0
LINE
  5
19C
330
1F
100
AcDbEntity
  8
FORMAT
100
AcDbLine
 10
882.2993358316
 20
128.036970604
 30
0.0
 11
882.3176693841
 21
128.0146519795
 31
0.0
  0
LINE
  5
19D
330
1F
100
AcDbEntity
  8
FORMAT
100
AcDbLine
 10
882.3176693841
 20
128.0146519795
 30
0.0
 11
882.3346734401
 21
127.9907389844
 31
0.0
  0
LINE
  5
19E
330
1F
100
AcDbEntity
  8
FORMAT
100
AcDbLine
 10
882.3346734401
 20
127.9907389844
 30
0.0
 11
882.3508811653
 21
127.9654982016
 31
0.0
  0
LINE
  5
19F
330
1F
100
AcDbEntity
  8
FORMAT
100
AcDbLine
 10
882.3508811653
 20
127.9654982016
 30
0.0
 11
882.3657602483
 21
127.9389279223
 31
0.0
  0
LINE
  5
1A0
330
1F
100
AcDbEntity
  8
FORMAT
100
AcDbLine
 10
882.3657602483
 20
127.9389279223
 30
0.0
 11
882.379842146
 21
127.9110298552
 31
0.0
  0
LINE
  5
1A1
330
1F
100
AcDbEntity
  8
FORMAT
100
AcDbLine
 10
882.379842146
 20
127.9110298552
 30
0.0
 11
882.3925954017
 21
127.881803146
 31
0.0
  0
LINE
  5
1A2
330
1F
100
AcDbEntity
  8
FORMAT
100
AcDbLine
 10
882.3925954017
 20
127.881803146
 30
0.0
 11
882.404286598
 21
127.8509820662
 31
0.0
  0
LINE
  5
1A3
330
1F
100
AcDbEntity
  8
FORMAT
100
AcDbLine
 10
882.404286598
 20
127.8509820662
 30
0.0
 11
882.4149140262
 21
127.8190989272
 31
0.0
  0
LINE
  5
1A4
330
1F
100
AcDbEntity
  8
FORMAT
100
AcDbLine
 10
882.4149140262
 20
127.8190989272
 30
0.0
 11
882.4244793951
 21
127.7856205632
 31
0.0
  0
LINE
  5
1A5
330
1F
100
AcDbEntity
  8
FORMAT
100
AcDbLine
 10
882.4244793951
 20
127.7856205632
 30
0.0
 11
882.4327161219
 21
127.7508144115
 31
0.0
  0
LINE
  5
1A6
330
1F
100
AcDbEntity
  8
FORMAT
100
AcDbLine
 10
882.4327161219
 20
127.7508144115
 30
0.0
 11
882.4401556634
 21
127.7144138892
 31
0.0
  0
LINE
  5
1A7
330
1F
100
AcDbEntity
  8
FORMAT
100
AcDbLine
 10
882.4401556634
 20
127.7144138892
 30
0.0
 11
882.4462665628
 21
127.6769504532
 31
0.0
  0
LINE
  5
1A8
330
1F
100
AcDbEntity
  8
FORMAT
100
AcDbLine
 10
882.4462665628
 20
127.6769504532
 30
0.0
 11
882.4515802769
 21
127.6378926467
 31
0.0
  0
LINE
  5
1A9
330
1F
100
AcDbEntity
  8
FORMAT
100
AcDbLine
 10
882.4515802769
 20
127.6378926467
 30
0.0
 11
882.4555662033
 21
127.5977727809
 31
0.0
  0
LINE
  5
1AA
330
1F
100
AcDbEntity
  8
FORMAT
100
AcDbLine
 10
882.4555662033
 20
127.5977727809
 30
0.0
 11
882.4584883616
 21
127.5560585445
 31
0.0
  0
LINE
  5
1AB
330
1F
100
AcDbEntity
  8
FORMAT
100
AcDbLine
 10
882.4584883616
 20
127.5560585445
 30
0.0
 11
882.4603484605
 21
127.5130148116
 31
0.0
  0
LINE
  5
1AC
330
1F
100
AcDbEntity
  8
FORMAT
100
AcDbLine
 10
882.4603484605
 20
127.5130148116
 30
0.0
 11
882.4592855468
 21
127.489102671
 31
0.0
  0
LINE
  5
1AD
330
1F
100
AcDbEntity
  8
FORMAT
100
AcDbLine
 10
882.4592855468
 20
127.489102671
 30
0.0
 11
882.4571605739
 21
127.4436682366
 31
0.0
  0
LINE
  5
1AE
330
1F
100
AcDbEntity
  8
FORMAT
100
AcDbLine
 10
882.4571605739
 20
127.4436682366
 30
0.0
 11
882.4553004749
 21
127.3995624444
 31
0.0
  0
LINE
  5
1AF
330
1F
100
AcDbEntity
  8
FORMAT
100
AcDbLine
 10
882.4553004749
 20
127.3995624444
 30
0.0
 11
882.4539718327
 21
127.3567852943
 31
0.0
  0
LINE
  5
1B0
330
1F
100
AcDbEntity
  8
FORMAT
100
AcDbLine
 10
882.4539718327
 20
127.3567852943
 30
0.0
 11
882.4531746475
 21
127.3153359319
 31
0.0
  0
LINE
  5
1B1
330
1F
100
AcDbEntity
  8
FORMAT
100
AcDbLine
 10
882.4531746475
 20
127.3153359319
 30
0.0
 11
882.452908919
 21
127.2752160661
 31
0.0
  0
LINE
  5
1B2
330
1F
100
AcDbEntity
  8
FORMAT
100
AcDbLine
 10
882.452908919
 20
127.2752160661
 30
0.0
 11
882.452908919
 21
127.2361582595
 31
0.0
  0
LINE
  5
1B3
330
1F
100
AcDbEntity
  8
FORMAT
100
AcDbLine
 10
882.452908919
 20
127.2361582595
 30
0.0
 11
882.4531746475
 21
127.1984290951
 31
0.0
  0
LINE
  5
1B4
330
1F
100
AcDbEntity
  8
FORMAT
100
AcDbLine
 10
882.4531746475
 20
127.1984290951
 30
0.0
 11
882.4542375612
 21
127.1620285728
 31
0.0
  0
LINE
  5
1B5
330
1F
100
AcDbEntity
  8
FORMAT
100
AcDbLine
 10
882.4542375612
 20
127.1620285728
 30
0.0
 11
882.4553004749
 21
127.1269566927
 31
0.0
  0
LINE
  5
1B6
330
1F
100
AcDbEntity
  8
FORMAT
100
AcDbLine
 10
882.4553004749
 20
127.1269566927
 30
0.0
 11
882.4571605739
 21
127.0932126002
 31
0.0
  0
LINE
  5
1B7
330
1F
100
AcDbEntity
  8
FORMAT
100
AcDbLine
 10
882.4571605739
 20
127.0932126002
 30
0.0
 11
882.4592855468
 21
127.0605322759
 31
0.0
  0
LINE
  5
1B8
330
1F
100
AcDbEntity
  8
FORMAT
100
AcDbLine
 10
882.4592855468
 20
127.0605322759
 30
0.0
 11
882.4616771027
 21
127.0294454678
 31
0.0
  0
LINE
  5
1B9
330
1F
100
AcDbEntity
  8
FORMAT
100
AcDbLine
 10
882.4616771027
 20
127.0294454678
 30
0.0
 11
882.4648658438
 21
126.9994215733
 31
0.0
  0
LINE
  5
1BA
330
1F
100
AcDbEntity
  8
FORMAT
100
AcDbLine
 10
882.4648658438
 20
126.9994215733
 30
0.0
 11
882.4680537305
 21
126.970726321
 31
0.0
  0
LINE
  5
1BB
330
1F
100
AcDbEntity
  8
FORMAT
100
AcDbLine
 10
882.4680537305
 20
126.970726321
 30
0.0
 11
882.4720396569
 21
126.9430939823
 31
0.0
  0
LINE
  5
1BC
330
1F
100
AcDbEntity
  8
FORMAT
100
AcDbLine
 10
882.4720396569
 20
126.9430939823
 30
0.0
 11
882.4762904573
 21
126.9170551598
 31
0.0
  0
LINE
  5
1BD
330
1F
100
AcDbEntity
  8
FORMAT
100
AcDbLine
 10
882.4762904573
 20
126.9170551598
 30
0.0
 11
882.4778848278
 21
126.9069591885
 31
0.0
  0
LINE
  5
1BE
330
1F
100
AcDbEntity
  8
FORMAT
100
AcDbLine
 10
882.4778848278
 20
126.9069591885
 30
0.0
 11
882.4845271841
 21
126.8702929378
 31
0.0
  0
LINE
  5
1BF
330
1F
100
AcDbEntity
  8
FORMAT
100
AcDbLine
 10
882.4845271841
 20
126.8702929378
 30
0.0
 11
882.4917009971
 21
126.8341581439
 31
0.0
  0
LINE
  5
1C0
330
1F
100
AcDbEntity
  8
FORMAT
100
AcDbLine
 10
882.4917009971
 20
126.8341581439
 30
0.0
 11
882.4996719955
 21
126.7982890785
 31
0.0
  0
LINE
  5
1C1
330
1F
100
AcDbEntity
  8
FORMAT
100
AcDbLine
 10
882.4996719955
 20
126.7982890785
 30
0.0
 11
882.5079087223
 21
126.7626848871
 31
0.0
  0
LINE
  5
1C2
330
1F
100
AcDbEntity
  8
FORMAT
100
AcDbLine
 10
882.5079087223
 20
126.7626848871
 30
0.0
 11
882.5169417799
 21
126.7276130069
 31
0.0
  0
LINE
  5
1C3
330
1F
100
AcDbEntity
  8
FORMAT
100
AcDbLine
 10
882.5169417799
 20
126.7276130069
 30
0.0
 11
882.5267728773
 21
126.6930725836
 31
0.0
  0
LINE
  5
1C4
330
1F
100
AcDbEntity
  8
FORMAT
100
AcDbLine
 10
882.5267728773
 20
126.6930725836
 30
0.0
 11
882.5368697031
 21
126.6587978888
 31
0.0
  0
LINE
  5
1C5
330
1F
100
AcDbEntity
  8
FORMAT
100
AcDbLine
 10
882.5368697031
 20
126.6587978888
 30
0.0
 11
882.5477628597
 21
126.6247880679
 31
0.0
  0
LINE
  5
1C6
330
1F
100
AcDbEntity
  8
FORMAT
100
AcDbLine
 10
882.5477628597
 20
126.6247880679
 30
0.0
 11
882.5591883276
 21
126.5913105583
 31
0.0
  0
LINE
  5
1C7
330
1F
100
AcDbEntity
  8
FORMAT
100
AcDbLine
 10
882.5591883276
 20
126.5913105583
 30
0.0
 11
882.5711443979
 21
126.5583636511
 31
0.0
  0
LINE
  5
1C8
330
1F
100
AcDbEntity
  8
FORMAT
100
AcDbLine
 10
882.5711443979
 20
126.5583636511
 30
0.0
 11
883.1665725928
 21
126.5583636511
 31
0.0
  0
LINE
  5
1C9
330
1F
100
AcDbEntity
  8
FORMAT
100
AcDbLine
 10
883.1665725928
 20
126.5583636511
 30
0.0
 11
883.1665725928
 21
126.6848358566
 31
0.0
  0
LINE
  5
1CA
330
1F
100
AcDbEntity
  8
FORMAT
100
AcDbLine
 10
883.1665725928
 20
126.6848358566
 30
0.0
 11
883.1423938693
 21
126.7055601106
 31
0.0
  0
LINE
  5
1CB
330
1F
100
AcDbEntity
  8
FORMAT
100
AcDbLine
 10
883.1423938693
 20
126.7055601106
 30
0.0
 11
883.1163559012
 21
126.7305360194
 31
0.0
  0
LINE
  5
1CC
330
1F
100
AcDbEntity
  8
FORMAT
100
AcDbLine
 10
883.1163559012
 20
126.7305360194
 30
0.0
 11
883.0927086346
 21
126.7568397159
 31
0.0
  0
LINE
  5
1CD
330
1F
100
AcDbEntity
  8
FORMAT
100
AcDbLine
 10
883.0927086346
 20
126.7568397159
 30
0.0
 11
883.0714529237
 21
126.7842063261
 31
0.0
  0
LINE
  5
1CE
330
1F
100
AcDbEntity
  8
FORMAT
100
AcDbLine
 10
883.0714529237
 20
126.7842063261
 30
0.0
 11
883.0525887687
 21
126.8131681613
 31
0.0
  0
LINE
  5
1CF
330
1F
100
AcDbEntity
  8
FORMAT
100
AcDbLine
 10
883.0525887687
 20
126.8131681613
 30
0.0
 11
883.0358495867
 21
126.8431912014
 31
0.0
  0
LINE
  5
1D0
330
1F
100
AcDbEntity
  8
FORMAT
100
AcDbLine
 10
883.0358495867
 20
126.8431912014
 30
0.0
 11
883.0215019606
 21
126.8742780095
 31
0.0
  0
LINE
  5
1D1
330
1F
100
AcDbEntity
  8
FORMAT
100
AcDbLine
 10
883.0215019606
 20
126.8742780095
 30
0.0
 11
883.0095450358
 21
126.9069591883
 31
0.0
  0
LINE
  5
1D2
330
1F
100
AcDbEntity
  8
FORMAT
100
AcDbLine
 10
883.0095450358
 20
126.9069591883
 30
0.0
 11
882.9997147929
 21
126.9407024263
 31
0.0
  0
LINE
  5
1D3
330
1F
100
AcDbEntity
  8
FORMAT
100
AcDbLine
 10
882.9997147929
 20
126.9407024263
 30
0.0
 11
882.9925409798
 21
126.975508578
 31
0.0
  0
LINE
  5
1D4
330
1F
100
AcDbEntity
  8
FORMAT
100
AcDbLine
 10
882.9925409798
 20
126.975508578
 30
0.0
 11
882.9874921397
 21
127.0119091003
 31
0.0
  0
LINE
  5
1D5
330
1F
100
AcDbEntity
  8
FORMAT
100
AcDbLine
 10
882.9874921397
 20
127.0119091003
 30
0.0
 11
882.9869615373
 21
127.0196143703
 31
0.0
  0
LINE
  5
1D6
330
1F
100
AcDbEntity
  8
FORMAT
100
AcDbLine
 10
882.9869615373
 20
127.0196143703
 30
0.0
 11
882.9837727961
 21
127.0693004596
 31
0.0
  0
LINE
  5
1D7
330
1F
100
AcDbEntity
  8
FORMAT
100
AcDbLine
 10
882.9837727961
 20
127.0693004596
 30
0.0
 11
882.980584055
 21
127.1176570521
 31
0.0
  0
LINE
  5
1D8
330
1F
100
AcDbEntity
  8
FORMAT
100
AcDbLine
 10
882.980584055
 20
127.1176570521
 30
0.0
 11
882.9776618968
 21
127.1646858569
 31
0.0
  0
LINE
  5
1D9
330
1F
100
AcDbEntity
  8
FORMAT
100
AcDbLine
 10
882.9776618968
 20
127.1646858569
 30
0.0
 11
882.9747388841
 21
127.2103860197
 31
0.0
  0
LINE
  5
1DA
330
1F
100
AcDbEntity
  8
FORMAT
100
AcDbLine
 10
882.9747388841
 20
127.2103860197
 30
0.0
 11
882.9720824542
 21
127.2550224144
 31
0.0
  0
LINE
  5
1DB
330
1F
100
AcDbEntity
  8
FORMAT
100
AcDbLine
 10
882.9720824542
 20
127.2550224144
 30
0.0
 11
882.96942517
 21
127.2980661471
 31
0.0
  0
LINE
  5
1DC
330
1F
100
AcDbEntity
  8
FORMAT
100
AcDbLine
 10
882.96942517
 20
127.2980661471
 30
0.0
 11
882.9667678857
 21
127.3400461121
 31
0.0
  0
LINE
  5
1DD
330
1F
100
AcDbEntity
  8
FORMAT
100
AcDbLine
 10
882.9667678857
 20
127.3400461121
 30
0.0
 11
882.9646429127
 21
127.3806974347
 31
0.0
  0
LINE
  5
1DE
330
1F
100
AcDbEntity
  8
FORMAT
100
AcDbLine
 10
882.9646429127
 20
127.3806974347
 30
0.0
 11
882.9622513569
 21
127.4200209697
 31
0.0
  0
LINE
  5
1DF
330
1F
100
AcDbEntity
  8
FORMAT
100
AcDbLine
 10
882.9622513569
 20
127.4200209697
 30
0.0
 11
882.9601255295
 21
127.4580158625
 31
0.0
  0
LINE
  5
1E0
330
1F
100
AcDbEntity
  8
FORMAT
100
AcDbLine
 10
882.9601255295
 20
127.4580158625
 30
0.0
 11
882.9582654305
 21
127.4946821132
 31
0.0
  0
LINE
  5
1E1
330
1F
100
AcDbEntity
  8
FORMAT
100
AcDbLine
 10
882.9582654305
 20
127.4946821132
 30
0.0
 11
882.9564061859
 21
127.5300197218
 31
0.0
  0
LINE
  5
1E2
330
1F
100
AcDbEntity
  8
FORMAT
100
AcDbLine
 10
882.9564061859
 20
127.5300197218
 30
0.0
 11
882.9548118154
 21
127.5642944167
 31
0.0
  0
LINE
  5
1E3
330
1F
100
AcDbEntity
  8
FORMAT
100
AcDbLine
 10
882.9548118154
 20
127.5642944167
 30
0.0
 11
882.9532174448
 21
127.5969755956
 31
0.0
  0
LINE
  5
1E4
330
1F
100
AcDbEntity
  8
FORMAT
100
AcDbLine
 10
882.9532174448
 20
127.5969755956
 30
0.0
 11
882.9516230743
 21
127.6285938604
 31
0.0
  0
LINE
  5
1E5
330
1F
100
AcDbEntity
  8
FORMAT
100
AcDbLine
 10
882.9516230743
 20
127.6285938604
 30
0.0
 11
882.9505601606
 21
127.6588834833
 31
0.0
  0
LINE
  5
1E6
330
1F
100
AcDbEntity
  8
FORMAT
100
AcDbLine
 10
882.9505601606
 20
127.6588834833
 30
0.0
 11
882.9492323729
 21
127.6878444641
 31
0.0
  0
LINE
  5
1E7
330
1F
100
AcDbEntity
  8
FORMAT
100
AcDbLine
 10
882.9492323729
 20
127.6878444641
 30
0.0
 11
882.9481694591
 21
127.7157425312
 31
0.0
  0
LINE
  5
1E8
330
1F
100
AcDbEntity
  8
FORMAT
100
AcDbLine
 10
882.9481694591
 20
127.7157425312
 30
0.0
 11
882.9473722739
 21
127.7420462277
 31
0.0
  0
LINE
  5
1E9
330
1F
100
AcDbEntity
  8
FORMAT
100
AcDbLine
 10
882.9473722739
 20
127.7420462277
 30
0.0
 11
882.9465750886
 21
127.7672878649
 31
0.0
  0
LINE
  5
1EA
330
1F
100
AcDbEntity
  8
FORMAT
100
AcDbLine
 10
882.9465750886
 20
127.7672878649
 30
0.0
 11
882.9457779033
 21
127.7909351316
 31
0.0
  0
LINE
  5
1EB
330
1F
100
AcDbEntity
  8
FORMAT
100
AcDbLine
 10
882.9457779033
 20
127.7909351316
 30
0.0
 11
882.9452464465
 21
127.8135194845
 31
0.0
  0
LINE
  5
1EC
330
1F
100
AcDbEntity
  8
FORMAT
100
AcDbLine
 10
882.9452464465
 20
127.8135194845
 30
0.0
 11
882.9417928313
 21
127.8499200068
 31
0.0
  0
LINE
  5
1ED
330
1F
100
AcDbEntity
  8
FORMAT
100
AcDbLine
 10
882.9417928313
 20
127.8499200068
 30
0.0
 11
882.9362125344
 21
127.8948221299
 31
0.0
  0
LINE
  5
1EE
330
1F
100
AcDbEntity
  8
FORMAT
100
AcDbLine
 10
882.9362125344
 20
127.8948221299
 30
0.0
 11
882.9298359066
 21
127.9368029491
 31
0.0
  0
LINE
  5
1EF
330
1F
100
AcDbEntity
  8
FORMAT
100
AcDbLine
 10
882.9298359066
 20
127.9368029491
 30
0.0
 11
882.9226620935
 21
127.9761256296
 31
0.0
  0
LINE
  5
1F0
330
1F
100
AcDbEntity
  8
FORMAT
100
AcDbLine
 10
882.9226620935
 20
127.9761256296
 30
0.0
 11
882.9146910951
 21
128.0125261519
 31
0.0
  0
LINE
  5
1F1
330
1F
100
AcDbEntity
  8
FORMAT
100
AcDbLine
 10
882.9146910951
 20
128.0125261519
 30
0.0
 11
882.9056580375
 21
128.0460045159
 31
0.0
  0
LINE
  5
1F2
330
1F
100
AcDbEntity
  8
FORMAT
100
AcDbLine
 10
882.9056580375
 20
128.0460045159
 30
0.0
 11
882.8958269402
 21
128.0765598672
 31
0.0
  0
LINE
  5
1F3
330
1F
100
AcDbEntity
  8
FORMAT
100
AcDbLine
 10
882.8958269402
 20
128.0765598672
 30
0.0
 11
882.8851986575
 21
128.1041922059
 31
0.0
  0
LINE
  5
1F4
330
1F
100
AcDbEntity
  8
FORMAT
100
AcDbLine
 10
882.8851986575
 20
128.1041922059
 30
0.0
 11
882.8735083156
 21
128.1291681147
 31
0.0
  0
LINE
  5
1F5
330
1F
100
AcDbEntity
  8
FORMAT
100
AcDbLine
 10
882.8735083156
 20
128.1291681147
 30
0.0
 11
882.8610207884
 21
128.1509552824
 31
0.0
  0
LINE
  5
1F6
330
1F
100
AcDbEntity
  8
FORMAT
100
AcDbLine
 10
882.8610207884
 20
128.1509552824
 30
0.0
 11
882.8498610489
 21
128.1679593384
 31
0.0
  0
LINE
  5
1F7
330
1F
100
AcDbEntity
  8
FORMAT
100
AcDbLine
 10
882.8498610489
 20
128.1679593384
 30
0.0
 11
882.8344505091
 21
128.1884187183
 31
0.0
  0
LINE
  5
1F8
330
1F
100
AcDbEntity
  8
FORMAT
100
AcDbLine
 10
882.8344505091
 20
128.1884187183
 30
0.0
 11
882.8169149962
 21
128.2096744292
 31
0.0
  0
LINE
  5
1F9
330
1F
100
AcDbEntity
  8
FORMAT
100
AcDbLine
 10
882.8169149962
 20
128.2096744292
 30
0.0
 11
882.7972528015
 21
128.2314615968
 31
0.0
  0
LINE
  5
1FA
330
1F
100
AcDbEntity
  8
FORMAT
100
AcDbLine
 10
882.7972528015
 20
128.2314615968
 30
0.0
 11
882.7751999054
 21
128.2540459498
 31
0.0
  0
LINE
  5
1FB
330
1F
100
AcDbEntity
  8
FORMAT
100
AcDbLine
 10
882.7751999054
 20
128.2540459498
 30
0.0
 11
882.7510220363
 21
128.2771609052
 31
0.0
  0
LINE
  5
1FC
330
1F
100
AcDbEntity
  8
FORMAT
100
AcDbLine
 10
882.7510220363
 20
128.2771609052
 30
0.0
 11
882.724451757
 21
128.3008081718
 31
0.0
  0
LINE
  5
1FD
330
1F
100
AcDbEntity
  8
FORMAT
100
AcDbLine
 10
882.724451757
 20
128.3008081718
 30
0.0
 11
882.6957565046
 21
128.3252526238
 31
0.0
  0
LINE
  5
1FE
330
1F
100
AcDbEntity
  8
FORMAT
100
AcDbLine
 10
882.6957565046
 20
128.3252526238
 30
0.0
 11
882.6646696964
 21
128.3504934066
 31
0.0
  0
LINE
  5
1FF
330
1F
100
AcDbEntity
  8
FORMAT
100
AcDbLine
 10
882.6646696964
 20
128.3504934066
 30
0.0
 11
882.6314579153
 21
128.3760007722
 31
0.0
  0
ARC
  5
200
330
1F
100
AcDbEntity
  8
FORMAT
100
AcDbCircle
 10
776.408304565
 20
142.4573589152
 30
0.0
 40
4.884525289440761
100
AcDbArc
 50
359.9879402696
 51
90.0000000001
  0
ARC
  5
201
330
1F
100
AcDbEntity
  8
FORMAT
100
AcDbCircle
 10
766.1674666456
 20
142.4573589152
 30
0.0
 40
4.884525289443729
100
AcDbArc
 50
90.0
 51
179.9879402696
  0
ARC
  5
202
330
1F
100
AcDbEntity
  8
FORMAT
100
AcDbCircle
 10
766.5306759854
 20
130.9702119348
 30
0.0
 40
1.819407738513263
100
AcDbArc
 50
270.0
 51
359.987524521
  0
ARC
  5
203
330
1F
100
AcDbEntity
  8
FORMAT
100
AcDbCircle
 10
776.0401539558
 20
130.9702119349
 30
0.0
 40
1.819407738518549
100
AcDbArc
 50
179.9875245209
 51
270.0000000001
  0
ARC
  5
204
330
1F
100
AcDbEntity
  8
FORMAT
100
AcDbCircle
 10
838.2688674469
 20
142.4573589152
 30
0.0
 40
4.884525289436937
100
AcDbArc
 50
359.9879402697
 51
90.0000000002
  0
ARC
  5
205
330
1F
100
AcDbEntity
  8
FORMAT
100
AcDbCircle
 10
828.0280295274
 20
142.4573589152
 30
0.0
 40
4.884525289443729
100
AcDbArc
 50
90.0
 51
179.9879402696
  0
ARC
  5
206
330
1F
100
AcDbEntity
  8
FORMAT
100
AcDbCircle
 10
828.3912388672
 20
130.9702119348
 30
0.0
 40
1.819407738511535
100
AcDbArc
 50
270.0
 51
359.9875245211
  0
ARC
  5
207
330
1F
100
AcDbEntity
  8
FORMAT
100
AcDbCircle
 10
837.9007168377
 20
130.9702119349
 30
0.0
 40
1.819407738519836
100
AcDbArc
 50
179.9875245209
 51
270.0000000001
  0
ARC
  5
208
330
1F
100
AcDbEntity
  8
FORMAT
100
AcDbCircle
 10
802.2169756419
 20
135.0160805039
 30
0.0
 40
6.691952605363765
100
AcDbArc
 50
199.120265
 51
340.867675
  0
ARC
  5
209
330
1F
100
AcDbEntity
  8
FORMAT
100
AcDbCircle
 10
792.9156072931
 20
138.2428456318
 30
0.0
 40
16.53712738038412
100
AcDbArc
 50
340.8676765204
 51
19.193527
  0
ARC
  5
20A
330
1F
100
AcDbEntity
  8
FORMAT
100
AcDbCircle
 10
802.2176555908
 20
141.4809831908
 30
0.0
 40
6.687577269731061
100
AcDbArc
 50
19.1935277085
 51
160.7944202524
  0
ARC
  5
20B
330
1F
100
AcDbEntity
  8
FORMAT
100
AcDbCircle
 10
811.5190220071
 20
138.2408890102
 30
0.0
 40
16.53712687920932
100
AcDbArc
 50
160.7944202524
 51
199.1202687174
  0
ARC
  5
20C
330
1F
100
AcDbEntity
  8
FORMAT
100
AcDbCircle
 10
800.6877015219
 20
138.2420279402
 30
0.0
 40
12.40314516436789
100
AcDbArc
 50
142.997119
 51
216.437586
  0
ARC
  5
20D
330
1F
100
AcDbEntity
  8
FORMAT
100
AcDbCircle
 10
802.217708054
 20
140.3136350814
 30
0.0
 40
14.88377425287791
100
AcDbArc
 50
219.3563212715
 51
320.61032
  0
ARC
  5
20E
330
1F
100
AcDbEntity
  8
FORMAT
100
AcDbCircle
 10
803.7469282912
 20
138.2417058455
 30
0.0
 40
12.40314519992892
100
AcDbArc
 50
323.5257904376
 51
36.9655204161
  0
ARC
  5
20F
330
1F
100
AcDbEntity
  8
FORMAT
100
AcDbCircle
 10
802.2169235715
 20
136.179053218
 30
0.0
 40
14.8837742190228
100
AcDbArc
 50
39.769147454
 51
140.1968750971
  0
ARC
  5
210
330
1F
100
AcDbEntity
  8
FORMAT
100
AcDbCircle
 10
862.5471140921
 20
138.2420279402
 30
0.0
 40
12.40314516436909
100
AcDbArc
 50
142.997119
 51
216.437586
  0
ARC
  5
211
330
1F
100
AcDbEntity
  8
FORMAT
100
AcDbCircle
 10
864.0771206242
 20
140.3136350814
 30
0.0
 40
14.88377425287653
100
AcDbArc
 50
219.3563212715
 51
320.61032
  0
ARC
  5
212
330
1F
100
AcDbEntity
  8
FORMAT
100
AcDbCircle
 10
865.6063408614
 20
138.2417058455
 30
0.0
 40
12.40314519992718
100
AcDbArc
 50
323.5257904376
 51
36.965520416
  0
ARC
  5
213
330
1F
100
AcDbEntity
  8
FORMAT
100
AcDbCircle
 10
864.0763361417
 20
136.179053218
 30
0.0
 40
14.88377421902446
100
AcDbArc
 50
39.7691474539
 51
140.1968750971
  0
ARC
  5
214
330
1F
100
AcDbEntity
  8
FORMAT
100
AcDbCircle
 10
864.0763882121
 20
135.0160805039
 30
0.0
 40
6.691952605364925
100
AcDbArc
 50
199.120265
 51
340.867675
  0
ARC
  5
215
330
1F
100
AcDbEntity
  8
FORMAT
100
AcDbCircle
 10
854.7750198633
 20
138.2428456318
 30
0.0
 40
16.53712738038394
100
AcDbArc
 50
340.8676765204
 51
19.193527
  0
ARC
  5
216
330
1F
100
AcDbEntity
  8
FORMAT
100
AcDbCircle
 10
864.0770681609
 20
141.4809831908
 30
0.0
 40
6.687577269732959
100
AcDbArc
 50
19.1935277085
 51
160.7944202524
  0
ARC
  5
217
330
1F
100
AcDbEntity
  8
FORMAT
100
AcDbCircle
 10
873.3784345772
 20
138.2408890102
 30
0.0
 40
16.53712687920702
100
AcDbArc
 50
160.7944202524
 51
199.1202687174
  0
CIRCLE
  5
218
330
1F
100
AcDbEntity
  8
FORMAT
100
AcDbCircle
 10
881.342379413
 20
128.3006535197
 30
0.0
 40
2.990512839018059
  0
CIRCLE
  5
219
330
1F
100
AcDbEntity
  8
FORMAT
100
AcDbCircle
 10
881.342379413
 20
128.3006535197
 30
0.0
 40
3.417728958878804
  0
ELLIPSE
  5
21A
330
1F
100
AcDbEntity
  8
0
  6
Continuous
 62
     7
370
    30
100
AcDbEllipse
 10
731.1362017047
 20
43.906891117
 30
0.0
 11
21.80241580607901
 21
0.0
 31
0.0
210
0.0
220
0.0
230
1.0
 40
0.3063583815
 41
0.0
 42
6.283185307179586
  0
INSERT
  5
21B
330
1F
100
AcDbEntity
  8
0
  6
Continuous
 62
     7
100
AcDbBlockReference
  2
Block1
 10
837.8307502119
 20
99.0418263871
 30
0.0
 41
0.1
 42
0.1
 43
0.1
  0
HATCH
  5
21C
330
1F
100
AcDbEntity
  8
G__TOTO
100
AcDbHatch
 10
0.0
 20
0.0
 30
0.0
210
0.0
220
0.0
230
1.0
  2
SOLID
 70
     1
 71
     0
 91
        1
 92
        0
 93
       20
 72
     1
 10
779.1402444723508
 20
129.1508041963371
 11
776.0401539558321
 21
129.1508041963371
 72
     2
 10
776.0401539558277
 20
130.9702119348557
 40
1.819407738518123
 50
89.99999999986038
 51
180.0124754791133
 73
     0
 72
     1
 10
774.2207462604389
 20
130.9706080893936
 11
774.224310912464
 21
147.3418842046763
 72
     1
 10
774.224310912464
 20
147.3418842046763
 11
776.4083045650194
 21
147.3418842046763
 72
     2
 10
776.4083045650311
 20
142.4573589152366
 40
4.884525289440198
 50
269.9999999998635
 51
360.0120597303779
 73
     0
 72
     1
 10
781.2928297462731
 20
142.4563308105825
 11
781.2925528740759
 21
141.1409110095263
 72
     1
 10
781.2925528740759
 20
141.1409110095263
 11
784.1868200095465
 21
141.1409110095263
 72
     1
 10
784.1868200095465
 20
141.1409110095263
 11
784.1887343939416
 21
150.2361512760171
 72
     1
 10
784.1887343939416
 20
150.2361512760171
 11
758.389161144443
 21
150.2361512760171
 72
     1
 10
758.389161144443
 20
150.2361512760171
 11
758.388972714168
 21
141.1409110095263
 72
     1
 10
758.388972714168
 20
141.1409110095263
 11
761.2826641593454
 21
141.1409110095263
 72
     1
 10
761.2826641593454
 20
141.1409110095263
 11
761.2829414643231
 21
142.4583870198681
 72
     2
 10
766.1674666455677
 20
142.457358915216
 40
4.884525289443543
 50
180.0120597303546
 51
270.0000000000008
 73
     0
 72
     1
 10
766.1674666455677
 20
147.3418842046597
 11
768.3536485053163
 21
147.3418842046597
 72
     1
 10
768.3536485053163
 20
147.3418842046597
 11
768.3500836807797
 21
130.9698157803092
 72
     2
 10
766.530675985396
 20
130.9702119348424
 40
1.81940773851296
 50
0.0124754789621602
 51
90.0
 73
     0
 72
     1
 10
766.530675985396
 20
129.1508041963291
 11
763.4297931597802
 21
129.1508041963291
 72
     1
 10
763.4297931597802
 20
129.1508041963291
 11
763.4291629673124
 21
126.2565371249805
 72
     1
 10
763.4291629673124
 20
126.2565371249805
 11
779.139614279867
 21
126.2565371249805
 72
     1
 10
779.139614279867
 20
126.2565371249805
 11
779.1402444723508
 21
129.1508041963371
 97
        0
 75
     0
 76
     1
 98
        1
 10
0.0
 20
0.0
  0
HATCH
  5
21D
330
1F
100
AcDbEntity
  8
G__TOTO
100
AcDbHatch
 10
0.0
 20
0.0
 30
0.0
210
0.0
220
0.0
230
1.0
  2
SOLID
 70
     1
 71
     0
 91
        2
 92
        0
 93
        4
 72
     2
 10
803.7469282912238
 20
138.2417058454532
 40
12.40314519992886
 50
323.5257904376355
 51
396.9655204160935
 73
     1
 72
     2
 10
802.2169235715453
 20
136.1790532180318
 40
14.88377421902275
 50
39.76914745395541
 51
140.1968750970757
 73
     1
 72
     2
 10
800.6877015219438
 20
138.2420279401935
 40
12.4031451643677
 50
142.9971189999928
 51
216.4375859999892
 73
     1
 72
     2
 10
802.2177080540189
 20
140.3136350813672
 40
14.88377425287787
 50
219.3563212714801
 51
320.6103199999932
 73
     1
 97
        0
 92
        0
 93
        4
 72
     2
 10
811.5190220070716
 20
138.2408890101935
 40
16.53712687920883
 50
160.8797312826041
 51
199.2055797476021
 73
     0
 72
     2
 10
802.2176555907553
 20
141.4809831907735
 40
6.68757726972978
 50
199.2055797476016
 51
340.8064722915094
 73
     0
 72
     2
 10
792.91560729311
 20
138.2428456318454
 40
16.53712738038406
 50
340.8064729999996
 51
379.1323234795645
 73
     0
 72
     2
 10
802.2169756418887
 20
135.0160805038822
 40
6.69195260536362
 50
19.13232499998382
 51
160.8797349999746
 73
     0
 97
        0
 75
     0
 76
     1
 98
        1
 10
0.0
 20
0.0
  0
HATCH
  5
21E
330
1F
100
AcDbEntity
  8
G__TOTO
100
AcDbHatch
 10
0.0
 20
0.0
 30
0.0
210
0.0
220
0.0
230
1.0
  2
SOLID
 70
     1
 71
     0
 91
        1
 92
        0
 93
       20
 72
     1
 10
841.000807354183
 20
129.1508041963358
 11
837.9007168376644
 21
129.1508041963358
 72
     2
 10
837.9007168376621
 20
130.9702119348545
 40
1.819407738519234
 50
89.99999999992839
 51
180.0124754791169
 73
     0
 72
     1
 10
836.0813091422712
 20
130.9706080893925
 11
836.0848737942966
 21
147.341884204675
 72
     1
 10
836.0848737942966
 20
147.341884204675
 11
838.2688674468535
 21
147.341884204675
 72
     2
 10
838.2688674468674
 20
142.457358915238
 40
4.884525289436867
 50
269.9999999998381
 51
360.0120597302762
 73
     0
 72
     1
 10
843.1533926281054
 20
142.4563308105926
 11
843.1531157559103
 21
141.1409110095263
 72
     1
 10
843.1531157559103
 20
141.1409110095263
 11
846.0473828913845
 21
141.1409110095263
 72
     1
 10
846.0473828913845
 20
141.1409110095263
 11
846.0492972757762
 21
150.2361512760171
 72
     1
 10
846.0492972757762
 20
150.2361512760171
 11
820.2497240262775
 21
150.2361512760171
 72
     1
 10
820.2497240262775
 20
150.2361512760171
 11
820.2495355960186
 21
141.1409110095263
 72
     1
 10
820.2495355960186
 20
141.1409110095263
 11
823.1432270411789
 21
141.1409110095263
 72
     1
 10
823.1432270411789
 20
141.1409110095263
 11
823.1435043461576
 21
142.4583870198681
 72
     2
 10
828.0280295274022
 20
142.457358915216
 40
4.884525289443487
 50
180.0120597303546
 51
270.0000000000008
 73
     0
 72
     1
 10
828.0280295274022
 20
147.3418842046597
 11
830.2142113871513
 21
147.3418842046597
 72
     1
 10
830.2142113871513
 20
147.3418842046597
 11
830.2106465626109
 21
130.9698157803092
 72
     2
 10
828.3912388672284
 20
130.9702119348402
 40
1.819407738511336
 50
0.0124754788941449
 51
90.0
 73
     0
 72
     1
 10
828.3912388672284
 20
129.1508041963291
 11
825.2903560416114
 21
129.1508041963291
 72
     1
 10
825.2903560416114
 20
129.1508041963291
 11
825.2897258491479
 21
126.2565371249793
 72
     1
 10
825.2897258491479
 20
126.2565371249793
 11
841.0001771617032
 21
126.2565371249793
 72
     1
 10
841.0001771617032
 20
126.2565371249793
 11
841.000807354183
 21
129.1508041963358
 97
        0
 75
     0
 76
     1
 98
        1
 10
0.0
 20
0.0
  0
HATCH
  5
21F
330
1F
100
AcDbEntity
  8
G__TOTO
100
AcDbHatch
 10
0.0
 20
0.0
 30
0.0
210
0.0
220
0.0
230
1.0
  2
SOLID
 70
     1
 71
     0
 91
        2
 92
        0
 93
        4
 72
     2
 10
865.6063408614026
 20
138.2417058454586
 40
12.40314519992711
 50
323.5257904376023
 51
396.965520415974
 73
     1
 72
     2
 10
864.0763361417235
 20
136.1790532180308
 40
14.88377421902441
 50
39.7691474538734
 51
140.1968750970761
 73
     1
 72
     2
 10
862.5471140921222
 20
138.2420279401935
 40
12.40314516436905
 50
142.9971189999972
 51
216.4375859999948
 73
     1
 72
     2
 10
864.0771206241939
 20
140.3136350813672
 40
14.88377425287637
 50
219.3563212714928
 51
320.6103199999906
 73
     1
 97
        0
 92
        0
 93
        4
 72
     2
 10
873.3784345772439
 20
138.240889010194
 40
16.53712687920662
 50
160.8797312826022
 51
199.2055797476112
 73
     0
 72
     2
 10
864.0770681609334
 20
141.4809831907735
 40
6.687577269731946
 50
199.2055797476116
 51
340.8064722915047
 73
     0
 72
     2
 10
854.7750198632882
 20
138.2428456318454
 40
16.53712738038396
 50
340.8064729999978
 51
379.132323479568
 73
     0
 72
     2
 10
864.0763882120656
 20
135.0160805038822
 40
6.691952605364804
 50
19.13232499998871
 51
160.8797349999874
 73
     0
 97
        0
 75
     0
 76
     1
 98
        1
 10
0.0
 20
0.0
  0
INSERT
  5
226
330
1F
100
AcDbEntity
  8
GRS_GAMBAR
 62
   179
100
AcDbBlockReference
  2
SW_NOTE_1
 10
762.8078689063
 20
108.3276014779
 30
0.0
  0
INSERT
  5
233
330
1F
100
AcDbEntity
  8
FORMAT
100
AcDbBlockReference
  2
SW_NOTE_2
 10
701.9533000003
 20
50.6453314734
 30
0.0
  0
ARC
  5
234
330
1F
100
AcDbEntity
  8
0
  6
Continuous
 62
     7
370
    30
100
AcDbCircle
 10
177.2444739977
 20
146.6823831994
 30
0.0
 40
6.350000000000023
100
AcDbArc
 50
180.0
 51
270.0
  0
LINE
  5
235
330
1F
100
AcDbEntity
  8
0
  6
Continuous
 62
     7
370
    30
100
AcDbLine
 10
177.2444754759
 20
140.3323782403
 30
0.0
 11
691.5944725195
 21
140.3323782403
 31
0.0
  0
ARC
  5
236
330
1F
100
AcDbEntity
  8
0
  6
Continuous
 62
     7
370
    30
100
AcDbCircle
 10
691.5944739977
 20
146.6823831994
 30
0.0
 40
6.350000000000023
100
AcDbArc
 50
270.0
 51
0.0
  0
LINE
  5
237
330
1F
100
AcDbEntity
  8
0
  6
Continuous
 62
     7
370
    30
100
AcDbLine
 10
697.944483153
 20
146.6823888738
 30
0.0
 11
697.944483153
 21
584.832377525
 31
0.0
  0
ARC
  5
238
330
1F
100
AcDbEntity
  8
0
  6
Continuous
 62
     7
370
    30
100
AcDbCircle
 10
691.5944739977
 20
584.8323831994
 30
0.0
 40
6.350000000000023
100
AcDbArc
 50
0.0
 51
90.0
  0
LINE
  5
239
330
1F
100
AcDbEntity
  8
0
  6
Continuous
 62
     7
370
    30
100
AcDbLine
 10
691.5944725195
 20
591.1823881585
 30
0.0
 11
177.2444754759
 21
591.1823881585
 31
0.0
  0
ARC
  5
23A
330
1F
100
AcDbEntity
  8
0
  6
Continuous
 62
     7
370
    30
100
AcDbCircle
 10
177.2444739977
 20
584.8323831994
 30
0.0
 40
6.350000000000023
100
AcDbArc
 50
90.0
 51
180.0
  0
LINE
  5
23B
330
1F
100
AcDbEntity
  8
0
  6
Continuous
 62
     7
370
    30
100
AcDbLine
 10
170.8944648424
 20
584.832377525
 30
0.0
 11
170.8944648424
 21
146.6823888738
 31
0.0
  0
LINE
  5
23C
330
1F
100
AcDbEntity
  8
G__TOTO
  6
PHANTOM
370
    15
100
AcDbLine
 10
155.0194739977
 20
607.0573831994
 30
0.0
 11
713.8194739977
 21
607.0573831994
 31
0.0
  0
LINE
  5
23D
330
1F
100
AcDbEntity
  8
G__TOTO
  6
PHANTOM
370
    15
100
AcDbLine
 10
155.0194739977
 20
607.0573831994
 30
0.0
 11
155.0194739977
 21
124.4573831994
 31
0.0
  0
LINE
  5
23E
330
1F
100
AcDbEntity
  8
G__TOTO
  6
PHANTOM
370
    15
100
AcDbLine
 10
155.0194739977
 20
124.4573831994
 30
0.0
 11
713.8194739977
 21
124.4573831994
 31
0.0
  0
LINE
  5
23F
330
1F
100
AcDbEntity
  8
G__TOTO
  6
PHANTOM
370
    15
100
AcDbLine
 10
713.8194739977
 20
607.0573831994
 30
0.0
 11
713.8194739977
 21
124.4573831994
 31
0.0
  0
LINE
  5
240
330
1F
100
AcDbEntity
  8
0
  6
Continuous
 62
     7
370
    40
100
AcDbLine
 10
8.6393352259
 20
672.8474802394
 30
0.0
 11
897.6393352259
 21
672.8474802394
 31
0.0
  0
LINE
  5
241
330
1F
100
AcDbEntity
  8
0
  6
Continuous
 62
     7
370
    40
100
AcDbLine
 10
8.6393352259
 20
672.8474802394
 30
0.0
 11
8.6393352259
 21
88.6474802394
 31
0.0
  0
LINE
  5
242
330
1F
100
AcDbEntity
  8
0
  6
Continuous
 62
     7
370
    40
100
AcDbLine
 10
8.6393352259
 20
88.6474802394
 30
0.0
 11
897.6393352259
 21
88.6474802394
 31
0.0
  0
LINE
  5
243
330
1F
100
AcDbEntity
  8
0
  6
Continuous
 62
     7
370
    40
100
AcDbLine
 10
897.6393352259
 20
672.8474802394
 30
0.0
 11
897.6393352259
 21
88.6474802394
 31
0.0
  0
CIRCLE
  5
244
330
1F
100
AcDbEntity
  8
0
  6
Continuous
 62
     7
370
    30
100
AcDbCircle
 10
434.4194739977
 20
365.7573831994
 30
0.0
 40
22.0
  0
INSERT
  5
245
330
1F
100
AcDbEntity
  8
0
  6
Continuous
 62
     7
100
AcDbBlockReference
  2
template line scale
 10
-278.2648770158
 20
283.4970203239
 30
0.0
  0
INSERT
  5
24C
330
1F
100
AcDbEntity
  8
0
  6
Continuous
 62
     7
370
     0
100
AcDbBlockReference
  2
SW_NOTE_3
 10
677.4337118206
 20
648.1617602251
 30
0.0
  0
LEADER
  5
24E
330
1F
100
AcDbEntity
  8
0
  6
Continuous
 62
     7
370
     0
100
AcDbLeader
  3
SLDDIMSTYLE0
 76
     2
 10
619.7446786077
 20
591.1823831994
 30
0.0
 10
677.4337118206
 20
648.1617602251
 30
0.0
  0
INSERT
  5
255
330
1F
100
AcDbEntity
  8
0
  6
Continuous
 62
     7
370
     0
100
AcDbBlockReference
  2
SW_NOTE_4
 10
742.3071246222
 20
328.1435887665
 30
0.0
  0
LEADER
  5
256
330
1F
100
AcDbEntity
  8
0
  6
Continuous
 62
     7
370
     0
100
AcDbLeader
  3
SLDDIMSTYLE0
 76
     2
 10
713.8194739977
 20
302.1102574633
 30
0.0
 10
742.3071246222
 20
328.1435887665
 30
0.0
  0
MTEXT
  5
257
330
1F
100
AcDbEntity
  8
0
  6
Continuous
 62
     7
370
     0
100
AcDbMText
 10
337.7605292357
 20
22.434687832
 30
0.0
 40
7.4083333333
 41
0.0
 71
     1
 72
     1
  1
PART NUMBER VISIBLE AFTER FINAL FOLD
  7
SLDTEXTSTYLE2
 73
     1
 44
1.0
  0
ENDSEC
  0
SECTION
  2
OBJECTS
  0
DICTIONARY
  5
C
330
0
100
AcDbDictionary
281
     1
  3
ACAD_GROUP
350
D
  3
ACAD_LAYOUT
350
1A
  3
ACAD_MLEADERSTYLE
350
25B
  3
ACAD_MLINESTYLE
350
17
  3
ACAD_PLOTSETTINGS
350
19
  3
ACAD_PLOTSTYLENAME
350
E
  3
ACAD_SCALELIST
350
3B
  3
ACAD_TABLESTYLE
350
25A
  3
ACAD_VISUALSTYLE
350
2A
  3
AcDbVariableDictionary
350
258
  0
DICTIONARY
  5
D
102
{ACAD_REACTORS
330
C
102
}
330
C
100
AcDbDictionary
281
     1
  0
DICTIONARY
  5
1A
102
{ACAD_REACTORS
330
C
102
}
330
C
100
AcDbDictionary
281
     1
  3
Layout1
350
1E
  3
Layout2
350
26
  3
Model
350
22
  0
DICTIONARY
  5
25B
102
{ACAD_REACTORS
330
C
102
}
330
C
100
AcDbDictionary
281
     1
  0
DICTIONARY
  5
17
102
{ACAD_REACTORS
330
C
102
}
330
C
100
AcDbDictionary
281
     1
  3
Standard
350
18
  0
DICTIONARY
  5
19
102
{ACAD_REACTORS
330
C
102
}
330
C
100
AcDbDictionary
281
     1
  0
ACDBDICTIONARYWDFLT
  5
E
102
{ACAD_REACTORS
330
C
102
}
330
C
100
AcDbDictionary
281
     1
  3
Normal
350
F
100
AcDbDictionaryWithDefault
340
F
  0
DICTIONARY
  5
3B
102
{ACAD_REACTORS
330
C
102
}
330
C
100
AcDbDictionary
281
     1
  3
A0
350
3C
  3
A1
350
3D
  3
A2
350
3E
  3
A3
350
3F
  3
A4
350
40
  3
A5
350
41
  3
A6
350
42
  3
A7
350
43
  3
A8
350
44
  3
A9
350
45
  3
B0
350
46
  3
B1
350
47
  3
B2
350
48
  3
B3
350
49
  3
B4
350
4A
  3
B5
350
4B
  3
B6
350
4C
  3
B7
350
4D
  3
B8
350
4E
  3
B9
350
4F
  3
C0
350
50
  3
C1
350
51
  3
C2
350
52
  3
C3
350
53
  3
C4
350
54
  3
C5
350
55
  3
C6
350
56
  3
C7
350
57
  3
C8
350
58
  3
C9
350
59
  3
D0
350
5A
  3
D1
350
5B
  3
D2
350
5C
  0
DICTIONARY
  5
25A
102
{ACAD_REACTORS
330
C
102
}
330
C
100
AcDbDictionary
281
     1
  0
DICTIONARY
  5
2A
102
{ACAD_REACTORS
330
C
102
}
330
C
100
AcDbDictionary
281
     1
  3
2dWireframe
350
2F
  3
3D Hidden
350
31
  3
3dWireframe
350
30
  3
Basic
350
32
  3
Brighten
350
36
  3
ColorChange
350
3A
  3
Conceptual
350
34
  3
Dim
350
35
  3
Facepattern
350
39
  3
Flat
350
2B
  3
FlatWithEdges
350
2C
  3
Gouraud
350
2D
  3
GouraudWithEdges
350
2E
  3
Linepattern
350
38
  3
Realistic
350
33
  3
Thicken
350
37
  0
DICTIONARY
  5
258
102
{ACAD_REACTORS
330
C
102
}
330
C
100
AcDbDictionary
281
     1
  3
CANNOSCALE
350
259
  3
PSOLHEIGHT
350
25D
  3
PSOLWIDTH
350
25C
  0
LAYOUT
  5
1E
102
{ACAD_REACTORS
330
1A
102
}
330
1A
100
AcDbPlotSettings
  1

  2
none_device
  4

  6

 40
0.0
 41
0.0
 42
0.0
 43
0.0
 44
0.0
 45
0.0
 46
0.0
 47
0.0
 48
0.0
 49
0.0
140
0.0
141
0.0
142
1.0
143
1.0
 70
   688
 72
     0
 73
     0
 74
     5
  7

 75
    16
147
1.0
148
0.0
149
0.0
100
AcDbLayout
  1
Layout1
 70
     1
 71
     1
 10
0.0
 20
0.0
 11
420.0
 21
297.0
 12
0.0
 22
0.0
 32
0.0
 14
1.0000000000E+20
 24
1.0000000000E+20
 34
1.0000000000E+20
 15
-1.0000000000E+20
 25
-1.0000000000E+20
 35
-1.0000000000E+20
146
0.0
 13
0.0
 23
0.0
 33
0.0
 16
1.0
 26
0.0
 36
0.0
 17
0.0
 27
1.0
 37
0.0
 76
     0
330
1B
  0
LAYOUT
  5
26
102
{ACAD_REACTORS
330
1A
102
}
330
1A
100
AcDbPlotSettings
  1

  2
none_device
  4

  6

 40
0.0
 41
0.0
 42
0.0
 43
0.0
 44
0.0
 45
0.0
 46
0.0
 47
0.0
 48
0.0
 49
0.0
140
0.0
141
0.0
142
1.0
143
1.0
 70
   688
 72
     0
 73
     0
 74
     5
  7

 75
    16
147
1.0
148
0.0
149
0.0
100
AcDbLayout
  1
Layout2
 70
     1
 71
     2
 10
0.0
 20
0.0
 11
0.0
 21
0.0
 12
0.0
 22
0.0
 32
0.0
 14
0.0
 24
0.0
 34
0.0
 15
0.0
 25
0.0
 35
0.0
146
0.0
 13
0.0
 23
0.0
 33
0.0
 16
1.0
 26
0.0
 36
0.0
 17
0.0
 27
1.0
 37
0.0
 76
     0
330
23
  0
LAYOUT
  5
22
102
{ACAD_REACTORS
330
1A
102
}
330
1A
100
AcDbPlotSettings
  1

  2
none_device
  4

  6

 40
0.0
 41
0.0
 42
0.0
 43
0.0
 44
0.0
 45
0.0
 46
0.0
 47
0.0
 48
0.0
 49
0.0
140
0.0
141
0.0
142
1.0
143
1.0
 70
  1712
 72
     0
 73
     0
 74
     0
  7

 75
     0
147
1.0
148
0.0
149
0.0
100
AcDbLayout
  1
Model
 70
     1
 71
     0
 10
0.0
 20
0.0
 11
909.0
 21
680.0
 12
0.0
 22
0.0
 32
0.0
 14
0.0
 24
0.0
 34
0.0
 15
909.0
 25
680.0
 35
0.0
146
0.0
 13
0.0
 23
0.0
 33
0.0
 16
1.0
 26
0.0
 36
0.0
 17
0.0
 27
1.0
 37
0.0
 76
     0
330
1F
331
29
  0
MLINESTYLE
  5
18
102
{ACAD_REACTORS
330
17
102
}
330
17
100
AcDbMlineStyle
  2
Standard
 70
     0
  3

 62
   256
 51
90.0
 52
90.0
 71
     2
 49
0.5
 62
   256
  6
BYLAYER
 49
-0.5
 62
   256
  6
BYLAYER
  0
ACDBPLACEHOLDER
  5
F
102
{ACAD_REACTORS
330
E
102
}
330
E
  0
SCALE
  5
3C
102
{ACAD_REACTORS
330
3B
102
}
330
3B
100
AcDbScale
 70
     0
300
1:1
140
1.0
141
1.0
290
     1
  0
SCALE
  5
3D
102
{ACAD_REACTORS
330
3B
102
}
330
3B
100
AcDbScale
 70
     0
300
1:2
140
1.0
141
2.0
290
     0
  0
SCALE
  5
3E
102
{ACAD_REACTORS
330
3B
102
}
330
3B
100
AcDbScale
 70
     0
300
1:4
140
1.0
141
4.0
290
     0
  0
SCALE
  5
3F
102
{ACAD_REACTORS
330
3B
102
}
330
3B
100
AcDbScale
 70
     0
300
1:5
140
1.0
141
5.0
290
     0
  0
SCALE
  5
40
102
{ACAD_REACTORS
330
3B
102
}
330
3B
100
AcDbScale
 70
     0
300
1:8
140
1.0
141
8.0
290
     0
  0
SCALE
  5
41
102
{ACAD_REACTORS
330
3B
102
}
330
3B
100
AcDbScale
 70
     0
300
1:10
140
1.0
141
10.0
290
     0
  0
SCALE
  5
42
102
{ACAD_REACTORS
330
3B
102
}
330
3B
100
AcDbScale
 70
     0
300
1:16
140
1.0
141
16.0
290
     0
  0
SCALE
  5
43
102
{ACAD_REACTORS
330
3B
102
}
330
3B
100
AcDbScale
 70
     0
300
1:20
140
1.0
141
20.0
290
     0
  0
SCALE
  5
44
102
{ACAD_REACTORS
330
3B
102
}
330
3B
100
AcDbScale
 70
     0
300
1:30
140
1.0
141
30.0
290
     0
  0
SCALE
  5
45
102
{ACAD_REACTORS
330
3B
102
}
330
3B
100
AcDbScale
 70
     0
300
1:40
140
1.0
141
40.0
290
     0
  0
SCALE
  5
46
102
{ACAD_REACTORS
330
3B
102
}
330
3B
100
AcDbScale
 70
     0
300
1:50
140
1.0
141
50.0
290
     0
  0
SCALE
  5
47
102
{ACAD_REACTORS
330
3B
102
}
330
3B
100
AcDbScale
 70
     0
300
1:100
140
1.0
141
100.0
290
     0
  0
SCALE
  5
48
102
{ACAD_REACTORS
330
3B
102
}
330
3B
100
AcDbScale
 70
     0
300
2:1
140
2.0
141
1.0
290
     0
  0
SCALE
  5
49
102
{ACAD_REACTORS
330
3B
102
}
330
3B
100
AcDbScale
 70
     0
300
4:1
140
4.0
141
1.0
290
     0
  0
SCALE
  5
4A
102
{ACAD_REACTORS
330
3B
102
}
330
3B
100
AcDbScale
 70
     0
300
8:1
140
8.0
141
1.0
290
     0
  0
SCALE
  5
4B
102
{ACAD_REACTORS
330
3B
102
}
330
3B
100
AcDbScale
 70
     0
300
10:1
140
10.0
141
1.0
290
     0
  0
SCALE
  5
4C
102
{ACAD_REACTORS
330
3B
102
}
330
3B
100
AcDbScale
 70
     0
300
100:1
140
100.0
141
1.0
290
     0
  0
SCALE
  5
4D
102
{ACAD_REACTORS
330
3B
102
}
330
3B
100
AcDbScale
 70
     0
300
1/128" = 1'-0"
140
0.0078125
141
12.0
290
     0
  0
SCALE
  5
4E
102
{ACAD_REACTORS
330
3B
102
}
330
3B
100
AcDbScale
 70
     0
300
1/64" = 1'-0"
140
0.015625
141
12.0
290
     0
  0
SCALE
  5
4F
102
{ACAD_REACTORS
330
3B
102
}
330
3B
100
AcDbScale
 70
     0
300
1/32" = 1'-0"
140
0.03125
141
12.0
290
     0
  0
SCALE
  5
50
102
{ACAD_REACTORS
330
3B
102
}
330
3B
100
AcDbScale
 70
     0
300
1/16" = 1'-0"
140
0.0625
141
12.0
290
     0
  0
SCALE
  5
51
102
{ACAD_REACTORS
330
3B
102
}
330
3B
100
AcDbScale
 70
     0
300
3/32" = 1'-0"
140
0.09375
141
12.0
290
     0
  0
SCALE
  5
52
102
{ACAD_REACTORS
330
3B
102
}
330
3B
100
AcDbScale
 70
     0
300
1/8" = 1'-0"
140
0.125
141
12.0
290
     0
  0
SCALE
  5
53
102
{ACAD_REACTORS
330
3B
102
}
330
3B
100
AcDbScale
 70
     0
300
3/16" = 1'-0"
140
0.1875
141
12.0
290
     0
  0
SCALE
  5
54
102
{ACAD_REACTORS
330
3B
102
}
330
3B
100
AcDbScale
 70
     0
300
1/4" = 1'-0"
140
0.25
141
12.0
290
     0
  0
SCALE
  5
55
102
{ACAD_REACTORS
330
3B
102
}
330
3B
100
AcDbScale
 70
     0
300
3/8" = 1'-0"
140
0.375
141
12.0
290
     0
  0
SCALE
  5
56
102
{ACAD_REACTORS
330
3B
102
}
330
3B
100
AcDbScale
 70
     0
300
1/2" = 1'-0"
140
0.5
141
12.0
290
     0
  0
SCALE
  5
57
102
{ACAD_REACTORS
330
3B
102
}
330
3B
100
AcDbScale
 70
     0
300
3/4" = 1'-0"
140
0.75
141
12.0
290
     0
  0
SCALE
  5
58
102
{ACAD_REACTORS
330
3B
102
}
330
3B
100
AcDbScale
 70
     0
300
1" = 1'-0"
140
1.0
141
12.0
290
     0
  0
SCALE
  5
59
102
{ACAD_REACTORS
330
3B
102
}
330
3B
100
AcDbScale
 70
     0
300
1-1/2" = 1'-0"
140
1.5
141
12.0
290
     0
  0
SCALE
  5
5A
102
{ACAD_REACTORS
330
3B
102
}
330
3B
100
AcDbScale
 70
     0
300
3" = 1'-0"
140
3.0
141
12.0
290
     0
  0
SCALE
  5
5B
102
{ACAD_REACTORS
330
3B
102
}
330
3B
100
AcDbScale
 70
     0
300
6" = 1'-0"
140
6.0
141
12.0
290
     0
  0
SCALE
  5
5C
102
{ACAD_REACTORS
330
3B
102
}
330
3B
100
AcDbScale
 70
     0
300
1'-0" = 1'-0"
140
12.0
141
12.0
290
     0
  0
VISUALSTYLE
  5
2F
102
{ACAD_REACTORS
330
2A
102
}
330
2A
100
AcDbVisualStyle
  2
2dWireframe
 70
     4
 71
     0
 72
     2
 73
     0
 90
        0
 40
-0.6
 41
-30.0
 62
     5
 63
     7
 74
     1
 91
        4
 64
     7
 65
   257
 75
     1
175
     1
 42
1.0
 92
        0
 66
   257
 43
1.0
 76
     1
 77
     6
 78
     2
 67
     7
 79
     5
170
     0
171
     0
290
     0
174
     0
 93
        1
 44
0.0
173
     0
291
     0
 45
0.0
1001
ACAD
1000
AcDbSavedByObjectVersion
1070
     0
  0
VISUALSTYLE
  5
31
102
{ACAD_REACTORS
330
2A
102
}
330
2A
100
AcDbVisualStyle
  2
3D Hidden
 70
     6
 71
     1
 72
     2
 73
     2
 90
        0
 40
-0.6
 41
-30.0
 62
     5
 63
     7
 74
     2
 91
        2
 64
     7
 65
   257
 75
     2
175
     1
 42
40.0
 92
        0
 66
   257
 43
1.0
 76
     1
 77
     6
 78
     2
 67
     7
 79
     3
170
     0
171
     0
290
     0
174
     0
 93
        1
 44
0.0
173
     0
291
     0
 45
0.0
1001
ACAD
1000
AcDbSavedByObjectVersion
1070
     0
  0
VISUALSTYLE
  5
30
102
{ACAD_REACTORS
330
2A
102
}
330
2A
100
AcDbVisualStyle
  2
3dWireframe
 70
     5
 71
     0
 72
     2
 73
     0
 90
        0
 40
-0.6
 41
-30.0
 62
     5
 63
     7
 74
     1
 91
        4
 64
     7
 65
   257
 75
     1
175
     1
 42
1.0
 92
        0
 66
   257
 43
1.0
 76
     1
 77
     6
 78
     2
 67
     7
 79
     5
170
     0
171
     0
290
     0
174
     0
 93
        1
 44
0.0
173
     0
291
     0
 45
0.0
1001
ACAD
1000
AcDbSavedByObjectVersion
1070
     0
  0
VISUALSTYLE
  5
32
102
{ACAD_REACTORS
330
2A
102
}
330
2A
100
AcDbVisualStyle
  2
Basic
 70
     7
 71
     1
 72
     0
 73
     1
 90
        0
 40
-0.6
 41
-30.0
 62
     5
 63
     7
 74
     0
 91
        4
 64
     7
 65
   257
 75
     1
175
     1
 42
1.0
 92
        8
 66
     7
 43
1.0
 76
     1
 77
     6
 78
     2
 67
     7
 79
     5
170
     0
171
     0
290
     0
174
     0
 93
        1
 44
0.0
173
     0
291
     1
 45
0.0
1001
ACAD
1000
AcDbSavedByObjectVersion
1070
     0
  0
VISUALSTYLE
  5
36
102
{ACAD_REACTORS
330
2A
102
}
330
2A
100
AcDbVisualStyle
  2
Brighten
 70
    12
 71
     2
 72
     2
 73
     0
 90
        0
 40
-0.6
 41
-30.0
 62
     5
 63
     7
 74
     1
 91
        4
 64
     7
 65
   257
 75
     1
175
     1
 42
1.0
 92
        8
 66
     7
 43
1.0
 76
     1
 77
     6
 78
     2
 67
     7
 79
     5
170
     0
171
     0
290
     0
174
     0
 93
        1
 44
50.0
173
     0
291
     1
 45
0.0
1001
ACAD
1000
AcDbSavedByObjectVersion
1070
     0
  0
VISUALSTYLE
  5
3A
102
{ACAD_REACTORS
330
2A
102
}
330
2A
100
AcDbVisualStyle
  2
ColorChange
 70
    16
 71
     2
 72
     2
 73
     3
 90
        0
 40
-0.6
 41
-30.0
 62
     5
 63
     8
 74
     1
 91
        4
 64
     7
 65
   257
 75
     1
175
     1
 42
1.0
 92
        8
 66
     8
 43
1.0
 76
     1
 77
     6
 78
     2
 67
     7
 79
     5
170
     0
171
     0
290
     0
174
     0
 93
        1
 44
0.0
173
     0
291
     1
 45
0.0
1001
ACAD
1000
AcDbSavedByObjectVersion
1070
     0
  0
VISUALSTYLE
  5
34
102
{ACAD_REACTORS
330
2A
102
}
330
2A
100
AcDbVisualStyle
  2
Conceptual
 70
     9
 71
     3
 72
     2
 73
     0
 90
        0
 40
-0.6
 41
-30.0
 62
     5
 63
     7
 74
     2
 91
        2
 64
     7
 65
   257
 75
     1
175
     1
 42
40.0
 92
        8
 66
     7
 43
1.0
 76
     1
 77
     6
 78
     2
 67
     7
 79
     3
170
     0
171
     0
290
     0
174
     0
 93
        1
 44
0.0
173
     0
291
     0
 45
0.0
1001
ACAD
1000
AcDbSavedByObjectVersion
1070
     0
  0
VISUALSTYLE
  5
35
102
{ACAD_REACTORS
330
2A
102
}
330
2A
100
AcDbVisualStyle
  2
Dim
 70
    11
 71
     2
 72
     2
 73
     0
 90
        0
 40
-0.6
 41
-30.0
 62
     5
 63
     7
 74
     1
 91
        4
 64
     7
 65
   257
 75
     1
175
     1
 42
1.0
 92
        8
 66
     7
 43
1.0
 76
     1
 77
     6
 78
     2
 67
     7
 79
     5
170
     0
171
     0
290
     0
174
     0
 93
        1
 44
-50.0
173
     0
291
     1
 45
0.0
1001
ACAD
1000
AcDbSavedByObjectVersion
1070
     0
  0
VISUALSTYLE
  5
39
102
{ACAD_REACTORS
330
2A
102
}
330
2A
100
AcDbVisualStyle
  2
Facepattern
 70
    15
 71
     2
 72
     2
 73
     0
 90
        0
 40
-0.6
 41
-30.0
 62
     5
 63
     7
 74
     1
 91
        4
 64
     7
 65
   257
 75
     1
175
     1
 42
1.0
 92
        8
 66
     7
 43
1.0
 76
     1
 77
     6
 78
     2
 67
     7
 79
     5
170
     0
171
     0
290
     0
174
     0
 93
        1
 44
0.0
173
     0
291
     1
 45
0.0
1001
ACAD
1000
AcDbSavedByObjectVersion
1070
     0
  0
VISUALSTYLE
  5
2B
102
{ACAD_REACTORS
330
2A
102
}
330
2A
100
AcDbVisualStyle
  2
Flat
 70
     0
 71
     2
 72
     1
 73
     1
 90
        2
 40
-0.6
 41
30.0
 62
     5
 63
     7
 74
     0
 91
        4
 64
     7
 65
   257
 75
     1
175
     1
 42
1.0
 92
        8
 66
     7
 43
1.0
 76
     1
 77
     6
 78
     2
 67
     7
 79
     5
170
     0
171
     0
290
     0
174
     0
 93
       13
 44
0.0
173
     0
291
     1
 45
0.0
1001
ACAD
1000
AcDbSavedByObjectVersion
1070
     0
  0
VISUALSTYLE
  5
2C
102
{ACAD_REACTORS
330
2A
102
}
330
2A
100
AcDbVisualStyle
  2
FlatWithEdges
 70
     1
 71
     2
 72
     1
 73
     1
 90
        2
 40
-0.6
 41
30.0
 62
     5
 63
     7
 74
     1
 91
        4
 64
     7
 65
   257
 75
     1
175
     1
 42
1.0
 92
        0
 66
   257
 43
1.0
 76
     1
 77
     6
 78
     2
 67
     7
 79
     5
170
     0
171
     0
290
     0
174
     0
 93
       13
 44
0.0
173
     0
291
     1
 45
0.0
1001
ACAD
1000
AcDbSavedByObjectVersion
1070
     0
  0
VISUALSTYLE
  5
2D
102
{ACAD_REACTORS
330
2A
102
}
330
2A
100
AcDbVisualStyle
  2
Gouraud
 70
     2
 71
     2
 72
     2
 73
     1
 90
        2
 40
-0.6
 41
30.0
 62
     5
 63
     7
 74
     0
 91
        4
 64
     7
 65
   257
 75
     1
175
     1
 42
1.0
 92
        0
 66
     7
 43
1.0
 76
     1
 77
     6
 78
     2
 67
     7
 79
     5
170
     0
171
     0
290
     0
174
     0
 93
       13
 44
0.0
173
     0
291
     1
 45
0.0
1001
ACAD
1000
AcDbSavedByObjectVersion
1070
     0
  0
VISUALSTYLE
  5
2E
102
{ACAD_REACTORS
330
2A
102
}
330
2A
100
AcDbVisualStyle
  2
GouraudWithEdges
 70
     3
 71
     2
 72
     2
 73
     1
 90
        2
 40
-0.6
 41
30.0
 62
     5
 63
     7
 74
     1
 91
        4
 64
     7
 65
   257
 75
     1
175
     1
 42
1.0
 92
        0
 66
   257
 43
1.0
 76
     1
 77
     6
 78
     2
 67
     7
 79
     5
170
     0
171
     0
290
     0
174
     0
 93
       13
 44
0.0
173
     0
291
     1
 45
0.0
1001
ACAD
1000
AcDbSavedByObjectVersion
1070
     0
  0
VISUALSTYLE
  5
38
102
{ACAD_REACTORS
330
2A
102
}
330
2A
100
AcDbVisualStyle
  2
Linepattern
 70
    14
 71
     2
 72
     2
 73
     0
 90
        0
 40
-0.6
 41
-30.0
 62
     5
 63
     7
 74
     1
 91
        4
 64
     7
 65
   257
 75
     7
175
     7
 42
1.0
 92
        8
 66
     7
 43
1.0
 76
     1
 77
     6
 78
     2
 67
     7
 79
     5
170
     0
171
     0
290
     0
174
     0
 93
        1
 44
0.0
173
     0
291
     1
 45
0.0
1001
ACAD
1000
AcDbSavedByObjectVersion
1070
     0
  0
VISUALSTYLE
  5
33
102
{ACAD_REACTORS
330
2A
102
}
330
2A
100
AcDbVisualStyle
  2
Realistic
 70
     8
 71
     2
 72
     2
 73
     0
 90
        0
 40
-0.6
 41
-30.0
 62
     5
 63
     7
 74
     1
 91
        0
 64
     7
 65
   257
 75
     1
175
     1
 42
1.0
 92
        8
 66
     8
 43
1.0
 76
     1
 77
     6
 78
     2
 67
     7
 79
     5
170
     0
171
     0
290
     0
174
     0
 93
       13
 44
0.0
173
     0
291
     0
 45
0.0
1001
ACAD
1000
AcDbSavedByObjectVersion
1070
     0
  0
VISUALSTYLE
  5
37
102
{ACAD_REACTORS
330
2A
102
}
330
2A
100
AcDbVisualStyle
  2
Thicken
 70
    13
 71
     2
 72
     2
 73
     0
 90
        0
 40
-0.6
 41
-30.0
 62
     5
 63
     7
 74
     1
 91
        4
 64
     7
 65
   257
 75
     1
175
     1
 42
1.0
 92
       12
 66
     7
 43
1.0
 76
     1
 77
     6
 78
     2
 67
     7
 79
     5
170
     0
171
     0
290
     0
174
     0
 93
        1
 44
0.0
173
     0
291
     1
 45
0.0
1001
ACAD
1000
AcDbSavedByObjectVersion
1070
     0
  0
DICTIONARYVAR
  5
259
102
{ACAD_REACTORS
330
258
102
}
330
258
100
DictionaryVariables
280
     0
  1
1:1
  0
DICTIONARYVAR
  5
25D
102
{ACAD_REACTORS
330
258
102
}
330
258
100
DictionaryVariables
280
     0
  1
80.000000
  0
DICTIONARYVAR
  5
25C
102
{ACAD_REACTORS
330
258
102
}
330
258
100
DictionaryVariables
280
     0
  1
5.000000
  0
ENDSEC
  0
EOF
