  0
SECTION
  2
HEADER
  9
$ACADVER
  1
AC1014
  9
$ACADMAINTVER
 70
     9
  9
$DWGCODEPAGE
  3
ANSI_1252
  9
$INSBASE
 10
0.0
 20
0.0
 30
0.0
  9
$EXTMIN
 10
-0.0000000000000136
 20
-0.0000000000000004
 30
0.0
  9
$EXTMAX
 10
245.0
 20
288.0
 30
0.0
  9
$LIMMIN
 10
0.0
 20
0.0
  9
$LIMMAX
 10
12.0
 20
9.0
  9
$ORTHOMODE
 70
     0
  9
$REGENMODE
 70
     1
  9
$FILLMODE
 70
     1
  9
$QTEXTMODE
 70
     0
  9
$MIRRTEXT
 70
     1
  9
$DRAGMODE
 70
     2
  9
$LTSCALE
 40
1.0
  9
$OSMODE
 70
    37
  9
$ATTMODE
 70
     1
  9
$TEXTSIZE
 40
0.2
  9
$TRACEWID
 40
0.05
  9
$TEXTSTYLE
  7
STANDARD
  9
$CLAYER
  8
0
  9
$CELTYPE
  6
CONTINUOUS
  9
$CECOLOR
 62
   256
  9
$CELTSCALE
 40
1.0
  9
$DELOBJ
 70
     1
  9
$DISPSILH
 70
     0
  9
$DIMSCALE
 40
1.0
  9
$DIMASZ
 40
0.18
  9
$DIMEXO
 40
0.0625
  9
$DIMDLI
 40
0.38
  9
$DIMRND
 40
0.0
  9
$DIMDLE
 40
0.0
  9
$DIMEXE
 40
0.18
  9
$DIMTP
 40
0.0
  9
$DIMTM
 40
0.0
  9
$DIMTXT
 40
0.18
  9
$DIMCEN
 40
0.09
  9
$DIMTSZ
 40
0.0
  9
$DIMTOL
 70
     0
  9
$DIMLIM
 70
     0
  9
$DIMTIH
 70
     1
  9
$DIMTOH
 70
     1
  9
$DIMSE1
 70
     0
  9
$DIMSE2
 70
     0
  9
$DIMTAD
 70
     0
  9
$DIMZIN
 70
     0
  9
$DIMBLK
  1

  9
$DIMASO
 70
     1
  9
$DIMSHO
 70
     1
  9
$DIMPOST
  1

  9
$DIMAPOST
  1

  9
$DIMALT
 70
     0
  9
$DIMALTD
 70
     2
  9
$DIMALTF
 40
25.4
  9
$DIMLFAC
 40
1.0
  9
$DIMTOFL
 70
     0
  9
$DIMTVP
 40
0.0
  9
$DIMTIX
 70
     0
  9
$DIMSOXD
 70
     0
  9
$DIMSAH
 70
     0
  9
$DIMBLK1
  1

  9
$DIMBLK2
  1

  9
$DIMSTYLE
  2
STANDARD
  9
$DIMCLRD
 70
     0
  9
$DIMCLRE
 70
     0
  9
$DIMCLRT
 70
     0
  9
$DIMTFAC
 40
1.0
  9
$DIMGAP
 40
0.09
  9
$DIMJUST
 70
     0
  9
$DIMSD1
 70
     0
  9
$DIMSD2
 70
     0
  9
$DIMTOLJ
 70
     1
  9
$DIMTZIN
 70
     0
  9
$DIMALTZ
 70
     0
  9
$DIMALTTZ
 70
     0
  9
$DIMFIT
 70
     3
  9
$DIMUPT
 70
     0
  9
$DIMUNIT
 70
     2
  9
$DIMDEC
 70
     4
  9
$DIMTDEC
 70
     4
  9
$DIMALTU
 70
     2
  9
$DIMALTTD
 70
     2
  9
$DIMTXSTY
  7
STANDARD
  9
$DIMAUNIT
 70
     0
  9
$LUNITS
 70
     2
  9
$LUPREC
 70
     4
  9
$SKETCHINC
 40
0.1
  9
$FILLETRAD
 40
0.0
  9
$AUNITS
 70
     0
  9
$AUPREC
 70
     0
  9
$MENU
  1
.
  9
$ELEVATION
 40
0.0
  9
$PELEVATION
 40
0.0
  9
$THICKNESS
 40
0.0
  9
$LIMCHECK
 70
     0
  9
$BLIPMODE
 70
     0
  9
$CHAMFERA
 40
0.0
  9
$CHAMFERB
 40
0.0
  9
$CHAMFERC
 40
0.0
  9
$CHAMFERD
 40
0.0
  9
$SKPOLY
 70
     0
  9
$TDCREATE
 40
2454699.506959815
  9
$TDUPDATE
 40
2454699.513283599
  9
$TDINDWG
 40
0.0063237847
  9
$TDUSRTIMER
 40
0.0063237847
  9
$USRTIMER
 70
     1
  9
$ANGBASE
 50
0.0
  9
$ANGDIR
 70
     0
  9
$PDMODE
 70
     0
  9
$PDSIZE
 40
0.0
  9
$PLINEWID
 40
0.0
  9
$COORDS
 70
     1
  9
$SPLFRAME
 70
     0
  9
$SPLINETYPE
 70
     6
  9
$SPLINESEGS
 70
     8
  9
$ATTDIA
 70
     0
  9
$ATTREQ
 70
     1
  9
$HANDLING
 70
 22529
  9
$HANDSEED
  5
208
  9
$SURFTAB1
 70
     6
  9
$SURFTAB2
 70
     6
  9
$SURFTYPE
 70
     6
  9
$SURFU
 70
     6
  9
$SURFV
 70
     6
  9
$UCSNAME
  2

  9
$UCSORG
 10
0.0
 20
0.0
 30
0.0
  9
$UCSXDIR
 10
1.0
 20
0.0
 30
0.0
  9
$UCSYDIR
 10
0.0
 20
1.0
 30
0.0
  9
$PUCSNAME
  2

  9
$PUCSORG
 10
0.0
 20
0.0
 30
0.0
  9
$PUCSXDIR
 10
1.0
 20
0.0
 30
0.0
  9
$PUCSYDIR
 10
0.0
 20
1.0
 30
0.0
  9
$USERI1
 70
     0
  9
$USERI2
 70
     0
  9
$USERI3
 70
     0
  9
$USERI4
 70
     0
  9
$USERI5
 70
     0
  9
$USERR1
 40
0.0
  9
$USERR2
 40
0.0
  9
$USERR3
 40
0.0
  9
$USERR4
 40
0.0
  9
$USERR5
 40
0.0
  9
$WORLDVIEW
 70
     1
  9
$SHADEDGE
 70
     3
  9
$SHADEDIF
 70
    70
  9
$TILEMODE
 70
     1
  9
$MAXACTVP
 70
    64
  9
$PINSBASE
 10
0.0
 20
0.0
 30
0.0
  9
$PLIMCHECK
 70
     0
  9
$PEXTMIN
 10
1.000000000000000E+20
 20
1.000000000000000E+20
 30
1.000000000000000E+20
  9
$PEXTMAX
 10
-1.000000000000000E+20
 20
-1.000000000000000E+20
 30
-1.000000000000000E+20
  9
$PLIMMIN
 10
0.0
 20
0.0
  9
$PLIMMAX
 10
12.0
 20
9.0
  9
$UNITMODE
 70
     0
  9
$VISRETAIN
 70
     1
  9
$PLINEGEN
 70
     0
  9
$PSLTSCALE
 70
     1
  9
$TREEDEPTH
 70
  3020
  9
$PICKSTYLE
 70
     1
  9
$CMLSTYLE
  2
STANDARD
  9
$CMLJUST
 70
     0
  9
$CMLSCALE
 40
1.0
  9
$PROXYGRAPHICS
 70
     1
  9
$MEASUREMENT
 70
     0
  0
ENDSEC
  0
SECTION
  2
CLASSES
  0
CLASS
  1
ACDBDICTIONARYWDFLT
  2
AcDbDictionaryWithDefault
  3
AutoCAD 2000
 90
        0
280
     0
281
     0
  0
CLASS
  1
ACDBPLACEHOLDER
  2
AcDbPlaceHolder
  3
AutoCAD 2000
 90
        0
280
     0
281
     0
  0
CLASS
  1
LAYOUT
  2
AcDbLayout
  3
AutoCAD 2000
 90
        0
280
     0
281
     0
  0
CLASS
  1
DICTIONARYVAR
  2
AcDbDictionaryVar
  3
AutoCAD 2000
 90
        0
280
     0
281
     0
  0
CLASS
  1
LONG_TRANSACTION
  2
AcDbLongTransaction
  3
AutoCAD 2000
 90
        0
280
     0
281
     0
  0
CLASS
  1
LWPOLYLINE
  2
AcDbPolyline
  3
AutoCAD 2000
 90
        0
280
     0
281
     1
  0
CLASS
  1
HATCH
  2
AcDbHatch
  3
AutoCAD 2000
 90
        0
280
     0
281
     1
  0
CLASS
  1
XRECORD
  2
AcDbXrecord
  3
AutoCAD 2000
 90
        0
280
     0
281
     0
  0
ENDSEC
  0
SECTION
  2
TABLES
  0
TABLE
  2
VPORT
  5
8
330
0
100
AcDbSymbolTable
 70
     2
  0
VPORT
  5
1E3
330
8
100
AcDbSymbolTableRecord
100
AcDbViewportTableRecord
  2
*ACTIVE
 70
     0
 10
0.0
 20
0.0
 11
1.0
 21
1.0
 12
122.4999999999999
 22
144.0
 13
0.0
 23
0.0
 14
1.0
 24
1.0
 15
0.0
 25
0.0
 16
0.0
 26
0.0
 36
1.0
 17
0.0
 27
0.0
 37
0.0
 40
290.2097186700767
 41
2.078104993597951
 42
50.0
 43
0.0
 44
0.0
 50
0.0
 51
0.0
 71
     0
 72
   100
 73
     1
 74
     3
 75
     0
 76
     0
 77
     0
 78
     0
  0
ENDTAB
  0
TABLE
  2
LTYPE
  5
5
330
0
100
AcDbSymbolTable
 70
     1
  0
LTYPE
  5
13
330
5
100
AcDbSymbolTableRecord
100
AcDbLinetypeTableRecord
  2
BYBLOCK
 70
     0
  3

 72
    65
 73
     0
 40
0.0
  0
LTYPE
  5
14
330
5
100
AcDbSymbolTableRecord
100
AcDbLinetypeTableRecord
  2
BYLAYER
 70
     0
  3

 72
    65
 73
     0
 40
0.0
  0
LTYPE
  5
15
330
5
100
AcDbSymbolTableRecord
100
AcDbLinetypeTableRecord
  2
CONTINUOUS
 70
     0
  3
Solid line
 72
    65
 73
     0
 40
0.0
  0
ENDTAB
  0
TABLE
  2
LAYER
  5
2
330
0
100
AcDbSymbolTable
 70
     1
  0
LAYER
  5
10
330
2
100
AcDbSymbolTableRecord
100
AcDbLayerTableRecord
  2
0
 70
     0
 62
     7
  6
CONTINUOUS
  0
ENDTAB
  0
TABLE
  2
STYLE
  5
3
330
0
100
AcDbSymbolTable
 70
     1
  0
STYLE
  5
11
330
3
100
AcDbSymbolTableRecord
100
AcDbTextStyleTableRecord
  2
STANDARD
 70
     0
 40
0.0
 41
1.0
 50
0.0
 71
     0
 42
0.2
  3
txt
  4

  0
ENDTAB
  0
TABLE
  2
VIEW
  5
6
330
0
100
AcDbSymbolTable
 70
     0
  0
ENDTAB
  0
TABLE
  2
UCS
  5
7
330
0
100
AcDbSymbolTable
 70
     0
  0
ENDTAB
  0
TABLE
  2
APPID
  5
9
330
0
100
AcDbSymbolTable
 70
     1
  0
APPID
  5
12
330
9
100
AcDbSymbolTableRecord
100
AcDbRegAppTableRecord
  2
ACAD
 70
     0
  0
ENDTAB
  0
TABLE
  2
DIMSTYLE
  5
A
330
0
100
AcDbSymbolTable
 70
     1
  0
DIMSTYLE
105
1D0
330
A
100
AcDbSymbolTableRecord
100
AcDbDimStyleTableRecord
  2
STANDARD
 70
     0
  3

  4

  5

  6

  7

 40
1.0
 41
0.18
 42
0.0625
 43
0.38
 44
0.18
 45
0.0
 46
0.0
 47
0.0
 48
0.0
140
0.18
141
0.09
142
0.0
143
25.4
144
1.0
145
0.0
146
1.0
147
0.09
 71
     0
 72
     0
 73
     1
 74
     1
 75
     0
 76
     0
 77
     0
 78
     0
170
     0
171
     2
172
     0
173
     0
174
     0
175
     0
176
     0
177
     0
178
     0
270
     2
271
     4
272
     4
273
     2
274
     2
340
11
275
     0
280
     0
281
     0
282
     0
283
     1
284
     0
285
     0
286
     0
287
     3
288
     0
  0
ENDTAB
  0
TABLE
  2
BLOCK_RECORD
  5
1
330
0
100
AcDbSymbolTable
 70
     0
  0
BLOCK_RECORD
  5
1E
102
{ACAD_XDICTIONARY
360
206
102
}
330
1
100
AcDbSymbolTableRecord
100
AcDbBlockTableRecord
  2
*MODEL_SPACE
  0
BLOCK_RECORD
  5
1A
102
{ACAD_XDICTIONARY
360
204
102
}
330
1
100
AcDbSymbolTableRecord
100
AcDbBlockTableRecord
  2
*PAPER_SPACE
  0
ENDTAB
  0
ENDSEC
  0
SECTION
  2
BLOCKS
  0
BLOCK
  5
1F
330
1E
100
AcDbEntity
  8
0
100
AcDbBlockBegin
  2
*MODEL_SPACE
 70
     0
 10
0.0
 20
0.0
 30
0.0
  3
*MODEL_SPACE
  1

  0
ENDBLK
  5
20
330
1E
100
AcDbEntity
  8
0
100
AcDbBlockEnd
  0
BLOCK
  5
1B
330
1A
100
AcDbEntity
 67
     1
  8
0
100
AcDbBlockBegin
  2
*PAPER_SPACE
 70
     0
 10
0.0
 20
0.0
 30
0.0
  3
*PAPER_SPACE
  1

  0
ENDBLK
  5
1C
330
1A
100
AcDbEntity
 67
     1
  8
0
100
AcDbBlockEnd
  0
ENDSEC
  0
SECTION
  2
ENTITIES
  0
LINE
  5
22
330
1E
100
AcDbEntity
  8
0
100
AcDbLine
 10
17.077
 20
12.2752
 30
0.0
 11
19.028
 21
14.2618
 31
0.0
  0
LINE
  5
23
330
1E
100
AcDbEntity
  8
0
100
AcDbLine
 10
19.028
 20
14.2618
 30
0.0
 11
20.79099999999999
 21
15.6111
 31
0.0
  0
LINE
  5
24
330
1E
100
AcDbEntity
  8
0
100
AcDbLine
 10
19.028
 20
14.2618
 30
0.0
 11
20.79099999999999
 21
15.6111
 31
0.0
  0
LINE
  5
25
330
1E
100
AcDbEntity
  8
0
100
AcDbLine
 10
20.79099999999999
 20
15.6111
 30
0.0
 11
22.629
 21
16.8106
 31
0.0
  0
LINE
  5
26
330
1E
100
AcDbEntity
  8
0
100
AcDbLine
 10
22.629
 20
16.8106
 30
0.0
 11
24.43
 21
18.01
 31
0.0
  0
LINE
  5
27
330
1E
100
AcDbEntity
  8
0
100
AcDbLine
 10
25.518
 20
19.05949999999999
 30
0.0
 11
26.23099999999999
 21
19.7717
 31
0.0
  0
LINE
  5
28
330
1E
100
AcDbEntity
  8
0
100
AcDbLine
 10
24.43
 20
18.01
 30
0.0
 11
25.518
 21
19.05949999999999
 31
0.0
  0
LINE
  5
29
330
1E
100
AcDbEntity
  8
0
100
AcDbLine
 10
24.43
 20
18.01
 30
0.0
 11
25.518
 21
19.05949999999999
 31
0.0
  0
LINE
  5
2A
330
1E
100
AcDbEntity
  8
0
100
AcDbLine
 10
25.518
 20
19.05949999999999
 30
0.0
 11
26.23099999999999
 21
19.7717
 31
0.0
  0
LINE
  5
2B
330
1E
100
AcDbEntity
  8
0
100
AcDbLine
 10
26.5
 20
20.0
 30
0.0
 11
26.5
 21
70.0
 31
0.0
  0
LINE
  5
2C
330
1E
100
AcDbEntity
  8
0
100
AcDbLine
 10
26.23099999999999
 20
19.7717
 30
0.0
 11
26.5
 21
20.0
 31
0.0
  0
LINE
  5
2D
330
1E
100
AcDbEntity
  8
0
100
AcDbLine
 10
17.077
 20
12.2752
 30
0.0
 11
19.028
 21
14.2618
 31
0.0
  0
LINE
  5
2E
330
1E
100
AcDbEntity
  8
0
100
AcDbLine
 10
15.277
 20
11.1507
 30
0.0
 11
17.077
 21
12.2752
 31
0.0
  0
LINE
  5
2F
330
1E
100
AcDbEntity
  8
0
100
AcDbLine
 10
15.277
 20
11.1507
 30
0.0
 11
17.077
 21
12.2752
 31
0.0
  0
LINE
  5
30
330
1E
100
AcDbEntity
  8
0
100
AcDbLine
 10
13.776
 20
10.47599999999999
 30
0.0
 11
15.277
 21
11.1507
 31
0.0
  0
LINE
  5
31
330
1E
100
AcDbEntity
  8
0
100
AcDbLine
 10
12.538
 20
10.1012
 30
0.0
 11
13.776
 21
10.47599999999999
 31
0.0
  0
LINE
  5
32
330
1E
100
AcDbEntity
  8
0
100
AcDbLine
 10
11.86299999999999
 20
10.0262
 30
0.0
 11
12.538
 21
10.1012
 31
0.0
  0
LINE
  5
33
330
1E
100
AcDbEntity
  8
0
100
AcDbLine
 10
11.5
 20
10.0
 30
0.0
 11
11.5
 21
70.0
 31
0.0
  0
LINE
  5
34
330
1E
100
AcDbEntity
  8
0
100
AcDbLine
 10
11.5
 20
10.0
 30
0.0
 11
11.86299999999999
 21
10.0262
 31
0.0
  0
LINE
  5
35
330
1E
100
AcDbEntity
  8
0
100
AcDbLine
 10
12.5
 20
70.0
 30
0.0
 11
13.7
 21
70.0
 31
0.0
  0
LINE
  5
36
330
1E
100
AcDbEntity
  8
0
100
AcDbLine
 10
11.8
 20
70.0
 30
0.0
 11
12.5
 21
70.0
 31
0.0
  0
LINE
  5
37
330
1E
100
AcDbEntity
  8
0
100
AcDbLine
 10
11.5
 20
70.0
 30
0.0
 11
11.8
 21
70.0
 31
0.0
  0
LINE
  5
38
330
1E
100
AcDbEntity
  8
0
100
AcDbLine
 10
11.5
 20
70.0
 30
0.0
 11
11.5
 21
10.0
 31
0.0
  0
LINE
  5
39
330
1E
100
AcDbEntity
  8
0
100
AcDbLine
 10
15.3
 20
70.0
 30
0.0
 11
17.1
 21
70.0
 31
0.0
  0
LINE
  5
3A
330
1E
100
AcDbEntity
  8
0
100
AcDbLine
 10
13.7
 20
70.0
 30
0.0
 11
15.3
 21
70.0
 31
0.0
  0
LINE
  5
3B
330
1E
100
AcDbEntity
  8
0
100
AcDbLine
 10
12.6
 20
70.0
 30
0.0
 11
14.5
 21
70.0
 31
0.0
  0
LINE
  5
3C
330
1E
100
AcDbEntity
  8
0
100
AcDbLine
 10
14.5
 20
70.0
 30
0.0
 11
16.69999999999999
 21
70.0
 31
0.0
  0
LINE
  5
3D
330
1E
100
AcDbEntity
  8
0
100
AcDbLine
 10
17.1
 20
70.0
 30
0.0
 11
19.0
 21
70.0
 31
0.0
  0
LINE
  5
3E
330
1E
100
AcDbEntity
  8
0
100
AcDbLine
 10
20.89999999999999
 20
70.0
 30
0.0
 11
22.7
 21
70.0
 31
0.0
  0
LINE
  5
3F
330
1E
100
AcDbEntity
  8
0
100
AcDbLine
 10
22.7
 20
70.0
 30
0.0
 11
24.3
 21
70.0
 31
0.0
  0
LINE
  5
40
330
1E
100
AcDbEntity
  8
0
100
AcDbLine
 10
24.3
 20
70.0
 30
0.0
 11
25.5
 21
70.0
 31
0.0
  0
LINE
  5
41
330
1E
100
AcDbEntity
  8
0
100
AcDbLine
 10
25.5
 20
70.0
 30
0.0
 11
26.2
 21
70.0
 31
0.0
  0
LINE
  5
42
330
1E
100
AcDbEntity
  8
0
100
AcDbLine
 10
26.2
 20
70.0
 30
0.0
 11
26.5
 21
70.0
 31
0.0
  0
LINE
  5
43
330
1E
100
AcDbEntity
  8
0
100
AcDbLine
 10
25.4
 20
70.0
 30
0.0
 11
26.8
 21
70.0
 31
0.0
  0
LINE
  5
44
330
1E
100
AcDbEntity
  8
0
100
AcDbLine
 10
23.5
 20
70.0
 30
0.0
 11
25.4
 21
70.0
 31
0.0
  0
LINE
  5
45
330
1E
100
AcDbEntity
  8
0
100
AcDbLine
 10
21.3
 20
70.0
 30
0.0
 11
23.5
 21
70.0
 31
0.0
  0
LINE
  5
46
330
1E
100
AcDbEntity
  8
0
100
AcDbLine
 10
19.0
 20
70.0
 30
0.0
 11
21.3
 21
70.0
 31
0.0
  0
LINE
  5
47
330
1E
100
AcDbEntity
  8
0
100
AcDbLine
 10
19.0
 20
70.0
 30
0.0
 11
20.89999999999999
 21
70.0
 31
0.0
  0
LINE
  5
48
330
1E
100
AcDbEntity
  8
0
100
AcDbLine
 10
26.5
 20
70.0
 30
0.0
 11
26.8
 21
70.0
 31
0.0
  0
LINE
  5
49
330
1E
100
AcDbEntity
  8
0
100
AcDbLine
 10
26.5
 20
70.0
 30
0.0
 11
26.5
 21
20.0
 31
0.0
  0
LINE
  5
4A
330
1E
100
AcDbEntity
  8
0
100
AcDbLine
 10
28.0
 20
70.0
 30
0.0
 11
30.0
 21
98.0
 31
0.0
  0
LINE
  5
4B
330
1E
100
AcDbEntity
  8
0
100
AcDbLine
 10
26.8
 20
70.0
 30
0.0
 11
27.7
 21
70.0
 31
0.0
  0
LINE
  5
4C
330
1E
100
AcDbEntity
  8
0
100
AcDbLine
 10
27.7
 20
70.0
 30
0.0
 11
28.0
 21
70.0
 31
0.0
  0
LINE
  5
4D
330
1E
100
AcDbEntity
  8
0
100
AcDbLine
 10
16.69999999999999
 20
70.0
 30
0.0
 11
19.0
 21
70.0
 31
0.0
  0
LINE
  5
4E
330
1E
100
AcDbEntity
  8
0
100
AcDbLine
 10
11.19999999999999
 20
70.0
 30
0.0
 11
12.6
 21
70.0
 31
0.0
  0
LINE
  5
4F
330
1E
100
AcDbEntity
  8
0
100
AcDbLine
 10
11.19999999999999
 20
70.0
 30
0.0
 11
11.5
 21
70.0
 31
0.0
  0
LINE
  5
50
330
1E
100
AcDbEntity
  8
0
100
AcDbLine
 10
10.3
 20
70.0
 30
0.0
 11
11.19999999999999
 21
70.0
 31
0.0
  0
LINE
  5
51
330
1E
100
AcDbEntity
  8
0
100
AcDbLine
 10
7.99999999999999
 20
98.0
 30
0.0
 11
9.999999999999991
 21
70.0
 31
0.0
  0
LINE
  5
52
330
1E
100
AcDbEntity
  8
0
100
AcDbLine
 10
7.99999999999999
 20
98.0
 30
0.0
 11
8.999999999999991
 21
100.0
 31
0.0
  0
LINE
  5
53
330
1E
100
AcDbEntity
  8
0
100
AcDbLine
 10
9.999999999999991
 20
70.0
 30
0.0
 11
10.3
 21
70.0
 31
0.0
  0
LINE
  5
54
330
1E
100
AcDbEntity
  8
0
100
AcDbLine
 10
200.0
 20
66.19469999999999
 30
0.0
 11
200.0
 21
54.0
 31
0.0
  0
LINE
  5
55
330
1E
100
AcDbEntity
  8
0
100
AcDbLine
 10
200.0
 20
66.19469999999999
 30
0.0
 11
200.0
 21
98.0
 31
0.0
  0
LINE
  5
56
330
1E
100
AcDbEntity
  8
0
100
AcDbLine
 10
200.0
 20
54.0
 30
0.0
 11
200.0
 21
0.0
 31
0.0
  0
LINE
  5
57
330
1E
100
AcDbEntity
  8
0
100
AcDbLine
 10
200.0
 20
54.0
 30
0.0
 11
200.0
 21
66.19469999999999
 31
0.0
  0
LINE
  5
58
330
1E
100
AcDbEntity
  8
0
100
AcDbLine
 10
200.0
 20
0.000000000000001
 30
0.0
 11
200.8
 21
0.0000000000000006
 31
0.0
  0
LINE
  5
59
330
1E
100
AcDbEntity
  8
0
100
AcDbLine
 10
200.0
 20
0.000000000000001
 30
0.0
 11
200.0
 21
54.0
 31
0.0
  0
LINE
  5
5A
330
1E
100
AcDbEntity
  8
0
100
AcDbLine
 10
200.0
 20
0.000000000000001
 30
0.0
 11
200.8
 21
0.0000000000000013
 31
0.0
  0
LINE
  5
5B
330
1E
100
AcDbEntity
  8
0
100
AcDbLine
 10
11.9
 20
100.0
 30
0.0
 11
14.0
 21
100.0
 31
0.0
  0
LINE
  5
5C
330
1E
100
AcDbEntity
  8
0
100
AcDbLine
 10
26.1
 20
100.0
 30
0.0
 11
27.7
 21
100.0
 31
0.0
  0
LINE
  5
5D
330
1E
100
AcDbEntity
  8
0
100
AcDbLine
 10
27.7
 20
100.0
 30
0.0
 11
28.6
 21
100.0
 31
0.0
  0
LINE
  5
5E
330
1E
100
AcDbEntity
  8
0
100
AcDbLine
 10
28.6
 20
100.0
 30
0.0
 11
29.0
 21
100.0
 31
0.0
  0
LINE
  5
5F
330
1E
100
AcDbEntity
  8
0
100
AcDbLine
 10
29.0
 20
100.0
 30
0.0
 11
29.0
 21
256.675757575758
 31
0.0
  0
LINE
  5
60
330
1E
100
AcDbEntity
  8
0
100
AcDbLine
 10
29.0
 20
100.0
 30
0.0
 11
30.0
 21
98.0
 31
0.0
  0
LINE
  5
61
330
1E
100
AcDbEntity
  8
0
100
AcDbLine
 10
24.0
 20
100.0
 30
0.0
 11
26.1
 21
100.0
 31
0.0
  0
LINE
  5
62
330
1E
100
AcDbEntity
  8
0
100
AcDbLine
 10
21.6
 20
100.0
 30
0.0
 11
24.0
 21
100.0
 31
0.0
  0
LINE
  5
63
330
1E
100
AcDbEntity
  8
0
100
AcDbLine
 10
19.0
 20
100.0
 30
0.0
 11
21.6
 21
100.0
 31
0.0
  0
LINE
  5
64
330
1E
100
AcDbEntity
  8
0
100
AcDbLine
 10
14.0
 20
100.0
 30
0.0
 11
16.39999999999999
 21
100.0
 31
0.0
  0
LINE
  5
65
330
1E
100
AcDbEntity
  8
0
100
AcDbLine
 10
16.39999999999999
 20
100.0
 30
0.0
 11
19.0
 21
100.0
 31
0.0
  0
LINE
  5
66
330
1E
100
AcDbEntity
  8
0
100
AcDbLine
 10
10.3
 20
100.0
 30
0.0
 11
11.9
 21
100.0
 31
0.0
  0
LINE
  5
67
330
1E
100
AcDbEntity
  8
0
100
AcDbLine
 10
9.399999999999989
 20
100.0
 30
0.0
 11
10.3
 21
100.0
 31
0.0
  0
LINE
  5
68
330
1E
100
AcDbEntity
  8
0
100
AcDbLine
 10
8.999999999999991
 20
100.0
 30
0.0
 11
9.399999999999989
 21
100.0
 31
0.0
  0
LINE
  5
69
330
1E
100
AcDbEntity
  8
0
100
AcDbLine
 10
8.999999999999991
 20
100.0
 30
0.0
 11
8.999999999999991
 21
255.3
 31
0.0
  0
LINE
  5
6A
330
1E
100
AcDbEntity
  8
0
100
AcDbLine
 10
200.0
 20
99.50000000000001
 30
0.0
 11
200.4999999999999
 21
100.0
 31
0.0
  0
LINE
  5
6B
330
1E
100
AcDbEntity
  8
0
100
AcDbLine
 10
200.0
 20
99.50000000000001
 30
0.0
 11
203.5
 21
99.50000000000001
 31
0.0
  0
LINE
  5
6C
330
1E
100
AcDbEntity
  8
0
100
AcDbLine
 10
200.0
 20
99.50000000000001
 30
0.0
 11
200.0
 21
98.0
 31
0.0
  0
LINE
  5
6D
330
1E
100
AcDbEntity
  8
0
100
AcDbLine
 10
200.0
 20
98.0
 30
0.0
 11
200.0
 21
99.50000000000001
 31
0.0
  0
LINE
  5
6E
330
1E
100
AcDbEntity
  8
0
100
AcDbLine
 10
200.0
 20
98.0
 30
0.0
 11
200.0
 21
66.19469999999999
 31
0.0
  0
LINE
  5
6F
330
1E
100
AcDbEntity
  8
0
100
AcDbLine
 10
200.0
 20
101.5
 30
0.0
 11
200.0
 21
137.0
 31
0.0
  0
LINE
  5
70
330
1E
100
AcDbEntity
  8
0
100
AcDbLine
 10
200.0
 20
101.5
 30
0.0
 11
200.4999999999999
 21
101.0
 31
0.0
  0
LINE
  5
71
330
1E
100
AcDbEntity
  8
0
100
AcDbLine
 10
200.0
 20
101.5
 30
0.0
 11
200.8
 21
101.5
 31
0.0
  0
LINE
  5
72
330
1E
100
AcDbEntity
  8
0
100
AcDbLine
 10
200.0
 20
135.4999999999999
 30
0.0
 11
207.5
 21
135.4999999999999
 31
0.0
  0
LINE
  5
73
330
1E
100
AcDbEntity
  8
0
100
AcDbLine
 10
7.99999999999999
 20
253.6
 30
0.0
 11
8.999999999999991
 21
255.3
 31
0.0
  0
LINE
  5
74
330
1E
100
AcDbEntity
  8
0
100
AcDbLine
 10
7.99999999999999
 20
253.6
 30
0.0
 11
8.999999999999991
 21
255.3
 31
0.0
  0
LINE
  5
75
330
1E
100
AcDbEntity
  8
0
100
AcDbLine
 10
0.699999999999975
 20
264.1
 30
0.0
 11
2.49999999999999
 21
259.6
 31
0.0
  0
LINE
  5
76
330
1E
100
AcDbEntity
  8
0
100
AcDbLine
 10
0.699999999999975
 20
264.1
 30
0.0
 11
2.49999999999999
 21
259.6
 31
0.0
  0
LINE
  5
77
330
1E
100
AcDbEntity
  8
0
100
AcDbLine
 10
-0.0000000000000136
 20
269.0
 30
0.0
 11
0.699999999999975
 21
264.1
 31
0.0
  0
LINE
  5
78
330
1E
100
AcDbEntity
  8
0
100
AcDbLine
 10
-0.0000000000000136
 20
269.0
 30
0.0
 11
0.699999999999975
 21
273.8999999999999
 31
0.0
  0
LINE
  5
79
330
1E
100
AcDbEntity
  8
0
100
AcDbLine
 10
2.49999999999999
 20
259.6
 30
0.0
 11
5.59999999999998
 21
255.6
 31
0.0
  0
LINE
  5
7A
330
1E
100
AcDbEntity
  8
0
100
AcDbLine
 10
2.59999999999998
 20
264.6
 30
0.0
 11
4.299999999999999
 21
260.4999999999999
 31
0.0
  0
LINE
  5
7B
330
1E
100
AcDbEntity
  8
0
100
AcDbLine
 10
0.699999999999975
 20
273.8999999999999
 30
0.0
 11
2.49999999999999
 21
278.3999999999999
 31
0.0
  0
LINE
  5
7C
330
1E
100
AcDbEntity
  8
0
100
AcDbLine
 10
0.699999999999975
 20
273.8999999999999
 30
0.0
 11
2.49999999999999
 21
278.3999999999999
 31
0.0
  0
LINE
  5
7D
330
1E
100
AcDbEntity
  8
0
100
AcDbLine
 10
2.59999999999998
 20
273.3999999999999
 30
0.0
 11
4.299999999999999
 21
277.4999999999999
 31
0.0
  0
LINE
  5
7E
330
1E
100
AcDbEntity
  8
0
100
AcDbLine
 10
2.49999999999999
 20
278.3999999999999
 30
0.0
 11
5.59999999999998
 21
282.3999999999999
 31
0.0
  0
LINE
  5
7F
330
1E
100
AcDbEntity
  8
0
100
AcDbLine
 10
1.999999999999989
 20
269.0
 30
0.0
 11
2.59999999999998
 21
264.6
 31
0.0
  0
LINE
  5
80
330
1E
100
AcDbEntity
  8
0
100
AcDbLine
 10
1.999999999999989
 20
269.0
 30
0.0
 11
2.59999999999998
 21
273.3999999999999
 31
0.0
  0
LINE
  5
81
330
1E
100
AcDbEntity
  8
0
100
AcDbLine
 10
4.299999999999999
 20
260.4999999999999
 30
0.0
 11
6.99999999999999
 21
257.0
 31
0.0
  0
LINE
  5
82
330
1E
100
AcDbEntity
  8
0
100
AcDbLine
 10
6.99999999999999
 20
257.0
 30
0.0
 11
8.999999999999991
 21
255.3
 31
0.0
  0
LINE
  5
83
330
1E
100
AcDbEntity
  8
0
100
AcDbLine
 10
5.59999999999998
 20
255.6
 30
0.0
 11
7.99999999999999
 21
253.6
 31
0.0
  0
LINE
  5
84
330
1E
100
AcDbEntity
  8
0
100
AcDbLine
 10
5.59999999999998
 20
255.6
 30
0.0
 11
7.99999999999999
 21
253.6
 31
0.0
  0
LINE
  5
85
330
1E
100
AcDbEntity
  8
0
100
AcDbLine
 10
5.09999999999998
 20
261.0
 30
0.0
 11
8.999999999999991
 21
256.675757575758
 31
0.0
  0
LINE
  5
86
330
1E
100
AcDbEntity
  8
0
100
AcDbLine
 10
4.299999999999999
 20
277.4999999999999
 30
0.0
 11
6.99999999999999
 21
281.0
 31
0.0
  0
LINE
  5
87
330
1E
100
AcDbEntity
  8
0
100
AcDbLine
 10
6.99999999999999
 20
281.0
 30
0.0
 11
10.5
 21
283.6999999999999
 31
0.0
  0
LINE
  5
88
330
1E
100
AcDbEntity
  8
0
100
AcDbLine
 10
5.59999999999998
 20
282.3999999999999
 30
0.0
 11
9.59999999999998
 21
285.5
 31
0.0
  0
LINE
  5
89
330
1E
100
AcDbEntity
  8
0
100
AcDbLine
 10
7.69999999999998
 20
280.3
 30
0.0
 11
11.0
 21
282.8999999999999
 31
0.0
  0
LINE
  5
8A
330
1E
100
AcDbEntity
  8
0
100
AcDbLine
 10
5.09999999999998
 20
277.0
 30
0.0
 11
7.69999999999998
 21
280.3
 31
0.0
  0
LINE
  5
8B
330
1E
100
AcDbEntity
  8
0
100
AcDbLine
 10
3.599999999999979
 20
273.1
 30
0.0
 11
5.09999999999998
 21
277.0
 31
0.0
  0
LINE
  5
8E
330
1E
100
AcDbEntity
  8
0
100
AcDbLine
 10
3.599999999999979
 20
264.9
 30
0.0
 11
5.09999999999998
 21
261.0
 31
0.0
  0
LINE
  5
8F
330
1E
100
AcDbEntity
  8
0
100
AcDbLine
 10
2.99999999999999
 20
269.0
 30
0.0
 11
3.599999999999979
 21
264.9
 31
0.0
  0
LINE
  5
90
330
1E
100
AcDbEntity
  8
0
100
AcDbLine
 10
2.99999999999999
 20
269.0
 30
0.0
 11
3.599999999999979
 21
273.1
 31
0.0
  0
LINE
  5
91
330
1E
100
AcDbEntity
  8
0
100
AcDbLine
 10
8.999999999999991
 20
255.3
 30
0.0
 11
8.999999999999991
 21
100.0
 31
0.0
  0
LINE
  5
92
330
1E
100
AcDbEntity
  8
0
100
AcDbLine
 10
8.999999999999991
 20
255.3
 30
0.0
 11
8.999999999999991
 21
256.675757575758
 31
0.0
  0
LINE
  5
94
330
1E
100
AcDbEntity
  8
0
100
AcDbLine
 10
30.0
 20
253.6
 30
0.0
 11
32.4
 21
255.6
 31
0.0
  0
LINE
  5
95
330
1E
100
AcDbEntity
  8
0
100
AcDbLine
 10
30.0
 20
253.6
 30
0.0
 11
32.4
 21
255.6
 31
0.0
  0
LINE
  5
97
330
1E
100
AcDbEntity
  8
0
100
AcDbLine
 10
32.4
 20
255.6
 30
0.0
 11
35.5
 21
259.6
 31
0.0
  0
LINE
  5
98
330
1E
100
AcDbEntity
  8
0
100
AcDbLine
 10
29.0
 20
255.3
 30
0.0
 11
30.0
 21
253.6
 31
0.0
  0
LINE
  5
99
330
1E
100
AcDbEntity
  8
0
100
AcDbLine
 10
29.0
 20
255.3
 30
0.0
 11
30.0
 21
253.6
 31
0.0
  0
LINE
  5
9A
330
1E
100
AcDbEntity
  8
0
100
AcDbLine
 10
29.0
 20
255.3
 30
0.0
 11
31.0
 21
257.0
 31
0.0
  0
LINE
  5
9D
330
1E
100
AcDbEntity
  8
0
100
AcDbLine
 10
31.0
 20
257.0
 30
0.0
 11
33.7
 21
260.4999999999999
 31
0.0
  0
LINE
  5
9E
330
1E
100
AcDbEntity
  8
0
100
AcDbLine
 10
10.5
 20
283.6999999999999
 30
0.0
 11
14.59999999999999
 21
285.3999999999999
 31
0.0
  0
LINE
  5
A0
330
1E
100
AcDbEntity
  8
0
100
AcDbLine
 10
11.0
 20
282.8999999999999
 30
0.0
 11
14.9
 21
284.3999999999999
 31
0.0
  0
LINE
  5
A2
330
1E
100
AcDbEntity
  8
0
100
AcDbLine
 10
27.5
 20
283.6999999999999
 30
0.0
 11
31.0
 21
281.0
 31
0.0
  0
LINE
  5
A3
330
1E
100
AcDbEntity
  8
0
100
AcDbLine
 10
27.0
 20
282.8999999999999
 30
0.0
 11
30.3
 21
280.3
 31
0.0
  0
LINE
  5
A4
330
1E
100
AcDbEntity
  8
0
100
AcDbLine
 10
23.1
 20
284.3999999999999
 30
0.0
 11
27.0
 21
282.8999999999999
 31
0.0
  0
LINE
  5
A5
330
1E
100
AcDbEntity
  8
0
100
AcDbLine
 10
23.39999999999999
 20
285.3999999999999
 30
0.0
 11
27.5
 21
283.6999999999999
 31
0.0
  0
LINE
  5
A6
330
1E
100
AcDbEntity
  8
0
100
AcDbLine
 10
28.39999999999999
 20
285.5
 30
0.0
 11
32.4
 21
282.3999999999999
 31
0.0
  0
LINE
  5
A7
330
1E
100
AcDbEntity
  8
0
100
AcDbLine
 10
19.0
 20
288.0
 30
0.0
 11
23.9
 21
287.3
 31
0.0
  0
LINE
  5
A8
330
1E
100
AcDbEntity
  8
0
100
AcDbLine
 10
23.9
 20
287.3
 30
0.0
 11
28.39999999999999
 21
285.5
 31
0.0
  0
LINE
  5
A9
330
1E
100
AcDbEntity
  8
0
100
AcDbLine
 10
19.0
 20
286.0
 30
0.0
 11
23.39999999999999
 21
285.3999999999999
 31
0.0
  0
LINE
  5
AA
330
1E
100
AcDbEntity
  8
0
100
AcDbLine
 10
14.1
 20
287.3
 30
0.0
 11
19.0
 21
288.0
 31
0.0
  0
LINE
  5
AB
330
1E
100
AcDbEntity
  8
0
100
AcDbLine
 10
14.59999999999999
 20
285.3999999999999
 30
0.0
 11
19.0
 21
286.0
 31
0.0
  0
LINE
  5
AC
330
1E
100
AcDbEntity
  8
0
100
AcDbLine
 10
9.59999999999998
 20
285.5
 30
0.0
 11
14.1
 21
287.3
 31
0.0
  0
LINE
  5
AD
330
1E
100
AcDbEntity
  8
0
100
AcDbLine
 10
19.0
 20
285.0
 30
0.0
 11
23.1
 21
284.3999999999999
 31
0.0
  0
LINE
  5
AE
330
1E
100
AcDbEntity
  8
0
100
AcDbLine
 10
32.4
 20
282.3999999999999
 30
0.0
 11
35.5
 21
278.3999999999999
 31
0.0
  0
LINE
  5
AF
330
1E
100
AcDbEntity
  8
0
100
AcDbLine
 10
31.0
 20
281.0
 30
0.0
 11
33.7
 21
277.4999999999999
 31
0.0
  0
LINE
  5
B0
330
1E
100
AcDbEntity
  8
0
100
AcDbLine
 10
30.3
 20
280.3
 30
0.0
 11
32.9
 21
277.0
 31
0.0
  0
LINE
  5
B1
330
1E
100
AcDbEntity
  8
0
100
AcDbLine
 10
29.0
 20
256.675757575758
 30
0.0
 11
32.9
 21
261.0
 31
0.0
  0
LINE
  5
B2
330
1E
100
AcDbEntity
  8
0
100
AcDbLine
 10
33.7
 20
260.4999999999999
 30
0.0
 11
35.4
 21
264.6
 31
0.0
  0
LINE
  5
B3
330
1E
100
AcDbEntity
  8
0
100
AcDbLine
 10
35.5
 20
259.6
 30
0.0
 11
37.29999999999999
 21
264.1
 31
0.0
  0
LINE
  5
B4
330
1E
100
AcDbEntity
  8
0
100
AcDbLine
 10
37.29999999999999
 20
264.1
 30
0.0
 11
38.0
 21
269.0
 31
0.0
  0
LINE
  5
B5
330
1E
100
AcDbEntity
  8
0
100
AcDbLine
 10
35.4
 20
264.6
 30
0.0
 11
36.0
 21
269.0
 31
0.0
  0
LINE
  5
B6
330
1E
100
AcDbEntity
  8
0
100
AcDbLine
 10
33.7
 20
277.4999999999999
 30
0.0
 11
35.4
 21
273.3999999999999
 31
0.0
  0
LINE
  5
B8
330
1E
100
AcDbEntity
  8
0
100
AcDbLine
 10
35.5
 20
278.3999999999999
 30
0.0
 11
37.29999999999999
 21
273.8999999999999
 31
0.0
  0
LINE
  5
B9
330
1E
100
AcDbEntity
  8
0
100
AcDbLine
 10
37.29999999999999
 20
273.8999999999999
 30
0.0
 11
38.0
 21
269.0
 31
0.0
  0
LINE
  5
BA
330
1E
100
AcDbEntity
  8
0
100
AcDbLine
 10
35.4
 20
273.3999999999999
 30
0.0
 11
36.0
 21
269.0
 31
0.0
  0
LINE
  5
BB
330
1E
100
AcDbEntity
  8
0
100
AcDbLine
 10
34.39999999999999
 20
273.1
 30
0.0
 11
35.0
 21
269.0
 31
0.0
  0
LINE
  5
BD
330
1E
100
AcDbEntity
  8
0
100
AcDbLine
 10
34.39999999999999
 20
264.9
 30
0.0
 11
35.0
 21
269.0
 31
0.0
  0
LINE
  5
BE
330
1E
100
AcDbEntity
  8
0
100
AcDbLine
 10
32.9
 20
261.0
 30
0.0
 11
34.39999999999999
 21
264.9
 31
0.0
  0
LINE
  5
BF
330
1E
100
AcDbEntity
  8
0
100
AcDbLine
 10
29.0
 20
256.675757575758
 30
0.0
 11
29.0
 21
100.0
 31
0.0
  0
LINE
  5
C0
330
1E
100
AcDbEntity
  8
0
100
AcDbLine
 10
8.999999999999991
 20
256.675757575758
 30
0.0
 11
8.999999999999991
 21
255.3
 31
0.0
  0
LINE
  5
C1
330
1E
100
AcDbEntity
  8
0
100
AcDbLine
 10
200.0
 20
138.5
 30
0.0
 11
200.4999999999999
 21
139.0
 31
0.0
  0
LINE
  5
C2
330
1E
100
AcDbEntity
  8
0
100
AcDbLine
 10
200.0
 20
138.5
 30
0.0
 11
237.5
 21
138.5
 31
0.0
  0
LINE
  5
C3
330
1E
100
AcDbEntity
  8
0
100
AcDbLine
 10
200.0
 20
138.5
 30
0.0
 11
200.0
 21
137.0
 31
0.0
  0
LINE
  5
C4
330
1E
100
AcDbEntity
  8
0
100
AcDbLine
 10
200.4999999999999
 20
100.0
 30
0.0
 11
201.0
 21
100.0499999999999
 31
0.0
  0
LINE
  5
C5
330
1E
100
AcDbEntity
  8
0
100
AcDbLine
 10
200.4999999999999
 20
100.0
 30
0.0
 11
203.9222199999999
 21
100.0
 31
0.0
  0
LINE
  5
C6
330
1E
100
AcDbEntity
  8
0
100
AcDbLine
 10
200.8
 20
0.0000000000000013
 30
0.0
 11
203.0
 21
0.0000000000000016
 31
0.0
  0
LINE
  5
C7
330
1E
100
AcDbEntity
  8
0
100
AcDbLine
 10
200.8
 20
0.0000000000000006
 30
0.0
 11
203.0
 21
0.0000000000000003
 31
0.0
  0
LINE
  5
C8
330
1E
100
AcDbEntity
  8
0
100
AcDbLine
 10
200.4999999999999
 20
101.0
 30
0.0
 11
201.3
 21
101.0
 31
0.0
  0
LINE
  5
C9
330
1E
100
AcDbEntity
  8
0
100
AcDbLine
 10
200.8
 20
101.5
 30
0.0
 11
203.0
 21
101.5
 31
0.0
  0
LINE
  5
CA
330
1E
100
AcDbEntity
  8
0
100
AcDbLine
 10
203.0
 20
0.0000000000000016
 30
0.0
 11
206.5999999999999
 21
0.0000000000000019
 31
0.0
  0
LINE
  5
CB
330
1E
100
AcDbEntity
  8
0
100
AcDbLine
 10
203.0
 20
0.0000000000000003
 30
0.0
 11
206.5999999999999
 21
0.0
 31
0.0
  0
LINE
  5
CC
330
1E
100
AcDbEntity
  8
0
100
AcDbLine
 10
203.0
 20
0.0000000000000003
 30
0.0
 11
206.5999999999999
 21
0.0
 31
0.0
  0
LINE
  5
CD
330
1E
100
AcDbEntity
  8
0
100
AcDbLine
 10
201.3
 20
101.0
 30
0.0
 11
203.4
 21
101.0
 31
0.0
  0
LINE
  5
CE
330
1E
100
AcDbEntity
  8
0
100
AcDbLine
 10
203.5
 20
99.50000000000001
 30
0.0
 11
204.17556
 21
99.50000000000001
 31
0.0
  0
LINE
  5
CF
330
1E
100
AcDbEntity
  8
0
100
AcDbLine
 10
206.4999999999999
 20
84.50000000000001
 30
0.0
 11
208.6999999999999
 21
81.3
 31
0.0
  0
LINE
  5
D0
330
1E
100
AcDbEntity
  8
0
100
AcDbLine
 10
206.5999999999999
 20
0.0000000000000019
 30
0.0
 11
211.2999999999999
 21
0.0000000000000021
 31
0.0
  0
LINE
  5
D1
330
1E
100
AcDbEntity
  8
0
100
AcDbLine
 10
206.5999999999999
 20
0.0
 30
0.0
 11
211.2999999999999
 21
-0.0000000000000002
 31
0.0
  0
LINE
  5
D2
330
1E
100
AcDbEntity
  8
0
100
AcDbLine
 10
206.5999999999999
 20
0.0
 30
0.0
 11
211.2999999999999
 21
-0.0000000000000002
 31
0.0
  0
LINE
  5
D3
330
1E
100
AcDbEntity
  8
0
100
AcDbLine
 10
204.17556
 20
99.50000000000001
 30
0.0
 11
206.0333299999999
 21
99.50000000000001
 31
0.0
  0
LINE
  5
D4
330
1E
100
AcDbEntity
  8
0
100
AcDbLine
 10
203.9222199999999
 20
100.0
 30
0.0
 11
204.59778
 21
100.0
 31
0.0
  0
LINE
  5
D5
330
1E
100
AcDbEntity
  8
0
100
AcDbLine
 10
204.59778
 20
100.0
 30
0.0
 11
206.37111
 21
100.0
 31
0.0
  0
LINE
  5
D6
330
1E
100
AcDbEntity
  8
0
100
AcDbLine
 10
206.37111
 20
100.0
 30
0.0
 11
209.4111199999999
 21
100.0
 31
0.0
  0
LINE
  5
D7
330
1E
100
AcDbEntity
  8
0
100
AcDbLine
 10
206.0333299999999
 20
99.50000000000001
 30
0.0
 11
209.07333
 21
99.50000000000001
 31
0.0
  0
LINE
  5
D8
330
1E
100
AcDbEntity
  8
0
100
AcDbLine
 10
203.4
 20
101.0
 30
0.0
 11
207.0
 21
101.0
 31
0.0
  0
LINE
  5
D9
330
1E
100
AcDbEntity
  8
0
100
AcDbLine
 10
207.0
 20
101.0
 30
0.0
 11
211.6
 21
101.0
 31
0.0
  0
LINE
  5
DA
330
1E
100
AcDbEntity
  8
0
100
AcDbLine
 10
201.0
 20
100.0
 30
0.0
 11
201.0
 21
101.0
 31
0.0
  0
LINE
  5
DB
330
1E
100
AcDbEntity
  8
0
100
AcDbLine
 10
203.0
 20
101.5
 30
0.0
 11
206.5999999999999
 21
101.5
 31
0.0
  0
LINE
  5
DC
330
1E
100
AcDbEntity
  8
0
100
AcDbLine
 10
206.5999999999999
 20
101.5
 30
0.0
 11
211.2999999999999
 21
101.5
 31
0.0
  0
LINE
  5
DD
330
1E
100
AcDbEntity
  8
0
100
AcDbLine
 10
201.0
 20
101.0
 30
0.0
 11
201.0
 21
100.0
 31
0.0
  0
LINE
  5
DE
330
1E
100
AcDbEntity
  8
0
100
AcDbLine
 10
208.6999999999999
 20
81.3
 30
0.0
 11
210.4999999999999
 21
79.90909090909091
 31
0.0
  0
LINE
  5
DF
330
1E
100
AcDbEntity
  8
0
100
AcDbLine
 10
209.4111199999999
 20
100.0
 30
0.0
 11
213.2956
 21
100.0
 31
0.0
  0
LINE
  5
E0
330
1E
100
AcDbEntity
  8
0
100
AcDbLine
 10
209.07333
 20
99.50000000000001
 30
0.0
 11
213.0422
 21
99.50000000000001
 31
0.0
  0
LINE
  5
E1
330
1E
100
AcDbEntity
  8
0
100
AcDbLine
 10
207.83333
 20
135.0
 30
0.0
 11
208.36667
 21
135.0
 31
0.0
  0
LINE
  5
E2
330
1E
100
AcDbEntity
  8
0
100
AcDbLine
 10
208.36667
 20
135.0
 30
0.0
 11
209.7666699999999
 21
135.0
 31
0.0
  0
LINE
  5
E3
330
1E
100
AcDbEntity
  8
0
100
AcDbLine
 10
211.22
 20
74.47490000000001
 30
0.0
 11
212.372
 21
73.9915
 31
0.0
  0
LINE
  5
E4
330
1E
100
AcDbEntity
  8
0
100
AcDbLine
 10
210.7879999999999
 20
75.0
 30
0.0
 11
211.22
 21
75.52509999999999
 31
0.0
  0
LINE
  5
E5
330
1E
100
AcDbEntity
  8
0
100
AcDbLine
 10
210.7879999999999
 20
75.0
 30
0.0
 11
211.22
 21
74.47490000000001
 31
0.0
  0
LINE
  5
E6
330
1E
100
AcDbEntity
  8
0
100
AcDbLine
 10
211.22
 20
75.52509999999999
 30
0.0
 11
212.372
 21
76.0085
 31
0.0
  0
LINE
  5
E7
330
1E
100
AcDbEntity
  8
0
100
AcDbLine
 10
210.932
 20
75.9027
 30
0.0
 11
212.084
 21
76.4029
 31
0.0
  0
LINE
  5
E8
330
1E
100
AcDbEntity
  8
0
100
AcDbLine
 10
210.4999999999999
 20
80.20957036492841
 30
0.0
 11
210.4999999999999
 21
75.36929999999999
 31
0.0
  0
LINE
  5
E9
330
1E
100
AcDbEntity
  8
0
100
AcDbLine
 10
210.4999999999999
 20
75.36929999999999
 30
0.0
 11
210.932
 21
75.9027
 31
0.0
  0
LINE
  5
EA
330
1E
100
AcDbEntity
  8
0
100
AcDbLine
 10
210.4999999999999
 20
75.36929999999999
 30
0.0
 11
210.7879999999999
 21
75.0
 31
0.0
  0
LINE
  5
EB
330
1E
100
AcDbEntity
  8
0
100
AcDbLine
 10
210.4999999999999
 20
75.36929999999999
 30
0.0
 11
210.4999999999999
 21
80.20957036492841
 31
0.0
  0
LINE
  5
EC
330
1E
100
AcDbEntity
  8
0
100
AcDbLine
 10
211.2999999999999
 20
0.0000000000000021
 30
0.0
 11
216.6999999999999
 21
0.0000000000000023
 31
0.0
  0
LINE
  5
ED
330
1E
100
AcDbEntity
  8
0
100
AcDbLine
 10
211.2999999999999
 20
-0.0000000000000002
 30
0.0
 11
216.6999999999999
 21
-0.0000000000000004
 31
0.0
  0
LINE
  5
EE
330
1E
100
AcDbEntity
  8
0
100
AcDbLine
 10
211.6
 20
101.0
 30
0.0
 11
216.5887999999999
 21
101.0
 31
0.0
  0
LINE
  5
EF
330
1E
100
AcDbEntity
  8
0
100
AcDbLine
 10
211.2999999999999
 20
101.5
 30
0.0
 11
216.6999999999999
 21
101.5
 31
0.0
  0
LINE
  5
F0
330
1E
100
AcDbEntity
  8
0
100
AcDbLine
 10
209.7666699999999
 20
135.0
 30
0.0
 11
212.1666999999999
 21
135.0
 31
0.0
  0
LINE
  5
F3
330
1E
100
AcDbEntity
  8
0
100
AcDbLine
 10
200.8
 20
135.0
 30
0.0
 11
207.83333
 21
135.0
 31
0.0
  0
LINE
  5
F5
330
1E
100
AcDbEntity
  8
0
100
AcDbLine
 10
212.372
 20
73.9915
 30
0.0
 11
214.244
 21
73.5664
 31
0.0
  0
LINE
  5
F6
330
1E
100
AcDbEntity
  8
0
100
AcDbLine
 10
212.372
 20
76.0085
 30
0.0
 11
214.244
 21
76.4336
 31
0.0
  0
LINE
  5
F7
330
1E
100
AcDbEntity
  8
0
100
AcDbLine
 10
212.084
 20
76.4029
 30
0.0
 11
214.004
 21
76.8446
 31
0.0
  0
LINE
  5
F8
330
1E
100
AcDbEntity
  8
0
100
AcDbLine
 10
214.244
 20
73.5664
 30
0.0
 11
216.692
 21
73.2413
 31
0.0
  0
LINE
  5
F9
330
1E
100
AcDbEntity
  8
0
100
AcDbLine
 10
214.244
 20
76.4336
 30
0.0
 11
216.692
 21
76.7587
 31
0.0
  0
LINE
  5
FA
330
1E
100
AcDbEntity
  8
0
100
AcDbLine
 10
214.004
 20
76.8446
 30
0.0
 11
216.548
 21
77.178
 31
0.0
  0
LINE
  5
FB
330
1E
100
AcDbEntity
  8
0
100
AcDbLine
 10
213.2956
 20
100.0
 30
0.0
 11
217.6867
 21
100.0
 31
0.0
  0
LINE
  5
FC
330
1E
100
AcDbEntity
  8
0
100
AcDbLine
 10
213.0422
 20
99.50000000000001
 30
0.0
 11
217.6022
 21
99.50000000000001
 31
0.0
  0
LINE
  5
FD
330
1E
100
AcDbEntity
  8
0
100
AcDbLine
 10
212.1666999999999
 20
135.0
 30
0.0
 11
215.2333
 21
135.0
 31
0.0
  0
LINE
  5
FE
330
1E
100
AcDbEntity
  8
0
100
AcDbLine
 10
216.692
 20
73.2413
 30
0.0
 11
219.476
 21
73.04120000000001
 31
0.0
  0
LINE
  5
FF
330
1E
100
AcDbEntity
  8
0
100
AcDbLine
 10
216.692
 20
76.7587
 30
0.0
 11
219.476
 21
76.95879999999999
 31
0.0
  0
LINE
  5
100
330
1E
100
AcDbEntity
  8
0
100
AcDbLine
 10
216.548
 20
77.178
 30
0.0
 11
219.428
 21
77.3781
 31
0.0
  0
LINE
  5
101
330
1E
100
AcDbEntity
  8
0
100
AcDbLine
 10
216.6999999999999
 20
0.0000000000000023
 30
0.0
 11
222.5
 21
0.0000000000000023
 31
0.0
  0
LINE
  5
102
330
1E
100
AcDbEntity
  8
0
100
AcDbLine
 10
216.6999999999999
 20
-0.0000000000000004
 30
0.0
 11
222.5
 21
-0.0000000000000004
 31
0.0
  0
LINE
  5
103
330
1E
100
AcDbEntity
  8
0
100
AcDbLine
 10
216.5887999999999
 20
101.0
 30
0.0
 11
216.8422
 21
101.0
 31
0.0
  0
LINE
  5
104
330
1E
100
AcDbEntity
  8
0
100
AcDbLine
 10
217.6867
 20
100.0
 30
0.0
 11
222.5
 21
100.0
 31
0.0
  0
LINE
  5
105
330
1E
100
AcDbEntity
  8
0
100
AcDbLine
 10
217.6022
 20
99.50000000000001
 30
0.0
 11
222.5
 21
99.50000000000001
 31
0.0
  0
LINE
  5
106
330
1E
100
AcDbEntity
  8
0
100
AcDbLine
 10
215.5
 20
101.0
 30
0.0
 11
216.5887999999999
 21
101.0
 31
0.0
  0
LINE
  5
107
330
1E
100
AcDbEntity
  8
0
100
AcDbLine
 10
216.6999999999999
 20
101.5
 30
0.0
 11
222.5
 21
101.5
 31
0.0
  0
LINE
  5
108
330
1E
100
AcDbEntity
  8
0
100
AcDbLine
 10
228.3
 20
0.0000000000000023
 30
0.0
 11
233.6999999999999
 21
0.0000000000000021
 31
0.0
  0
LINE
  5
109
330
1E
100
AcDbEntity
  8
0
100
AcDbLine
 10
219.476
 20
73.04120000000001
 30
0.0
 11
222.5
 21
72.9662
 31
0.0
  0
LINE
  5
10A
330
1E
100
AcDbEntity
  8
0
100
AcDbLine
 10
222.5
 20
72.9662
 30
0.0
 11
225.524
 21
73.04120000000001
 31
0.0
  0
LINE
  5
10B
330
1E
100
AcDbEntity
  8
0
100
AcDbLine
 10
219.476
 20
76.95879999999999
 30
0.0
 11
222.5
 21
77.0338
 31
0.0
  0
LINE
  5
10C
330
1E
100
AcDbEntity
  8
0
100
AcDbLine
 10
219.428
 20
77.3781
 30
0.0
 11
222.5
 21
77.4531
 31
0.0
  0
LINE
  5
10D
330
1E
100
AcDbEntity
  8
0
100
AcDbLine
 10
222.5
 20
77.0338
 30
0.0
 11
225.524
 21
76.95879999999999
 31
0.0
  0
LINE
  5
10E
330
1E
100
AcDbEntity
  8
0
100
AcDbLine
 10
222.5
 20
77.4531
 30
0.0
 11
225.572
 21
77.3781
 31
0.0
  0
LINE
  5
10F
330
1E
100
AcDbEntity
  8
0
100
AcDbLine
 10
222.5
 20
100.0
 30
0.0
 11
227.3133
 21
100.0
 31
0.0
  0
LINE
  5
110
330
1E
100
AcDbEntity
  8
0
100
AcDbLine
 10
225.524
 20
73.04120000000001
 30
0.0
 11
228.3079999999999
 21
73.2413
 31
0.0
  0
LINE
  5
111
330
1E
100
AcDbEntity
  8
0
100
AcDbLine
 10
225.524
 20
76.95879999999999
 30
0.0
 11
228.3079999999999
 21
76.7587
 31
0.0
  0
LINE
  5
112
330
1E
100
AcDbEntity
  8
0
100
AcDbLine
 10
225.572
 20
77.3781
 30
0.0
 11
228.452
 21
77.178
 31
0.0
  0
LINE
  5
113
330
1E
100
AcDbEntity
  8
0
100
AcDbLine
 10
227.3133
 20
100.0
 30
0.0
 11
231.7044999999999
 21
100.0
 31
0.0
  0
LINE
  5
114
330
1E
100
AcDbEntity
  8
0
100
AcDbLine
 10
227.3978
 20
99.50000000000001
 30
0.0
 11
231.9577999999999
 21
99.50000000000001
 31
0.0
  0
LINE
  5
115
330
1E
100
AcDbEntity
  8
0
100
AcDbLine
 10
222.5
 20
99.50000000000001
 30
0.0
 11
227.3978
 21
99.50000000000001
 31
0.0
  0
LINE
  5
116
330
1E
100
AcDbEntity
  8
0
100
AcDbLine
 10
222.5
 20
0.0000000000000023
 30
0.0
 11
228.3
 21
0.0000000000000023
 31
0.0
  0
LINE
  5
117
330
1E
100
AcDbEntity
  8
0
100
AcDbLine
 10
228.3079999999999
 20
73.2413
 30
0.0
 11
230.7559999999999
 21
73.5664
 31
0.0
  0
LINE
  5
118
330
1E
100
AcDbEntity
  8
0
100
AcDbLine
 10
230.7559999999999
 20
73.5664
 30
0.0
 11
232.628
 21
73.9915
 31
0.0
  0
LINE
  5
119
330
1E
100
AcDbEntity
  8
0
100
AcDbLine
 10
232.628
 20
73.9915
 30
0.0
 11
233.78
 21
74.47490000000001
 31
0.0
  0
LINE
  5
11A
330
1E
100
AcDbEntity
  8
0
100
AcDbLine
 10
228.3079999999999
 20
76.7587
 30
0.0
 11
230.7559999999999
 21
76.4336
 31
0.0
  0
LINE
  5
11B
330
1E
100
AcDbEntity
  8
0
100
AcDbLine
 10
230.7559999999999
 20
76.4336
 30
0.0
 11
232.628
 21
76.0085
 31
0.0
  0
LINE
  5
11C
330
1E
100
AcDbEntity
  8
0
100
AcDbLine
 10
232.628
 20
76.0085
 30
0.0
 11
233.78
 21
75.52509999999999
 31
0.0
  0
LINE
  5
11D
330
1E
100
AcDbEntity
  8
0
100
AcDbLine
 10
228.452
 20
77.178
 30
0.0
 11
230.9959999999999
 21
76.8446
 31
0.0
  0
LINE
  5
11E
330
1E
100
AcDbEntity
  8
0
100
AcDbLine
 10
230.9959999999999
 20
76.8446
 30
0.0
 11
232.9159999999999
 21
76.4029
 31
0.0
  0
LINE
  5
11F
330
1E
100
AcDbEntity
  8
0
100
AcDbLine
 10
232.9159999999999
 20
76.4029
 30
0.0
 11
234.0679999999999
 21
75.9027
 31
0.0
  0
LINE
  5
120
330
1E
100
AcDbEntity
  8
0
100
AcDbLine
 10
231.7044999999999
 20
100.0
 30
0.0
 11
235.5888999999999
 21
100.0
 31
0.0
  0
LINE
  5
121
330
1E
100
AcDbEntity
  8
0
100
AcDbLine
 10
231.9577999999999
 20
99.50000000000001
 30
0.0
 11
235.9267
 21
99.50000000000001
 31
0.0
  0
LINE
  5
122
330
1E
100
AcDbEntity
  8
0
100
AcDbLine
 10
228.3
 20
-0.0000000000000004
 30
0.0
 11
233.6999999999999
 21
-0.0000000000000002
 31
0.0
  0
LINE
  5
123
330
1E
100
AcDbEntity
  8
0
100
AcDbLine
 10
222.5
 20
-0.0000000000000004
 30
0.0
 11
228.3
 21
-0.0000000000000004
 31
0.0
  0
LINE
  5
124
330
1E
100
AcDbEntity
  8
0
100
AcDbLine
 10
233.78
 20
74.47490000000001
 30
0.0
 11
234.212
 21
75.0
 31
0.0
  0
LINE
  5
125
330
1E
100
AcDbEntity
  8
0
100
AcDbLine
 10
234.212
 20
75.0
 30
0.0
 11
234.5
 21
75.36929999999999
 31
0.0
  0
LINE
  5
126
330
1E
100
AcDbEntity
  8
0
100
AcDbLine
 10
233.78
 20
75.52509999999999
 30
0.0
 11
234.212
 21
75.0
 31
0.0
  0
LINE
  5
127
330
1E
100
AcDbEntity
  8
0
100
AcDbLine
 10
234.5
 20
80.2095789771122
 30
0.0
 11
234.5
 21
75.36929999999999
 31
0.0
  0
LINE
  5
128
330
1E
100
AcDbEntity
  8
0
100
AcDbLine
 10
234.0679999999999
 20
75.9027
 30
0.0
 11
234.5
 21
75.36929999999999
 31
0.0
  0
LINE
  5
129
330
1E
100
AcDbEntity
  8
0
100
AcDbLine
 10
234.5
 20
75.36929999999999
 30
0.0
 11
234.5
 21
80.2095789771122
 31
0.0
  0
LINE
  5
12A
330
1E
100
AcDbEntity
  8
0
100
AcDbLine
 10
235.5888999999999
 20
100.0
 30
0.0
 11
238.6289
 21
100.0
 31
0.0
  0
LINE
  5
12B
330
1E
100
AcDbEntity
  8
0
100
AcDbLine
 10
235.9267
 20
99.50000000000001
 30
0.0
 11
238.9667
 21
99.50000000000001
 31
0.0
  0
LINE
  5
12C
330
1E
100
AcDbEntity
  8
0
100
AcDbLine
 10
236.2999999999999
 20
81.3
 30
0.0
 11
238.5
 21
84.50000000000001
 31
0.0
  0
LINE
  5
12D
330
1E
100
AcDbEntity
  8
0
100
AcDbLine
 10
234.5
 20
79.90909090909091
 30
0.0
 11
236.2999999999999
 21
81.3
 31
0.0
  0
LINE
  5
12E
330
1E
100
AcDbEntity
  8
0
100
AcDbLine
 10
238.3999999999999
 20
0.0000000000000019
 30
0.0
 11
242.0
 21
0.0000000000000016
 31
0.0
  0
LINE
  5
12F
330
1E
100
AcDbEntity
  8
0
100
AcDbLine
 10
233.6999999999999
 20
0.0000000000000021
 30
0.0
 11
238.3999999999999
 21
0.0000000000000019
 31
0.0
  0
LINE
  5
130
330
1E
100
AcDbEntity
  8
0
100
AcDbLine
 10
238.3999999999999
 20
0.0
 30
0.0
 11
242.0
 21
0.0000000000000003
 31
0.0
  0
LINE
  5
131
330
1E
100
AcDbEntity
  8
0
100
AcDbLine
 10
240.8243999999999
 20
99.50000000000001
 30
0.0
 11
241.5
 21
99.50000000000001
 31
0.0
  0
LINE
  5
132
330
1E
100
AcDbEntity
  8
0
100
AcDbLine
 10
240.4021999999999
 20
100.0
 30
0.0
 11
241.0778
 21
100.0
 31
0.0
  0
LINE
  5
133
330
1E
100
AcDbEntity
  8
0
100
AcDbLine
 10
238.6289
 20
100.0
 30
0.0
 11
240.4021999999999
 21
100.0
 31
0.0
  0
LINE
  5
134
330
1E
100
AcDbEntity
  8
0
100
AcDbLine
 10
238.9667
 20
99.50000000000001
 30
0.0
 11
240.8243999999999
 21
99.50000000000001
 31
0.0
  0
LINE
  5
135
330
1E
100
AcDbEntity
  8
0
100
AcDbLine
 10
241.5
 20
99.50000000000001
 30
0.0
 11
245.0
 21
99.50000000000001
 31
0.0
  0
LINE
  5
136
330
1E
100
AcDbEntity
  8
0
100
AcDbLine
 10
241.0778
 20
100.0
 30
0.0
 11
244.4999999999999
 21
100.0
 31
0.0
  0
LINE
  5
137
330
1E
100
AcDbEntity
  8
0
100
AcDbLine
 10
238.3999999999999
 20
0.0
 30
0.0
 11
242.0
 21
0.0000000000000003
 31
0.0
  0
LINE
  5
138
330
1E
100
AcDbEntity
  8
0
100
AcDbLine
 10
233.6999999999999
 20
-0.0000000000000002
 30
0.0
 11
238.3999999999999
 21
0.0
 31
0.0
  0
LINE
  5
139
330
1E
100
AcDbEntity
  8
0
100
AcDbLine
 10
233.6999999999999
 20
-0.0000000000000002
 30
0.0
 11
238.3999999999999
 21
0.0
 31
0.0
  0
LINE
  5
13A
330
1E
100
AcDbEntity
  8
0
100
AcDbLine
 10
242.0
 20
0.0000000000000016
 30
0.0
 11
244.1999999999999
 21
0.0000000000000013
 31
0.0
  0
LINE
  5
13B
330
1E
100
AcDbEntity
  8
0
100
AcDbLine
 10
243.9921250075689
 20
100.0507874992429
 30
0.0
 11
244.4999999999999
 21
100.0
 31
0.0
  0
LINE
  5
13C
330
1E
100
AcDbEntity
  8
0
100
AcDbLine
 10
242.0
 20
0.0000000000000003
 30
0.0
 11
244.1999999999999
 21
0.0000000000000006
 31
0.0
  0
LINE
  5
13D
330
1E
100
AcDbEntity
  8
0
100
AcDbLine
 10
243.6999999999999
 20
101.0
 30
0.0
 11
244.4999999999999
 21
101.0
 31
0.0
  0
LINE
  5
13E
330
1E
100
AcDbEntity
  8
0
100
AcDbLine
 10
241.5999999999999
 20
101.0
 30
0.0
 11
243.6999999999999
 21
101.0
 31
0.0
  0
LINE
  5
13F
330
1E
100
AcDbEntity
  8
0
100
AcDbLine
 10
238.0
 20
101.0
 30
0.0
 11
241.5999999999999
 21
101.0
 31
0.0
  0
LINE
  5
140
330
1E
100
AcDbEntity
  8
0
100
AcDbLine
 10
216.8422
 20
101.0
 30
0.0
 11
238.0
 21
101.0
 31
0.0
  0
LINE
  5
142
330
1E
100
AcDbEntity
  8
0
100
AcDbLine
 10
244.1999999999999
 20
0.0000000000000013
 30
0.0
 11
245.0
 21
0.000000000000001
 31
0.0
  0
LINE
  5
143
330
1E
100
AcDbEntity
  8
0
100
AcDbLine
 10
245.0
 20
0.000000000000001
 30
0.0
 11
245.0
 21
54.0
 31
0.0
  0
LINE
  5
144
330
1E
100
AcDbEntity
  8
0
100
AcDbLine
 10
245.0
 20
99.50000000000001
 30
0.0
 11
245.0
 21
98.0
 31
0.0
  0
LINE
  5
145
330
1E
100
AcDbEntity
  8
0
100
AcDbLine
 10
244.4999999999999
 20
100.0
 30
0.0
 11
245.0
 21
99.50000000000001
 31
0.0
  0
LINE
  5
146
330
1E
100
AcDbEntity
  8
0
100
AcDbLine
 10
245.0
 20
98.0
 30
0.0
 11
245.0
 21
66.19469999999999
 31
0.0
  0
LINE
  5
147
330
1E
100
AcDbEntity
  8
0
100
AcDbLine
 10
245.0
 20
98.0
 30
0.0
 11
245.0
 21
99.50000000000001
 31
0.0
  0
LINE
  5
148
330
1E
100
AcDbEntity
  8
0
100
AcDbLine
 10
245.0
 20
66.19469999999999
 30
0.0
 11
245.0
 21
98.0
 31
0.0
  0
LINE
  5
149
330
1E
100
AcDbEntity
  8
0
100
AcDbLine
 10
245.0
 20
66.19469999999999
 30
0.0
 11
245.0
 21
54.0
 31
0.0
  0
LINE
  5
14A
330
1E
100
AcDbEntity
  8
0
100
AcDbLine
 10
245.0
 20
54.0
 30
0.0
 11
245.0
 21
0.0
 31
0.0
  0
LINE
  5
14B
330
1E
100
AcDbEntity
  8
0
100
AcDbLine
 10
245.0
 20
54.0
 30
0.0
 11
245.0
 21
66.19469999999999
 31
0.0
  0
LINE
  5
14C
330
1E
100
AcDbEntity
  8
0
100
AcDbLine
 10
244.1999999999999
 20
0.0000000000000006
 30
0.0
 11
245.0
 21
0.000000000000001
 31
0.0
  0
LINE
  5
14D
330
1E
100
AcDbEntity
  8
0
100
AcDbLine
 10
244.4999999999999
 20
101.0
 30
0.0
 11
245.0
 21
101.5
 31
0.0
  0
LINE
  5
14E
330
1E
100
AcDbEntity
  8
0
100
AcDbLine
 10
244.0
 20
100.0327032507029
 30
0.0
 11
244.0
 21
101.0
 31
0.0
  0
LINE
  5
14F
330
1E
100
AcDbEntity
  8
0
100
AcDbLine
 10
220.5719999999999
 20
108.9749999999999
 30
0.0
 11
220.764
 21
108.495
 31
0.0
  0
LINE
  5
150
330
1E
100
AcDbEntity
  8
0
100
AcDbLine
 10
220.764
 20
108.495
 30
0.0
 11
221.084
 21
108.071
 31
0.0
  0
LINE
  5
151
330
1E
100
AcDbEntity
  8
0
100
AcDbLine
 10
220.5
 20
109.487
 30
0.0
 11
220.5719999999999
 21
109.999
 31
0.0
  0
LINE
  5
152
330
1E
100
AcDbEntity
  8
0
100
AcDbLine
 10
220.5
 20
109.487
 30
0.0
 11
220.5719999999999
 21
108.9749999999999
 31
0.0
  0
LINE
  5
153
330
1E
100
AcDbEntity
  8
0
100
AcDbLine
 10
220.5719999999999
 20
109.999
 30
0.0
 11
220.764
 21
110.4789999999999
 31
0.0
  0
LINE
  5
154
330
1E
100
AcDbEntity
  8
0
100
AcDbLine
 10
220.764
 20
110.4789999999999
 30
0.0
 11
221.084
 21
110.9029999999999
 31
0.0
  0
LINE
  5
156
330
1E
100
AcDbEntity
  8
0
100
AcDbLine
 10
221.084
 20
108.071
 30
0.0
 11
221.5079999999999
 21
107.7509999999999
 31
0.0
  0
LINE
  5
157
330
1E
100
AcDbEntity
  8
0
100
AcDbLine
 10
221.5079999999999
 20
107.7509999999999
 30
0.0
 11
221.9879999999999
 21
107.559
 31
0.0
  0
LINE
  5
158
330
1E
100
AcDbEntity
  8
0
100
AcDbLine
 10
221.9879999999999
 20
107.559
 30
0.0
 11
222.5
 21
107.487
 31
0.0
  0
LINE
  5
159
330
1E
100
AcDbEntity
  8
0
100
AcDbLine
 10
221.084
 20
110.9029999999999
 30
0.0
 11
221.5079999999999
 21
111.223
 31
0.0
  0
LINE
  5
15A
330
1E
100
AcDbEntity
  8
0
100
AcDbLine
 10
221.5079999999999
 20
111.223
 30
0.0
 11
221.9879999999999
 21
111.415
 31
0.0
  0
LINE
  5
15B
330
1E
100
AcDbEntity
  8
0
100
AcDbLine
 10
222.5
 20
111.487
 30
0.0
 11
223.0119999999999
 21
111.415
 31
0.0
  0
LINE
  5
15C
330
1E
100
AcDbEntity
  8
0
100
AcDbLine
 10
222.5
 20
107.487
 30
0.0
 11
223.0119999999999
 21
107.559
 31
0.0
  0
LINE
  5
15D
330
1E
100
AcDbEntity
  8
0
100
AcDbLine
 10
221.9879999999999
 20
111.415
 30
0.0
 11
222.5
 21
111.487
 31
0.0
  0
LINE
  5
166
330
1E
100
AcDbEntity
  8
0
100
AcDbLine
 10
244.1999999999999
 20
101.5
 30
0.0
 11
245.0
 21
101.5
 31
0.0
  0
LINE
  5
167
330
1E
100
AcDbEntity
  8
0
100
AcDbLine
 10
245.0
 20
101.5
 30
0.0
 11
245.0
 21
137.0
 31
0.0
  0
LINE
  5
168
330
1E
100
AcDbEntity
  8
0
100
AcDbLine
 10
242.0
 20
101.5
 30
0.0
 11
244.1999999999999
 21
101.5
 31
0.0
  0
LINE
  5
169
330
1E
100
AcDbEntity
  8
0
100
AcDbLine
 10
238.3999999999999
 20
101.5
 30
0.0
 11
242.0
 21
101.5
 31
0.0
  0
LINE
  5
16A
330
1E
100
AcDbEntity
  8
0
100
AcDbLine
 10
233.6999999999999
 20
101.5
 30
0.0
 11
238.3999999999999
 21
101.5
 31
0.0
  0
LINE
  5
16B
330
1E
100
AcDbEntity
  8
0
100
AcDbLine
 10
223.492
 20
111.223
 30
0.0
 11
223.916
 21
110.9029999999999
 31
0.0
  0
LINE
  5
16C
330
1E
100
AcDbEntity
  8
0
100
AcDbLine
 10
223.0119999999999
 20
111.415
 30
0.0
 11
223.492
 21
111.223
 31
0.0
  0
LINE
  5
16D
330
1E
100
AcDbEntity
  8
0
100
AcDbLine
 10
223.492
 20
107.7509999999999
 30
0.0
 11
223.916
 21
108.071
 31
0.0
  0
LINE
  5
16E
330
1E
100
AcDbEntity
  8
0
100
AcDbLine
 10
223.0119999999999
 20
107.559
 30
0.0
 11
223.492
 21
107.7509999999999
 31
0.0
  0
LINE
  5
16F
330
1E
100
AcDbEntity
  8
0
100
AcDbLine
 10
224.236
 20
110.4789999999999
 30
0.0
 11
224.4279999999999
 21
109.999
 31
0.0
  0
LINE
  5
170
330
1E
100
AcDbEntity
  8
0
100
AcDbLine
 10
223.916
 20
110.9029999999999
 30
0.0
 11
224.236
 21
110.4789999999999
 31
0.0
  0
LINE
  5
171
330
1E
100
AcDbEntity
  8
0
100
AcDbLine
 10
224.4279999999999
 20
109.999
 30
0.0
 11
224.5
 21
109.487
 31
0.0
  0
LINE
  5
172
330
1E
100
AcDbEntity
  8
0
100
AcDbLine
 10
224.4279999999999
 20
108.9749999999999
 30
0.0
 11
224.5
 21
109.487
 31
0.0
  0
LINE
  5
173
330
1E
100
AcDbEntity
  8
0
100
AcDbLine
 10
224.236
 20
108.495
 30
0.0
 11
224.4279999999999
 21
108.9749999999999
 31
0.0
  0
LINE
  5
174
330
1E
100
AcDbEntity
  8
0
100
AcDbLine
 10
223.916
 20
108.071
 30
0.0
 11
224.236
 21
108.495
 31
0.0
  0
LINE
  5
178
330
1E
100
AcDbEntity
  8
0
100
AcDbLine
 10
228.3
 20
101.5
 30
0.0
 11
233.6999999999999
 21
101.5
 31
0.0
  0
LINE
  5
179
330
1E
100
AcDbEntity
  8
0
100
AcDbLine
 10
222.5
 20
101.5
 30
0.0
 11
228.3
 21
101.5
 31
0.0
  0
LINE
  5
17A
330
1E
100
AcDbEntity
  8
0
100
AcDbLine
 10
244.0
 20
101.0
 30
0.0
 11
244.0
 21
100.0327032507029
 31
0.0
  0
LINE
  5
17C
330
1E
100
AcDbEntity
  8
0
100
AcDbLine
 10
236.6333
 20
135.0
 30
0.0
 11
237.1666999999999
 21
135.0
 31
0.0
  0
LINE
  5
17D
330
1E
100
AcDbEntity
  8
0
100
AcDbLine
 10
235.2333
 20
135.0
 30
0.0
 11
236.6333
 21
135.0
 31
0.0
  0
LINE
  5
17E
330
1E
100
AcDbEntity
  8
0
100
AcDbLine
 10
232.8333
 20
135.0
 30
0.0
 11
235.2333
 21
135.0
 31
0.0
  0
LINE
  5
17F
330
1E
100
AcDbEntity
  8
0
100
AcDbLine
 10
229.7667
 20
135.0
 30
0.0
 11
232.8333
 21
135.0
 31
0.0
  0
LINE
  5
180
330
1E
100
AcDbEntity
  8
0
100
AcDbLine
 10
226.3
 20
135.0
 30
0.0
 11
229.7667
 21
135.0
 31
0.0
  0
LINE
  5
181
330
1E
100
AcDbEntity
  8
0
100
AcDbLine
 10
222.5
 20
135.0
 30
0.0
 11
226.3
 21
135.0
 31
0.0
  0
LINE
  5
182
330
1E
100
AcDbEntity
  8
0
100
AcDbLine
 10
237.1666999999999
 20
135.0
 30
0.0
 11
244.0760563380279
 21
135.0
 31
0.0
  0
LINE
  5
184
330
1E
100
AcDbEntity
  8
0
100
AcDbLine
 10
215.2333
 20
135.0
 30
0.0
 11
218.6999999999999
 21
135.0
 31
0.0
  0
LINE
  5
187
330
1E
100
AcDbEntity
  8
0
100
AcDbLine
 10
245.0
 20
135.4999999999999
 30
0.0
 11
245.0
 21
137.0
 31
0.0
  0
LINE
  5
18A
330
1E
100
AcDbEntity
  8
0
100
AcDbLine
 10
245.0
 20
138.5
 30
0.0
 11
245.0
 21
137.0
 31
0.0
  0
LINE
  5
18B
330
1E
100
AcDbEntity
  8
0
100
AcDbLine
 10
244.4999999999999
 20
139.0
 30
0.0
 11
245.0
 21
138.5
 31
0.0
  0
LINE
  5
18C
330
1E
100
AcDbEntity
  8
0
100
AcDbLine
 10
237.5
 20
138.5
 30
0.0
 11
245.0
 21
138.5
 31
0.0
  0
LINE
  5
18D
330
1E
100
AcDbEntity
  8
0
100
AcDbLine
 10
207.5
 20
135.4999999999999
 30
0.0
 11
245.0
 21
135.4999999999999
 31
0.0
  0
LINE
  5
18E
330
1E
100
AcDbEntity
  8
0
100
AcDbLine
 10
245.0
 20
137.0
 30
0.0
 11
245.0
 21
101.5
 31
0.0
  0
LINE
  5
18F
330
1E
100
AcDbEntity
  8
0
100
AcDbLine
 10
245.0
 20
137.0
 30
0.0
 11
245.0
 21
138.5
 31
0.0
  0
LINE
  5
190
330
1E
100
AcDbEntity
  8
0
100
AcDbLine
 10
218.6999999999999
 20
135.0
 30
0.0
 11
222.5
 21
135.0
 31
0.0
  0
LINE
  5
192
330
1E
100
AcDbEntity
  8
0
100
AcDbLine
 10
207.83333
 20
139.0
 30
0.0
 11
208.36667
 21
139.0
 31
0.0
  0
LINE
  5
193
330
1E
100
AcDbEntity
  8
0
100
AcDbLine
 10
208.36667
 20
139.0
 30
0.0
 11
209.7666699999999
 21
139.0
 31
0.0
  0
LINE
  5
194
330
1E
100
AcDbEntity
  8
0
100
AcDbLine
 10
209.7666699999999
 20
139.0
 30
0.0
 11
212.1666999999999
 21
139.0
 31
0.0
  0
LINE
  5
195
330
1E
100
AcDbEntity
  8
0
100
AcDbLine
 10
212.1666999999999
 20
139.0
 30
0.0
 11
215.2333
 21
139.0
 31
0.0
  0
LINE
  5
196
330
1E
100
AcDbEntity
  8
0
100
AcDbLine
 10
215.2333
 20
139.0
 30
0.0
 11
218.6999999999999
 21
139.0
 31
0.0
  0
LINE
  5
197
330
1E
100
AcDbEntity
  8
0
100
AcDbLine
 10
236.6333
 20
139.0
 30
0.0
 11
237.1666999999999
 21
139.0
 31
0.0
  0
LINE
  5
198
330
1E
100
AcDbEntity
  8
0
100
AcDbLine
 10
235.2333
 20
139.0
 30
0.0
 11
236.6333
 21
139.0
 31
0.0
  0
LINE
  5
199
330
1E
100
AcDbEntity
  8
0
100
AcDbLine
 10
232.8333
 20
139.0
 30
0.0
 11
235.2333
 21
139.0
 31
0.0
  0
LINE
  5
19A
330
1E
100
AcDbEntity
  8
0
100
AcDbLine
 10
229.7667
 20
139.0
 30
0.0
 11
232.8333
 21
139.0
 31
0.0
  0
LINE
  5
19B
330
1E
100
AcDbEntity
  8
0
100
AcDbLine
 10
226.3
 20
139.0
 30
0.0
 11
229.7667
 21
139.0
 31
0.0
  0
LINE
  5
19E
330
1E
100
AcDbEntity
  8
0
100
AcDbLine
 10
222.5
 20
139.0
 30
0.0
 11
226.3
 21
139.0
 31
0.0
  0
LINE
  5
19F
330
1E
100
AcDbEntity
  8
0
100
AcDbLine
 10
239.5
 20
139.5
 30
0.0
 11
244.4999999999999
 21
139.0
 31
0.0
  0
LINE
  5
1A0
330
1E
100
AcDbEntity
  8
0
100
AcDbLine
 10
237.1666999999999
 20
139.0
 30
0.0
 11
244.4999999999999
 21
139.0
 31
0.0
  0
LINE
  5
1A2
330
1E
100
AcDbEntity
  8
0
100
AcDbLine
 10
235.144139315608
 20
139.71779303422
 30
0.0
 11
239.5
 21
139.5
 31
0.0
  0
LINE
  5
1A3
330
1E
100
AcDbEntity
  8
0
100
AcDbLine
 10
218.6999999999999
 20
139.0
 30
0.0
 11
222.5
 21
139.0
 31
0.0
  0
LINE
  5
1B3
330
1E
100
AcDbEntity
  8
0
100
AcDbLine
 10
217.8333
 20
140.0
 30
0.0
 11
218.0333
 21
140.0
 31
0.0
  0
LINE
  5
1B4
330
1E
100
AcDbEntity
  8
0
100
AcDbLine
 10
218.0333
 20
140.0
 30
0.0
 11
218.4333
 21
140.0
 31
0.0
  0
LINE
  5
1C1
330
1E
100
AcDbEntity
  8
0
100
AcDbLine
 10
229.1999999999999
 20
140.0
 30
0.0
 11
229.4999999999999
 21
140.0
 31
0.0
  0
LINE
  5
1C2
330
1E
100
AcDbEntity
  8
0
100
AcDbLine
 10
226.5667
 20
140.0
 30
0.0
 11
226.9667
 21
140.0
 31
0.0
  0
LINE
  5
1C3
330
1E
100
AcDbEntity
  8
0
100
AcDbLine
 10
225.7667
 20
140.0
 30
0.0
 11
226.5667
 21
140.0
 31
0.0
  0
LINE
  5
1C4
330
1E
100
AcDbEntity
  8
0
100
AcDbLine
 10
224.8333
 20
140.0
 30
0.0
 11
225.7667
 21
140.0
 31
0.0
  0
LINE
  5
1C5
330
1E
100
AcDbEntity
  8
0
100
AcDbLine
 10
223.7
 20
140.0
 30
0.0
 11
224.8333
 21
140.0
 31
0.0
  0
LINE
  5
1C6
330
1E
100
AcDbEntity
  8
0
100
AcDbLine
 10
222.5
 20
140.0
 30
0.0
 11
223.7
 21
140.0
 31
0.0
  0
LINE
  5
1C8
330
1E
100
AcDbEntity
  8
0
100
AcDbLine
 10
218.4333
 20
140.0
 30
0.0
 11
222.5
 21
140.0
 31
0.0
  0
LINE
  5
1CA
330
1E
100
AcDbEntity
  8
0
100
AcDbLine
 10
205.5
 20
139.5
 30
0.0
 11
209.85586272612
 21
139.717793136306
 31
0.0
  0
LINE
  5
1CB
330
1E
100
AcDbEntity
  8
0
100
AcDbLine
 10
200.4999999999999
 20
139.0
 30
0.0
 11
205.5
 21
139.5
 31
0.0
  0
LINE
  5
1CC
330
1E
100
AcDbEntity
  8
0
100
AcDbLine
 10
200.4999999999999
 20
139.0
 30
0.0
 11
207.83333
 21
139.0
 31
0.0
  0
LINE
  5
1CD
330
1E
100
AcDbEntity
  8
0
100
AcDbLine
 10
200.0
 20
137.0
 30
0.0
 11
200.0
 21
138.5
 31
0.0
  0
LINE
  5
1CE
330
1E
100
AcDbEntity
  8
0
100
AcDbLine
 10
200.0
 20
137.0
 30
0.0
 11
200.0
 21
135.4999999999999
 31
0.0
  0
LINE
  5
1CF
330
1E
100
AcDbEntity
  8
0
100
AcDbLine
 10
200.0
 20
137.0
 30
0.0
 11
200.0
 21
101.5
 31
0.0
  0
LINE
  5
1D4
330
1E
100
AcDbEntity
  8
0
100
AcDbLine
 10
19.0
 20
285.0
 30
0.0
 11
14.9
 21
284.3999999999999
 31
0.0
  0
LINE
  5
1D5
330
1E
100
AcDbEntity
  8
0
100
AcDbLine
 10
32.9
 20
277.0
 30
0.0
 11
34.39999999999999
 21
273.1
 31
0.0
  0
LINE
  5
1D8
330
1E
100
AcDbEntity
  8
0
100
AcDbLine
 10
209.85586272612
 20
139.717793136306
 30
0.0
 11
217.8333
 21
140.0
 31
0.0
  0
LINE
  5
1D9
330
1E
100
AcDbEntity
  8
0
100
AcDbLine
 10
235.144139315608
 20
139.71779303422
 30
0.0
 11
229.4999999999999
 21
140.0
 31
0.0
  0
LINE
  5
1DA
330
1E
100
AcDbEntity
  8
0
100
AcDbLine
 10
229.1999999999999
 20
140.0
 30
0.0
 11
226.9667
 21
140.0
 31
0.0
  0
LINE
  5
1DB
330
1E
100
AcDbEntity
  8
0
100
AcDbLine
 10
244.0760563380279
 20
135.0
 30
0.0
 11
245.0
 21
135.4999999999999
 31
0.0
  0
LINE
  5
1DC
330
1E
100
AcDbEntity
  8
0
100
AcDbLine
 10
200.8
 20
135.0
 30
0.0
 11
200.0
 21
135.4999999999999
 31
0.0
  0
LINE
  5
1DD
330
1E
100
AcDbEntity
  8
0
100
AcDbLine
 10
206.4999999999999
 20
84.50000000000001
 30
0.0
 11
203.0450904768595
 21
91.46904993725206
 31
0.0
  0
LINE
  5
1DE
330
1E
100
AcDbEntity
  8
0
100
AcDbLine
 10
203.0450904768595
 20
91.46904993725206
 30
0.0
 11
200.0
 21
99.50000000000001
 31
0.0
  0
LINE
  5
1DF
330
1E
100
AcDbEntity
  8
0
100
AcDbLine
 10
238.5
 20
84.50000000000001
 30
0.0
 11
241.0952778472503
 21
89.6732110895382
 31
0.0
  0
LINE
  5
1E0
330
1E
100
AcDbEntity
  8
0
100
AcDbLine
 10
241.0952778472503
 20
89.6732110895382
 30
0.0
 11
245.0
 21
99.50000000000001
 31
0.0
  0
ENDSEC
  0
SECTION
  2
OBJECTS
  0
DICTIONARY
  5
C
330
0
100
AcDbDictionary
  3
ACAD_GROUP
350
D
  3
ACAD_LAYOUT
350
19
  3
ACAD_MLINESTYLE
350
16
  3
ACAD_PLOTSETTINGS
350
18
  3
ACAD_PLOTSTYLENAME
350
E
  3
ACDBHEADERROUNDTRIPXREC
350
1E4
  3
ACDBVARIABLEDICTIONARY
350
1E1
  0
DICTIONARY
  5
206
330
1E
100
AcDbDictionary
280
     1
  3
ACAD_LAYOUTSELFREF
360
207
  0
DICTIONARY
  5
204
330
1A
100
AcDbDictionary
280
     1
  3
ACAD_LAYOUTSELFREF
360
205
  0
DICTIONARY
  5
D
102
{ACAD_REACTORS
330
C
102
}
330
C
100
AcDbDictionary
  0
DICTIONARY
  5
19
102
{ACAD_REACTORS
330
C
102
}
330
C
100
AcDbDictionary
  0
DICTIONARY
  5
16
102
{ACAD_REACTORS
330
C
102
}
330
C
100
AcDbDictionary
  3
STANDARD
350
17
  0
DICTIONARY
  5
18
102
{ACAD_REACTORS
330
C
102
}
330
C
100
AcDbDictionary
  0
ACDBDICTIONARYWDFLT
  5
E
102
{ACAD_REACTORS
330
C
102
}
330
C
100
AcDbDictionary
281
     1
  3
Normal
350
F
100
AcDbDictionaryWithDefault
340
F
  0
DICTIONARY
  5
1E4
102
{ACAD_REACTORS
330
C
102
}
330
C
100
AcDbDictionary
  3
CEPSNTYPE
350
1EE
  3
FINGERPRINTGUID
350
1EF
  3
HYPERLINKBASE
350
1E7
  3
INSUNITS
350
1ED
  3
LAYOUTDICT
350
1E9
  3
LWETCUNION
350
1EC
  3
PLOTSETDICT
350
1EA
  3
PLOTSTYLNAMDICT
350
1EB
  3
PSVPSCALE
350
1F1
  3
PUCSBASE
350
1F4
  3
PUCSORGBACK
350
1FA
  3
PUCSORGBOTTOM
350
1F6
  3
PUCSORGFRONT
350
1F9
  3
PUCSORGLEFT
350
1F7
  3
PUCSORGRIGHT
350
1F8
  3
PUCSORGTOP
350
1F5
  3
PUCSORTHOREF
350
1F2
  3
PUCSORTHOVIEW
350
1F3
  3
STYLESHEET
350
1E8
  3
TSTACKALIGN
350
1E5
  3
TSTACKSIZE
350
1E6
  3
UCSBASE
350
1FD
  3
UCSORGBACK
350
203
  3
UCSORGBOTTOM
350
1FF
  3
UCSORGFRONT
350
202
  3
UCSORGLEFT
350
200
  3
UCSORGRIGHT
350
201
  3
UCSORGTOP
350
1FE
  3
UCSORTHOREF
350
1FB
  3
UCSORTHOVIEW
350
1FC
  3
VERSIONGUID
350
1F0
  0
DICTIONARY
  5
1E1
102
{ACAD_REACTORS
330
C
102
}
330
C
100
AcDbDictionary
  3
DIMASSOC
350
1E2
  0
XRECORD
  5
207
102
{ACAD_REACTORS
330
206
102
}
330
206
100
AcDbXrecord
340
1E
  0
XRECORD
  5
205
102
{ACAD_REACTORS
330
204
102
}
330
204
100
AcDbXrecord
340
1A
  0
MLINESTYLE
  5
17
102
{ACAD_REACTORS
330
16
102
}
330
16
100
AcDbMlineStyle
  2
STANDARD
 70
     0
  3

 62
   256
 51
90.0
 52
90.0
 71
     2
 49
0.5
 62
   256
  6
BYLAYER
 49
-0.5
 62
   256
  6
BYLAYER
  0
ACDBPLACEHOLDER
  5
F
102
{ACAD_REACTORS
330
E
102
}
330
E
100
AcDbPlaceHolder
280
     0
  0
XRECORD
  5
1EE
102
{ACAD_REACTORS
330
1E4
102
}
330
1E4
100
AcDbXrecord
 90
        0
  0
XRECORD
  5
1EF
102
{ACAD_REACTORS
330
1E4
102
}
330
1E4
100
AcDbXrecord
  1
{926800BE-A151-4CFF-BBB8-F5B29C6F23A8}
  0
XRECORD
  5
1E7
102
{ACAD_REACTORS
330
1E4
102
}
330
1E4
100
AcDbXrecord
  1

  0
XRECORD
  5
1ED
102
{ACAD_REACTORS
330
1E4
102
}
330
1E4
100
AcDbXrecord
 90
        0
  0
XRECORD
  5
1E9
102
{ACAD_REACTORS
330
1E4
102
}
330
1E4
100
AcDbXrecord
340
19
  0
XRECORD
  5
1EC
102
{ACAD_REACTORS
330
1E4
102
}
330
1E4
100
AcDbXrecord
 90
    10781
  0
XRECORD
  5
1EA
102
{ACAD_REACTORS
330
1E4
102
}
330
1E4
100
AcDbXrecord
340
18
  0
XRECORD
  5
1EB
102
{ACAD_REACTORS
330
1E4
102
}
330
1E4
100
AcDbXrecord
340
E
  0
XRECORD
  5
1F1
102
{ACAD_REACTORS
330
1E4
102
}
330
1E4
100
AcDbXrecord
 40
0.0
  0
XRECORD
  5
1F4
102
{ACAD_REACTORS
330
1E4
102
}
330
1E4
100
AcDbXrecord
340
0
  0
XRECORD
  5
1FA
102
{ACAD_REACTORS
330
1E4
102
}
330
1E4
100
AcDbXrecord
 10
0.0
 20
0.0
 30
0.0
  0
XRECORD
  5
1F6
102
{ACAD_REACTORS
330
1E4
102
}
330
1E4
100
AcDbXrecord
 10
0.0
 20
0.0
 30
0.0
  0
XRECORD
  5
1F9
102
{ACAD_REACTORS
330
1E4
102
}
330
1E4
100
AcDbXrecord
 10
0.0
 20
0.0
 30
0.0
  0
XRECORD
  5
1F7
102
{ACAD_REACTORS
330
1E4
102
}
330
1E4
100
AcDbXrecord
 10
0.0
 20
0.0
 30
0.0
  0
XRECORD
  5
1F8
102
{ACAD_REACTORS
330
1E4
102
}
330
1E4
100
AcDbXrecord
 10
0.0
 20
0.0
 30
0.0
  0
XRECORD
  5
1F5
102
{ACAD_REACTORS
330
1E4
102
}
330
1E4
100
AcDbXrecord
 10
0.0
 20
0.0
 30
0.0
  0
XRECORD
  5
1F2
102
{ACAD_REACTORS
330
1E4
102
}
330
1E4
100
AcDbXrecord
340
0
  0
XRECORD
  5
1F3
102
{ACAD_REACTORS
330
1E4
102
}
330
1E4
100
AcDbXrecord
 70
     0
  0
XRECORD
  5
1E8
102
{ACAD_REACTORS
330
1E4
102
}
330
1E4
100
AcDbXrecord
  1

  0
XRECORD
  5
1E5
102
{ACAD_REACTORS
330
1E4
102
}
330
1E4
100
AcDbXrecord
 90
        1
  0
XRECORD
  5
1E6
102
{ACAD_REACTORS
330
1E4
102
}
330
1E4
100
AcDbXrecord
 90
       70
  0
XRECORD
  5
1FD
102
{ACAD_REACTORS
330
1E4
102
}
330
1E4
100
AcDbXrecord
340
0
  0
XRECORD
  5
203
102
{ACAD_REACTORS
330
1E4
102
}
330
1E4
100
AcDbXrecord
 10
0.0
 20
0.0
 30
0.0
  0
XRECORD
  5
1FF
102
{ACAD_REACTORS
330
1E4
102
}
330
1E4
100
AcDbXrecord
 10
0.0
 20
0.0
 30
0.0
  0
XRECORD
  5
202
102
{ACAD_REACTORS
330
1E4
102
}
330
1E4
100
AcDbXrecord
 10
0.0
 20
0.0
 30
0.0
  0
XRECORD
  5
200
102
{ACAD_REACTORS
330
1E4
102
}
330
1E4
100
AcDbXrecord
 10
0.0
 20
0.0
 30
0.0
  0
XRECORD
  5
201
102
{ACAD_REACTORS
330
1E4
102
}
330
1E4
100
AcDbXrecord
 10
0.0
 20
0.0
 30
0.0
  0
XRECORD
  5
1FE
102
{ACAD_REACTORS
330
1E4
102
}
330
1E4
100
AcDbXrecord
 10
0.0
 20
0.0
 30
0.0
  0
XRECORD
  5
1FB
102
{ACAD_REACTORS
330
1E4
102
}
330
1E4
100
AcDbXrecord
340
0
  0
XRECORD
  5
1FC
102
{ACAD_REACTORS
330
1E4
102
}
330
1E4
100
AcDbXrecord
 70
     1
  0
XRECORD
  5
1F0
102
{ACAD_REACTORS
330
1E4
102
}
330
1E4
100
AcDbXrecord
  1
{D13A3D23-B65F-40A0-8E97-21DAE85654EC}
  0
DICTIONARYVAR
  5
1E2
102
{ACAD_REACTORS
330
1E1
102
}
330
1E1
100
DictionaryVariables
280
     0
  1
1
  0
ENDSEC
  0
EOF
