  0
SECTION
  2
HEADER
  9
$ACADVER
  1
AC1015
  9
$ACADMAINTVER
 70
    13
  9
$DWGCODEPAGE
  3
ANSI_1252
  9
$INSBASE
 10
0.0
 20
0.0
 30
0.0
  9
$EXTMIN
 10
0.0
 20
0.003093999999999
 30
0.0
  9
$EXTMAX
 10
168.0
 20
114.996906
 30
0.0
  9
$LIMMIN
 10
0.0
 20
0.0
  9
$LIMMAX
 10
12.0
 20
9.0
  9
$ORTHOMODE
 70
     0
  9
$REGENMODE
 70
     1
  9
$FILLMODE
 70
     1
  9
$QTEXTMODE
 70
     0
  9
$MIRRTEXT
 70
     1
  9
$LTSCALE
 40
1.0
  9
$ATTMODE
 70
     1
  9
$TEXTSIZE
 40
0.2
  9
$TRACEWID
 40
0.05
  9
$TEXTSTYLE
  7
Standard
  9
$CLAYER
  8
0
  9
$CELTYPE
  6
Continuous
  9
$CECOLOR
 62
   256
  9
$CELTSCALE
 40
1.0
  9
$DISPSILH
 70
     0
  9
$DIMSCALE
 40
1.0
  9
$DIMASZ
 40
0.18
  9
$DIMEXO
 40
0.0625
  9
$DIMDLI
 40
0.38
  9
$DIMRND
 40
0.0
  9
$DIMDLE
 40
0.0
  9
$DIMEXE
 40
0.18
  9
$DIMTP
 40
0.0
  9
$DIMTM
 40
0.0
  9
$DIMTXT
 40
0.18
  9
$DIMCEN
 40
0.09
  9
$DIMTSZ
 40
0.0
  9
$DIMTOL
 70
     0
  9
$DIMLIM
 70
     0
  9
$DIMTIH
 70
     1
  9
$DIMTOH
 70
     1
  9
$DIMSE1
 70
     0
  9
$DIMSE2
 70
     0
  9
$DIMTAD
 70
     0
  9
$DIMZIN
 70
     0
  9
$DIMBLK
  1

  9
$DIMASO
 70
     1
  9
$DIMSHO
 70
     1
  9
$DIMPOST
  1

  9
$DIMAPOST
  1

  9
$DIMALT
 70
     0
  9
$DIMALTD
 70
     2
  9
$DIMALTF
 40
25.4
  9
$DIMLFAC
 40
1.0
  9
$DIMTOFL
 70
     0
  9
$DIMTVP
 40
0.0
  9
$DIMTIX
 70
     0
  9
$DIMSOXD
 70
     0
  9
$DIMSAH
 70
     0
  9
$DIMBLK1
  1

  9
$DIMBLK2
  1

  9
$DIMSTYLE
  2
Standard
  9
$DIMCLRD
 70
     0
  9
$DIMCLRE
 70
     0
  9
$DIMCLRT
 70
     0
  9
$DIMTFAC
 40
1.0
  9
$DIMGAP
 40
0.09
  9
$DIMJUST
 70
     0
  9
$DIMSD1
 70
     0
  9
$DIMSD2
 70
     0
  9
$DIMTOLJ
 70
     1
  9
$DIMTZIN
 70
     0
  9
$DIMALTZ
 70
     0
  9
$DIMALTTZ
 70
     0
  9
$DIMUPT
 70
     0
  9
$DIMDEC
 70
     4
  9
$DIMTDEC
 70
     4
  9
$DIMALTU
 70
     2
  9
$DIMALTTD
 70
     2
  9
$DIMTXSTY
  7
Standard
  9
$DIMAUNIT
 70
     0
  9
$DIMADEC
 70
     0
  9
$DIMALTRND
 40
0.0
  9
$DIMAZIN
 70
     0
  9
$DIMDSEP
 70
    46
  9
$DIMATFIT
 70
     3
  9
$DIMFRAC
 70
     0
  9
$DIMLDRBLK
  1

  9
$DIMLUNIT
 70
     2
  9
$DIMLWD
 70
    -2
  9
$DIMLWE
 70
    -2
  9
$DIMTMOVE
 70
     0
  9
$LUNITS
 70
     2
  9
$LUPREC
 70
     4
  9
$SKETCHINC
 40
0.1
  9
$FILLETRAD
 40
0.0
  9
$AUNITS
 70
     0
  9
$AUPREC
 70
     0
  9
$MENU
  1
.
  9
$ELEVATION
 40
0.0
  9
$PELEVATION
 40
0.0
  9
$THICKNESS
 40
0.0
  9
$LIMCHECK
 70
     0
  9
$CHAMFERA
 40
0.0
  9
$CHAMFERB
 40
0.0
  9
$CHAMFERC
 40
0.0
  9
$CHAMFERD
 40
0.0
  9
$SKPOLY
 70
     0
  9
$TDCREATE
 40
2455655.852507593
  9
$TDUCREATE
 40
2455655.769174259
  9
$TDUPDATE
 40
2455655.858194259
  9
$TDUUPDATE
 40
2455655.774860926
  9
$TDINDWG
 40
0.0056866667
  9
$TDUSRTIMER
 40
0.0056866667
  9
$USRTIMER
 70
     1
  9
$ANGBASE
 50
0.0
  9
$ANGDIR
 70
     0
  9
$PDMODE
 70
     0
  9
$PDSIZE
 40
0.0
  9
$PLINEWID
 40
0.0
  9
$SPLFRAME
 70
     0
  9
$SPLINETYPE
 70
     6
  9
$SPLINESEGS
 70
     8
  9
$HANDSEED
  5
35C
  9
$SURFTAB1
 70
     6
  9
$SURFTAB2
 70
     6
  9
$SURFTYPE
 70
     6
  9
$SURFU
 70
     6
  9
$SURFV
 70
     6
  9
$UCSBASE
  2

  9
$UCSNAME
  2

  9
$UCSORG
 10
0.0
 20
0.0
 30
0.0
  9
$UCSXDIR
 10
1.0
 20
0.0
 30
0.0
  9
$UCSYDIR
 10
0.0
 20
1.0
 30
0.0
  9
$UCSORTHOREF
  2

  9
$UCSORTHOVIEW
 70
     1
  9
$UCSORGTOP
 10
0.0
 20
0.0
 30
0.0
  9
$UCSORGBOTTOM
 10
0.0
 20
0.0
 30
0.0
  9
$UCSORGLEFT
 10
0.0
 20
0.0
 30
0.0
  9
$UCSORGRIGHT
 10
0.0
 20
0.0
 30
0.0
  9
$UCSORGFRONT
 10
0.0
 20
0.0
 30
0.0
  9
$UCSORGBACK
 10
0.0
 20
0.0
 30
0.0
  9
$PUCSBASE
  2

  9
$PUCSNAME
  2

  9
$PUCSORG
 10
0.0
 20
0.0
 30
0.0
  9
$PUCSXDIR
 10
1.0
 20
0.0
 30
0.0
  9
$PUCSYDIR
 10
0.0
 20
1.0
 30
0.0
  9
$PUCSORTHOREF
  2

  9
$PUCSORTHOVIEW
 70
     0
  9
$PUCSORGTOP
 10
0.0
 20
0.0
 30
0.0
  9
$PUCSORGBOTTOM
 10
0.0
 20
0.0
 30
0.0
  9
$PUCSORGLEFT
 10
0.0
 20
0.0
 30
0.0
  9
$PUCSORGRIGHT
 10
0.0
 20
0.0
 30
0.0
  9
$PUCSORGFRONT
 10
0.0
 20
0.0
 30
0.0
  9
$PUCSORGBACK
 10
0.0
 20
0.0
 30
0.0
  9
$USERI1
 70
     0
  9
$USERI2
 70
     0
  9
$USERI3
 70
     0
  9
$USERI4
 70
     0
  9
$USERI5
 70
     0
  9
$USERR1
 40
0.0
  9
$USERR2
 40
0.0
  9
$USERR3
 40
0.0
  9
$USERR4
 40
0.0
  9
$USERR5
 40
0.0
  9
$WORLDVIEW
 70
     1
  9
$SHADEDGE
 70
     3
  9
$SHADEDIF
 70
    70
  9
$TILEMODE
 70
     1
  9
$MAXACTVP
 70
    64
  9
$PINSBASE
 10
0.0
 20
0.0
 30
0.0
  9
$PLIMCHECK
 70
     0
  9
$PEXTMIN
 10
1.000000000000000E+20
 20
1.000000000000000E+20
 30
1.000000000000000E+20
  9
$PEXTMAX
 10
-1.000000000000000E+20
 20
-1.000000000000000E+20
 30
-1.000000000000000E+20
  9
$PLIMMIN
 10
0.0
 20
0.0
  9
$PLIMMAX
 10
12.0
 20
9.0
  9
$UNITMODE
 70
     0
  9
$VISRETAIN
 70
     1
  9
$PLINEGEN
 70
     0
  9
$PSLTSCALE
 70
     1
  9
$TREEDEPTH
 70
  3020
  9
$CMLSTYLE
  2
Standard
  9
$CMLJUST
 70
     0
  9
$CMLSCALE
 40
1.0
  9
$PROXYGRAPHICS
 70
     1
  9
$MEASUREMENT
 70
     0
  9
$CELWEIGHT
370
    -1
  9
$ENDCAPS
280
     0
  9
$JOINSTYLE
280
     0
  9
$LWDISPLAY
290
     0
  9
$INSUNITS
 70
     0
  9
$HYPERLINKBASE
  1

  9
$STYLESHEET
  1

  9
$XEDIT
290
     1
  9
$CEPSNTYPE
380
     0
  9
$PSTYLEMODE
290
     1
  9
$FINGERPRINTGUID
  2
{CC6F3C06-2501-444A-B95C-7AEBAA9018E2}
  9
$VERSIONGUID
  2
{93EE134F-E7F1-4C0E-A2E5-85B56A7EA9E5}
  9
$EXTNAMES
290
     1
  9
$PSVPSCALE
 40
0.0
  9
$OLESTARTUP
290
     0
  0
ENDSEC
  0
SECTION
  2
CLASSES
  0
CLASS
  1
ACDBDICTIONARYWDFLT
  2
AcDbDictionaryWithDefault
  3
AutoCAD 2000
 90
        0
280
     0
281
     0
  0
CLASS
  1
ACDBPLACEHOLDER
  2
AcDbPlaceHolder
  3
AutoCAD 2000
 90
        0
280
     0
281
     0
  0
CLASS
  1
LAYOUT
  2
AcDbLayout
  3
AutoCAD 2000
 90
        0
280
     0
281
     0
  0
CLASS
  1
DICTIONARYVAR
  2
AcDbDictionaryVar
  3
AutoCAD 2000
 90
        0
280
     0
281
     0
  0
ENDSEC
  0
SECTION
  2
TABLES
  0
TABLE
  2
VPORT
  5
8
330
0
100
AcDbSymbolTable
 70
     3
  0
VPORT
  5
35B
330
8
100
AcDbSymbolTableRecord
100
AcDbViewportTableRecord
  2
*Active
 70
     0
 10
0.0
 20
0.0
 11
1.0
 21
1.0
 12
84.0
 22
57.5
 13
0.0
 23
0.0
 14
1.0
 24
1.0
 15
0.0
 25
0.0
 16
0.0
 26
0.0
 36
1.0
 17
0.0
 27
0.0
 37
0.0
 40
115.7716731860203
 41
2.073363431151241
 42
50.0
 43
0.0
 44
0.0
 50
0.0
 51
0.0
 71
     0
 72
   100
 73
     1
 74
     3
 75
     0
 76
     0
 77
     0
 78
     0
281
     0
 65
     1
110
0.0
120
0.0
130
0.0
111
1.0
121
0.0
131
0.0
112
0.0
122
1.0
132
0.0
 79
     1
146
0.0
  0
ENDTAB
  0
TABLE
  2
LTYPE
  5
5
330
0
100
AcDbSymbolTable
 70
     1
  0
LTYPE
  5
13
330
5
100
AcDbSymbolTableRecord
100
AcDbLinetypeTableRecord
  2
ByBlock
 70
     0
  3

 72
    65
 73
     0
 40
0.0
  0
LTYPE
  5
14
330
5
100
AcDbSymbolTableRecord
100
AcDbLinetypeTableRecord
  2
ByLayer
 70
     0
  3

 72
    65
 73
     0
 40
0.0
  0
LTYPE
  5
15
330
5
100
AcDbSymbolTableRecord
100
AcDbLinetypeTableRecord
  2
Continuous
 70
     0
  3
Solid line
 72
    65
 73
     0
 40
0.0
  0
ENDTAB
  0
TABLE
  2
LAYER
  5
2
330
0
100
AcDbSymbolTable
 70
     1
  0
LAYER
  5
10
330
2
100
AcDbSymbolTableRecord
100
AcDbLayerTableRecord
  2
0
 70
     0
 62
     7
  6
Continuous
370
    -3
390
F
  0
ENDTAB
  0
TABLE
  2
STYLE
  5
3
330
0
100
AcDbSymbolTable
 70
     1
  0
STYLE
  5
11
330
3
100
AcDbSymbolTableRecord
100
AcDbTextStyleTableRecord
  2
Standard
 70
     0
 40
0.0
 41
1.0
 50
0.0
 71
     0
 42
0.2
  3
txt
  4

  0
ENDTAB
  0
TABLE
  2
VIEW
  5
6
330
0
100
AcDbSymbolTable
 70
     0
  0
ENDTAB
  0
TABLE
  2
UCS
  5
7
330
0
100
AcDbSymbolTable
 70
     0
  0
ENDTAB
  0
TABLE
  2
APPID
  5
9
330
0
100
AcDbSymbolTable
 70
     1
  0
APPID
  5
12
330
9
100
AcDbSymbolTableRecord
100
AcDbRegAppTableRecord
  2
ACAD
 70
     0
  0
ENDTAB
  0
TABLE
  2
DIMSTYLE
  5
A
330
0
100
AcDbSymbolTable
 70
     1
100
AcDbDimStyleTable
 71
     0
  0
DIMSTYLE
105
30A
330
A
100
AcDbSymbolTableRecord
100
AcDbDimStyleTableRecord
  2
Standard
 70
     0
340
11
  0
ENDTAB
  0
TABLE
  2
BLOCK_RECORD
  5
1
330
0
100
AcDbSymbolTable
 70
     0
  0
BLOCK_RECORD
  5
1E
330
1
100
AcDbSymbolTableRecord
100
AcDbBlockTableRecord
  2
*Model_Space
340
21
  0
BLOCK_RECORD
  5
1A
330
1
100
AcDbSymbolTableRecord
100
AcDbBlockTableRecord
  2
*Paper_Space
340
1D
  0
ENDTAB
  0
ENDSEC
  0
SECTION
  2
BLOCKS
  0
BLOCK
  5
1F
330
1E
100
AcDbEntity
  8
0
100
AcDbBlockBegin
  2
*Model_Space
 70
     0
 10
0.0
 20
0.0
 30
0.0
  3
*Model_Space
  1

  0
ENDBLK
  5
20
330
1E
100
AcDbEntity
  8
0
100
AcDbBlockEnd
  0
BLOCK
  5
1B
330
1A
100
AcDbEntity
 67
     1
  8
0
100
AcDbBlockBegin
  2
*Paper_Space
 70
     0
 10
0.0
 20
0.0
 30
0.0
  3
*Paper_Space
  1

  0
ENDBLK
  5
1C
330
1A
100
AcDbEntity
 67
     1
  8
0
100
AcDbBlockEnd
  0
ENDSEC
  0
SECTION
  2
ENTITIES
  0
LINE
  5
22
330
1E
100
AcDbEntity
  8
0
100
AcDbLine
 10
6.171
 20
46.996906
 30
0.0
 11
84.0
 21
46.996906
 31
0.0
  0
LINE
  5
25
330
1E
100
AcDbEntity
  8
0
100
AcDbLine
 10
0.4070000000000001
 20
49.542806
 30
0.0
 11
0.759
 21
48.811206
 31
0.0
  0
LINE
  5
26
330
1E
100
AcDbEntity
  8
0
100
AcDbLine
 10
1.104999999999999
 20
48.34840599999999
 30
0.0
 11
1.79
 21
47.771706
 31
0.0
  0
LINE
  5
27
330
1E
100
AcDbEntity
  8
0
100
AcDbLine
 10
0.759
 20
48.810906
 30
0.0
 11
1.104999999999999
 21
48.34860599999999
 31
0.0
  0
LINE
  5
28
330
1E
100
AcDbEntity
  8
0
100
AcDbLine
 10
0.178
 20
50.382306
 30
0.0
 11
0.4070000000000001
 21
49.543306
 31
0.0
  0
LINE
  5
2A
330
1E
100
AcDbEntity
  8
0
100
AcDbLine
 10
2.068999999999999
 20
47.613506
 30
0.0
 11
2.801999999999999
 21
47.320206
 31
0.0
  0
LINE
  5
2B
330
1E
100
AcDbEntity
  8
0
100
AcDbLine
 10
2.801999999999999
 20
47.320106
 30
0.0
 11
3.766999999999999
 21
47.11320599999999
 31
0.0
  0
LINE
  5
2C
330
1E
100
AcDbEntity
  8
0
100
AcDbLine
 10
1.79
 20
47.771706
 30
0.0
 11
2.068999999999999
 21
47.613506
 31
0.0
  0
LINE
  5
2D
330
1E
100
AcDbEntity
  8
0
100
AcDbLine
 10
0.012
 20
52.070806
 30
0.0
 11
0.084
 21
50.997306
 31
0.0
  0
LINE
  5
2E
330
1E
100
AcDbEntity
  8
0
100
AcDbLine
 10
0.012
 20
52.070806
 30
0.0
 11
0.084
 21
50.997306
 31
0.0
  0
LINE
  5
30
330
1E
100
AcDbEntity
  8
0
100
AcDbLine
 10
0.084
 20
50.997306
 30
0.0
 11
0.178
 21
50.382306
 31
0.0
  0
LINE
  5
31
330
1E
100
AcDbEntity
  8
0
100
AcDbLine
 10
0.0
 20
53.149406
 30
0.0
 11
0.012
 21
52.070806
 31
0.0
  0
LINE
  5
32
330
1E
100
AcDbEntity
  8
0
100
AcDbLine
 10
3.766999999999999
 20
47.11320599999999
 30
0.0
 11
4.966999999999999
 21
47.01280599999999
 31
0.0
  0
LINE
  5
33
330
1E
100
AcDbEntity
  8
0
100
AcDbLine
 10
4.966999999999999
 20
47.01280599999999
 30
0.0
 11
6.171
 21
46.996906
 31
0.0
  0
LINE
  5
34
330
1E
100
AcDbEntity
  8
0
100
AcDbLine
 10
6.171
 20
46.996906
 30
0.0
 11
84.0
 21
46.996906
 31
0.0
  0
LINE
  5
35
330
1E
100
AcDbEntity
  8
0
100
AcDbLine
 10
35.691
 20
58.864306
 30
0.0
 11
38.689
 21
59.282006
 31
0.0
  0
LINE
  5
36
330
1E
100
AcDbEntity
  8
0
100
AcDbLine
 10
32.665
 20
58.855306
 30
0.0
 11
35.691
 21
58.864306
 31
0.0
  0
LINE
  5
37
330
1E
100
AcDbEntity
  8
0
100
AcDbLine
 10
29.66499999999999
 20
59.255106
 30
0.0
 11
32.665
 21
58.855306
 31
0.0
  0
LINE
  5
38
330
1E
100
AcDbEntity
  8
0
100
AcDbLine
 10
26.747
 20
60.05680600000001
 30
0.0
 11
29.66499999999999
 21
59.255106
 31
0.0
  0
LINE
  5
39
330
1E
100
AcDbEntity
  8
0
100
AcDbLine
 10
28.451
 20
59.974206
 30
0.0
 11
30.483
 21
59.533606
 31
0.0
  0
LINE
  5
3A
330
1E
100
AcDbEntity
  8
0
100
AcDbLine
 10
30.483
 20
59.533606
 30
0.0
 11
32.54599999999999
 21
59.287006
 31
0.0
  0
LINE
  5
3B
330
1E
100
AcDbEntity
  8
0
100
AcDbLine
 10
38.689
 20
59.282006
 30
0.0
 11
41.601
 21
60.100506
 31
0.0
  0
LINE
  5
3C
330
1E
100
AcDbEntity
  8
0
100
AcDbLine
 10
36.699
 20
59.384406
 30
0.0
 11
38.75
 21
59.728606
 31
0.0
  0
LINE
  5
3D
330
1E
100
AcDbEntity
  8
0
100
AcDbLine
 10
32.54599999999999
 20
59.287006
 30
0.0
 11
34.625
 21
59.23720600000001
 31
0.0
  0
LINE
  5
3E
330
1E
100
AcDbEntity
  8
0
100
AcDbLine
 10
34.625
 20
59.23720600000001
 30
0.0
 11
36.699
 21
59.384406
 31
0.0
  0
LINE
  5
3F
330
1E
100
AcDbEntity
  8
0
100
AcDbLine
 10
41.601
 20
60.100506
 30
0.0
 11
44.376
 21
61.30590600000001
 31
0.0
  0
LINE
  5
40
330
1E
100
AcDbEntity
  8
0
100
AcDbLine
 10
38.75
 20
59.728606
 30
0.0
 11
40.757
 21
60.263706
 31
0.0
  0
LINE
  5
41
330
1E
100
AcDbEntity
  8
0
100
AcDbLine
 10
23.965
 20
61.245306
 30
0.0
 11
26.747
 21
60.05680600000001
 31
0.0
  0
LINE
  5
42
330
1E
100
AcDbEntity
  8
0
100
AcDbLine
 10
24.55999999999999
 20
61.42230600000001
 30
0.0
 11
26.47199999999999
 21
60.60580600000001
 31
0.0
  0
LINE
  5
43
330
1E
100
AcDbEntity
  8
0
100
AcDbLine
 10
26.47199999999999
 20
60.60580600000001
 30
0.0
 11
28.451
 21
59.974206
 31
0.0
  0
LINE
  5
44
330
1E
100
AcDbEntity
  8
0
100
AcDbLine
 10
40.757
 20
60.263706
 30
0.0
 11
42.705
 21
60.987706
 31
0.0
  0
LINE
  5
45
330
1E
100
AcDbEntity
  8
0
100
AcDbLine
 10
44.376
 20
61.30590600000001
 30
0.0
 11
46.962
 21
62.874506
 31
0.0
  0
LINE
  5
46
330
1E
100
AcDbEntity
  8
0
100
AcDbLine
 10
42.705
 20
60.987706
 30
0.0
 11
44.576
 21
61.892706
 31
0.0
  0
LINE
  5
47
330
1E
100
AcDbEntity
  8
0
100
AcDbLine
 10
21.37099999999999
 20
62.798906
 30
0.0
 11
23.965
 21
61.245306
 31
0.0
  0
LINE
  5
48
330
1E
100
AcDbEntity
  8
0
100
AcDbLine
 10
19.01099999999999
 20
64.68950600000001
 30
0.0
 11
21.37099999999999
 21
62.798906
 31
0.0
  0
LINE
  5
49
330
1E
100
AcDbEntity
  8
0
100
AcDbLine
 10
15.16799999999999
 20
69.33330600000001
 30
0.0
 11
16.93099999999999
 21
66.880706
 31
0.0
  0
LINE
  5
4A
330
1E
100
AcDbEntity
  8
0
100
AcDbLine
 10
13.75599999999999
 20
72.00080600000001
 30
0.0
 11
15.16799999999999
 21
69.33330600000001
 31
0.0
  0
LINE
  5
4B
330
1E
100
AcDbEntity
  8
0
100
AcDbLine
 10
12.718
 20
74.83540600000001
 30
0.0
 11
13.75599999999999
 21
72.00080600000001
 31
0.0
  0
LINE
  5
50
330
1E
100
AcDbEntity
  8
0
100
AcDbLine
 10
12.075
 20
77.78340599999999
 30
0.0
 11
12.718
 21
74.83540600000001
 31
0.0
  0
LINE
  5
51
330
1E
100
AcDbEntity
  8
0
100
AcDbLine
 10
11.84099999999999
 20
80.996906
 30
0.0
 11
12.075
 21
77.78340599999999
 31
0.0
  0
LINE
  5
52
330
1E
100
AcDbEntity
  8
0
100
AcDbLine
 10
11.84099999999999
 20
80.996906
 30
0.0
 11
12.075
 21
84.21040600000001
 31
0.0
  0
LINE
  5
55
330
1E
100
AcDbEntity
  8
0
100
AcDbLine
 10
0.012
 20
109.922906
 30
0.0
 11
0.084
 21
110.996906
 31
0.0
  0
LINE
  5
56
330
1E
100
AcDbEntity
  8
0
100
AcDbLine
 10
12.319
 20
82.53550600000002
 30
0.0
 11
12.56499999999999
 21
84.59330600000001
 31
0.0
  0
LINE
  5
57
330
1E
100
AcDbEntity
  8
0
100
AcDbLine
 10
12.075
 20
84.21040600000001
 30
0.0
 11
12.718
 21
87.15840599999999
 31
0.0
  0
LINE
  5
59
330
1E
100
AcDbEntity
  8
0
100
AcDbLine
 10
0.4070000000000001
 20
112.450906
 30
0.0
 11
0.759
 21
113.182906
 31
0.0
  0
LINE
  5
5A
330
1E
100
AcDbEntity
  8
0
100
AcDbLine
 10
2.068999999999999
 20
114.379906
 30
0.0
 11
2.801999999999999
 21
114.673906
 31
0.0
  0
LINE
  5
5B
330
1E
100
AcDbEntity
  8
0
100
AcDbLine
 10
1.79
 20
114.221906
 30
0.0
 11
2.068999999999999
 21
114.379906
 31
0.0
  0
LINE
  5
5C
330
1E
100
AcDbEntity
  8
0
100
AcDbLine
 10
1.104999999999999
 20
113.644906
 30
0.0
 11
1.79
 21
114.221906
 31
0.0
  0
LINE
  5
5D
330
1E
100
AcDbEntity
  8
0
100
AcDbLine
 10
0.759
 20
113.182906
 30
0.0
 11
1.104999999999999
 21
113.644906
 31
0.0
  0
LINE
  5
5E
330
1E
100
AcDbEntity
  8
0
100
AcDbLine
 10
3.766999999999999
 20
114.880906
 30
0.0
 11
4.966999999999999
 21
114.980906
 31
0.0
  0
LINE
  5
5F
330
1E
100
AcDbEntity
  8
0
100
AcDbLine
 10
2.801999999999999
 20
114.673906
 30
0.0
 11
3.766999999999999
 21
114.880906
 31
0.0
  0
LINE
  5
60
330
1E
100
AcDbEntity
  8
0
100
AcDbLine
 10
4.966999999999999
 20
114.980906
 30
0.0
 11
6.171
 21
114.996906
 31
0.0
  0
LINE
  5
61
330
1E
100
AcDbEntity
  8
0
100
AcDbLine
 10
0.178
 20
111.611906
 30
0.0
 11
0.4070000000000001
 21
112.450906
 31
0.0
  0
LINE
  5
62
330
1E
100
AcDbEntity
  8
0
100
AcDbLine
 10
0.084
 20
110.996906
 30
0.0
 11
0.178
 21
111.611906
 31
0.0
  0
LINE
  5
63
330
1E
100
AcDbEntity
  8
0
100
AcDbLine
 10
6.171
 20
114.996906
 30
0.0
 11
84.0
 21
114.996906
 31
0.0
  0
LINE
  5
64
330
1E
100
AcDbEntity
  8
0
100
AcDbLine
 10
6.171
 20
114.996906
 30
0.0
 11
84.0
 21
114.996906
 31
0.0
  0
LINE
  5
65
330
1E
100
AcDbEntity
  8
0
100
AcDbLine
 10
0.012
 20
109.922906
 30
0.0
 11
0.084
 21
110.996906
 31
0.0
  0
LINE
  5
66
330
1E
100
AcDbEntity
  8
0
100
AcDbLine
 10
0.0
 20
108.844906
 30
0.0
 11
0.012
 21
109.922906
 31
0.0
  0
LINE
  5
67
330
1E
100
AcDbEntity
  8
0
100
AcDbLine
 10
12.28299999999999
 20
80.996906
 30
0.0
 11
12.319
 21
79.458306
 31
0.0
  0
LINE
  5
68
330
1E
100
AcDbEntity
  8
0
100
AcDbLine
 10
12.28299999999999
 20
80.996906
 30
0.0
 11
12.319
 21
82.53550600000002
 31
0.0
  0
LINE
  5
69
330
1E
100
AcDbEntity
  8
0
100
AcDbLine
 10
12.56499999999999
 20
84.59330600000001
 30
0.0
 11
13.00699999999999
 21
86.61840600000001
 31
0.0
  0
LINE
  5
6A
330
1E
100
AcDbEntity
  8
0
100
AcDbLine
 10
13.00699999999999
 20
86.61840600000001
 30
0.0
 11
13.64
 21
88.592606
 31
0.0
  0
LINE
  5
6B
330
1E
100
AcDbEntity
  8
0
100
AcDbLine
 10
12.718
 20
87.15840599999999
 30
0.0
 11
13.75599999999999
 21
89.99300600000001
 31
0.0
  0
LINE
  5
6C
330
1E
100
AcDbEntity
  8
0
100
AcDbLine
 10
12.319
 20
79.458306
 30
0.0
 11
12.56499999999999
 21
77.400506
 31
0.0
  0
LINE
  5
6D
330
1E
100
AcDbEntity
  8
0
100
AcDbLine
 10
12.56499999999999
 20
77.400506
 30
0.0
 11
13.00699999999999
 21
75.37540600000001
 31
0.0
  0
LINE
  5
6E
330
1E
100
AcDbEntity
  8
0
100
AcDbLine
 10
14.458
 20
90.49730600000001
 30
0.0
 11
15.453
 21
92.316306
 31
0.0
  0
LINE
  5
6F
330
1E
100
AcDbEntity
  8
0
100
AcDbLine
 10
13.75599999999999
 20
89.99300600000001
 30
0.0
 11
15.16799999999999
 21
92.66050600000001
 31
0.0
  0
LINE
  5
70
330
1E
100
AcDbEntity
  8
0
100
AcDbLine
 10
13.64
 20
88.592606
 30
0.0
 11
14.458
 21
90.49730600000001
 31
0.0
  0
LINE
  5
71
330
1E
100
AcDbEntity
  8
0
100
AcDbLine
 10
13.00699999999999
 20
75.37540600000001
 30
0.0
 11
13.64
 21
73.401206
 31
0.0
  0
LINE
  5
72
330
1E
100
AcDbEntity
  8
0
100
AcDbLine
 10
13.64
 20
73.401206
 30
0.0
 11
14.458
 21
71.49650600000001
 31
0.0
  0
LINE
  5
73
330
1E
100
AcDbEntity
  8
0
100
AcDbLine
 10
15.453
 20
92.316306
 30
0.0
 11
16.61799999999999
 21
94.03310600000001
 31
0.0
  0
LINE
  5
74
330
1E
100
AcDbEntity
  8
0
100
AcDbLine
 10
16.61799999999999
 20
94.03310600000001
 30
0.0
 11
17.942
 21
95.63140600000002
 31
0.0
  0
LINE
  5
75
330
1E
100
AcDbEntity
  8
0
100
AcDbLine
 10
15.16799999999999
 20
92.66050600000001
 30
0.0
 11
16.93099999999999
 21
95.11310599999999
 31
0.0
  0
LINE
  5
76
330
1E
100
AcDbEntity
  8
0
100
AcDbLine
 10
14.458
 20
71.49650600000001
 30
0.0
 11
15.453
 21
69.67750600000001
 31
0.0
  0
LINE
  5
77
330
1E
100
AcDbEntity
  8
0
100
AcDbLine
 10
15.453
 20
69.67750600000001
 30
0.0
 11
16.61799999999999
 21
67.960706
 31
0.0
  0
LINE
  5
78
330
1E
100
AcDbEntity
  8
0
100
AcDbLine
 10
17.0
 20
92.99690600000001
 30
0.0
 11
17.1324
 21
93.496906
 31
0.0
  0
LINE
  5
79
330
1E
100
AcDbEntity
  8
0
100
AcDbLine
 10
17.0
 20
92.99690600000001
 30
0.0
 11
17.0
 21
83.89890600000001
 31
0.0
  0
LINE
  5
7A
330
1E
100
AcDbEntity
  8
0
100
AcDbLine
 10
17.0
 20
82.99690600000001
 30
0.0
 11
17.0
 21
83.89890600000001
 31
0.0
  0
LINE
  5
7B
330
1E
100
AcDbEntity
  8
0
100
AcDbLine
 10
18.97929999999999
 20
76.673806
 30
0.0
 11
20.451
 21
74.635906
 31
0.0
  0
LINE
  5
7C
330
1E
100
AcDbEntity
  8
0
100
AcDbLine
 10
18.9517
 20
93.99690600000001
 30
0.0
 11
20.131
 21
93.99690600000001
 31
0.0
  0
LINE
  5
7D
330
1E
100
AcDbEntity
  8
0
100
AcDbLine
 10
18.22869999999999
 20
93.99690600000001
 30
0.0
 11
18.9517
 21
93.99690600000001
 31
0.0
  0
LINE
  5
7E
330
1E
100
AcDbEntity
  8
0
100
AcDbLine
 10
17.9857
 20
93.99690600000001
 30
0.0
 11
18.22869999999999
 21
93.99690600000001
 31
0.0
  0
LINE
  5
7F
330
1E
100
AcDbEntity
  8
0
100
AcDbLine
 10
17.4929
 20
93.862906
 30
0.0
 11
17.9857
 21
93.99690600000001
 31
0.0
  0
LINE
  5
80
330
1E
100
AcDbEntity
  8
0
100
AcDbLine
 10
17.1324
 20
93.496906
 30
0.0
 11
17.4929
 21
93.862906
 31
0.0
  0
LINE
  5
81
330
1E
100
AcDbEntity
  8
0
100
AcDbLine
 10
17.0
 20
83.89890600000001
 30
0.0
 11
17.0
 21
82.99690600000001
 31
0.0
  0
LINE
  5
82
330
1E
100
AcDbEntity
  8
0
100
AcDbLine
 10
17.0
 20
83.89890600000001
 30
0.0
 11
17.0
 21
92.99690600000001
 31
0.0
  0
LINE
  5
83
330
1E
100
AcDbEntity
  8
0
100
AcDbLine
 10
17.942
 20
95.63140600000002
 30
0.0
 11
19.41099999999999
 21
97.096406
 31
0.0
  0
LINE
  5
84
330
1E
100
AcDbEntity
  8
0
100
AcDbLine
 10
16.93099999999999
 20
95.11310599999999
 30
0.0
 11
19.01099999999999
 21
97.30430600000001
 31
0.0
  0
LINE
  5
85
330
1E
100
AcDbEntity
  8
0
100
AcDbLine
 10
19.41099999999999
 20
97.096406
 30
0.0
 11
21.015
 21
98.416206
 31
0.0
  0
LINE
  5
86
330
1E
100
AcDbEntity
  8
0
100
AcDbLine
 10
19.01099999999999
 20
97.30430600000001
 30
0.0
 11
21.37099999999999
 21
99.19490600000001
 31
0.0
  0
LINE
  5
87
330
1E
100
AcDbEntity
  8
0
100
AcDbLine
 10
16.93099999999999
 20
66.880706
 30
0.0
 11
19.01099999999999
 21
64.68950600000001
 31
0.0
  0
LINE
  5
88
330
1E
100
AcDbEntity
  8
0
100
AcDbLine
 10
16.61799999999999
 20
67.960706
 30
0.0
 11
17.942
 21
66.362406
 31
0.0
  0
LINE
  5
89
330
1E
100
AcDbEntity
  8
0
100
AcDbLine
 10
17.942
 20
66.362406
 30
0.0
 11
19.41099999999999
 21
64.89740600000001
 31
0.0
  0
LINE
  5
8A
330
1E
100
AcDbEntity
  8
0
100
AcDbLine
 10
20.451
 20
74.635906
 30
0.0
 11
22.2614
 21
72.899906
 31
0.0
  0
LINE
  5
8C
330
1E
100
AcDbEntity
  8
0
100
AcDbLine
 10
22.0
 20
67.962806
 30
0.0
 11
22.0
 21
73.1097944050082
 31
0.0
  0
LINE
  5
8D
330
1E
100
AcDbEntity
  8
0
100
AcDbLine
 10
22.1352
 20
67.46650600000001
 30
0.0
 11
22.3239
 21
67.269806
 31
0.0
  0
LINE
  5
8E
330
1E
100
AcDbEntity
  8
0
100
AcDbLine
 10
22.3239
 20
67.269806
 30
0.0
 11
22.46809999999999
 21
67.12920600000001
 31
0.0
  0
LINE
  5
94
330
1E
100
AcDbEntity
  8
0
100
AcDbLine
 10
22.0545
 20
67.66350600000001
 30
0.0
 11
22.1352
 21
67.46650600000001
 31
0.0
  0
LINE
  5
98
330
1E
100
AcDbEntity
  8
0
100
AcDbLine
 10
22.46809999999999
 20
67.12920600000001
 30
0.0
 11
22.7587
 21
66.93940600000001
 31
0.0
  0
LINE
  5
99
330
1E
100
AcDbEntity
  8
0
100
AcDbLine
 10
22.0
 20
67.864806
 30
0.0
 11
22.0
 21
73.1097944050082
 31
0.0
  0
LINE
  5
9A
330
1E
100
AcDbEntity
  8
0
100
AcDbLine
 10
22.0
 20
67.864806
 30
0.0
 11
22.0545
 21
67.66350600000001
 31
0.0
  0
LINE
  5
9B
330
1E
100
AcDbEntity
  8
0
100
AcDbLine
 10
22.0
 20
73.1097944050082
 30
0.0
 11
22.0
 21
67.864806
 31
0.0
  0
LINE
  5
9C
330
1E
100
AcDbEntity
  8
0
100
AcDbLine
 10
22.0
 20
73.1097944050082
 30
0.0
 11
22.0
 21
67.962806
 31
0.0
  0
LINE
  5
9E
330
1E
100
AcDbEntity
  8
0
100
AcDbLine
 10
22.2614
 20
72.899906
 30
0.0
 11
22.8728
 21
72.54490600000001
 31
0.0
  0
LINE
  5
A3
330
1E
100
AcDbEntity
  8
0
100
AcDbLine
 10
21.015
 20
98.416206
 30
0.0
 11
22.736
 21
99.57880600000001
 31
0.0
  0
LINE
  5
A4
330
1E
100
AcDbEntity
  8
0
100
AcDbLine
 10
22.736
 20
99.57880600000001
 30
0.0
 11
24.55999999999999
 21
100.571906
 31
0.0
  0
LINE
  5
A5
330
1E
100
AcDbEntity
  8
0
100
AcDbLine
 10
21.37099999999999
 20
99.19490600000001
 30
0.0
 11
23.965
 21
100.748906
 31
0.0
  0
LINE
  5
A6
330
1E
100
AcDbEntity
  8
0
100
AcDbLine
 10
19.41099999999999
 20
64.89740600000001
 30
0.0
 11
21.015
 21
63.577606
 31
0.0
  0
LINE
  5
A7
330
1E
100
AcDbEntity
  8
0
100
AcDbLine
 10
21.015
 20
63.577606
 30
0.0
 11
22.736
 21
62.41500600000001
 31
0.0
  0
LINE
  5
A8
330
1E
100
AcDbEntity
  8
0
100
AcDbLine
 10
23.64149999999999
 20
66.580606
 30
0.0
 11
24.2257
 21
66.413006
 31
0.0
  0
LINE
  5
A9
330
1E
100
AcDbEntity
  8
0
100
AcDbLine
 10
24.2257
 20
66.413006
 30
0.0
 11
24.8987
 21
66.255706
 31
0.0
  0
LINE
  5
AA
330
1E
100
AcDbEntity
  8
0
100
AcDbLine
 10
25.2145
 20
66.64570600000001
 30
0.0
 11
25.8219
 21
66.488906
 31
0.0
  0
LINE
  5
AB
330
1E
100
AcDbEntity
  8
0
100
AcDbLine
 10
25.0551
 20
66.224906
 30
0.0
 11
25.79769999999999
 21
66.08170600000001
 31
0.0
  0
LINE
  5
AC
330
1E
100
AcDbEntity
  8
0
100
AcDbLine
 10
24.8987
 20
66.255706
 30
0.0
 11
25.0551
 21
66.224906
 31
0.0
  0
LINE
  5
AD
330
1E
100
AcDbEntity
  8
0
100
AcDbLine
 10
22.7587
 20
66.93940600000001
 30
0.0
 11
23.15119999999999
 21
66.756006
 31
0.0
  0
LINE
  5
AE
330
1E
100
AcDbEntity
  8
0
100
AcDbLine
 10
24.706
 20
66.813906
 30
0.0
 11
25.2145
 21
66.64570600000001
 31
0.0
  0
LINE
  5
AF
330
1E
100
AcDbEntity
  8
0
100
AcDbLine
 10
24.0098
 20
67.17290600000001
 30
0.0
 11
24.30239999999999
 21
66.99010600000001
 31
0.0
  0
LINE
  5
B0
330
1E
100
AcDbEntity
  8
0
100
AcDbLine
 10
23.7798
 20
67.615206
 30
0.0
 11
23.8918
 21
67.79450600000001
 31
0.0
  0
LINE
  5
B1
330
1E
100
AcDbEntity
  8
0
100
AcDbLine
 10
23.7758
 20
67.512006
 30
0.0
 11
23.7798
 21
67.410806
 31
0.0
  0
LINE
  5
B2
330
1E
100
AcDbEntity
  8
0
100
AcDbLine
 10
23.7758
 20
67.512006
 30
0.0
 11
23.7798
 21
67.615206
 31
0.0
  0
LINE
  5
B3
330
1E
100
AcDbEntity
  8
0
100
AcDbLine
 10
23.8734352481874
 20
67.765106
 30
0.0
 11
25.2518
 21
67.765106
 31
0.0
  0
LINE
  5
B4
330
1E
100
AcDbEntity
  8
0
100
AcDbLine
 10
23.8918
 20
67.79450600000001
 30
0.0
 11
24.1067
 21
67.97120600000001
 31
0.0
  0
LINE
  5
B5
330
1E
100
AcDbEntity
  8
0
100
AcDbLine
 10
24.1067
 20
67.97120600000001
 30
0.0
 11
24.4245
 21
68.144506
 31
0.0
  0
LINE
  5
B6
330
1E
100
AcDbEntity
  8
0
100
AcDbLine
 10
23.8282
 20
67.69268921428571
 30
0.0
 11
23.8282
 21
67.360506
 31
0.0
  0
LINE
  5
B7
330
1E
100
AcDbEntity
  8
0
100
AcDbLine
 10
23.8282
 20
67.360506
 30
0.0
 11
25.2518
 21
67.360506
 31
0.0
  0
LINE
  5
B8
330
1E
100
AcDbEntity
  8
0
100
AcDbLine
 10
23.8282
 20
67.360506
 30
0.0
 11
24.0098
 21
67.17290600000001
 31
0.0
  0
LINE
  5
B9
330
1E
100
AcDbEntity
  8
0
100
AcDbLine
 10
23.8282
 20
67.360506
 30
0.0
 11
23.8282
 21
67.69268921428571
 31
0.0
  0
LINE
  5
BA
330
1E
100
AcDbEntity
  8
0
100
AcDbLine
 10
23.7798
 20
67.410806
 30
0.0
 11
23.8918
 21
67.230506
 31
0.0
  0
LINE
  5
BB
330
1E
100
AcDbEntity
  8
0
100
AcDbLine
 10
23.8918
 20
67.230506
 30
0.0
 11
24.1067
 21
67.052806
 31
0.0
  0
LINE
  5
BC
330
1E
100
AcDbEntity
  8
0
100
AcDbLine
 10
24.30239999999999
 20
66.99010600000001
 30
0.0
 11
24.706
 21
66.813906
 31
0.0
  0
LINE
  5
BD
330
1E
100
AcDbEntity
  8
0
100
AcDbLine
 10
24.4245
 20
68.144506
 30
0.0
 11
24.8392
 21
68.310006
 31
0.0
  0
LINE
  5
BE
330
1E
100
AcDbEntity
  8
0
100
AcDbLine
 10
24.8392
 20
68.310006
 30
0.0
 11
25.3487
 21
68.467306
 31
0.0
  0
LINE
  5
BF
330
1E
100
AcDbEntity
  8
0
100
AcDbLine
 10
25.3487
 20
68.467306
 30
0.0
 11
25.948
 21
68.615206
 31
0.0
  0
LINE
  5
C0
330
1E
100
AcDbEntity
  8
0
100
AcDbLine
 10
25.2518
 20
67.765106
 30
0.0
 11
25.2518
 21
67.360506
 31
0.0
  0
LINE
  5
C1
330
1E
100
AcDbEntity
  8
0
100
AcDbLine
 10
25.2518
 20
67.765106
 30
0.0
 11
25.4203
 21
67.923006
 31
0.0
  0
LINE
  5
C2
330
1E
100
AcDbEntity
  8
0
100
AcDbLine
 10
25.2518
 20
67.360506
 30
0.0
 11
25.2518
 21
67.765106
 31
0.0
  0
LINE
  5
C3
330
1E
100
AcDbEntity
  8
0
100
AcDbLine
 10
25.2518
 20
67.360506
 30
0.0
 11
25.4203
 21
67.202606
 31
0.0
  0
LINE
  5
C4
330
1E
100
AcDbEntity
  8
0
100
AcDbLine
 10
24.1067
 20
67.052806
 30
0.0
 11
24.4245
 21
66.881506
 31
0.0
  0
LINE
  5
C5
330
1E
100
AcDbEntity
  8
0
100
AcDbLine
 10
24.4245
 20
66.881506
 30
0.0
 11
24.8392
 21
66.714906
 31
0.0
  0
LINE
  5
C6
330
1E
100
AcDbEntity
  8
0
100
AcDbLine
 10
23.15119999999999
 20
66.756006
 30
0.0
 11
23.64149999999999
 21
66.580606
 31
0.0
  0
LINE
  5
C7
330
1E
100
AcDbEntity
  8
0
100
AcDbLine
 10
24.8392
 20
66.714906
 30
0.0
 11
25.3487
 21
66.557906
 31
0.0
  0
LINE
  5
C8
330
1E
100
AcDbEntity
  8
0
100
AcDbLine
 10
34.2751
 20
65.489606
 30
0.0
 11
35.3758
 21
65.50330600000001
 31
0.0
  0
LINE
  5
C9
330
1E
100
AcDbEntity
  8
0
100
AcDbLine
 10
30.0443
 20
65.916106
 30
0.0
 11
31.0361
 21
65.853206
 31
0.0
  0
LINE
  5
CA
330
1E
100
AcDbEntity
  8
0
100
AcDbLine
 10
29.0939
 20
65.945206
 30
0.0
 11
30.0281
 21
65.86670600000001
 31
0.0
  0
LINE
  5
CB
330
1E
100
AcDbEntity
  8
0
100
AcDbLine
 10
30.0281
 20
65.86670600000001
 30
0.0
 11
31.00379999999999
 21
65.80520600000001
 31
0.0
  0
LINE
  5
CC
330
1E
100
AcDbEntity
  8
0
100
AcDbLine
 10
28.4411
 20
65.736806
 30
0.0
 11
29.4339
 21
65.65230600000001
 31
0.0
  0
LINE
  5
CD
330
1E
100
AcDbEntity
  8
0
100
AcDbLine
 10
29.4339
 20
65.65230600000001
 30
0.0
 11
30.468
 21
65.585306
 31
0.0
  0
LINE
  5
CE
330
1E
100
AcDbEntity
  8
0
100
AcDbLine
 10
32.0591
 20
65.809506
 30
0.0
 11
33.10439999999999
 21
65.783906
 31
0.0
  0
LINE
  5
CF
330
1E
100
AcDbEntity
  8
0
100
AcDbLine
 10
31.0361
 20
65.853206
 30
0.0
 11
32.0591
 21
65.809506
 31
0.0
  0
LINE
  5
D0
330
1E
100
AcDbEntity
  8
0
100
AcDbLine
 10
31.00379999999999
 20
65.80520600000001
 30
0.0
 11
32.0087
 21
65.76060600000001
 31
0.0
  0
LINE
  5
D1
330
1E
100
AcDbEntity
  8
0
100
AcDbLine
 10
32.0087
 20
65.76060600000001
 30
0.0
 11
33.0358
 21
65.73450600000001
 31
0.0
  0
LINE
  5
D2
330
1E
100
AcDbEntity
  8
0
100
AcDbLine
 10
30.468
 20
65.585306
 30
0.0
 11
31.5345
 21
65.53500600000001
 31
0.0
  0
LINE
  5
D3
330
1E
100
AcDbEntity
  8
0
100
AcDbLine
 10
31.5345
 20
65.53500600000001
 30
0.0
 11
32.6242
 21
65.50330600000001
 31
0.0
  0
LINE
  5
D4
330
1E
100
AcDbEntity
  8
0
100
AcDbLine
 10
34.0
 20
65.72700600000001
 30
0.0
 11
34.9642
 21
65.73450600000001
 31
0.0
  0
LINE
  5
D5
330
1E
100
AcDbEntity
  8
0
100
AcDbLine
 10
34.0
 20
65.490706
 30
0.0
 11
34.2751
 21
65.489606
 31
0.0
  0
LINE
  5
D6
330
1E
100
AcDbEntity
  8
0
100
AcDbLine
 10
34.9642
 20
65.73450600000001
 30
0.0
 11
35.9913
 21
65.76060600000001
 31
0.0
  0
LINE
  5
D7
330
1E
100
AcDbEntity
  8
0
100
AcDbLine
 10
35.3758
 20
65.50330600000001
 30
0.0
 11
36.46549999999999
 21
65.53500600000001
 31
0.0
  0
LINE
  5
D9
330
1E
100
AcDbEntity
  8
0
100
AcDbLine
 10
34.0
 20
65.778006
 30
0.0
 11
34.8956
 21
65.783906
 31
0.0
  0
LINE
  5
DC
330
1E
100
AcDbEntity
  8
0
100
AcDbLine
 10
34.8956
 20
65.783906
 30
0.0
 11
35.9409
 21
65.809506
 31
0.0
  0
LINE
  5
DD
330
1E
100
AcDbEntity
  8
0
100
AcDbLine
 10
35.9409
 20
65.809506
 30
0.0
 11
36.9639
 21
65.853206
 31
0.0
  0
LINE
  5
DE
330
1E
100
AcDbEntity
  8
0
100
AcDbLine
 10
35.9913
 20
65.76060600000001
 30
0.0
 11
36.9962
 21
65.80520600000001
 31
0.0
  0
LINE
  5
DF
330
1E
100
AcDbEntity
  8
0
100
AcDbLine
 10
33.10439999999999
 20
65.783906
 30
0.0
 11
34.0
 21
65.778006
 31
0.0
  0
LINE
  5
E0
330
1E
100
AcDbEntity
  8
0
100
AcDbLine
 10
33.0358
 20
65.73450600000001
 30
0.0
 11
34.0
 21
65.72700600000001
 31
0.0
  0
LINE
  5
E2
330
1E
100
AcDbEntity
  8
0
100
AcDbLine
 10
32.6242
 20
65.50330600000001
 30
0.0
 11
33.72489999999999
 21
65.489606
 31
0.0
  0
LINE
  5
E3
330
1E
100
AcDbEntity
  8
0
100
AcDbLine
 10
33.72489999999999
 20
65.489606
 30
0.0
 11
34.0
 21
65.490706
 31
0.0
  0
LINE
  5
E4
330
1E
100
AcDbEntity
  8
0
100
AcDbLine
 10
27.49769999999999
 20
65.837006
 30
0.0
 11
28.4411
 21
65.736806
 31
0.0
  0
LINE
  5
E5
330
1E
100
AcDbEntity
  8
0
100
AcDbLine
 10
25.6816
 20
67.048506
 30
0.0
 11
26.03369999999999
 21
66.900106
 31
0.0
  0
LINE
  5
E6
330
1E
100
AcDbEntity
  8
0
100
AcDbLine
 10
25.6816
 20
68.07700600000001
 30
0.0
 11
26.03369999999999
 21
68.22550600000001
 31
0.0
  0
LINE
  5
E7
330
1E
100
AcDbEntity
  8
0
100
AcDbLine
 10
25.4203
 20
67.923006
 30
0.0
 11
25.6816
 21
68.07700600000001
 31
0.0
  0
LINE
  5
E8
330
1E
100
AcDbEntity
  8
0
100
AcDbLine
 10
25.4203
 20
67.202606
 30
0.0
 11
25.6816
 21
67.048506
 31
0.0
  0
LINE
  5
E9
330
1E
100
AcDbEntity
  8
0
100
AcDbLine
 10
34.383
 20
66.02480600000001
 30
0.0
 11
35.38389999999999
 21
66.04230600000001
 31
0.0
  0
LINE
  5
EA
330
1E
100
AcDbEntity
  8
0
100
AcDbLine
 10
34.0
 20
66.02560600000001
 30
0.0
 11
34.383
 21
66.02480600000001
 31
0.0
  0
LINE
  5
EB
330
1E
100
AcDbEntity
  8
0
100
AcDbLine
 10
33.61699999999999
 20
66.02480600000001
 30
0.0
 11
34.0
 21
66.02560600000001
 31
0.0
  0
LINE
  5
ED
330
1E
100
AcDbEntity
  8
0
100
AcDbLine
 10
29.0939
 20
65.995806
 30
0.0
 11
30.0443
 21
65.916106
 31
0.0
  0
LINE
  5
EE
330
1E
100
AcDbEntity
  8
0
100
AcDbLine
 10
27.307
 20
66.21140600000001
 30
0.0
 11
28.16769999999999
 21
66.09530600000001
 31
0.0
  0
LINE
  5
EF
330
1E
100
AcDbEntity
  8
0
100
AcDbLine
 10
25.948
 20
68.615206
 30
0.0
 11
26.628
 21
68.75110600000001
 31
0.0
  0
LINE
  5
F0
330
1E
100
AcDbEntity
  8
0
100
AcDbLine
 10
25.8219
 20
66.488906
 30
0.0
 11
26.5221
 21
66.34290599999999
 31
0.0
  0
LINE
  5
F1
330
1E
100
AcDbEntity
  8
0
100
AcDbLine
 10
26.4737
 20
66.758706
 30
0.0
 11
26.99429999999999
 21
66.62630599999999
 31
0.0
  0
LINE
  5
F2
330
1E
100
AcDbEntity
  8
0
100
AcDbLine
 10
26.4737
 20
68.365906
 30
0.0
 11
26.99429999999999
 21
68.498006
 31
0.0
  0
LINE
  5
F3
330
1E
100
AcDbEntity
  8
0
100
AcDbLine
 10
26.03369999999999
 20
68.22550600000001
 30
0.0
 11
26.4737
 21
68.365906
 31
0.0
  0
LINE
  5
F4
330
1E
100
AcDbEntity
  8
0
100
AcDbLine
 10
26.99429999999999
 20
68.498006
 30
0.0
 11
27.5905
 21
68.621406
 31
0.0
  0
LINE
  5
F5
330
1E
100
AcDbEntity
  8
0
100
AcDbLine
 10
26.628
 20
68.75110600000001
 30
0.0
 11
27.38469999999999
 21
68.87520600000001
 31
0.0
  0
LINE
  5
F6
330
1E
100
AcDbEntity
  8
0
100
AcDbLine
 10
26.03369999999999
 20
66.900106
 30
0.0
 11
26.4737
 21
66.758706
 31
0.0
  0
LINE
  5
F7
330
1E
100
AcDbEntity
  8
0
100
AcDbLine
 10
27.38469999999999
 20
68.87520600000001
 30
0.0
 11
28.21
 21
68.98460599999999
 31
0.0
  0
LINE
  5
F8
330
1E
100
AcDbEntity
  8
0
100
AcDbLine
 10
26.99429999999999
 20
66.62630599999999
 30
0.0
 11
27.5905
 21
66.504806
 31
0.0
  0
LINE
  5
F9
330
1E
100
AcDbEntity
  8
0
100
AcDbLine
 10
26.5221
 20
66.34290599999999
 30
0.0
 11
27.307
 21
66.21140600000001
 31
0.0
  0
LINE
  5
FA
330
1E
100
AcDbEntity
  8
0
100
AcDbLine
 10
25.948
 20
66.409706
 30
0.0
 11
26.628
 21
66.27300600000001
 31
0.0
  0
LINE
  5
FB
330
1E
100
AcDbEntity
  8
0
100
AcDbLine
 10
26.628
 20
66.27300600000001
 30
0.0
 11
27.38469999999999
 21
66.149506
 31
0.0
  0
LINE
  5
FC
330
1E
100
AcDbEntity
  8
0
100
AcDbLine
 10
28.16769999999999
 20
66.09530600000001
 30
0.0
 11
29.0939
 21
65.995806
 31
0.0
  0
LINE
  5
FD
330
1E
100
AcDbEntity
  8
0
100
AcDbLine
 10
28.2575
 20
66.393506
 30
0.0
 11
28.9869
 21
66.29560600000001
 31
0.0
  0
LINE
  5
FE
330
1E
100
AcDbEntity
  8
0
100
AcDbLine
 10
28.2575
 20
68.731006
 30
0.0
 11
28.9869
 21
68.82960600000001
 31
0.0
  0
LINE
  5
FF
330
1E
100
AcDbEntity
  8
0
100
AcDbLine
 10
27.5905
 20
68.621406
 30
0.0
 11
28.2575
 21
68.731006
 31
0.0
  0
LINE
  5
100
330
1E
100
AcDbEntity
  8
0
100
AcDbLine
 10
28.9869
 20
68.82960600000001
 30
0.0
 11
29.7709
 21
68.91340600000001
 31
0.0
  0
LINE
  5
101
330
1E
100
AcDbEntity
  8
0
100
AcDbLine
 10
27.5905
 20
66.504806
 30
0.0
 11
28.2575
 21
66.393506
 31
0.0
  0
LINE
  5
102
330
1E
100
AcDbEntity
  8
0
100
AcDbLine
 10
29.7709
 20
68.91340600000001
 30
0.0
 11
30.67989999999999
 21
68.98930599999999
 31
0.0
  0
LINE
  5
103
330
1E
100
AcDbEntity
  8
0
100
AcDbLine
 10
28.9869
 20
66.29560600000001
 30
0.0
 11
29.7709
 21
66.21140600000001
 31
0.0
  0
LINE
  5
104
330
1E
100
AcDbEntity
  8
0
100
AcDbLine
 10
29.7709
 20
66.21140600000001
 30
0.0
 11
30.67989999999999
 21
66.136306
 31
0.0
  0
LINE
  5
105
330
1E
100
AcDbEntity
  8
0
100
AcDbLine
 10
30.67989999999999
 20
66.136306
 30
0.0
 11
31.6324
 21
66.08000600000001
 31
0.0
  0
LINE
  5
106
330
1E
100
AcDbEntity
  8
0
100
AcDbLine
 10
31.6324
 20
66.08000600000001
 30
0.0
 11
32.6161
 21
66.04230600000001
 31
0.0
  0
LINE
  5
107
330
1E
100
AcDbEntity
  8
0
100
AcDbLine
 10
35.38389999999999
 20
66.04230600000001
 30
0.0
 11
36.3676
 21
66.08000600000001
 31
0.0
  0
LINE
  5
109
330
1E
100
AcDbEntity
  8
0
100
AcDbLine
 10
32.6161
 20
66.04230600000001
 30
0.0
 11
33.61699999999999
 21
66.02480600000001
 31
0.0
  0
LINE
  5
10B
330
1E
100
AcDbEntity
  8
0
100
AcDbLine
 10
30.67989999999999
 20
68.98930599999999
 30
0.0
 11
31.6324
 21
69.04610600000001
 31
0.0
  0
LINE
  5
10C
330
1E
100
AcDbEntity
  8
0
100
AcDbLine
 10
28.21
 20
68.98460599999999
 30
0.0
 11
29.0939
 21
69.07990600000001
 31
0.0
  0
LINE
  5
10D
330
1E
100
AcDbEntity
  8
0
100
AcDbLine
 10
29.0939
 20
69.07990600000001
 30
0.0
 11
30.0281
 21
69.158106
 31
0.0
  0
LINE
  5
10E
330
1E
100
AcDbEntity
  8
0
100
AcDbLine
 10
30.0281
 20
69.158106
 30
0.0
 11
31.00379999999999
 21
69.219906
 31
0.0
  0
LINE
  5
10F
330
1E
100
AcDbEntity
  8
0
100
AcDbLine
 10
31.00379999999999
 20
69.219906
 30
0.0
 11
32.0087
 21
69.264606
 31
0.0
  0
LINE
  5
110
330
1E
100
AcDbEntity
  8
0
100
AcDbLine
 10
31.6324
 20
69.04610600000001
 30
0.0
 11
32.6161
 21
69.083206
 31
0.0
  0
LINE
  5
111
330
1E
100
AcDbEntity
  8
0
100
AcDbLine
 10
32.0087
 20
69.264606
 30
0.0
 11
33.0358
 21
69.29060600000001
 31
0.0
  0
LINE
  5
114
330
1E
100
AcDbEntity
  8
0
100
AcDbLine
 10
32.6161
 20
69.083206
 30
0.0
 11
33.61699999999999
 21
69.10100600000001
 31
0.0
  0
LINE
  5
118
330
1E
100
AcDbEntity
  8
0
100
AcDbLine
 10
35.38389999999999
 20
69.083206
 30
0.0
 11
36.3676
 21
69.04610600000001
 31
0.0
  0
LINE
  5
119
330
1E
100
AcDbEntity
  8
0
100
AcDbLine
 10
34.383
 20
69.10100600000001
 30
0.0
 11
35.38389999999999
 21
69.083206
 31
0.0
  0
LINE
  5
11A
330
1E
100
AcDbEntity
  8
0
100
AcDbLine
 10
34.0
 20
69.09970600000001
 30
0.0
 11
34.383
 21
69.10100600000001
 31
0.0
  0
LINE
  5
11B
330
1E
100
AcDbEntity
  8
0
100
AcDbLine
 10
34.9642
 20
69.29060600000001
 30
0.0
 11
35.9913
 21
69.264606
 31
0.0
  0
LINE
  5
11C
330
1E
100
AcDbEntity
  8
0
100
AcDbLine
 10
35.9913
 20
69.264606
 30
0.0
 11
36.9962
 21
69.219906
 31
0.0
  0
LINE
  5
11F
330
1E
100
AcDbEntity
  8
0
100
AcDbLine
 10
33.61699999999999
 20
69.10100600000001
 30
0.0
 11
34.0
 21
69.09970600000001
 31
0.0
  0
LINE
  5
122
330
1E
100
AcDbEntity
  8
0
100
AcDbLine
 10
34.0
 20
69.297806
 30
0.0
 11
34.9642
 21
69.29060600000001
 31
0.0
  0
LINE
  5
123
330
1E
100
AcDbEntity
  8
0
100
AcDbLine
 10
33.0358
 20
69.29060600000001
 30
0.0
 11
34.0
 21
69.297806
 31
0.0
  0
LINE
  5
127
330
1E
100
AcDbEntity
  8
0
100
AcDbLine
 10
27.38469999999999
 20
66.149506
 30
0.0
 11
28.21
 21
66.03950600000001
 31
0.0
  0
LINE
  5
128
330
1E
100
AcDbEntity
  8
0
100
AcDbLine
 10
28.21
 20
66.03950600000001
 30
0.0
 11
29.0939
 21
65.945206
 31
0.0
  0
LINE
  5
129
330
1E
100
AcDbEntity
  8
0
100
AcDbLine
 10
25.79769999999999
 20
66.08170600000001
 30
0.0
 11
26.6139
 21
65.952706
 31
0.0
  0
LINE
  5
12A
330
1E
100
AcDbEntity
  8
0
100
AcDbLine
 10
26.6139
 20
65.952706
 30
0.0
 11
27.49769999999999
 21
65.837006
 31
0.0
  0
LINE
  5
12B
330
1E
100
AcDbEntity
  8
0
100
AcDbLine
 10
25.3487
 20
66.557906
 30
0.0
 11
25.948
 21
66.409706
 31
0.0
  0
LINE
  5
12C
330
1E
100
AcDbEntity
  8
0
100
AcDbLine
 10
25.6383
 20
71.779006
 30
0.0
 11
27.21659999999999
 21
71.56490600000001
 31
0.0
  0
LINE
  5
12D
330
1E
100
AcDbEntity
  8
0
100
AcDbLine
 10
29.8764
 20
71.351906
 30
0.0
 11
31.919
 21
71.27090600000001
 31
0.0
  0
LINE
  5
12E
330
1E
100
AcDbEntity
  8
0
100
AcDbLine
 10
28.51739999999999
 20
71.44300600000001
 30
0.0
 11
29.8764
 21
71.351906
 31
0.0
  0
LINE
  5
12F
330
1E
100
AcDbEntity
  8
0
100
AcDbLine
 10
27.21659999999999
 20
71.56490600000001
 30
0.0
 11
28.51739999999999
 21
71.44300600000001
 31
0.0
  0
LINE
  5
130
330
1E
100
AcDbEntity
  8
0
100
AcDbLine
 10
22.8728
 20
72.54490600000001
 30
0.0
 11
23.1009
 21
72.432906
 31
0.0
  0
LINE
  5
131
330
1E
100
AcDbEntity
  8
0
100
AcDbLine
 10
31.21869999999999
 20
93.99690600000001
 30
0.0
 11
34.0
 21
93.99690600000001
 31
0.0
  0
LINE
  5
132
330
1E
100
AcDbEntity
  8
0
100
AcDbLine
 10
20.131
 20
93.99690600000001
 30
0.0
 11
31.21869999999999
 21
93.99690600000001
 31
0.0
  0
LINE
  5
134
330
1E
100
AcDbEntity
  8
0
100
AcDbLine
 10
23.1009
 20
72.432906
 30
0.0
 11
24.2466
 21
72.063906
 31
0.0
  0
LINE
  5
135
330
1E
100
AcDbEntity
  8
0
100
AcDbLine
 10
24.2466
 20
72.063906
 30
0.0
 11
25.6383
 21
71.779006
 31
0.0
  0
LINE
  5
136
330
1E
100
AcDbEntity
  8
0
100
AcDbLine
 10
31.919
 20
71.27090600000001
 30
0.0
 11
34.0
 21
71.24390600000001
 31
0.0
  0
LINE
  5
137
330
1E
100
AcDbEntity
  8
0
100
AcDbLine
 10
34.0
 20
71.24390600000001
 30
0.0
 11
36.08099999999999
 21
71.27090600000001
 31
0.0
  0
LINE
  5
138
330
1E
100
AcDbEntity
  8
0
100
AcDbLine
 10
36.3676
 20
69.04610600000001
 30
0.0
 11
37.32009999999999
 21
68.98930599999999
 31
0.0
  0
LINE
  5
13A
330
1E
100
AcDbEntity
  8
0
100
AcDbLine
 10
36.3676
 20
66.08000600000001
 30
0.0
 11
37.32009999999999
 21
66.136306
 31
0.0
  0
LINE
  5
13B
330
1E
100
AcDbEntity
  8
0
100
AcDbLine
 10
36.46549999999999
 20
65.53500600000001
 30
0.0
 11
37.53199999999999
 21
65.585306
 31
0.0
  0
LINE
  5
13C
330
1E
100
AcDbEntity
  8
0
100
AcDbLine
 10
36.08099999999999
 20
71.27090600000001
 30
0.0
 11
38.1236
 21
71.351906
 31
0.0
  0
LINE
  5
13D
330
1E
100
AcDbEntity
  8
0
100
AcDbLine
 10
34.0
 20
93.99690600000001
 30
0.0
 11
36.7813
 21
93.99690600000001
 31
0.0
  0
LINE
  5
13E
330
1E
100
AcDbEntity
  8
0
100
AcDbLine
 10
36.9962
 20
69.219906
 30
0.0
 11
37.9719
 21
69.158106
 31
0.0
  0
LINE
  5
13F
330
1E
100
AcDbEntity
  8
0
100
AcDbLine
 10
36.9639
 20
65.853206
 30
0.0
 11
37.9557
 21
65.916106
 31
0.0
  0
LINE
  5
140
330
1E
100
AcDbEntity
  8
0
100
AcDbLine
 10
37.32009999999999
 20
68.98930599999999
 30
0.0
 11
38.2291
 21
68.91340600000001
 31
0.0
  0
LINE
  5
141
330
1E
100
AcDbEntity
  8
0
100
AcDbLine
 10
37.32009999999999
 20
66.136306
 30
0.0
 11
38.2291
 21
66.21140600000001
 31
0.0
  0
LINE
  5
142
330
1E
100
AcDbEntity
  8
0
100
AcDbLine
 10
37.9719
 20
69.158106
 30
0.0
 11
38.9061
 21
69.07990600000001
 31
0.0
  0
LINE
  5
143
330
1E
100
AcDbEntity
  8
0
100
AcDbLine
 10
37.9557
 20
65.916106
 30
0.0
 11
38.9061
 21
65.995806
 31
0.0
  0
LINE
  5
144
330
1E
100
AcDbEntity
  8
0
100
AcDbLine
 10
37.9719
 20
65.86670600000001
 30
0.0
 11
38.9061
 21
65.945206
 31
0.0
  0
LINE
  5
145
330
1E
100
AcDbEntity
  8
0
100
AcDbLine
 10
36.9962
 20
65.80520600000001
 30
0.0
 11
37.9719
 21
65.86670600000001
 31
0.0
  0
LINE
  5
146
330
1E
100
AcDbEntity
  8
0
100
AcDbLine
 10
37.53199999999999
 20
65.585306
 30
0.0
 11
38.56609999999999
 21
65.65230600000001
 31
0.0
  0
LINE
  5
147
330
1E
100
AcDbEntity
  8
0
100
AcDbLine
 10
38.56609999999999
 20
65.65230600000001
 30
0.0
 11
39.5589
 21
65.736806
 31
0.0
  0
LINE
  5
148
330
1E
100
AcDbEntity
  8
0
100
AcDbLine
 10
39.5589
 20
65.736806
 30
0.0
 11
40.50229999999999
 21
65.837006
 31
0.0
  0
LINE
  5
149
330
1E
100
AcDbEntity
  8
0
100
AcDbLine
 10
38.2291
 20
68.91340600000001
 30
0.0
 11
39.0131
 21
68.82960600000001
 31
0.0
  0
LINE
  5
14A
330
1E
100
AcDbEntity
  8
0
100
AcDbLine
 10
39.0131
 20
66.29560600000001
 30
0.0
 11
39.74249999999999
 21
66.393506
 31
0.0
  0
LINE
  5
14B
330
1E
100
AcDbEntity
  8
0
100
AcDbLine
 10
39.0131
 20
68.82960600000001
 30
0.0
 11
39.74249999999999
 21
68.731006
 31
0.0
  0
LINE
  5
14C
330
1E
100
AcDbEntity
  8
0
100
AcDbLine
 10
39.74249999999999
 20
68.731006
 30
0.0
 11
40.4095
 21
68.621406
 31
0.0
  0
LINE
  5
14D
330
1E
100
AcDbEntity
  8
0
100
AcDbLine
 10
39.79
 20
68.98460599999999
 30
0.0
 11
40.6153
 21
68.87520600000001
 31
0.0
  0
LINE
  5
14E
330
1E
100
AcDbEntity
  8
0
100
AcDbLine
 10
38.9061
 20
69.07990600000001
 30
0.0
 11
39.79
 21
68.98460599999999
 31
0.0
  0
LINE
  5
14F
330
1E
100
AcDbEntity
  8
0
100
AcDbLine
 10
39.74249999999999
 20
66.393506
 30
0.0
 11
40.4095
 21
66.504806
 31
0.0
  0
LINE
  5
150
330
1E
100
AcDbEntity
  8
0
100
AcDbLine
 10
38.2291
 20
66.21140600000001
 30
0.0
 11
39.0131
 21
66.29560600000001
 31
0.0
  0
LINE
  5
151
330
1E
100
AcDbEntity
  8
0
100
AcDbLine
 10
38.9061
 20
65.995806
 30
0.0
 11
39.83229999999999
 21
66.09530600000001
 31
0.0
  0
LINE
  5
152
330
1E
100
AcDbEntity
  8
0
100
AcDbLine
 10
39.83229999999999
 20
66.09530600000001
 30
0.0
 11
40.69300000000001
 21
66.21140600000001
 31
0.0
  0
LINE
  5
153
330
1E
100
AcDbEntity
  8
0
100
AcDbLine
 10
40.4095
 20
68.621406
 30
0.0
 11
41.0057
 21
68.498006
 31
0.0
  0
LINE
  5
154
330
1E
100
AcDbEntity
  8
0
100
AcDbLine
 10
41.0057
 20
68.498006
 30
0.0
 11
41.5263
 21
68.365906
 31
0.0
  0
LINE
  5
155
330
1E
100
AcDbEntity
  8
0
100
AcDbLine
 10
41.37199999999999
 20
68.75110600000001
 30
0.0
 11
42.052
 21
68.615206
 31
0.0
  0
LINE
  5
156
330
1E
100
AcDbEntity
  8
0
100
AcDbLine
 10
40.6153
 20
68.87520600000001
 30
0.0
 11
41.37199999999999
 21
68.75110600000001
 31
0.0
  0
LINE
  5
157
330
1E
100
AcDbEntity
  8
0
100
AcDbLine
 10
41.0057
 20
66.62630599999999
 30
0.0
 11
41.5263
 21
66.758706
 31
0.0
  0
LINE
  5
158
330
1E
100
AcDbEntity
  8
0
100
AcDbLine
 10
40.4095
 20
66.504806
 30
0.0
 11
41.0057
 21
66.62630599999999
 31
0.0
  0
LINE
  5
159
330
1E
100
AcDbEntity
  8
0
100
AcDbLine
 10
40.69300000000001
 20
66.21140600000001
 30
0.0
 11
41.47789999999999
 21
66.34290599999999
 31
0.0
  0
LINE
  5
15A
330
1E
100
AcDbEntity
  8
0
100
AcDbLine
 10
41.37199999999999
 20
66.27300600000001
 30
0.0
 11
42.052
 21
66.409706
 31
0.0
  0
LINE
  5
15B
330
1E
100
AcDbEntity
  8
0
100
AcDbLine
 10
40.6153
 20
66.149506
 30
0.0
 11
41.37199999999999
 21
66.27300600000001
 31
0.0
  0
LINE
  5
15C
330
1E
100
AcDbEntity
  8
0
100
AcDbLine
 10
39.79
 20
66.03950600000001
 30
0.0
 11
40.6153
 21
66.149506
 31
0.0
  0
LINE
  5
15D
330
1E
100
AcDbEntity
  8
0
100
AcDbLine
 10
38.9061
 20
65.945206
 30
0.0
 11
39.79
 21
66.03950600000001
 31
0.0
  0
LINE
  5
15E
330
1E
100
AcDbEntity
  8
0
100
AcDbLine
 10
41.5263
 20
68.365906
 30
0.0
 11
41.96629999999999
 21
68.22550600000001
 31
0.0
  0
LINE
  5
15F
330
1E
100
AcDbEntity
  8
0
100
AcDbLine
 10
41.96629999999999
 20
68.22550600000001
 30
0.0
 11
42.3184
 21
68.07700600000001
 31
0.0
  0
LINE
  5
160
330
1E
100
AcDbEntity
  8
0
100
AcDbLine
 10
41.5263
 20
66.758706
 30
0.0
 11
41.96629999999999
 21
66.900106
 31
0.0
  0
LINE
  5
161
330
1E
100
AcDbEntity
  8
0
100
AcDbLine
 10
42.052
 20
68.615206
 30
0.0
 11
42.6513
 21
68.467306
 31
0.0
  0
LINE
  5
162
330
1E
100
AcDbEntity
  8
0
100
AcDbLine
 10
41.96629999999999
 20
66.900106
 30
0.0
 11
42.3184
 21
67.048506
 31
0.0
  0
LINE
  5
163
330
1E
100
AcDbEntity
  8
0
100
AcDbLine
 10
41.47789999999999
 20
66.34290599999999
 30
0.0
 11
42.1781
 21
66.488906
 31
0.0
  0
LINE
  5
164
330
1E
100
AcDbEntity
  8
0
100
AcDbLine
 10
41.38609999999999
 20
65.952706
 30
0.0
 11
42.20229999999999
 21
66.08170600000001
 31
0.0
  0
LINE
  5
165
330
1E
100
AcDbEntity
  8
0
100
AcDbLine
 10
40.50229999999999
 20
65.837006
 30
0.0
 11
41.38609999999999
 21
65.952706
 31
0.0
  0
LINE
  5
166
330
1E
100
AcDbEntity
  8
0
100
AcDbLine
 10
42.1781
 20
66.488906
 30
0.0
 11
42.7855
 21
66.64570600000001
 31
0.0
  0
LINE
  5
167
330
1E
100
AcDbEntity
  8
0
100
AcDbLine
 10
43.77429999999999
 20
66.413006
 30
0.0
 11
44.3585
 21
66.580606
 31
0.0
  0
LINE
  5
168
330
1E
100
AcDbEntity
  8
0
100
AcDbLine
 10
43.1013
 20
66.255706
 30
0.0
 11
43.77429999999999
 21
66.413006
 31
0.0
  0
LINE
  5
169
330
1E
100
AcDbEntity
  8
0
100
AcDbLine
 10
42.94489999999999
 20
66.224906
 30
0.0
 11
43.1013
 21
66.255706
 31
0.0
  0
LINE
  5
16A
330
1E
100
AcDbEntity
  8
0
100
AcDbLine
 10
42.20229999999999
 20
66.08170600000001
 30
0.0
 11
42.94489999999999
 21
66.224906
 31
0.0
  0
LINE
  5
16B
330
1E
100
AcDbEntity
  8
0
100
AcDbLine
 10
42.3184
 20
67.048506
 30
0.0
 11
42.5797
 21
67.202606
 31
0.0
  0
LINE
  5
16C
330
1E
100
AcDbEntity
  8
0
100
AcDbLine
 10
42.5797
 20
67.202606
 30
0.0
 11
42.7482
 21
67.360506
 31
0.0
  0
LINE
  5
16D
330
1E
100
AcDbEntity
  8
0
100
AcDbLine
 10
42.7855
 20
66.64570600000001
 30
0.0
 11
43.29399999999999
 21
66.813906
 31
0.0
  0
LINE
  5
16E
330
1E
100
AcDbEntity
  8
0
100
AcDbLine
 10
42.3184
 20
68.07700600000001
 30
0.0
 11
42.5797
 21
67.923006
 31
0.0
  0
LINE
  5
16F
330
1E
100
AcDbEntity
  8
0
100
AcDbLine
 10
42.5797
 20
67.923006
 30
0.0
 11
42.7482
 21
67.765106
 31
0.0
  0
LINE
  5
170
330
1E
100
AcDbEntity
  8
0
100
AcDbLine
 10
42.6513
 20
68.467306
 30
0.0
 11
43.1608
 21
68.310006
 31
0.0
  0
LINE
  5
171
330
1E
100
AcDbEntity
  8
0
100
AcDbLine
 10
43.1608
 20
68.310006
 30
0.0
 11
43.57549999999999
 21
68.144506
 31
0.0
  0
LINE
  5
172
330
1E
100
AcDbEntity
  8
0
100
AcDbLine
 10
42.7482
 20
67.765106
 30
0.0
 11
42.7482
 21
67.360506
 31
0.0
  0
LINE
  5
173
330
1E
100
AcDbEntity
  8
0
100
AcDbLine
 10
42.7482
 20
67.765106
 30
0.0
 11
44.1265647518126
 21
67.765106
 31
0.0
  0
LINE
  5
174
330
1E
100
AcDbEntity
  8
0
100
AcDbLine
 10
42.7482
 20
67.360506
 30
0.0
 11
44.1718
 21
67.360506
 31
0.0
  0
LINE
  5
175
330
1E
100
AcDbEntity
  8
0
100
AcDbLine
 10
42.7482
 20
67.360506
 30
0.0
 11
42.7482
 21
67.765106
 31
0.0
  0
LINE
  5
176
330
1E
100
AcDbEntity
  8
0
100
AcDbLine
 10
43.29399999999999
 20
66.813906
 30
0.0
 11
43.6976
 21
66.99010600000001
 31
0.0
  0
LINE
  5
177
330
1E
100
AcDbEntity
  8
0
100
AcDbLine
 10
43.8933
 20
67.97120600000001
 30
0.0
 11
44.1082
 21
67.79450600000001
 31
0.0
  0
LINE
  5
178
330
1E
100
AcDbEntity
  8
0
100
AcDbLine
 10
43.57549999999999
 20
68.144506
 30
0.0
 11
43.8933
 21
67.97120600000001
 31
0.0
  0
LINE
  5
179
330
1E
100
AcDbEntity
  8
0
100
AcDbLine
 10
43.6976
 20
66.99010600000001
 30
0.0
 11
43.9902
 21
67.17290600000001
 31
0.0
  0
LINE
  5
17A
330
1E
100
AcDbEntity
  8
0
100
AcDbLine
 10
43.9902
 20
67.17290600000001
 30
0.0
 11
44.1718
 21
67.360506
 31
0.0
  0
LINE
  5
17B
330
1E
100
AcDbEntity
  8
0
100
AcDbLine
 10
44.1082
 20
67.79450600000001
 30
0.0
 11
44.22019999999999
 21
67.615206
 31
0.0
  0
LINE
  5
17C
330
1E
100
AcDbEntity
  8
0
100
AcDbLine
 10
44.22019999999999
 20
67.615206
 30
0.0
 11
44.2242
 21
67.512006
 31
0.0
  0
LINE
  5
17D
330
1E
100
AcDbEntity
  8
0
100
AcDbLine
 10
44.1718
 20
67.69268921428571
 30
0.0
 11
44.1718
 21
67.360506
 31
0.0
  0
LINE
  5
17E
330
1E
100
AcDbEntity
  8
0
100
AcDbLine
 10
44.1718
 20
67.360506
 30
0.0
 11
44.1718
 21
67.69268921428571
 31
0.0
  0
LINE
  5
17F
330
1E
100
AcDbEntity
  8
0
100
AcDbLine
 10
44.22019999999999
 20
67.410806
 30
0.0
 11
44.2242
 21
67.512006
 31
0.0
  0
LINE
  5
180
330
1E
100
AcDbEntity
  8
0
100
AcDbLine
 10
44.1082
 20
67.230506
 30
0.0
 11
44.22019999999999
 21
67.410806
 31
0.0
  0
LINE
  5
181
330
1E
100
AcDbEntity
  8
0
100
AcDbLine
 10
43.8933
 20
67.052806
 30
0.0
 11
44.1082
 21
67.230506
 31
0.0
  0
LINE
  5
182
330
1E
100
AcDbEntity
  8
0
100
AcDbLine
 10
43.57549999999999
 20
66.881506
 30
0.0
 11
43.8933
 21
67.052806
 31
0.0
  0
LINE
  5
183
330
1E
100
AcDbEntity
  8
0
100
AcDbLine
 10
43.1608
 20
66.714906
 30
0.0
 11
43.57549999999999
 21
66.881506
 31
0.0
  0
LINE
  5
184
330
1E
100
AcDbEntity
  8
0
100
AcDbLine
 10
42.6513
 20
66.557906
 30
0.0
 11
43.1608
 21
66.714906
 31
0.0
  0
LINE
  5
185
330
1E
100
AcDbEntity
  8
0
100
AcDbLine
 10
42.052
 20
66.409706
 30
0.0
 11
42.6513
 21
66.557906
 31
0.0
  0
LINE
  5
186
330
1E
100
AcDbEntity
  8
0
100
AcDbLine
 10
39.48259999999999
 20
71.44300600000001
 30
0.0
 11
40.78339999999999
 21
71.56490600000001
 31
0.0
  0
LINE
  5
187
330
1E
100
AcDbEntity
  8
0
100
AcDbLine
 10
38.1236
 20
71.351906
 30
0.0
 11
39.48259999999999
 21
71.44300600000001
 31
0.0
  0
LINE
  5
188
330
1E
100
AcDbEntity
  8
0
100
AcDbLine
 10
43.7534
 20
72.063906
 30
0.0
 11
44.8991
 21
72.432906
 31
0.0
  0
LINE
  5
189
330
1E
100
AcDbEntity
  8
0
100
AcDbLine
 10
42.3617
 20
71.779006
 30
0.0
 11
43.7534
 21
72.063906
 31
0.0
  0
LINE
  5
18A
330
1E
100
AcDbEntity
  8
0
100
AcDbLine
 10
40.78339999999999
 20
71.56490600000001
 30
0.0
 11
42.3617
 21
71.779006
 31
0.0
  0
LINE
  5
18B
330
1E
100
AcDbEntity
  8
0
100
AcDbLine
 10
36.7813
 20
93.99690600000001
 30
0.0
 11
39.4777
 21
93.99690600000001
 31
0.0
  0
LINE
  5
18C
330
1E
100
AcDbEntity
  8
0
100
AcDbLine
 10
39.4777
 20
93.99690600000001
 30
0.0
 11
44.29359999999999
 21
93.99690600000001
 31
0.0
  0
LINE
  5
18D
330
1E
100
AcDbEntity
  8
0
100
AcDbLine
 10
44.84879999999999
 20
66.756006
 30
0.0
 11
45.2413
 21
66.93940600000001
 31
0.0
  0
LINE
  5
18E
330
1E
100
AcDbEntity
  8
0
100
AcDbLine
 10
44.3585
 20
66.580606
 30
0.0
 11
44.84879999999999
 21
66.756006
 31
0.0
  0
LINE
  5
193
330
1E
100
AcDbEntity
  8
0
100
AcDbLine
 10
45.6761
 20
67.269806
 30
0.0
 11
45.8648
 21
67.46650600000001
 31
0.0
  0
LINE
  5
194
330
1E
100
AcDbEntity
  8
0
100
AcDbLine
 10
45.53189999999999
 20
67.12920600000001
 30
0.0
 11
45.6761
 21
67.269806
 31
0.0
  0
LINE
  5
197
330
1E
100
AcDbEntity
  8
0
100
AcDbLine
 10
45.9455
 20
67.66350600000001
 30
0.0
 11
46.0
 21
67.864806
 31
0.0
  0
LINE
  5
198
330
1E
100
AcDbEntity
  8
0
100
AcDbLine
 10
45.8648
 20
67.46650600000001
 30
0.0
 11
45.9455
 21
67.66350600000001
 31
0.0
  0
LINE
  5
19B
330
1E
100
AcDbEntity
  8
0
100
AcDbLine
 10
45.2413
 20
66.93940600000001
 30
0.0
 11
45.53189999999999
 21
67.12920600000001
 31
0.0
  0
LINE
  5
19C
330
1E
100
AcDbEntity
  8
0
100
AcDbLine
 10
46.0
 20
67.864806
 30
0.0
 11
46.0
 21
67.962806
 31
0.0
  0
LINE
  5
19D
330
1E
100
AcDbEntity
  8
0
100
AcDbLine
 10
46.0
 20
67.962806
 30
0.0
 11
46.0
 21
67.864806
 31
0.0
  0
LINE
  5
19E
330
1E
100
AcDbEntity
  8
0
100
AcDbLine
 10
46.0
 20
67.962806
 30
0.0
 11
46.0
 21
73.1097944050082
 31
0.0
  0
LINE
  5
19F
330
1E
100
AcDbEntity
  8
0
100
AcDbLine
 10
44.8991
 20
72.432906
 30
0.0
 11
45.1272
 21
72.54490600000001
 31
0.0
  0
LINE
  5
1A1
330
1E
100
AcDbEntity
  8
0
100
AcDbLine
 10
46.0
 20
73.1097944050082
 30
0.0
 11
46.0
 21
67.962806
 31
0.0
  0
LINE
  5
1A2
330
1E
100
AcDbEntity
  8
0
100
AcDbLine
 10
45.73859999999999
 20
72.899906
 30
0.0
 11
47.549
 21
74.635906
 31
0.0
  0
LINE
  5
1A4
330
1E
100
AcDbEntity
  8
0
100
AcDbLine
 10
45.1272
 20
72.54490600000001
 30
0.0
 11
45.73859999999999
 21
72.899906
 31
0.0
  0
LINE
  5
1A8
330
1E
100
AcDbEntity
  8
0
100
AcDbLine
 10
46.268
 20
93.99690600000001
 30
0.0
 11
47.869
 21
93.99690600000001
 31
0.0
  0
LINE
  5
1A9
330
1E
100
AcDbEntity
  8
0
100
AcDbLine
 10
44.29359999999999
 20
93.99690600000001
 30
0.0
 11
46.268
 21
93.99690600000001
 31
0.0
  0
LINE
  5
1AA
330
1E
100
AcDbEntity
  8
0
100
AcDbLine
 10
23.965
 20
100.748906
 30
0.0
 11
26.747
 21
101.936906
 31
0.0
  0
LINE
  5
1AB
330
1E
100
AcDbEntity
  8
0
100
AcDbLine
 10
26.47199999999999
 20
101.387906
 30
0.0
 11
28.451
 21
102.019906
 31
0.0
  0
LINE
  5
1AC
330
1E
100
AcDbEntity
  8
0
100
AcDbLine
 10
32.54599999999999
 20
102.706906
 30
0.0
 11
34.625
 21
102.756906
 31
0.0
  0
LINE
  5
1AD
330
1E
100
AcDbEntity
  8
0
100
AcDbLine
 10
30.483
 20
102.459906
 30
0.0
 11
32.54599999999999
 21
102.706906
 31
0.0
  0
LINE
  5
1AE
330
1E
100
AcDbEntity
  8
0
100
AcDbLine
 10
28.451
 20
102.019906
 30
0.0
 11
30.483
 21
102.459906
 31
0.0
  0
LINE
  5
1AF
330
1E
100
AcDbEntity
  8
0
100
AcDbLine
 10
36.699
 20
102.609906
 30
0.0
 11
38.75
 21
102.264906
 31
0.0
  0
LINE
  5
1B0
330
1E
100
AcDbEntity
  8
0
100
AcDbLine
 10
26.747
 20
101.936906
 30
0.0
 11
29.66499999999999
 21
102.7389059999999
 31
0.0
  0
LINE
  5
1B1
330
1E
100
AcDbEntity
  8
0
100
AcDbLine
 10
41.601
 20
101.892906
 30
0.0
 11
44.376
 21
100.687906
 31
0.0
  0
LINE
  5
1B2
330
1E
100
AcDbEntity
  8
0
100
AcDbLine
 10
40.757
 20
101.729906
 30
0.0
 11
42.705
 21
101.005906
 31
0.0
  0
LINE
  5
1B3
330
1E
100
AcDbEntity
  8
0
100
AcDbLine
 10
38.75
 20
102.264906
 30
0.0
 11
40.757
 21
101.729906
 31
0.0
  0
LINE
  5
1B4
330
1E
100
AcDbEntity
  8
0
100
AcDbLine
 10
32.665
 20
103.1389059999999
 30
0.0
 11
35.691
 21
103.129906
 31
0.0
  0
LINE
  5
1B5
330
1E
100
AcDbEntity
  8
0
100
AcDbLine
 10
35.691
 20
103.129906
 30
0.0
 11
38.689
 21
102.7119059999999
 31
0.0
  0
LINE
  5
1B6
330
1E
100
AcDbEntity
  8
0
100
AcDbLine
 10
34.625
 20
102.756906
 30
0.0
 11
36.699
 21
102.609906
 31
0.0
  0
LINE
  5
1B7
330
1E
100
AcDbEntity
  8
0
100
AcDbLine
 10
29.66499999999999
 20
102.7389059999999
 30
0.0
 11
32.665
 21
103.1389059999999
 31
0.0
  0
LINE
  5
1B8
330
1E
100
AcDbEntity
  8
0
100
AcDbLine
 10
38.689
 20
102.7119059999999
 30
0.0
 11
41.601
 21
101.892906
 31
0.0
  0
LINE
  5
1B9
330
1E
100
AcDbEntity
  8
0
100
AcDbLine
 10
42.705
 20
101.005906
 30
0.0
 11
44.576
 21
100.100906
 31
0.0
  0
LINE
  5
1BA
330
1E
100
AcDbEntity
  8
0
100
AcDbLine
 10
24.55999999999999
 20
100.571906
 30
0.0
 11
26.47199999999999
 21
101.387906
 31
0.0
  0
LINE
  5
1BB
330
1E
100
AcDbEntity
  8
0
100
AcDbLine
 10
44.576
 20
100.100906
 30
0.0
 11
46.351
 21
99.022906
 31
0.0
  0
LINE
  5
1BC
330
1E
100
AcDbEntity
  8
0
100
AcDbLine
 10
44.376
 20
100.687906
 30
0.0
 11
46.962
 21
99.11930600000001
 31
0.0
  0
LINE
  5
1BD
330
1E
100
AcDbEntity
  8
0
100
AcDbLine
 10
46.351
 20
99.022906
 30
0.0
 11
48.015
 21
97.78160600000001
 31
0.0
  0
LINE
  5
1BE
330
1E
100
AcDbEntity
  8
0
100
AcDbLine
 10
22.736
 20
62.41500600000001
 30
0.0
 11
24.55999999999999
 21
61.42230600000001
 31
0.0
  0
LINE
  5
1BF
330
1E
100
AcDbEntity
  8
0
100
AcDbLine
 10
44.576
 20
61.892706
 30
0.0
 11
46.351
 21
62.970906
 31
0.0
  0
LINE
  5
1C0
330
1E
100
AcDbEntity
  8
0
100
AcDbLine
 10
133.5229999999999
 20
0.0229079999999984
 30
0.0
 11
134.0
 21
0.003093999999999
 31
0.0
  0
LINE
  5
1C1
330
1E
100
AcDbEntity
  8
0
100
AcDbLine
 10
133.5229999999999
 20
0.0229079999999984
 30
0.0
 11
134.0
 21
0.003093999999999
 31
0.0
  0
LINE
  5
1C2
330
1E
100
AcDbEntity
  8
0
100
AcDbLine
 10
133.0889999999999
 20
0.0989149999999992
 30
0.0
 11
133.5229999999999
 21
0.0229079999999984
 31
0.0
  0
LINE
  5
1C3
330
1E
100
AcDbEntity
  8
0
100
AcDbLine
 10
132.566
 20
0.259926999999998
 30
0.0
 11
133.0889999999999
 21
0.0989149999999992
 31
0.0
  0
LINE
  5
1C4
330
1E
100
AcDbEntity
  8
0
100
AcDbLine
 10
132.566
 20
0.259926999999998
 30
0.0
 11
133.0889999999999
 21
0.0989149999999992
 31
0.0
  0
LINE
  5
1CB
330
1E
100
AcDbEntity
  8
0
100
AcDbLine
 10
132.094
 20
0.476945999999999
 30
0.0
 11
132.566
 21
0.259926999999998
 31
0.0
  0
LINE
  5
1CC
330
1E
100
AcDbEntity
  8
0
100
AcDbLine
 10
131.648
 20
0.7589689999999979
 30
0.0
 11
132.094
 21
0.476945999999999
 31
0.0
  0
LINE
  5
1D0
330
1E
100
AcDbEntity
  8
0
100
AcDbLine
 10
131.2329999999999
 20
1.105005999999999
 30
0.0
 11
131.648
 21
0.7589689999999979
 31
0.0
  0
LINE
  5
1D1
330
1E
100
AcDbEntity
  8
0
100
AcDbLine
 10
130.842
 20
1.539036
 30
0.0
 11
131.2329999999999
 21
1.105005999999999
 31
0.0
  0
LINE
  5
1D2
330
1E
100
AcDbEntity
  8
0
100
AcDbLine
 10
130.5639999999999
 20
1.946066
 30
0.0
 11
130.842
 21
1.539036
 31
0.0
  0
LINE
  5
1D3
330
1E
100
AcDbEntity
  8
0
100
AcDbLine
 10
130.4089999999999
 20
2.233095999999999
 30
0.0
 11
130.5639999999999
 21
1.946066
 31
0.0
  0
LINE
  5
1D4
330
1E
100
AcDbEntity
  8
0
100
AcDbLine
 10
134.0
 20
0.003093999999999
 30
0.0
 11
134.477
 21
0.0229079999999984
 31
0.0
  0
LINE
  5
1D5
330
1E
100
AcDbEntity
  8
0
100
AcDbLine
 10
134.911
 20
0.0989149999999992
 30
0.0
 11
135.434
 21
0.259926999999998
 31
0.0
  0
LINE
  5
1D6
330
1E
100
AcDbEntity
  8
0
100
AcDbLine
 10
136.7669999999999
 20
1.105005999999999
 30
0.0
 11
137.1579999999999
 21
1.539036
 31
0.0
  0
LINE
  5
1D7
330
1E
100
AcDbEntity
  8
0
100
AcDbLine
 10
136.352
 20
0.7589689999999979
 30
0.0
 11
136.7669999999999
 21
1.105005999999999
 31
0.0
  0
LINE
  5
1D8
330
1E
100
AcDbEntity
  8
0
100
AcDbLine
 10
135.906
 20
0.476945999999999
 30
0.0
 11
136.352
 21
0.7589689999999979
 31
0.0
  0
LINE
  5
1D9
330
1E
100
AcDbEntity
  8
0
100
AcDbLine
 10
135.434
 20
0.259926999999998
 30
0.0
 11
135.906
 21
0.476945999999999
 31
0.0
  0
LINE
  5
1DA
330
1E
100
AcDbEntity
  8
0
100
AcDbLine
 10
134.911
 20
0.0989149999999992
 30
0.0
 11
135.434
 21
0.259926999999998
 31
0.0
  0
LINE
  5
1DB
330
1E
100
AcDbEntity
  8
0
100
AcDbLine
 10
134.477
 20
0.0229079999999984
 30
0.0
 11
134.911
 21
0.0989149999999992
 31
0.0
  0
LINE
  5
1DC
330
1E
100
AcDbEntity
  8
0
100
AcDbLine
 10
134.0
 20
0.003093999999999
 30
0.0
 11
134.477
 21
0.0229079999999984
 31
0.0
  0
LINE
  5
1DD
330
1E
100
AcDbEntity
  8
0
100
AcDbLine
 10
130.127
 20
2.995156
 30
0.0
 11
130.4089999999999
 21
2.233095999999999
 31
0.0
  0
LINE
  5
1DE
330
1E
100
AcDbEntity
  8
0
100
AcDbLine
 10
130.127
 20
2.995156
 30
0.0
 11
130.4089999999999
 21
2.233095999999999
 31
0.0
  0
LINE
  5
1E5
330
1E
100
AcDbEntity
  8
0
100
AcDbLine
 10
130.0
 20
3.994235999999999
 30
0.0
 11
130.0
 21
12.995006
 31
0.0
  0
LINE
  5
1E7
330
1E
100
AcDbEntity
  8
0
100
AcDbLine
 10
130.0
 20
3.994235999999999
 30
0.0
 11
130.127
 21
2.995156
 31
0.0
  0
LINE
  5
1E8
330
1E
100
AcDbEntity
  8
0
100
AcDbLine
 10
130.0
 20
12.995006
 30
0.0
 11
130.0
 21
51.115206
 31
0.0
  0
LINE
  5
1E9
330
1E
100
AcDbEntity
  8
0
100
AcDbLine
 10
130.0
 20
12.995006
 30
0.0
 11
130.0
 21
3.994235999999999
 31
0.0
  0
LINE
  5
1FB
330
1E
100
AcDbEntity
  8
0
100
AcDbLine
 10
137.1579999999999
 20
1.539036
 30
0.0
 11
137.436
 21
1.946066
 31
0.0
  0
LINE
  5
1FC
330
1E
100
AcDbEntity
  8
0
100
AcDbLine
 10
137.873
 20
2.995156
 30
0.0
 11
138.0
 21
3.994235999999999
 31
0.0
  0
LINE
  5
1FD
330
1E
100
AcDbEntity
  8
0
100
AcDbLine
 10
137.591
 20
2.233095999999999
 30
0.0
 11
137.873
 21
2.995156
 31
0.0
  0
LINE
  5
1FE
330
1E
100
AcDbEntity
  8
0
100
AcDbLine
 10
137.591
 20
2.233095999999999
 30
0.0
 11
137.873
 21
2.995156
 31
0.0
  0
LINE
  5
1FF
330
1E
100
AcDbEntity
  8
0
100
AcDbLine
 10
137.436
 20
1.946066
 30
0.0
 11
137.591
 21
2.233095999999999
 31
0.0
  0
LINE
  5
200
330
1E
100
AcDbEntity
  8
0
100
AcDbLine
 10
138.0
 20
12.995006
 30
0.0
 11
138.0
 21
51.115206
 31
0.0
  0
LINE
  5
201
330
1E
100
AcDbEntity
  8
0
100
AcDbLine
 10
138.0
 20
12.995006
 30
0.0
 11
138.0
 21
3.994235999999999
 31
0.0
  0
LINE
  5
202
330
1E
100
AcDbEntity
  8
0
100
AcDbLine
 10
138.0
 20
3.994235999999999
 30
0.0
 11
138.0
 21
12.995006
 31
0.0
  0
LINE
  5
205
330
1E
100
AcDbEntity
  8
0
100
AcDbLine
 10
138.0
 20
46.996906
 30
0.0
 11
161.829
 21
46.996906
 31
0.0
  0
LINE
  5
206
330
1E
100
AcDbEntity
  8
0
100
AcDbLine
 10
84.0
 20
46.996906
 30
0.0
 11
130.0
 21
46.996906
 31
0.0
  0
LINE
  5
207
330
1E
100
AcDbEntity
  8
0
100
AcDbLine
 10
130.0
 20
51.115206
 30
0.0
 11
130.0
 21
12.995006
 31
0.0
  0
LINE
  5
208
330
1E
100
AcDbEntity
  8
0
100
AcDbLine
 10
129.942700253924
 20
52.18226558166
 30
0.0
 11
130.0
 21
51.115206
 31
0.0
  0
LINE
  5
209
330
1E
100
AcDbEntity
  8
0
100
AcDbLine
 10
129.942700253924
 20
52.18226558166
 30
0.0
 11
130.0
 21
51.115206
 31
0.0
  0
LINE
  5
20A
330
1E
100
AcDbEntity
  8
0
100
AcDbLine
 10
138.0
 20
51.115206
 30
0.0
 11
138.0572997460759
 21
52.1822655816604
 31
0.0
  0
LINE
  5
20B
330
1E
100
AcDbEntity
  8
0
100
AcDbLine
 10
138.0
 20
51.115206
 30
0.0
 11
138.0
 21
12.995006
 31
0.0
  0
LINE
  5
20C
330
1E
100
AcDbEntity
  8
0
100
AcDbLine
 10
138.055
 20
52.168306
 30
0.0
 11
138.242
 21
53.303406
 31
0.0
  0
LINE
  5
20D
330
1E
100
AcDbEntity
  8
0
100
AcDbLine
 10
161.829
 20
46.996906
 30
0.0
 11
162.795
 21
47.005906
 31
0.0
  0
LINE
  5
20E
330
1E
100
AcDbEntity
  8
0
100
AcDbLine
 10
166.867
 20
48.317906
 30
0.0
 11
167.29
 21
48.893406
 31
0.0
  0
LINE
  5
20F
330
1E
100
AcDbEntity
  8
0
100
AcDbLine
 10
166.364
 20
47.87620599999999
 30
0.0
 11
166.8659999999999
 21
48.31760599999999
 31
0.0
  0
LINE
  5
210
330
1E
100
AcDbEntity
  8
0
100
AcDbLine
 10
165.7829999999999
 20
47.541006
 30
0.0
 11
166.3629999999999
 21
47.875906
 31
0.0
  0
LINE
  5
212
330
1E
100
AcDbEntity
  8
0
100
AcDbLine
 10
164.793
 20
47.21470599999999
 30
0.0
 11
165.7829999999999
 21
47.54080599999999
 31
0.0
  0
LINE
  5
214
330
1E
100
AcDbEntity
  8
0
100
AcDbLine
 10
163.761
 20
47.058606
 30
0.0
 11
164.793
 21
47.21460599999999
 31
0.0
  0
LINE
  5
215
330
1E
100
AcDbEntity
  8
0
100
AcDbLine
 10
167.974
 20
51.730206
 30
0.0
 11
168.0
 21
53.149406
 31
0.0
  0
LINE
  5
216
330
1E
100
AcDbEntity
  8
0
100
AcDbLine
 10
167.864
 20
50.622106
 30
0.0
 11
167.974
 21
51.730206
 31
0.0
  0
LINE
  5
217
330
1E
100
AcDbEntity
  8
0
100
AcDbLine
 10
167.5929999999999
 20
49.543106
 30
0.0
 11
167.864
 21
50.622106
 31
0.0
  0
LINE
  5
218
330
1E
100
AcDbEntity
  8
0
100
AcDbLine
 10
167.29
 20
48.893406
 30
0.0
 11
167.5929999999999
 21
49.543106
 31
0.0
  0
LINE
  5
219
330
1E
100
AcDbEntity
  8
0
100
AcDbLine
 10
162.795
 20
47.005906
 30
0.0
 11
163.761
 21
47.058606
 31
0.0
  0
LINE
  5
21A
330
1E
100
AcDbEntity
  8
0
100
AcDbLine
 10
129.7579999999999
 20
53.303406
 30
0.0
 11
129.945
 21
52.168306
 31
0.0
  0
LINE
  5
21B
330
1E
100
AcDbEntity
  8
0
100
AcDbLine
 10
129.4429999999999
 20
54.405506
 30
0.0
 11
129.765239169517
 21
53.2594638539117
 31
0.0
  0
LINE
  5
21C
330
1E
100
AcDbEntity
  8
0
100
AcDbLine
 10
138.234760830483
 20
53.259463853912
 30
0.0
 11
138.557
 21
54.405506
 31
0.0
  0
LINE
  5
22B
330
1E
100
AcDbEntity
  8
0
100
AcDbLine
 10
141.1359999999999
 20
58.387806
 30
0.0
 11
142.375
 21
59.38380600000001
 31
0.0
  0
LINE
  5
22C
330
1E
100
AcDbEntity
  8
0
100
AcDbLine
 10
140.0679999999999
 20
57.20470600000001
 30
0.0
 11
141.1359999999999
 21
58.387806
 31
0.0
  0
LINE
  5
22D
330
1E
100
AcDbEntity
  8
0
100
AcDbLine
 10
139.2009999999999
 20
55.867606
 30
0.0
 11
140.0679999999999
 21
57.20470600000001
 31
0.0
  0
LINE
  5
22E
330
1E
100
AcDbEntity
  8
0
100
AcDbLine
 10
138.558
 20
54.40940600000001
 30
0.0
 11
139.2009999999999
 21
55.867606
 31
0.0
  0
LINE
  5
236
330
1E
100
AcDbEntity
  8
0
100
AcDbLine
 10
143.7579999999999
 20
60.170906
 30
0.0
 11
145.027
 21
60.81400600000001
 31
0.0
  0
LINE
  5
239
330
1E
100
AcDbEntity
  8
0
100
AcDbLine
 10
145.027
 20
60.815006
 30
0.0
 11
145.2579999999999
 21
60.943006
 31
0.0
  0
LINE
  5
23A
330
1E
100
AcDbEntity
  8
0
100
AcDbLine
 10
145.027
 20
60.815006
 30
0.0
 11
145.109004847803
 21
60.8663643231102
 31
0.0
  0
LINE
  5
241
330
1E
100
AcDbEntity
  8
0
100
AcDbLine
 10
147.059387161439
 20
62.0878575364538
 30
0.0
 11
147.3439999999999
 21
62.266106
 31
0.0
  0
LINE
  5
242
330
1E
100
AcDbEntity
  8
0
100
AcDbLine
 10
146.6979999999999
 20
61.82210600000001
 30
0.0
 11
147.3439999999999
 21
62.266106
 31
0.0
  0
LINE
  5
243
330
1E
100
AcDbEntity
  8
0
100
AcDbLine
 10
147.3439999999999
 20
62.266106
 30
0.0
 11
147.785227954852
 21
62.6216155850319
 31
0.0
  0
LINE
  5
244
330
1E
100
AcDbEntity
  8
0
100
AcDbLine
 10
147.3439999999999
 20
62.266106
 30
0.0
 11
148.519
 21
63.16120600000001
 31
0.0
  0
LINE
  5
245
330
1E
100
AcDbEntity
  8
0
100
AcDbLine
 10
147.3439999999999
 20
62.266106
 30
0.0
 11
147.785227954852
 21
62.6216155850318
 31
0.0
  0
LINE
  5
246
330
1E
100
AcDbEntity
  8
0
100
AcDbLine
 10
145.2579999999999
 20
60.943006
 30
0.0
 11
146.6979999999999
 21
61.82210600000001
 31
0.0
  0
LINE
  5
24A
330
1E
100
AcDbEntity
  8
0
100
AcDbLine
 10
148.519
 20
63.16120600000001
 30
0.0
 11
150.1999999999999
 21
64.67330600000001
 31
0.0
  0
LINE
  5
24B
330
1E
100
AcDbEntity
  8
0
100
AcDbLine
 10
142.375
 20
59.38380600000001
 30
0.0
 11
143.757
 21
60.170906
 31
0.0
  0
LINE
  5
24C
330
1E
100
AcDbEntity
  8
0
100
AcDbLine
 10
168.0
 20
53.149406
 30
0.0
 11
168.0
 21
80.996906
 31
0.0
  0
LINE
  5
24E
330
1E
100
AcDbEntity
  8
0
100
AcDbLine
 10
46.962
 20
62.874506
 30
0.0
 11
49.567
 21
65.02170600000001
 31
0.0
  0
LINE
  5
24F
330
1E
100
AcDbEntity
  8
0
100
AcDbLine
 10
47.869
 20
93.99690600000001
 30
0.0
 11
50.0143
 21
93.99690600000001
 31
0.0
  0
LINE
  5
250
330
1E
100
AcDbEntity
  8
0
100
AcDbLine
 10
47.549
 20
74.635906
 30
0.0
 11
49.0207
 21
76.673806
 31
0.0
  0
LINE
  5
251
330
1E
100
AcDbEntity
  8
0
100
AcDbLine
 10
48.015
 20
97.78160600000001
 30
0.0
 11
49.554
 21
96.387206
 31
0.0
  0
LINE
  5
252
330
1E
100
AcDbEntity
  8
0
100
AcDbLine
 10
49.554
 20
96.387206
 30
0.0
 11
50.953
 21
94.854506
 31
0.0
  0
LINE
  5
253
330
1E
100
AcDbEntity
  8
0
100
AcDbLine
 10
46.962
 20
99.11930600000001
 30
0.0
 11
49.567
 21
96.97210600000001
 31
0.0
  0
LINE
  5
25B
330
1E
100
AcDbEntity
  8
0
100
AcDbLine
 10
150.1999999999999
 20
64.67330600000001
 30
0.0
 11
151.7319999999999
 21
66.350406
 31
0.0
  0
LINE
  5
25C
330
1E
100
AcDbEntity
  8
0
100
AcDbLine
 10
151.7319999999999
 20
66.350406
 30
0.0
 11
153.0879999999999
 21
68.16860600000001
 31
0.0
  0
LINE
  5
25D
330
1E
100
AcDbEntity
  8
0
100
AcDbLine
 10
49.567
 20
65.02170600000001
 30
0.0
 11
51.816
 21
67.53710600000001
 31
0.0
  0
LINE
  5
25E
330
1E
100
AcDbEntity
  8
0
100
AcDbLine
 10
50.0143
 20
93.99690600000001
 30
0.0
 11
50.5071
 21
93.862906
 31
0.0
  0
LINE
  5
25F
330
1E
100
AcDbEntity
  8
0
100
AcDbLine
 10
49.77129999999999
 20
93.99690600000001
 30
0.0
 11
50.0143
 21
93.99690600000001
 31
0.0
  0
LINE
  5
260
330
1E
100
AcDbEntity
  8
0
100
AcDbLine
 10
50.5071
 20
93.862906
 30
0.0
 11
50.8676
 21
93.496906
 31
0.0
  0
LINE
  5
261
330
1E
100
AcDbEntity
  8
0
100
AcDbLine
 10
50.8676
 20
93.496906
 30
0.0
 11
51.0
 21
92.99690600000001
 31
0.0
  0
LINE
  5
262
330
1E
100
AcDbEntity
  8
0
100
AcDbLine
 10
51.0
 20
82.99690600000001
 30
0.0
 11
51.0
 21
83.89890600000001
 31
0.0
  0
LINE
  5
263
330
1E
100
AcDbEntity
  8
0
100
AcDbLine
 10
51.0
 20
92.99690600000001
 30
0.0
 11
51.0
 21
83.89890600000001
 31
0.0
  0
LINE
  5
264
330
1E
100
AcDbEntity
  8
0
100
AcDbLine
 10
51.0
 20
83.89890600000001
 30
0.0
 11
51.0
 21
92.99690600000001
 31
0.0
  0
LINE
  5
265
330
1E
100
AcDbEntity
  8
0
100
AcDbLine
 10
51.0
 20
83.89890600000001
 30
0.0
 11
51.0
 21
82.99690600000001
 31
0.0
  0
LINE
  5
266
330
1E
100
AcDbEntity
  8
0
100
AcDbLine
 10
50.953
 20
94.854506
 30
0.0
 11
52.19899999999999
 21
93.195606
 31
0.0
  0
LINE
  5
267
330
1E
100
AcDbEntity
  8
0
100
AcDbLine
 10
49.567
 20
96.97210600000001
 30
0.0
 11
51.816
 21
94.45670600000001
 31
0.0
  0
LINE
  5
268
330
1E
100
AcDbEntity
  8
0
100
AcDbLine
 10
52.19899999999999
 20
93.195606
 30
0.0
 11
53.28199999999999
 21
91.426206
 31
0.0
  0
LINE
  5
269
330
1E
100
AcDbEntity
  8
0
100
AcDbLine
 10
51.816
 20
94.45670600000001
 30
0.0
 11
53.657
 21
91.63110600000001
 31
0.0
  0
LINE
  5
26A
330
1E
100
AcDbEntity
  8
0
100
AcDbLine
 10
51.816
 20
67.53710600000001
 30
0.0
 11
53.657
 21
70.362706
 31
0.0
  0
LINE
  5
26B
330
1E
100
AcDbEntity
  8
0
100
AcDbLine
 10
53.657
 20
70.362706
 30
0.0
 11
54.739
 21
72.633306
 31
0.0
  0
LINE
  5
26C
330
1E
100
AcDbEntity
  8
0
100
AcDbLine
 10
53.28199999999999
 20
70.56760600000001
 30
0.0
 11
54.19
 21
72.43140600000001
 31
0.0
  0
LINE
  5
26D
330
1E
100
AcDbEntity
  8
0
100
AcDbLine
 10
54.739
 20
72.633306
 30
0.0
 11
55.558
 21
75.012406
 31
0.0
  0
LINE
  5
26E
330
1E
100
AcDbEntity
  8
0
100
AcDbLine
 10
54.19
 20
72.43140600000001
 30
0.0
 11
54.917
 21
74.371906
 31
0.0
  0
LINE
  5
26F
330
1E
100
AcDbEntity
  8
0
100
AcDbLine
 10
55.558
 20
75.012406
 30
0.0
 11
56.1
 21
77.468006
 31
0.0
  0
LINE
  5
270
330
1E
100
AcDbEntity
  8
0
100
AcDbLine
 10
54.917
 20
74.371906
 30
0.0
 11
55.455
 21
76.37400600000001
 31
0.0
  0
LINE
  5
271
330
1E
100
AcDbEntity
  8
0
100
AcDbLine
 10
55.455
 20
76.37400600000001
 30
0.0
 11
55.8
 21
78.41690600000001
 31
0.0
  0
LINE
  5
281
330
1E
100
AcDbEntity
  8
0
100
AcDbLine
 10
153.0879999999999
 20
68.16860600000001
 30
0.0
 11
154.2589999999999
 21
70.111806
 31
0.0
  0
LINE
  5
286
330
1E
100
AcDbEntity
  8
0
100
AcDbLine
 10
155.234
 20
72.16090600000001
 30
0.0
 11
155.55
 21
72.96400600000001
 31
0.0
  0
LINE
  5
288
330
1E
100
AcDbEntity
  8
0
100
AcDbLine
 10
155.55
 20
72.96400600000001
 30
0.0
 11
156.001
 21
74.295206
 31
0.0
  0
LINE
  5
289
330
1E
100
AcDbEntity
  8
0
100
AcDbLine
 10
154.2589999999999
 20
70.111806
 30
0.0
 11
155.234
 21
72.16090600000001
 31
0.0
  0
LINE
  5
291
330
1E
100
AcDbEntity
  8
0
100
AcDbLine
 10
156.001
 20
74.295206
 30
0.0
 11
156.554
 21
76.493306
 31
0.0
  0
LINE
  5
292
330
1E
100
AcDbEntity
  8
0
100
AcDbLine
 10
156.554
 20
76.493306
 30
0.0
 11
156.888
 21
78.73650600000001
 31
0.0
  0
LINE
  5
29E
330
1E
100
AcDbEntity
  8
0
100
AcDbLine
 10
156.888
 20
78.73650600000001
 30
0.0
 11
157.0
 21
81.000606
 31
0.0
  0
LINE
  5
29F
330
1E
100
AcDbEntity
  8
0
100
AcDbLine
 10
168.0
 20
80.996906
 30
0.0
 11
168.0
 21
53.149406
 31
0.0
  0
LINE
  5
2A0
330
1E
100
AcDbEntity
  8
0
100
AcDbLine
 10
168.0
 20
80.996906
 30
0.0
 11
168.0
 21
108.844906
 31
0.0
  0
LINE
  5
2A3
330
1E
100
AcDbEntity
  8
0
100
AcDbLine
 10
56.1
 20
77.468006
 30
0.0
 11
56.38399999999999
 21
80.996906
 31
0.0
  0
LINE
  5
2A4
330
1E
100
AcDbEntity
  8
0
100
AcDbLine
 10
55.8
 20
78.41690600000001
 30
0.0
 11
55.95
 21
80.484606
 31
0.0
  0
LINE
  5
2A5
330
1E
100
AcDbEntity
  8
0
100
AcDbLine
 10
54.19
 20
89.562406
 30
0.0
 11
54.917
 21
87.62190600000002
 31
0.0
  0
LINE
  5
2A6
330
1E
100
AcDbEntity
  8
0
100
AcDbLine
 10
53.28199999999999
 20
91.426206
 30
0.0
 11
54.19
 21
89.562406
 31
0.0
  0
LINE
  5
2A7
330
1E
100
AcDbEntity
  8
0
100
AcDbLine
 10
53.657
 20
91.63110600000001
 30
0.0
 11
54.739
 21
89.36050599999999
 31
0.0
  0
LINE
  5
2A8
330
1E
100
AcDbEntity
  8
0
100
AcDbLine
 10
55.455
 20
85.61980600000001
 30
0.0
 11
55.8
 21
83.57690600000001
 31
0.0
  0
LINE
  5
2A9
330
1E
100
AcDbEntity
  8
0
100
AcDbLine
 10
55.558
 20
86.981406
 30
0.0
 11
56.1
 21
84.525806
 31
0.0
  0
LINE
  5
2AA
330
1E
100
AcDbEntity
  8
0
100
AcDbLine
 10
55.8
 20
83.57690600000001
 30
0.0
 11
55.95
 21
81.509206
 31
0.0
  0
LINE
  5
2B1
330
1E
100
AcDbEntity
  8
0
100
AcDbLine
 10
156.841171390966
 20
83.57773710279541
 30
0.0
 11
156.888
 21
83.26780600000001
 31
0.0
  0
LINE
  5
2B5
330
1E
100
AcDbEntity
  8
0
100
AcDbLine
 10
156.888
 20
83.26780600000001
 30
0.0
 11
157.0
 21
81.000606
 31
0.0
  0
LINE
  5
2B6
330
1E
100
AcDbEntity
  8
0
100
AcDbLine
 10
156.841171390966
 20
83.57773710279541
 30
0.0
 11
156.888
 21
83.26780600000001
 31
0.0
  0
LINE
  5
2BA
330
1E
100
AcDbEntity
  8
0
100
AcDbLine
 10
156.307
 20
86.603206
 30
0.0
 11
156.535
 21
85.604106
 31
0.0
  0
LINE
  5
2BD
330
1E
100
AcDbEntity
  8
0
100
AcDbLine
 10
56.1
 20
84.525806
 30
0.0
 11
56.38399999999999
 21
80.996906
 31
0.0
  0
LINE
  5
2D8
330
1E
100
AcDbEntity
  8
0
100
AcDbLine
 10
134.0
 20
103.981906
 30
0.0
 11
135.8729999999999
 21
103.926906
 31
0.0
  0
LINE
  5
2D9
330
1E
100
AcDbEntity
  8
0
100
AcDbLine
 10
135.8729999999999
 20
103.926906
 30
0.0
 11
136.004890822106
 21
103.9091010180909
 31
0.0
  0
LINE
  5
2DA
330
1E
100
AcDbEntity
  8
0
100
AcDbLine
 10
138.236
 20
103.607906
 30
0.0
 11
138.9129999999999
 21
103.4709059999999
 31
0.0
  0
LINE
  5
2DC
330
1E
100
AcDbEntity
  8
0
100
AcDbLine
 10
145.1729999999999
 20
101.105906
 30
0.0
 11
146.425
 21
100.356906
 31
0.0
  0
LINE
  5
2DD
330
1E
100
AcDbEntity
  8
0
100
AcDbLine
 10
144.252
 20
101.590906
 30
0.0
 11
145.1729999999999
 21
101.105906
 31
0.0
  0
LINE
  5
2DE
330
1E
100
AcDbEntity
  8
0
100
AcDbLine
 10
146.425
 20
100.356906
 30
0.0
 11
146.7069999999999
 21
100.173906
 31
0.0
  0
LINE
  5
2DF
330
1E
100
AcDbEntity
  8
0
100
AcDbLine
 10
148.7959999999999
 20
98.61110600000001
 30
0.0
 11
148.8820563558429
 21
98.52992109655829
 31
0.0
  0
LINE
  5
2E0
330
1E
100
AcDbEntity
  8
0
100
AcDbLine
 10
152.4079999999999
 20
94.79080600000001
 30
0.0
 11
152.588872359579
 21
94.5184194964646
 31
0.0
  0
LINE
  5
2E1
330
1E
100
AcDbEntity
  8
0
100
AcDbLine
 10
152.4079999999999
 20
94.79080600000001
 30
0.0
 11
152.588872359579
 21
94.5184194964646
 31
0.0
  0
LINE
  5
2E2
330
1E
100
AcDbEntity
  8
0
100
AcDbLine
 10
149.568351857215
 20
97.88247520525391
 30
0.0
 11
150.7179999999999
 21
96.79790600000002
 31
0.0
  0
LINE
  5
2E3
330
1E
100
AcDbEntity
  8
0
100
AcDbLine
 10
150.7179999999999
 20
96.79790600000002
 30
0.0
 11
150.8621209774119
 21
96.62674315161881
 31
0.0
  0
LINE
  5
2E4
330
1E
100
AcDbEntity
  8
0
100
AcDbLine
 10
150.7179999999999
 20
96.79790600000002
 30
0.0
 11
150.8621209774119
 21
96.62674315161881
 31
0.0
  0
LINE
  5
2E5
330
1E
100
AcDbEntity
  8
0
100
AcDbLine
 10
151.553058811619
 20
95.8061624847336
 30
0.0
 11
152.4079999999999
 21
94.79080600000001
 31
0.0
  0
LINE
  5
2E6
330
1E
100
AcDbEntity
  8
0
100
AcDbLine
 10
149.568351857215
 20
97.88247520525391
 30
0.0
 11
150.7179999999999
 21
96.79790600000002
 31
0.0
  0
LINE
  5
2E7
330
1E
100
AcDbEntity
  8
0
100
AcDbLine
 10
147.641
 20
99.520206
 30
0.0
 11
148.7959999999999
 21
98.61110600000001
 31
0.0
  0
LINE
  5
2E8
330
1E
100
AcDbEntity
  8
0
100
AcDbLine
 10
146.7069999999999
 20
100.173906
 30
0.0
 11
147.641
 21
99.520206
 31
0.0
  0
LINE
  5
2E9
330
1E
100
AcDbEntity
  8
0
100
AcDbLine
 10
142.054
 20
102.5459059999999
 30
0.0
 11
143.871
 21
101.775906
 31
0.0
  0
LINE
  5
2EA
330
1E
100
AcDbEntity
  8
0
100
AcDbLine
 10
143.871
 20
101.775906
 30
0.0
 11
144.252
 21
101.590906
 31
0.0
  0
LINE
  5
2EB
330
1E
100
AcDbEntity
  8
0
100
AcDbLine
 10
155.942
 20
87.89620600000001
 30
0.0
 11
156.307
 21
86.603206
 31
0.0
  0
LINE
  5
2EC
330
1E
100
AcDbEntity
  8
0
100
AcDbLine
 10
155.451
 20
89.298306
 30
0.0
 11
155.942
 21
87.89620600000001
 31
0.0
  0
LINE
  5
2ED
330
1E
100
AcDbEntity
  8
0
100
AcDbLine
 10
155.032
 20
90.310406
 30
0.0
 11
155.451
 21
89.298306
 31
0.0
  0
LINE
  5
2EF
330
1E
100
AcDbEntity
  8
0
100
AcDbLine
 10
140.171
 20
103.159906
 30
0.0
 11
141.261162006306
 21
102.8044309751079
 31
0.0
  0
LINE
  5
2F0
330
1E
100
AcDbEntity
  8
0
100
AcDbLine
 10
138.9129999999999
 20
103.4709059999999
 30
0.0
 11
140.171
 21
103.159906
 31
0.0
  0
LINE
  5
2F1
330
1E
100
AcDbEntity
  8
0
100
AcDbLine
 10
54.917
 20
87.62190600000002
 30
0.0
 11
55.455
 21
85.61980600000001
 31
0.0
  0
LINE
  5
2F2
330
1E
100
AcDbEntity
  8
0
100
AcDbLine
 10
54.739
 20
89.36050599999999
 30
0.0
 11
55.558
 21
86.981406
 31
0.0
  0
LINE
  5
2F3
330
1E
100
AcDbEntity
  8
0
100
AcDbLine
 10
84.0
 20
114.996906
 30
0.0
 11
161.829
 21
114.996906
 31
0.0
  0
LINE
  5
2F5
330
1E
100
AcDbEntity
  8
0
100
AcDbLine
 10
167.974
 20
110.263906
 30
0.0
 11
168.0
 21
108.844906
 31
0.0
  0
LINE
  5
2F6
330
1E
100
AcDbEntity
  8
0
100
AcDbLine
 10
168.0
 20
108.844906
 30
0.0
 11
168.0
 21
80.996906
 31
0.0
  0
LINE
  5
2F7
330
1E
100
AcDbEntity
  8
0
100
AcDbLine
 10
166.867
 20
113.675906
 30
0.0
 11
167.29
 21
113.100906
 31
0.0
  0
LINE
  5
2F9
330
1E
100
AcDbEntity
  8
0
100
AcDbLine
 10
166.364
 20
114.117906
 30
0.0
 11
166.8659999999999
 21
113.675906
 31
0.0
  0
LINE
  5
2FB
330
1E
100
AcDbEntity
  8
0
100
AcDbLine
 10
165.7829999999999
 20
114.4529059999999
 30
0.0
 11
166.3629999999999
 21
114.117906
 31
0.0
  0
LINE
  5
2FC
330
1E
100
AcDbEntity
  8
0
100
AcDbLine
 10
167.29
 20
113.100906
 30
0.0
 11
167.5929999999999
 21
112.450906
 31
0.0
  0
LINE
  5
2FD
330
1E
100
AcDbEntity
  8
0
100
AcDbLine
 10
162.795
 20
114.987906
 30
0.0
 11
163.761
 21
114.934906
 31
0.0
  0
LINE
  5
2FE
330
1E
100
AcDbEntity
  8
0
100
AcDbLine
 10
163.761
 20
114.934906
 30
0.0
 11
164.793
 21
114.778906
 31
0.0
  0
LINE
  5
2FF
330
1E
100
AcDbEntity
  8
0
100
AcDbLine
 10
164.793
 20
114.778906
 30
0.0
 11
165.7829999999999
 21
114.4529059999999
 31
0.0
  0
LINE
  5
300
330
1E
100
AcDbEntity
  8
0
100
AcDbLine
 10
167.5929999999999
 20
112.450906
 30
0.0
 11
167.864
 21
111.371906
 31
0.0
  0
LINE
  5
301
330
1E
100
AcDbEntity
  8
0
100
AcDbLine
 10
167.864
 20
111.371906
 30
0.0
 11
167.974
 21
110.263906
 31
0.0
  0
LINE
  5
302
330
1E
100
AcDbEntity
  8
0
100
AcDbLine
 10
161.829
 20
114.996906
 30
0.0
 11
162.795
 21
114.987906
 31
0.0
  0
LINE
  5
303
330
1E
100
AcDbEntity
  8
0
100
AcDbLine
 10
55.938
 20
80.996906
 30
0.0
 11
55.95
 21
80.484606
 31
0.0
  0
LINE
  5
304
330
1E
100
AcDbEntity
  8
0
100
AcDbLine
 10
55.938
 20
80.996906
 30
0.0
 11
55.95
 21
81.509206
 31
0.0
  0
LINE
  5
305
330
1E
100
AcDbEntity
  8
0
100
AcDbLine
 10
52.19899999999999
 20
68.79820600000001
 30
0.0
 11
53.28199999999999
 21
70.56760600000001
 31
0.0
  0
LINE
  5
306
330
1E
100
AcDbEntity
  8
0
100
AcDbLine
 10
50.953
 20
67.13930600000001
 30
0.0
 11
52.19899999999999
 21
68.79820600000001
 31
0.0
  0
LINE
  5
307
330
1E
100
AcDbEntity
  8
0
100
AcDbLine
 10
49.554
 20
65.606606
 30
0.0
 11
50.953
 21
67.13930600000001
 31
0.0
  0
LINE
  5
308
330
1E
100
AcDbEntity
  8
0
100
AcDbLine
 10
48.015
 20
64.21220600000001
 30
0.0
 11
49.554
 21
65.606606
 31
0.0
  0
LINE
  5
309
330
1E
100
AcDbEntity
  8
0
100
AcDbLine
 10
46.351
 20
62.970906
 30
0.0
 11
48.015
 21
64.21220600000001
 31
0.0
  0
LINE
  5
30E
330
1E
100
AcDbEntity
  8
0
100
AcDbLine
 10
156.841171390966
 20
83.57773710279541
 30
0.0
 11
156.535
 21
85.604106
 31
0.0
  0
LINE
  5
30F
330
1E
100
AcDbEntity
  8
0
100
AcDbLine
 10
155.032
 20
90.310406
 30
0.0
 11
153.8086157659387
 21
92.63107596599656
 31
0.0
  0
LINE
  5
310
330
1E
100
AcDbEntity
  8
0
100
AcDbLine
 10
153.8086157659387
 20
92.63107596599656
 30
0.0
 11
152.588872359579
 21
94.5184194964646
 31
0.0
  0
LINE
  5
311
330
1E
100
AcDbEntity
  8
0
100
AcDbLine
 10
151.553058811619
 20
95.8061624847336
 30
0.0
 11
150.8621209774119
 21
96.62674315161881
 31
0.0
  0
LINE
  5
312
330
1E
100
AcDbEntity
  8
0
100
AcDbLine
 10
149.568351857215
 20
97.88247520525391
 30
0.0
 11
148.8820563558429
 21
98.52992109655829
 31
0.0
  0
LINE
  5
313
330
1E
100
AcDbEntity
  8
0
100
AcDbLine
 10
142.054
 20
102.5459059999999
 30
0.0
 11
141.261162006306
 21
102.8044309751079
 31
0.0
  0
LINE
  5
314
330
1E
100
AcDbEntity
  8
0
100
AcDbLine
 10
138.236
 20
103.607906
 30
0.0
 11
136.004890822106
 21
103.9091010180909
 31
0.0
  0
LINE
  5
315
330
1E
100
AcDbEntity
  8
0
100
AcDbLine
 10
134.0
 20
103.981906
 30
0.0
 11
132.127
 21
103.926906
 31
0.0
  0
LINE
  5
316
330
1E
100
AcDbEntity
  8
0
100
AcDbLine
 10
127.932
 20
57.20470600000001
 30
0.0
 11
126.8639999999999
 21
58.387806
 31
0.0
  0
LINE
  5
317
330
1E
100
AcDbEntity
  8
0
100
AcDbLine
 10
138.557
 20
54.405506
 30
0.0
 11
138.234760830483
 21
53.2594638539117
 31
0.0
  0
LINE
  5
318
330
1E
100
AcDbEntity
  8
0
100
AcDbLine
 10
128.799
 20
55.867606
 30
0.0
 11
127.932
 21
57.20470600000001
 31
0.0
  0
LINE
  5
319
330
1E
100
AcDbEntity
  8
0
100
AcDbLine
 10
129.442
 20
54.40940600000001
 30
0.0
 11
128.799
 21
55.867606
 31
0.0
  0
LINE
  5
31A
330
1E
100
AcDbEntity
  8
0
100
AcDbLine
 10
129.765239169517
 20
53.259463853912
 30
0.0
 11
129.4429999999999
 21
54.405506
 31
0.0
  0
LINE
  5
31B
330
1E
100
AcDbEntity
  8
0
100
AcDbLine
 10
129.764
 20
103.607906
 30
0.0
 11
131.9951091778939
 21
103.9091010180909
 31
0.0
  0
LINE
  5
31C
330
1E
100
AcDbEntity
  8
0
100
AcDbLine
 10
132.127
 20
103.926906
 30
0.0
 11
131.9951091778939
 21
103.9091010180909
 31
0.0
  0
LINE
  5
31D
330
1E
100
AcDbEntity
  8
0
100
AcDbLine
 10
114.1913842340612
 20
92.63107596599656
 30
0.0
 11
115.411127640421
 21
94.5184194964646
 31
0.0
  0
LINE
  5
31E
330
1E
100
AcDbEntity
  8
0
100
AcDbLine
 10
111.999
 20
74.295206
 30
0.0
 11
111.446
 21
76.493306
 31
0.0
  0
LINE
  5
31F
330
1E
100
AcDbEntity
  8
0
100
AcDbLine
 10
119.4809999999999
 20
63.16120600000001
 30
0.0
 11
117.8
 21
64.67330600000001
 31
0.0
  0
LINE
  5
320
330
1E
100
AcDbEntity
  8
0
100
AcDbLine
 10
125.625
 20
59.38380600000001
 30
0.0
 11
124.2429999999999
 21
60.170906
 31
0.0
  0
LINE
  5
321
330
1E
100
AcDbEntity
  8
0
100
AcDbLine
 10
126.8639999999999
 20
58.387806
 30
0.0
 11
125.625
 21
59.38380600000001
 31
0.0
  0
LINE
  5
322
330
1E
100
AcDbEntity
  8
0
100
AcDbLine
 10
121.302
 20
61.82210600000001
 30
0.0
 11
120.656
 21
62.266106
 31
0.0
  0
LINE
  5
323
330
1E
100
AcDbEntity
  8
0
100
AcDbLine
 10
122.742
 20
60.943006
 30
0.0
 11
121.302
 21
61.82210600000001
 31
0.0
  0
LINE
  5
324
330
1E
100
AcDbEntity
  8
0
100
AcDbLine
 10
124.242
 20
60.170906
 30
0.0
 11
122.9729999999999
 21
60.81400600000001
 31
0.0
  0
LINE
  5
325
330
1E
100
AcDbEntity
  8
0
100
AcDbLine
 10
122.9729999999999
 20
60.815006
 30
0.0
 11
122.890995152197
 21
60.8663643231102
 31
0.0
  0
LINE
  5
326
330
1E
100
AcDbEntity
  8
0
100
AcDbLine
 10
122.9729999999999
 20
60.815006
 30
0.0
 11
122.742
 21
60.943006
 31
0.0
  0
LINE
  5
327
330
1E
100
AcDbEntity
  8
0
100
AcDbLine
 10
120.656
 20
62.266106
 30
0.0
 11
119.4809999999999
 21
63.16120600000001
 31
0.0
  0
LINE
  5
328
330
1E
100
AcDbEntity
  8
0
100
AcDbLine
 10
120.656
 20
62.266106
 30
0.0
 11
120.2147720451479
 21
62.6216155850318
 31
0.0
  0
LINE
  5
329
330
1E
100
AcDbEntity
  8
0
100
AcDbLine
 10
120.656
 20
62.266106
 30
0.0
 11
120.2147720451479
 21
62.6216155850319
 31
0.0
  0
LINE
  5
32A
330
1E
100
AcDbEntity
  8
0
100
AcDbLine
 10
120.940612838561
 20
62.0878575364538
 30
0.0
 11
120.656
 21
62.266106
 31
0.0
  0
LINE
  5
32B
330
1E
100
AcDbEntity
  8
0
100
AcDbLine
 10
116.2679999999999
 20
66.350406
 30
0.0
 11
114.912
 21
68.16860600000001
 31
0.0
  0
LINE
  5
32C
330
1E
100
AcDbEntity
  8
0
100
AcDbLine
 10
117.8
 20
64.67330600000001
 30
0.0
 11
116.2679999999999
 21
66.350406
 31
0.0
  0
LINE
  5
32D
330
1E
100
AcDbEntity
  8
0
100
AcDbLine
 10
113.741
 20
70.111806
 30
0.0
 11
112.7659999999999
 21
72.16090600000001
 31
0.0
  0
LINE
  5
32E
330
1E
100
AcDbEntity
  8
0
100
AcDbLine
 10
114.912
 20
68.16860600000001
 30
0.0
 11
113.741
 21
70.111806
 31
0.0
  0
LINE
  5
32F
330
1E
100
AcDbEntity
  8
0
100
AcDbLine
 10
112.4499999999999
 20
72.96400600000001
 30
0.0
 11
111.999
 21
74.295206
 31
0.0
  0
LINE
  5
330
330
1E
100
AcDbEntity
  8
0
100
AcDbLine
 10
112.7659999999999
 20
72.16090600000001
 30
0.0
 11
112.4499999999999
 21
72.96400600000001
 31
0.0
  0
LINE
  5
331
330
1E
100
AcDbEntity
  8
0
100
AcDbLine
 10
111.158828609034
 20
83.57773710279541
 30
0.0
 11
111.465
 21
85.604106
 31
0.0
  0
LINE
  5
332
330
1E
100
AcDbEntity
  8
0
100
AcDbLine
 10
111.1119999999999
 20
78.73650600000001
 30
0.0
 11
111.0
 21
81.000606
 31
0.0
  0
LINE
  5
333
330
1E
100
AcDbEntity
  8
0
100
AcDbLine
 10
111.446
 20
76.493306
 30
0.0
 11
111.1119999999999
 21
78.73650600000001
 31
0.0
  0
LINE
  5
334
330
1E
100
AcDbEntity
  8
0
100
AcDbLine
 10
111.1119999999999
 20
83.26780600000001
 30
0.0
 11
111.0
 21
81.000606
 31
0.0
  0
LINE
  5
335
330
1E
100
AcDbEntity
  8
0
100
AcDbLine
 10
111.158828609034
 20
83.57773710279541
 30
0.0
 11
111.1119999999999
 21
83.26780600000001
 31
0.0
  0
LINE
  5
336
330
1E
100
AcDbEntity
  8
0
100
AcDbLine
 10
111.158828609034
 20
83.57773710279541
 30
0.0
 11
111.1119999999999
 21
83.26780600000001
 31
0.0
  0
LINE
  5
337
330
1E
100
AcDbEntity
  8
0
100
AcDbLine
 10
112.0579999999999
 20
87.89620600000001
 30
0.0
 11
111.6929999999999
 21
86.603206
 31
0.0
  0
LINE
  5
338
330
1E
100
AcDbEntity
  8
0
100
AcDbLine
 10
112.549
 20
89.298306
 30
0.0
 11
112.0579999999999
 21
87.89620600000001
 31
0.0
  0
LINE
  5
339
330
1E
100
AcDbEntity
  8
0
100
AcDbLine
 10
112.968
 20
90.310406
 30
0.0
 11
114.1913842340612
 21
92.63107596599656
 31
0.0
  0
LINE
  5
33A
330
1E
100
AcDbEntity
  8
0
100
AcDbLine
 10
112.968
 20
90.310406
 30
0.0
 11
112.549
 21
89.298306
 31
0.0
  0
LINE
  5
33B
330
1E
100
AcDbEntity
  8
0
100
AcDbLine
 10
111.6929999999999
 20
86.603206
 30
0.0
 11
111.465
 21
85.604106
 31
0.0
  0
LINE
  5
33C
330
1E
100
AcDbEntity
  8
0
100
AcDbLine
 10
118.431648142785
 20
97.88247520525391
 30
0.0
 11
117.282
 21
96.79790600000002
 31
0.0
  0
LINE
  5
33D
330
1E
100
AcDbEntity
  8
0
100
AcDbLine
 10
118.431648142785
 20
97.88247520525391
 30
0.0
 11
117.282
 21
96.79790600000002
 31
0.0
  0
LINE
  5
33E
330
1E
100
AcDbEntity
  8
0
100
AcDbLine
 10
125.946
 20
102.5459059999999
 30
0.0
 11
124.129
 21
101.775906
 31
0.0
  0
LINE
  5
33F
330
1E
100
AcDbEntity
  8
0
100
AcDbLine
 10
118.431648142785
 20
97.88247520525391
 30
0.0
 11
119.117943644157
 21
98.52992109655829
 31
0.0
  0
LINE
  5
340
330
1E
100
AcDbEntity
  8
0
100
AcDbLine
 10
122.8269999999999
 20
101.105906
 30
0.0
 11
121.5749999999999
 21
100.356906
 31
0.0
  0
LINE
  5
341
330
1E
100
AcDbEntity
  8
0
100
AcDbLine
 10
123.7479999999999
 20
101.590906
 30
0.0
 11
122.8269999999999
 21
101.105906
 31
0.0
  0
LINE
  5
342
330
1E
100
AcDbEntity
  8
0
100
AcDbLine
 10
124.129
 20
101.775906
 30
0.0
 11
123.7479999999999
 21
101.590906
 31
0.0
  0
LINE
  5
343
330
1E
100
AcDbEntity
  8
0
100
AcDbLine
 10
121.293
 20
100.173906
 30
0.0
 11
120.359
 21
99.520206
 31
0.0
  0
LINE
  5
344
330
1E
100
AcDbEntity
  8
0
100
AcDbLine
 10
120.359
 20
99.520206
 30
0.0
 11
119.204
 21
98.61110600000001
 31
0.0
  0
LINE
  5
345
330
1E
100
AcDbEntity
  8
0
100
AcDbLine
 10
119.204
 20
98.61110600000001
 30
0.0
 11
119.117943644157
 21
98.52992109655829
 31
0.0
  0
LINE
  5
346
330
1E
100
AcDbEntity
  8
0
100
AcDbLine
 10
121.5749999999999
 20
100.356906
 30
0.0
 11
121.293
 21
100.173906
 31
0.0
  0
LINE
  5
347
330
1E
100
AcDbEntity
  8
0
100
AcDbLine
 10
129.087
 20
103.4709059999999
 30
0.0
 11
127.829
 21
103.159906
 31
0.0
  0
LINE
  5
348
330
1E
100
AcDbEntity
  8
0
100
AcDbLine
 10
129.764
 20
103.607906
 30
0.0
 11
129.087
 21
103.4709059999999
 31
0.0
  0
LINE
  5
349
330
1E
100
AcDbEntity
  8
0
100
AcDbLine
 10
125.946
 20
102.5459059999999
 30
0.0
 11
126.738837993694
 21
102.8044309751079
 31
0.0
  0
LINE
  5
34A
330
1E
100
AcDbEntity
  8
0
100
AcDbLine
 10
127.829
 20
103.159906
 30
0.0
 11
126.738837993694
 21
102.8044309751079
 31
0.0
  0
LINE
  5
34B
330
1E
100
AcDbEntity
  8
0
100
AcDbLine
 10
116.446941188381
 20
95.8061624847336
 30
0.0
 11
115.592
 21
94.79080600000001
 31
0.0
  0
LINE
  5
34C
330
1E
100
AcDbEntity
  8
0
100
AcDbLine
 10
115.592
 20
94.79080600000001
 30
0.0
 11
115.411127640421
 21
94.5184194964646
 31
0.0
  0
LINE
  5
34D
330
1E
100
AcDbEntity
  8
0
100
AcDbLine
 10
115.592
 20
94.79080600000001
 30
0.0
 11
115.411127640421
 21
94.5184194964646
 31
0.0
  0
LINE
  5
34E
330
1E
100
AcDbEntity
  8
0
100
AcDbLine
 10
116.446941188381
 20
95.8061624847336
 30
0.0
 11
117.137879022588
 21
96.62674315161881
 31
0.0
  0
LINE
  5
34F
330
1E
100
AcDbEntity
  8
0
100
AcDbLine
 10
117.282
 20
96.79790600000002
 30
0.0
 11
117.137879022588
 21
96.62674315161881
 31
0.0
  0
LINE
  5
350
330
1E
100
AcDbEntity
  8
0
100
AcDbLine
 10
117.282
 20
96.79790600000002
 30
0.0
 11
117.137879022588
 21
96.62674315161881
 31
0.0
  0
LINE
  5
351
330
1E
100
AcDbEntity
  8
0
100
AcDbLine
 10
0.0
 20
53.149406
 30
0.0
 11
0.0
 21
108.844906
 31
0.0
  0
LINE
  5
352
330
1E
100
AcDbEntity
  8
0
100
AcDbLine
 10
18.97929999999999
 20
76.673806
 30
0.0
 11
18.02269899559132
 21
78.3480460581028
 31
0.0
  0
LINE
  5
353
330
1E
100
AcDbEntity
  8
0
100
AcDbLine
 10
18.02269899559132
 20
78.3480460581028
 30
0.0
 11
17.14277400249739
 21
80.92954275539858
 31
0.0
  0
LINE
  5
354
330
1E
100
AcDbEntity
  8
0
100
AcDbLine
 10
17.14277400249739
 20
80.92954275539858
 30
0.0
 11
17.0
 21
82.99690600000001
 31
0.0
  0
LINE
  5
355
330
1E
100
AcDbEntity
  8
0
100
AcDbLine
 10
49.0207
 20
76.673806
 30
0.0
 11
49.87029312663003
 21
78.26294150478895
 31
0.0
  0
LINE
  5
356
330
1E
100
AcDbEntity
  8
0
100
AcDbLine
 10
49.87029312663003
 20
78.26294150478895
 30
0.0
 11
50.75021756084481
 21
80.58912562035084
 31
0.0
  0
LINE
  5
357
330
1E
100
AcDbEntity
  8
0
100
AcDbLine
 10
50.75021756084481
 20
80.58912562035084
 30
0.0
 11
51.0
 21
82.99690600000001
 31
0.0
  0
ENDSEC
  0
SECTION
  2
OBJECTS
  0
DICTIONARY
  5
C
330
0
100
AcDbDictionary
281
     1
  3
ACAD_GROUP
350
D
  3
ACAD_LAYOUT
350
19
  3
ACAD_MLINESTYLE
350
16
  3
ACAD_PLOTSETTINGS
350
18
  3
ACAD_PLOTSTYLENAME
350
E
  3
AcDbVariableDictionary
350
359
  0
DICTIONARY
  5
D
102
{ACAD_REACTORS
330
C
102
}
330
C
100
AcDbDictionary
281
     1
  0
DICTIONARY
  5
19
102
{ACAD_REACTORS
330
C
102
}
330
C
100
AcDbDictionary
281
     1
  3
Layout1
350
1D
  3
Model
350
21
  0
DICTIONARY
  5
16
102
{ACAD_REACTORS
330
C
102
}
330
C
100
AcDbDictionary
281
     1
  3
Standard
350
17
  0
DICTIONARY
  5
18
102
{ACAD_REACTORS
330
C
102
}
330
C
100
AcDbDictionary
281
     1
  0
ACDBDICTIONARYWDFLT
  5
E
102
{ACAD_REACTORS
330
C
102
}
330
C
100
AcDbDictionary
281
     1
  3
Normal
350
F
100
AcDbDictionaryWithDefault
340
F
  0
DICTIONARY
  5
359
102
{ACAD_REACTORS
330
C
102
}
330
C
100
AcDbDictionary
281
     1
  3
DIMASSOC
350
35A
  0
LAYOUT
  5
1D
102
{ACAD_REACTORS
330
19
102
}
330
19
100
AcDbPlotSettings
  1

  2
C:\Programme\AutoCAD LT 2002 Deu\plotters\DWF ePlot (optimized for plotting).pc3
  4

  6

 40
0.0
 41
0.0
 42
0.0
 43
0.0
 44
0.0
 45
0.0
 46
0.0
 47
0.0
 48
0.0
 49
0.0
140
0.0
141
0.0
142
1.0
143
1.0
 70
   688
 72
     0
 73
     0
 74
     5
  7

 75
    16
147
1.0
148
0.0
149
0.0
100
AcDbLayout
  1
Layout1
 70
     1
 71
     1
 10
0.0
 20
0.0
 11
12.0
 21
9.0
 12
0.0
 22
0.0
 32
0.0
 14
1.000000000000000E+20
 24
1.000000000000000E+20
 34
1.000000000000000E+20
 15
-1.000000000000000E+20
 25
-1.000000000000000E+20
 35
-1.000000000000000E+20
146
0.0
 13
0.0
 23
0.0
 33
0.0
 16
1.0
 26
0.0
 36
0.0
 17
0.0
 27
1.0
 37
0.0
 76
     0
330
1A
  0
LAYOUT
  5
21
102
{ACAD_REACTORS
330
19
102
}
330
19
100
AcDbPlotSettings
  1

  2
C:\Programme\AutoCAD LT 2002 Deu\plotters\DWF ePlot (optimized for plotting).pc3
  4

  6

 40
0.0
 41
0.0
 42
0.0
 43
0.0
 44
0.0
 45
0.0
 46
0.0
 47
0.0
 48
0.0
 49
0.0
140
0.0
141
0.0
142
1.0
143
1.0
 70
  1712
 72
     0
 73
     0
 74
     0
  7

 75
     0
147
1.0
148
0.0
149
0.0
100
AcDbLayout
  1
Model
 70
     1
 71
     0
 10
0.0
 20
0.0
 11
12.0
 21
9.0
 12
0.0
 22
0.0
 32
0.0
 14
0.0
 24
0.0
 34
0.0
 15
0.0
 25
0.0
 35
0.0
146
0.0
 13
0.0
 23
0.0
 33
0.0
 16
1.0
 26
0.0
 36
0.0
 17
0.0
 27
1.0
 37
0.0
 76
     0
330
1E
  0
MLINESTYLE
  5
17
102
{ACAD_REACTORS
330
16
102
}
330
16
100
AcDbMlineStyle
  2
STANDARD
 70
     0
  3

 62
   256
 51
90.0
 52
90.0
 71
     2
 49
0.5
 62
   256
  6
BYLAYER
 49
-0.5
 62
   256
  6
BYLAYER
  0
ACDBPLACEHOLDER
  5
F
102
{ACAD_REACTORS
330
E
102
}
330
E
  0
DICTIONARYVAR
  5
35A
102
{ACAD_REACTORS
330
359
102
}
330
359
100
DictionaryVariables
280
     0
  1
1
  0
ENDSEC
  0
EOF
