  0
SECTION
  2
HEADER
  9
$ACADVER
  1
AC1014
  9
$ACADMAINTVER
 70
     9
  9
$DWGCODEPAGE
  3
ANSI_1252
  9
$INSBASE
 10
0.0
 20
0.0
 30
0.0
  9
$EXTMIN
 10
-0.129000000000006
 20
0.0000000000000013
 30
0.0
  9
$EXTMAX
 10
45.129
 20
64.0
 30
0.0
  9
$LIMMIN
 10
0.0
 20
0.0
  9
$LIMMAX
 10
12.0
 20
9.0
  9
$ORTHOMODE
 70
     0
  9
$REGENMODE
 70
     1
  9
$FILLMODE
 70
     1
  9
$QTEXTMODE
 70
     0
  9
$MIRRTEXT
 70
     1
  9
$DRAGMODE
 70
     2
  9
$LTSCALE
 40
1.0
  9
$OSMODE
 70
    37
  9
$ATTMODE
 70
     1
  9
$TEXTSIZE
 40
0.2
  9
$TRACEWID
 40
0.05
  9
$TEXTSTYLE
  7
STANDARD
  9
$CLAYER
  8
0
  9
$CELTYPE
  6
CONTINUOUS
  9
$CECOLOR
 62
   256
  9
$CELTSCALE
 40
1.0
  9
$DELOBJ
 70
     1
  9
$DISPSILH
 70
     0
  9
$DIMSCALE
 40
1.0
  9
$DIMASZ
 40
0.18
  9
$DIMEXO
 40
0.0625
  9
$DIMDLI
 40
0.38
  9
$DIMRND
 40
0.0
  9
$DIMDLE
 40
0.0
  9
$DIMEXE
 40
0.18
  9
$DIMTP
 40
0.0
  9
$DIMTM
 40
0.0
  9
$DIMTXT
 40
0.18
  9
$DIMCEN
 40
0.09
  9
$DIMTSZ
 40
0.0
  9
$DIMTOL
 70
     0
  9
$DIMLIM
 70
     0
  9
$DIMTIH
 70
     1
  9
$DIMTOH
 70
     1
  9
$DIMSE1
 70
     0
  9
$DIMSE2
 70
     0
  9
$DIMTAD
 70
     0
  9
$DIMZIN
 70
     0
  9
$DIMBLK
  1

  9
$DIMASO
 70
     1
  9
$DIMSHO
 70
     1
  9
$DIMPOST
  1

  9
$DIMAPOST
  1

  9
$DIMALT
 70
     0
  9
$DIMALTD
 70
     2
  9
$DIMALTF
 40
25.4
  9
$DIMLFAC
 40
1.0
  9
$DIMTOFL
 70
     0
  9
$DIMTVP
 40
0.0
  9
$DIMTIX
 70
     0
  9
$DIMSOXD
 70
     0
  9
$DIMSAH
 70
     0
  9
$DIMBLK1
  1

  9
$DIMBLK2
  1

  9
$DIMSTYLE
  2
STANDARD
  9
$DIMCLRD
 70
     0
  9
$DIMCLRE
 70
     0
  9
$DIMCLRT
 70
     0
  9
$DIMTFAC
 40
1.0
  9
$DIMGAP
 40
0.09
  9
$DIMJUST
 70
     0
  9
$DIMSD1
 70
     0
  9
$DIMSD2
 70
     0
  9
$DIMTOLJ
 70
     1
  9
$DIMTZIN
 70
     0
  9
$DIMALTZ
 70
     0
  9
$DIMALTTZ
 70
     0
  9
$DIMFIT
 70
     3
  9
$DIMUPT
 70
     0
  9
$DIMUNIT
 70
     2
  9
$DIMDEC
 70
     4
  9
$DIMTDEC
 70
     4
  9
$DIMALTU
 70
     2
  9
$DIMALTTD
 70
     2
  9
$DIMTXSTY
  7
STANDARD
  9
$DIMAUNIT
 70
     0
  9
$LUNITS
 70
     2
  9
$LUPREC
 70
     4
  9
$SKETCHINC
 40
0.1
  9
$FILLETRAD
 40
0.0
  9
$AUNITS
 70
     0
  9
$AUPREC
 70
     0
  9
$MENU
  1
.
  9
$ELEVATION
 40
0.0
  9
$PELEVATION
 40
0.0
  9
$THICKNESS
 40
0.0
  9
$LIMCHECK
 70
     0
  9
$BLIPMODE
 70
     0
  9
$CHAMFERA
 40
0.0
  9
$CHAMFERB
 40
0.0
  9
$CHAMFERC
 40
0.0
  9
$CHAMFERD
 40
0.0
  9
$SKPOLY
 70
     0
  9
$TDCREATE
 40
2454983.611365555
  9
$TDUPDATE
 40
2454983.612810683
  9
$TDINDWG
 40
0.0014453125
  9
$TDUSRTIMER
 40
0.0014453125
  9
$USRTIMER
 70
     1
  9
$ANGBASE
 50
0.0
  9
$ANGDIR
 70
     0
  9
$PDMODE
 70
     0
  9
$PDSIZE
 40
0.0
  9
$PLINEWID
 40
0.0
  9
$COORDS
 70
     1
  9
$SPLFRAME
 70
     0
  9
$SPLINETYPE
 70
     6
  9
$SPLINESEGS
 70
     8
  9
$ATTDIA
 70
     0
  9
$ATTREQ
 70
     1
  9
$HANDLING
 70
 22529
  9
$HANDSEED
  5
25E
  9
$SURFTAB1
 70
     6
  9
$SURFTAB2
 70
     6
  9
$SURFTYPE
 70
     6
  9
$SURFU
 70
     6
  9
$SURFV
 70
     6
  9
$UCSNAME
  2

  9
$UCSORG
 10
0.0
 20
0.0
 30
0.0
  9
$UCSXDIR
 10
1.0
 20
0.0
 30
0.0
  9
$UCSYDIR
 10
0.0
 20
1.0
 30
0.0
  9
$PUCSNAME
  2

  9
$PUCSORG
 10
0.0
 20
0.0
 30
0.0
  9
$PUCSXDIR
 10
1.0
 20
0.0
 30
0.0
  9
$PUCSYDIR
 10
0.0
 20
1.0
 30
0.0
  9
$USERI1
 70
     0
  9
$USERI2
 70
     0
  9
$USERI3
 70
     0
  9
$USERI4
 70
     0
  9
$USERI5
 70
     0
  9
$USERR1
 40
0.0
  9
$USERR2
 40
0.0
  9
$USERR3
 40
0.0
  9
$USERR4
 40
0.0
  9
$USERR5
 40
0.0
  9
$WORLDVIEW
 70
     1
  9
$SHADEDGE
 70
     3
  9
$SHADEDIF
 70
    70
  9
$TILEMODE
 70
     1
  9
$MAXACTVP
 70
    64
  9
$PINSBASE
 10
0.0
 20
0.0
 30
0.0
  9
$PLIMCHECK
 70
     0
  9
$PEXTMIN
 10
1.000000000000000E+20
 20
1.000000000000000E+20
 30
1.000000000000000E+20
  9
$PEXTMAX
 10
-1.000000000000000E+20
 20
-1.000000000000000E+20
 30
-1.000000000000000E+20
  9
$PLIMMIN
 10
0.0
 20
0.0
  9
$PLIMMAX
 10
12.0
 20
9.0
  9
$UNITMODE
 70
     0
  9
$VISRETAIN
 70
     1
  9
$PLINEGEN
 70
     0
  9
$PSLTSCALE
 70
     1
  9
$TREEDEPTH
 70
  3020
  9
$PICKSTYLE
 70
     1
  9
$CMLSTYLE
  2
STANDARD
  9
$CMLJUST
 70
     0
  9
$CMLSCALE
 40
1.0
  9
$PROXYGRAPHICS
 70
     1
  9
$MEASUREMENT
 70
     0
  0
ENDSEC
  0
SECTION
  2
CLASSES
  0
CLASS
  1
ACDBDICTIONARYWDFLT
  2
AcDbDictionaryWithDefault
  3
AutoCAD 2000
 90
        0
280
     0
281
     0
  0
CLASS
  1
ACDBPLACEHOLDER
  2
AcDbPlaceHolder
  3
AutoCAD 2000
 90
        0
280
     0
281
     0
  0
CLASS
  1
LAYOUT
  2
AcDbLayout
  3
AutoCAD 2000
 90
        0
280
     0
281
     0
  0
CLASS
  1
DICTIONARYVAR
  2
AcDbDictionaryVar
  3
AutoCAD 2000
 90
        0
280
     0
281
     0
  0
CLASS
  1
LONG_TRANSACTION
  2
AcDbLongTransaction
  3
AutoCAD 2000
 90
        0
280
     0
281
     0
  0
CLASS
  1
LWPOLYLINE
  2
AcDbPolyline
  3
AutoCAD 2000
 90
        0
280
     0
281
     1
  0
CLASS
  1
HATCH
  2
AcDbHatch
  3
AutoCAD 2000
 90
        0
280
     0
281
     1
  0
CLASS
  1
XRECORD
  2
AcDbXrecord
  3
AutoCAD 2000
 90
        0
280
     0
281
     0
  0
ENDSEC
  0
SECTION
  2
TABLES
  0
TABLE
  2
VPORT
  5
8
330
0
100
AcDbSymbolTable
 70
     2
  0
VPORT
  5
239
330
8
100
AcDbSymbolTableRecord
100
AcDbViewportTableRecord
  2
*ACTIVE
 70
     0
 10
0.0
 20
0.0
 11
1.0
 21
1.0
 12
22.49999999999999
 22
32.0
 13
0.0
 23
0.0
 14
1.0
 24
1.0
 15
0.0
 25
0.0
 16
0.0
 26
0.0
 36
1.0
 17
0.0
 27
0.0
 37
0.0
 40
64.40421052631579
 41
1.968387776606954
 42
50.0
 43
0.0
 44
0.0
 50
0.0
 51
0.0
 71
     0
 72
   100
 73
     1
 74
     3
 75
     0
 76
     0
 77
     0
 78
     0
  0
ENDTAB
  0
TABLE
  2
LTYPE
  5
5
330
0
100
AcDbSymbolTable
 70
     1
  0
LTYPE
  5
13
330
5
100
AcDbSymbolTableRecord
100
AcDbLinetypeTableRecord
  2
BYBLOCK
 70
     0
  3

 72
    65
 73
     0
 40
0.0
  0
LTYPE
  5
14
330
5
100
AcDbSymbolTableRecord
100
AcDbLinetypeTableRecord
  2
BYLAYER
 70
     0
  3

 72
    65
 73
     0
 40
0.0
  0
LTYPE
  5
15
330
5
100
AcDbSymbolTableRecord
100
AcDbLinetypeTableRecord
  2
CONTINUOUS
 70
     0
  3
Solid line
 72
    65
 73
     0
 40
0.0
  0
ENDTAB
  0
TABLE
  2
LAYER
  5
2
330
0
100
AcDbSymbolTable
 70
     1
  0
LAYER
  5
10
330
2
100
AcDbSymbolTableRecord
100
AcDbLayerTableRecord
  2
0
 70
     0
 62
     7
  6
CONTINUOUS
  0
ENDTAB
  0
TABLE
  2
STYLE
  5
3
330
0
100
AcDbSymbolTable
 70
     1
  0
STYLE
  5
11
330
3
100
AcDbSymbolTableRecord
100
AcDbTextStyleTableRecord
  2
STANDARD
 70
     0
 40
0.0
 41
1.0
 50
0.0
 71
     0
 42
0.2
  3
txt
  4

  0
ENDTAB
  0
TABLE
  2
VIEW
  5
6
330
0
100
AcDbSymbolTable
 70
     0
  0
ENDTAB
  0
TABLE
  2
UCS
  5
7
330
0
100
AcDbSymbolTable
 70
     0
  0
ENDTAB
  0
TABLE
  2
APPID
  5
9
330
0
100
AcDbSymbolTable
 70
     1
  0
APPID
  5
12
330
9
100
AcDbSymbolTableRecord
100
AcDbRegAppTableRecord
  2
ACAD
 70
     0
  0
ENDTAB
  0
TABLE
  2
DIMSTYLE
  5
A
330
0
100
AcDbSymbolTable
 70
     1
  0
DIMSTYLE
105
233
330
A
100
AcDbSymbolTableRecord
100
AcDbDimStyleTableRecord
  2
STANDARD
 70
     0
  3

  4

  5

  6

  7

 40
1.0
 41
0.18
 42
0.0625
 43
0.38
 44
0.18
 45
0.0
 46
0.0
 47
0.0
 48
0.0
140
0.18
141
0.09
142
0.0
143
25.4
144
1.0
145
0.0
146
1.0
147
0.09
 71
     0
 72
     0
 73
     1
 74
     1
 75
     0
 76
     0
 77
     0
 78
     0
170
     0
171
     2
172
     0
173
     0
174
     0
175
     0
176
     0
177
     0
178
     0
270
     2
271
     4
272
     4
273
     2
274
     2
340
11
275
     0
280
     0
281
     0
282
     0
283
     1
284
     0
285
     0
286
     0
287
     3
288
     0
  0
ENDTAB
  0
TABLE
  2
BLOCK_RECORD
  5
1
330
0
100
AcDbSymbolTable
 70
     0
  0
BLOCK_RECORD
  5
1E
102
{ACAD_XDICTIONARY
360
25C
102
}
330
1
100
AcDbSymbolTableRecord
100
AcDbBlockTableRecord
  2
*MODEL_SPACE
  0
BLOCK_RECORD
  5
1A
102
{ACAD_XDICTIONARY
360
25A
102
}
330
1
100
AcDbSymbolTableRecord
100
AcDbBlockTableRecord
  2
*PAPER_SPACE
  0
ENDTAB
  0
ENDSEC
  0
SECTION
  2
BLOCKS
  0
BLOCK
  5
1F
330
1E
100
AcDbEntity
  8
0
100
AcDbBlockBegin
  2
*MODEL_SPACE
 70
     0
 10
0.0
 20
0.0
 30
0.0
  3
*MODEL_SPACE
  1

  0
ENDBLK
  5
20
330
1E
100
AcDbEntity
  8
0
100
AcDbBlockEnd
  0
BLOCK
  5
1B
330
1A
100
AcDbEntity
 67
     1
  8
0
100
AcDbBlockBegin
  2
*PAPER_SPACE
 70
     0
 10
0.0
 20
0.0
 30
0.0
  3
*PAPER_SPACE
  1

  0
ENDBLK
  5
1C
330
1A
100
AcDbEntity
 67
     1
  8
0
100
AcDbBlockEnd
  0
ENDSEC
  0
SECTION
  2
ENTITIES
  0
LINE
  5
22
330
1E
100
AcDbEntity
  8
0
100
AcDbLine
 10
6.62899999999999
 20
9.0
 30
0.0
 11
6.62899999999999
 21
9.827999999999999
 31
0.0
  0
LINE
  5
23
330
1E
100
AcDbEntity
  8
0
100
AcDbLine
 10
6.62899999999999
 20
9.0
 30
0.0
 11
14.629
 21
9.0
 31
0.0
  0
LINE
  5
24
330
1E
100
AcDbEntity
  8
0
100
AcDbLine
 10
14.629
 20
9.0
 30
0.0
 11
14.629
 21
9.827999999999999
 31
0.0
  0
LINE
  5
25
330
1E
100
AcDbEntity
  8
0
100
AcDbLine
 10
14.629
 20
9.0
 30
0.0
 11
17.6878235294118
 21
13.0
 31
0.0
  0
LINE
  5
26
330
1E
100
AcDbEntity
  8
0
100
AcDbLine
 10
14.629
 20
9.827999999999999
 30
0.0
 11
14.629
 21
12.036
 31
0.0
  0
LINE
  5
27
330
1E
100
AcDbEntity
  8
0
100
AcDbLine
 10
14.629
 20
9.827999999999999
 30
0.0
 11
14.629
 21
9.0
 31
0.0
  0
LINE
  5
28
330
1E
100
AcDbEntity
  8
0
100
AcDbLine
 10
14.629
 20
12.036
 30
0.0
 11
14.629
 21
15.716
 31
0.0
  0
LINE
  5
29
330
1E
100
AcDbEntity
  8
0
100
AcDbLine
 10
14.629
 20
12.036
 30
0.0
 11
14.629
 21
9.827999999999999
 31
0.0
  0
LINE
  5
2A
330
1E
100
AcDbEntity
  8
0
100
AcDbLine
 10
6.62899999999999
 20
9.827999999999999
 30
0.0
 11
6.62899999999999
 21
12.036
 31
0.0
  0
LINE
  5
2B
330
1E
100
AcDbEntity
  8
0
100
AcDbLine
 10
6.62899999999999
 20
9.827999999999999
 30
0.0
 11
6.62899999999999
 21
9.0
 31
0.0
  0
LINE
  5
2C
330
1E
100
AcDbEntity
  8
0
100
AcDbLine
 10
6.62899999999999
 20
12.036
 30
0.0
 11
6.62899999999999
 21
14.0
 31
0.0
  0
LINE
  5
2D
330
1E
100
AcDbEntity
  8
0
100
AcDbLine
 10
6.62899999999999
 20
12.036
 30
0.0
 11
6.62899999999999
 21
9.827999999999999
 31
0.0
  0
LINE
  5
2E
330
1E
100
AcDbEntity
  8
0
100
AcDbLine
 10
6.62899999999999
 20
12.036
 30
0.0
 11
6.62899999999999
 21
15.716
 31
0.0
  0
LINE
  5
2F
330
1E
100
AcDbEntity
  8
0
100
AcDbLine
 10
22.1021
 20
13.0
 30
0.0
 11
24.7764
 21
13.0
 31
0.0
  0
LINE
  5
31
330
1E
100
AcDbEntity
  8
0
100
AcDbLine
 10
17.957
 20
13.0
 30
0.0
 11
18.425
 21
13.0
 31
0.0
  0
LINE
  5
32
330
1E
100
AcDbEntity
  8
0
100
AcDbLine
 10
4.62899999999999
 20
14.0
 30
0.0
 11
4.62899999999999
 21
14.648
 31
0.0
  0
LINE
  5
33
330
1E
100
AcDbEntity
  8
0
100
AcDbLine
 10
4.62899999999999
 20
14.0
 30
0.0
 11
6.62899999999999
 21
14.0
 31
0.0
  0
LINE
  5
34
330
1E
100
AcDbEntity
  8
0
100
AcDbLine
 10
6.62899999999999
 20
14.648
 30
0.0
 11
6.62899999999999
 21
14.0
 31
0.0
  0
LINE
  5
35
330
1E
100
AcDbEntity
  8
0
100
AcDbLine
 10
6.62899999999999
 20
14.648
 30
0.0
 11
6.62899999999999
 21
16.37599999999999
 31
0.0
  0
LINE
  5
36
330
1E
100
AcDbEntity
  8
0
100
AcDbLine
 10
6.62899999999999
 20
16.37599999999999
 30
0.0
 11
6.62899999999999
 21
14.648
 31
0.0
  0
LINE
  5
37
330
1E
100
AcDbEntity
  8
0
100
AcDbLine
 10
6.62899999999999
 20
16.37599999999999
 30
0.0
 11
6.62899999999999
 21
19.256
 31
0.0
  0
LINE
  5
38
330
1E
100
AcDbEntity
  8
0
100
AcDbLine
 10
4.62899999999999
 20
14.648
 30
0.0
 11
4.62899999999999
 21
16.37599999999999
 31
0.0
  0
LINE
  5
39
330
1E
100
AcDbEntity
  8
0
100
AcDbLine
 10
4.62899999999999
 20
14.648
 30
0.0
 11
4.62899999999999
 21
14.0
 31
0.0
  0
LINE
  5
3A
330
1E
100
AcDbEntity
  8
0
100
AcDbLine
 10
0.169999999999985
 20
18.6792
 30
0.0
 11
0.5851999999999871
 21
17.57379999999999
 31
0.0
  0
LINE
  5
3B
330
1E
100
AcDbEntity
  8
0
100
AcDbLine
 10
0.5851999999999871
 20
17.57379999999999
 30
0.0
 11
0.5851999999999871
 21
17.3409
 31
0.0
  0
LINE
  5
3C
330
1E
100
AcDbEntity
  8
0
100
AcDbLine
 10
0.0851999999999886
 20
18.3636
 30
0.0
 11
0.5851999999999871
 21
17.3409
 31
0.0
  0
LINE
  5
3F
330
1E
100
AcDbEntity
  8
0
100
AcDbLine
 10
-0.129000000000006
 20
19.38639999999999
 30
0.0
 11
0.0851999999999886
 21
18.3636
 31
0.0
  0
LINE
  5
40
330
1E
100
AcDbEntity
  8
0
100
AcDbLine
 10
-0.129000000000006
 20
19.38639999999999
 30
0.0
 11
-0.129000000000006
 21
19.8636
 31
0.0
  0
LINE
  5
41
330
1E
100
AcDbEntity
  8
0
100
AcDbLine
 10
4.62899999999999
 20
19.256
 30
0.0
 11
4.62899999999999
 21
16.37599999999999
 31
0.0
  0
LINE
  5
42
330
1E
100
AcDbEntity
  8
0
100
AcDbLine
 10
4.62899999999999
 20
19.256
 30
0.0
 11
4.62899999999999
 21
23.07199999999999
 31
0.0
  0
LINE
  5
43
330
1E
100
AcDbEntity
  8
0
100
AcDbLine
 10
1.29949999999999
 20
17.0
 30
0.0
 11
4.62899999999999
 21
17.0
 31
0.0
  0
LINE
  5
44
330
1E
100
AcDbEntity
  8
0
100
AcDbLine
 10
0.5851999999999871
 20
17.3409
 30
0.0
 11
1.29949999999999
 21
17.0
 31
0.0
  0
LINE
  5
45
330
1E
100
AcDbEntity
  8
0
100
AcDbLine
 10
0.5851999999999871
 20
17.3409
 30
0.0
 11
0.5851999999999871
 21
17.57379999999999
 31
0.0
  0
LINE
  5
46
330
1E
100
AcDbEntity
  8
0
100
AcDbLine
 10
0.0152999999999903
 20
20.4937
 30
0.0
 11
0.130699999999987
 21
22.3182
 31
0.0
  0
LINE
  5
47
330
1E
100
AcDbEntity
  8
0
100
AcDbLine
 10
0.0152999999999903
 20
20.4937
 30
0.0
 11
0.169999999999985
 21
18.6792
 31
0.0
  0
LINE
  5
48
330
1E
100
AcDbEntity
  8
0
100
AcDbLine
 10
-0.129000000000006
 20
19.8636
 30
0.0
 11
-0.129000000000006
 21
19.38639999999999
 31
0.0
  0
LINE
  5
49
330
1E
100
AcDbEntity
  8
0
100
AcDbLine
 10
-0.129000000000006
 20
19.8636
 30
0.0
 11
-0.129000000000006
 21
21.0909
 31
0.0
  0
LINE
  5
4C
330
1E
100
AcDbEntity
  8
0
100
AcDbLine
 10
6.62899999999999
 20
19.256
 30
0.0
 11
6.62899999999999
 21
16.37599999999999
 31
0.0
  0
LINE
  5
4D
330
1E
100
AcDbEntity
  8
0
100
AcDbLine
 10
6.62899999999999
 20
19.256
 30
0.0
 11
6.62899999999999
 21
23.07199999999999
 31
0.0
  0
LINE
  5
4E
330
1E
100
AcDbEntity
  8
0
100
AcDbLine
 10
4.62899999999999
 20
17.0
 30
0.0
 11
4.62899999999999
 21
16.37599999999999
 31
0.0
  0
LINE
  5
4F
330
1E
100
AcDbEntity
  8
0
100
AcDbLine
 10
4.62899999999999
 20
16.37599999999999
 30
0.0
 11
4.62899999999999
 21
17.0
 31
0.0
  0
LINE
  5
50
330
1E
100
AcDbEntity
  8
0
100
AcDbLine
 10
4.62899999999999
 20
16.37599999999999
 30
0.0
 11
4.62899999999999
 21
14.648
 31
0.0
  0
LINE
  5
51
330
1E
100
AcDbEntity
  8
0
100
AcDbLine
 10
4.62899999999999
 20
16.37599999999999
 30
0.0
 11
4.62899999999999
 21
19.256
 31
0.0
  0
LINE
  5
52
330
1E
100
AcDbEntity
  8
0
100
AcDbLine
 10
6.62899999999999
 20
15.716
 30
0.0
 11
6.62899999999999
 21
20.592
 31
0.0
  0
LINE
  5
53
330
1E
100
AcDbEntity
  8
0
100
AcDbLine
 10
6.62899999999999
 20
15.716
 30
0.0
 11
6.62899999999999
 21
12.036
 31
0.0
  0
LINE
  5
54
330
1E
100
AcDbEntity
  8
0
100
AcDbLine
 10
-0.129000000000006
 20
22.5028
 30
0.0
 11
-0.129000000000006
 21
21.4017
 31
0.0
  0
LINE
  5
55
330
1E
100
AcDbEntity
  8
0
100
AcDbLine
 10
-0.129000000000006
 20
22.5028
 30
0.0
 11
-0.129000000000006
 21
24.35729999999999
 31
0.0
  0
LINE
  5
56
330
1E
100
AcDbEntity
  8
0
100
AcDbLine
 10
-0.129000000000006
 20
23.0682
 30
0.0
 11
-0.129000000000006
 21
25.72729999999999
 31
0.0
  0
LINE
  5
57
330
1E
100
AcDbEntity
  8
0
100
AcDbLine
 10
-0.129000000000006
 20
23.0682
 30
0.0
 11
-0.129000000000006
 21
21.0909
 31
0.0
  0
LINE
  5
58
330
1E
100
AcDbEntity
  8
0
100
AcDbLine
 10
-0.129000000000006
 20
24.35729999999999
 30
0.0
 11
-0.129000000000006
 21
22.5028
 31
0.0
  0
LINE
  5
59
330
1E
100
AcDbEntity
  8
0
100
AcDbLine
 10
-0.129000000000006
 20
24.35729999999999
 30
0.0
 11
-0.129000000000006
 21
26.8493
 31
0.0
  0
LINE
  5
5A
330
1E
100
AcDbEntity
  8
0
100
AcDbLine
 10
-0.129000000000006
 20
22.4738
 30
0.0
 11
-0.129000000000006
 21
24.3283
 31
0.0
  0
LINE
  5
5B
330
1E
100
AcDbEntity
  8
0
100
AcDbLine
 10
-0.129000000000006
 20
22.4738
 30
0.0
 11
-0.129000000000006
 21
21.4017
 31
0.0
  0
LINE
  5
5C
330
1E
100
AcDbEntity
  8
0
100
AcDbLine
 10
-0.129000000000006
 20
21.0909
 30
0.0
 11
-0.129000000000006
 21
19.8636
 31
0.0
  0
LINE
  5
5D
330
1E
100
AcDbEntity
  8
0
100
AcDbLine
 10
-0.129000000000006
 20
21.0909
 30
0.0
 11
-0.129000000000006
 21
23.0682
 31
0.0
  0
LINE
  5
5E
330
1E
100
AcDbEntity
  8
0
100
AcDbLine
 10
-0.129000000000006
 20
25.72729999999999
 30
0.0
 11
-0.129000000000006
 21
28.7273
 31
0.0
  0
LINE
  5
5F
330
1E
100
AcDbEntity
  8
0
100
AcDbLine
 10
-0.129000000000006
 20
25.72729999999999
 30
0.0
 11
-0.129000000000006
 21
23.0682
 31
0.0
  0
LINE
  5
60
330
1E
100
AcDbEntity
  8
0
100
AcDbLine
 10
-0.129000000000006
 20
24.3283
 30
0.0
 11
-0.129000000000006
 21
26.8203
 31
0.0
  0
LINE
  5
61
330
1E
100
AcDbEntity
  8
0
100
AcDbLine
 10
-0.129000000000006
 20
24.3283
 30
0.0
 11
-0.129000000000006
 21
22.4738
 31
0.0
  0
LINE
  5
62
330
1E
100
AcDbEntity
  8
0
100
AcDbLine
 10
-0.129000000000006
 20
29.2833
 30
0.0
 11
-0.129000000000006
 21
26.8493
 31
0.0
  0
LINE
  5
63
330
1E
100
AcDbEntity
  8
0
100
AcDbLine
 10
-0.129000000000006
 20
29.2833
 30
0.0
 11
-0.129000000000006
 21
31.8912
 31
0.0
  0
LINE
  5
64
330
1E
100
AcDbEntity
  8
0
100
AcDbLine
 10
-0.129000000000006
 20
26.8493
 30
0.0
 11
-0.129000000000006
 21
24.35729999999999
 31
0.0
  0
LINE
  5
65
330
1E
100
AcDbEntity
  8
0
100
AcDbLine
 10
-0.129000000000006
 20
26.8493
 30
0.0
 11
-0.129000000000006
 21
29.2833
 31
0.0
  0
LINE
  5
66
330
1E
100
AcDbEntity
  8
0
100
AcDbLine
 10
-0.129000000000006
 20
29.3122
 30
0.0
 11
-0.129000000000006
 21
31.8332
 31
0.0
  0
LINE
  5
67
330
1E
100
AcDbEntity
  8
0
100
AcDbLine
 10
-0.129000000000006
 20
29.3122
 30
0.0
 11
-0.129000000000006
 21
26.8203
 31
0.0
  0
LINE
  5
68
330
1E
100
AcDbEntity
  8
0
100
AcDbLine
 10
-0.129000000000006
 20
26.8203
 30
0.0
 11
-0.129000000000006
 21
29.3122
 31
0.0
  0
LINE
  5
69
330
1E
100
AcDbEntity
  8
0
100
AcDbLine
 10
-0.129000000000006
 20
26.8203
 30
0.0
 11
-0.129000000000006
 21
24.3283
 31
0.0
  0
LINE
  5
6A
330
1E
100
AcDbEntity
  8
0
100
AcDbLine
 10
-0.129000000000006
 20
28.7273
 30
0.0
 11
-0.129000000000006
 21
25.72729999999999
 31
0.0
  0
LINE
  5
6B
330
1E
100
AcDbEntity
  8
0
100
AcDbLine
 10
-0.129000000000006
 20
28.7273
 30
0.0
 11
-0.129000000000006
 21
32.0
 31
0.0
  0
LINE
  5
6C
330
1E
100
AcDbEntity
  8
0
100
AcDbLine
 10
-0.129000000000006
 20
21.025
 30
0.0
 11
-0.129000000000006
 21
21.4017
 31
0.0
  0
LINE
  5
6D
330
1E
100
AcDbEntity
  8
0
100
AcDbLine
 10
-0.129000000000006
 20
21.4017
 30
0.0
 11
-0.129000000000006
 21
21.025
 31
0.0
  0
LINE
  5
6E
330
1E
100
AcDbEntity
  8
0
100
AcDbLine
 10
-0.129000000000006
 20
21.4017
 30
0.0
 11
-0.129000000000006
 21
22.4738
 31
0.0
  0
LINE
  5
6F
330
1E
100
AcDbEntity
  8
0
100
AcDbLine
 10
-0.129000000000006
 20
21.4017
 30
0.0
 11
-0.129000000000006
 21
22.5028
 31
0.0
  0
LINE
  5
70
330
1E
100
AcDbEntity
  8
0
100
AcDbLine
 10
-0.129000000000006
 20
31.8912
 30
0.0
 11
-0.129000000000006
 21
29.2833
 31
0.0
  0
LINE
  5
71
330
1E
100
AcDbEntity
  8
0
100
AcDbLine
 10
-0.129000000000006
 20
31.8912
 30
0.0
 11
-0.129000000000006
 21
34.4121
 31
0.0
  0
LINE
  5
72
330
1E
100
AcDbEntity
  8
0
100
AcDbLine
 10
-0.129000000000006
 20
31.8332
 30
0.0
 11
-0.129000000000006
 21
34.4121
 31
0.0
  0
LINE
  5
73
330
1E
100
AcDbEntity
  8
0
100
AcDbLine
 10
-0.129000000000006
 20
31.8332
 30
0.0
 11
-0.129000000000006
 21
29.3122
 31
0.0
  0
LINE
  5
74
330
1E
100
AcDbEntity
  8
0
100
AcDbLine
 10
-0.0576000000000176
 20
32.0
 30
0.0
 11
0.042399999999988
 21
28.5636
 31
0.0
  0
LINE
  5
75
330
1E
100
AcDbEntity
  8
0
100
AcDbLine
 10
-0.0576000000000176
 20
32.0
 30
0.0
 11
0.042399999999988
 21
35.43639999999999
 31
0.0
  0
LINE
  5
76
330
1E
100
AcDbEntity
  8
0
100
AcDbLine
 10
0.5851999999999871
 20
23.59599999999999
 30
0.0
 11
0.5851999999999871
 21
24.7045
 31
0.0
  0
LINE
  5
77
330
1E
100
AcDbEntity
  8
0
100
AcDbLine
 10
6.62899999999999
 20
23.07199999999999
 30
0.0
 11
6.62899999999999
 21
19.256
 31
0.0
  0
LINE
  5
78
330
1E
100
AcDbEntity
  8
0
100
AcDbLine
 10
6.62899999999999
 20
23.07199999999999
 30
0.0
 11
6.62899999999999
 21
27.392
 31
0.0
  0
LINE
  5
79
330
1E
100
AcDbEntity
  8
0
100
AcDbLine
 10
4.62899999999999
 20
23.07199999999999
 30
0.0
 11
4.62899999999999
 21
19.256
 31
0.0
  0
LINE
  5
7A
330
1E
100
AcDbEntity
  8
0
100
AcDbLine
 10
4.62899999999999
 20
23.07199999999999
 30
0.0
 11
4.62899999999999
 21
27.392
 31
0.0
  0
LINE
  5
7B
330
1E
100
AcDbEntity
  8
0
100
AcDbLine
 10
0.5851999999999871
 20
24.481
 30
0.0
 11
4.62899999999999
 21
24.481
 31
0.0
  0
LINE
  5
7C
330
1E
100
AcDbEntity
  8
0
100
AcDbLine
 10
4.62899999999999
 20
27.392
 30
0.0
 11
4.62899999999999
 21
23.07199999999999
 31
0.0
  0
LINE
  5
7D
330
1E
100
AcDbEntity
  8
0
100
AcDbLine
 10
4.62899999999999
 20
27.392
 30
0.0
 11
4.62899999999999
 21
32.0
 31
0.0
  0
LINE
  5
7E
330
1E
100
AcDbEntity
  8
0
100
AcDbLine
 10
6.62899999999999
 20
27.392
 30
0.0
 11
6.62899999999999
 21
23.07199999999999
 31
0.0
  0
LINE
  5
7F
330
1E
100
AcDbEntity
  8
0
100
AcDbLine
 10
6.62899999999999
 20
27.392
 30
0.0
 11
6.62899999999999
 21
32.0
 31
0.0
  0
LINE
  5
80
330
1E
100
AcDbEntity
  8
0
100
AcDbLine
 10
4.62899999999999
 20
32.0
 30
0.0
 11
4.62899999999999
 21
27.392
 31
0.0
  0
LINE
  5
81
330
1E
100
AcDbEntity
  8
0
100
AcDbLine
 10
4.62899999999999
 20
32.0
 30
0.0
 11
4.62899999999999
 21
36.608
 31
0.0
  0
LINE
  5
83
330
1E
100
AcDbEntity
  8
0
100
AcDbLine
 10
0.5851999999999871
 20
25.3799
 30
0.0
 11
0.5851999999999871
 21
24.7045
 31
0.0
  0
LINE
  5
86
330
1E
100
AcDbEntity
  8
0
100
AcDbLine
 10
0.5851999999999871
 20
24.7045
 30
0.0
 11
0.5851999999999871
 21
25.3799
 31
0.0
  0
LINE
  5
87
330
1E
100
AcDbEntity
  8
0
100
AcDbLine
 10
0.5851999999999871
 20
24.7045
 30
0.0
 11
0.5851999999999871
 21
23.59599999999999
 31
0.0
  0
LINE
  5
88
330
1E
100
AcDbEntity
  8
0
100
AcDbLine
 10
0.042399999999988
 20
28.5636
 30
0.0
 11
0.5851999999999871
 21
25.3799
 31
0.0
  0
LINE
  5
89
330
1E
100
AcDbEntity
  8
0
100
AcDbLine
 10
0.130699999999987
 20
22.3182
 30
0.0
 11
0.5851999999999871
 21
23.59599999999999
 31
0.0
  0
LINE
  5
8A
330
1E
100
AcDbEntity
  8
0
100
AcDbLine
 10
-0.129000000000006
 20
32.0
 30
0.0
 11
-0.129000000000006
 21
35.2727
 31
0.0
  0
LINE
  5
8B
330
1E
100
AcDbEntity
  8
0
100
AcDbLine
 10
-0.129000000000006
 20
32.0
 30
0.0
 11
-0.129000000000006
 21
28.7273
 31
0.0
  0
LINE
  5
8C
330
1E
100
AcDbEntity
  8
0
100
AcDbLine
 10
6.62899999999999
 20
20.592
 30
0.0
 11
6.62899999999999
 21
26.112
 31
0.0
  0
LINE
  5
8D
330
1E
100
AcDbEntity
  8
0
100
AcDbLine
 10
6.62899999999999
 20
20.592
 30
0.0
 11
6.62899999999999
 21
15.716
 31
0.0
  0
LINE
  5
8E
330
1E
100
AcDbEntity
  8
0
100
AcDbLine
 10
6.62899999999999
 20
26.112
 30
0.0
 11
6.62899999999999
 21
32.0
 31
0.0
  0
LINE
  5
8F
330
1E
100
AcDbEntity
  8
0
100
AcDbLine
 10
6.62899999999999
 20
26.112
 30
0.0
 11
6.62899999999999
 21
20.592
 31
0.0
  0
LINE
  5
90
330
1E
100
AcDbEntity
  8
0
100
AcDbLine
 10
-0.129000000000006
 20
36.8461
 30
0.0
 11
-0.129000000000006
 21
34.4121
 31
0.0
  0
LINE
  5
91
330
1E
100
AcDbEntity
  8
0
100
AcDbLine
 10
-0.129000000000006
 20
36.8461
 30
0.0
 11
-0.129000000000006
 21
39.3091
 31
0.0
  0
LINE
  5
92
330
1E
100
AcDbEntity
  8
0
100
AcDbLine
 10
-0.129000000000006
 20
36.8751
 30
0.0
 11
-0.129000000000006
 21
34.4121
 31
0.0
  0
LINE
  5
93
330
1E
100
AcDbEntity
  8
0
100
AcDbLine
 10
-0.129000000000006
 20
36.8751
 30
0.0
 11
-0.129000000000006
 21
39.396
 31
0.0
  0
LINE
  5
94
330
1E
100
AcDbEntity
  8
0
100
AcDbLine
 10
-0.129000000000006
 20
35.2727
 30
0.0
 11
-0.129000000000006
 21
32.0
 31
0.0
  0
LINE
  5
95
330
1E
100
AcDbEntity
  8
0
100
AcDbLine
 10
-0.129000000000006
 20
35.2727
 30
0.0
 11
-0.129000000000006
 21
38.2727
 31
0.0
  0
LINE
  5
96
330
1E
100
AcDbEntity
  8
0
100
AcDbLine
 10
6.62899999999999
 20
36.608
 30
0.0
 11
6.62899999999999
 21
32.0
 31
0.0
  0
LINE
  5
97
330
1E
100
AcDbEntity
  8
0
100
AcDbLine
 10
6.62899999999999
 20
36.608
 30
0.0
 11
6.62899999999999
 21
40.928
 31
0.0
  0
LINE
  5
98
330
1E
100
AcDbEntity
  8
0
100
AcDbLine
 10
4.62899999999999
 20
36.608
 30
0.0
 11
4.62899999999999
 21
32.0
 31
0.0
  0
LINE
  5
99
330
1E
100
AcDbEntity
  8
0
100
AcDbLine
 10
4.62899999999999
 20
36.608
 30
0.0
 11
4.62899999999999
 21
40.928
 31
0.0
  0
LINE
  5
9A
330
1E
100
AcDbEntity
  8
0
100
AcDbLine
 10
0.042399999999988
 20
35.43639999999999
 30
0.0
 11
0.5851999999999871
 21
38.6201
 31
0.0
  0
LINE
  5
9B
330
1E
100
AcDbEntity
  8
0
100
AcDbLine
 10
-0.129000000000006
 20
34.4121
 30
0.0
 11
-0.129000000000006
 21
31.8332
 31
0.0
  0
LINE
  5
9C
330
1E
100
AcDbEntity
  8
0
100
AcDbLine
 10
-0.129000000000006
 20
34.4121
 30
0.0
 11
-0.129000000000006
 21
36.8751
 31
0.0
  0
LINE
  5
9D
330
1E
100
AcDbEntity
  8
0
100
AcDbLine
 10
-0.129000000000006
 20
34.4121
 30
0.0
 11
-0.129000000000006
 21
31.8912
 31
0.0
  0
LINE
  5
9E
330
1E
100
AcDbEntity
  8
0
100
AcDbLine
 10
-0.129000000000006
 20
34.4121
 30
0.0
 11
-0.129000000000006
 21
36.8461
 31
0.0
  0
LINE
  5
9F
330
1E
100
AcDbEntity
  8
0
100
AcDbLine
 10
6.62899999999999
 20
32.0
 30
0.0
 11
6.62899999999999
 21
37.888
 31
0.0
  0
LINE
  5
A0
330
1E
100
AcDbEntity
  8
0
100
AcDbLine
 10
6.62899999999999
 20
32.0
 30
0.0
 11
6.62899999999999
 21
26.112
 31
0.0
  0
LINE
  5
A1
330
1E
100
AcDbEntity
  8
0
100
AcDbLine
 10
6.62899999999999
 20
32.0
 30
0.0
 11
6.62899999999999
 21
27.392
 31
0.0
  0
LINE
  5
A2
330
1E
100
AcDbEntity
  8
0
100
AcDbLine
 10
6.62899999999999
 20
32.0
 30
0.0
 11
6.62899999999999
 21
36.608
 31
0.0
  0
LINE
  5
A3
330
1E
100
AcDbEntity
  8
0
100
AcDbLine
 10
14.629
 20
15.716
 30
0.0
 11
14.629
 21
20.592
 31
0.0
  0
LINE
  5
A4
330
1E
100
AcDbEntity
  8
0
100
AcDbLine
 10
14.629
 20
15.716
 30
0.0
 11
14.629
 21
12.036
 31
0.0
  0
LINE
  5
A5
330
1E
100
AcDbEntity
  8
0
100
AcDbLine
 10
14.629
 20
20.592
 30
0.0
 11
14.629
 21
26.112
 31
0.0
  0
LINE
  5
A6
330
1E
100
AcDbEntity
  8
0
100
AcDbLine
 10
14.629
 20
20.592
 30
0.0
 11
14.629
 21
15.716
 31
0.0
  0
LINE
  5
A7
330
1E
100
AcDbEntity
  8
0
100
AcDbLine
 10
14.629
 20
32.0
 30
0.0
 11
14.629
 21
37.888
 31
0.0
  0
LINE
  5
A8
330
1E
100
AcDbEntity
  8
0
100
AcDbLine
 10
14.629
 20
32.0
 30
0.0
 11
14.629
 21
26.112
 31
0.0
  0
LINE
  5
A9
330
1E
100
AcDbEntity
  8
0
100
AcDbLine
 10
14.629
 20
26.112
 30
0.0
 11
14.629
 21
32.0
 31
0.0
  0
LINE
  5
AA
330
1E
100
AcDbEntity
  8
0
100
AcDbLine
 10
14.629
 20
26.112
 30
0.0
 11
14.629
 21
20.592
 31
0.0
  0
LINE
  5
AB
330
1E
100
AcDbEntity
  8
0
100
AcDbLine
 10
6.62899999999999
 20
14.0
 30
0.0
 11
6.62899999999999
 21
12.036
 31
0.0
  0
LINE
  5
AC
330
1E
100
AcDbEntity
  8
0
100
AcDbLine
 10
6.62899999999999
 20
14.0
 30
0.0
 11
6.62899999999999
 21
14.648
 31
0.0
  0
LINE
  5
AD
330
1E
100
AcDbEntity
  8
0
100
AcDbLine
 10
-0.129000000000006
 20
39.3091
 30
0.0
 11
-0.129000000000006
 21
36.8461
 31
0.0
  0
LINE
  5
AE
330
1E
100
AcDbEntity
  8
0
100
AcDbLine
 10
-0.129000000000006
 20
39.3091
 30
0.0
 11
-0.129000000000006
 21
41.4824
 31
0.0
  0
LINE
  5
AF
330
1E
100
AcDbEntity
  8
0
100
AcDbLine
 10
-0.129000000000006
 20
38.2727
 30
0.0
 11
-0.129000000000006
 21
35.2727
 31
0.0
  0
LINE
  5
B0
330
1E
100
AcDbEntity
  8
0
100
AcDbLine
 10
-0.129000000000006
 20
40.9318
 30
0.0
 11
-0.129000000000006
 21
42.9091
 31
0.0
  0
LINE
  5
B2
330
1E
100
AcDbEntity
  8
0
100
AcDbLine
 10
-0.129000000000006
 20
41.4824
 30
0.0
 11
-0.129000000000006
 21
39.3091
 31
0.0
  0
LINE
  5
B3
330
1E
100
AcDbEntity
  8
0
100
AcDbLine
 10
-0.129000000000006
 20
41.4824
 30
0.0
 11
-0.129000000000006
 21
42.5835
 31
0.0
  0
LINE
  5
B4
330
1E
100
AcDbEntity
  8
0
100
AcDbLine
 10
-0.129000000000006
 20
42.9091
 30
0.0
 11
-0.129000000000006
 21
44.1364
 31
0.0
  0
LINE
  5
B5
330
1E
100
AcDbEntity
  8
0
100
AcDbLine
 10
-0.129000000000006
 20
42.9091
 30
0.0
 11
-0.129000000000006
 21
40.9318
 31
0.0
  0
LINE
  5
B7
330
1E
100
AcDbEntity
  8
0
100
AcDbLine
 10
-0.129000000000006
 20
42.5835
 30
0.0
 11
-0.129000000000006
 21
43.01809999999999
 31
0.0
  0
LINE
  5
B8
330
1E
100
AcDbEntity
  8
0
100
AcDbLine
 10
-0.129000000000006
 20
42.5835
 30
0.0
 11
-0.129000000000006
 21
41.4824
 31
0.0
  0
LINE
  5
B9
330
1E
100
AcDbEntity
  8
0
100
AcDbLine
 10
-0.129000000000006
 20
43.01809999999999
 30
0.0
 11
-0.129000000000006
 21
42.49649999999999
 31
0.0
  0
LINE
  5
BA
330
1E
100
AcDbEntity
  8
0
100
AcDbLine
 10
-0.129000000000006
 20
43.01809999999999
 30
0.0
 11
-0.129000000000006
 21
42.5835
 31
0.0
  0
LINE
  5
BB
330
1E
100
AcDbEntity
  8
0
100
AcDbLine
 10
-0.129000000000006
 20
42.49649999999999
 30
0.0
 11
-0.129000000000006
 21
41.3954
 31
0.0
  0
LINE
  5
BC
330
1E
100
AcDbEntity
  8
0
100
AcDbLine
 10
-0.129000000000006
 20
42.49649999999999
 30
0.0
 11
-0.129000000000006
 21
43.01809999999999
 31
0.0
  0
LINE
  5
BD
330
1E
100
AcDbEntity
  8
0
100
AcDbLine
 10
-0.129000000000006
 20
39.396
 30
0.0
 11
-0.129000000000006
 21
41.3954
 31
0.0
  0
LINE
  5
BE
330
1E
100
AcDbEntity
  8
0
100
AcDbLine
 10
-0.129000000000006
 20
39.396
 30
0.0
 11
-0.129000000000006
 21
36.8751
 31
0.0
  0
LINE
  5
BF
330
1E
100
AcDbEntity
  8
0
100
AcDbLine
 10
0.5851999999999871
 20
40.404
 30
0.0
 11
0.5851999999999871
 21
39.29549999999999
 31
0.0
  0
LINE
  5
C0
330
1E
100
AcDbEntity
  8
0
100
AcDbLine
 10
0.5851999999999871
 20
39.29549999999999
 30
0.0
 11
0.5851999999999871
 21
40.404
 31
0.0
  0
LINE
  5
C1
330
1E
100
AcDbEntity
  8
0
100
AcDbLine
 10
0.5851999999999871
 20
39.29549999999999
 30
0.0
 11
0.5851999999999871
 21
38.6201
 31
0.0
  0
LINE
  5
C4
330
1E
100
AcDbEntity
  8
0
100
AcDbLine
 10
6.62899999999999
 20
40.928
 30
0.0
 11
6.62899999999999
 21
36.608
 31
0.0
  0
LINE
  5
C5
330
1E
100
AcDbEntity
  8
0
100
AcDbLine
 10
6.62899999999999
 20
40.928
 30
0.0
 11
6.62899999999999
 21
44.744
 31
0.0
  0
LINE
  5
C6
330
1E
100
AcDbEntity
  8
0
100
AcDbLine
 10
4.62899999999999
 20
40.928
 30
0.0
 11
4.62899999999999
 21
36.608
 31
0.0
  0
LINE
  5
C7
330
1E
100
AcDbEntity
  8
0
100
AcDbLine
 10
4.62899999999999
 20
40.928
 30
0.0
 11
4.62899999999999
 21
44.744
 31
0.0
  0
LINE
  5
C8
330
1E
100
AcDbEntity
  8
0
100
AcDbLine
 10
0.5851999999999871
 20
39.519
 30
0.0
 11
4.62899999999999
 21
39.519
 31
0.0
  0
LINE
  5
CA
330
1E
100
AcDbEntity
  8
0
100
AcDbLine
 10
0.5851999999999871
 20
38.6201
 30
0.0
 11
0.5851999999999871
 21
39.29549999999999
 31
0.0
  0
LINE
  5
CB
330
1E
100
AcDbEntity
  8
0
100
AcDbLine
 10
0.130699999999987
 20
41.6818
 30
0.0
 11
0.5851999999999871
 21
40.404
 31
0.0
  0
LINE
  5
CC
330
1E
100
AcDbEntity
  8
0
100
AcDbLine
 10
-0.129000000000006
 20
41.3954
 30
0.0
 11
-0.129000000000006
 21
42.49649999999999
 31
0.0
  0
LINE
  5
CD
330
1E
100
AcDbEntity
  8
0
100
AcDbLine
 10
-0.129000000000006
 20
41.3954
 30
0.0
 11
-0.129000000000006
 21
39.396
 31
0.0
  0
LINE
  5
CE
330
1E
100
AcDbEntity
  8
0
100
AcDbLine
 10
-0.129000000000006
 20
44.1364
 30
0.0
 11
-0.129000000000006
 21
44.61359999999999
 31
0.0
  0
LINE
  5
CF
330
1E
100
AcDbEntity
  8
0
100
AcDbLine
 10
-0.129000000000006
 20
44.1364
 30
0.0
 11
-0.129000000000006
 21
42.9091
 31
0.0
  0
LINE
  5
D2
330
1E
100
AcDbEntity
  8
0
100
AcDbLine
 10
4.62899999999999
 20
44.744
 30
0.0
 11
4.62899999999999
 21
40.928
 31
0.0
  0
LINE
  5
D3
330
1E
100
AcDbEntity
  8
0
100
AcDbLine
 10
4.62899999999999
 20
44.744
 30
0.0
 11
4.62899999999999
 21
47.62399999999999
 31
0.0
  0
LINE
  5
D4
330
1E
100
AcDbEntity
  8
0
100
AcDbLine
 10
0.169999999999985
 20
45.32079999999999
 30
0.0
 11
0.5851999999999871
 21
46.42619999999999
 31
0.0
  0
LINE
  5
D5
330
1E
100
AcDbEntity
  8
0
100
AcDbLine
 10
0.0152999999999903
 20
43.5063
 30
0.0
 11
0.130699999999987
 21
41.6818
 31
0.0
  0
LINE
  5
D6
330
1E
100
AcDbEntity
  8
0
100
AcDbLine
 10
0.0152999999999903
 20
43.5063
 30
0.0
 11
0.169999999999985
 21
45.32079999999999
 31
0.0
  0
LINE
  5
D7
330
1E
100
AcDbEntity
  8
0
100
AcDbLine
 10
-0.129000000000006
 20
44.61359999999999
 30
0.0
 11
0.0851999999999886
 21
45.6364
 31
0.0
  0
LINE
  5
D8
330
1E
100
AcDbEntity
  8
0
100
AcDbLine
 10
-0.129000000000006
 20
44.61359999999999
 30
0.0
 11
-0.129000000000006
 21
44.1364
 31
0.0
  0
LINE
  5
D9
330
1E
100
AcDbEntity
  8
0
100
AcDbLine
 10
0.5851999999999871
 20
46.42619999999999
 30
0.0
 11
0.5851999999999871
 21
46.6591
 31
0.0
  0
LINE
  5
DA
330
1E
100
AcDbEntity
  8
0
100
AcDbLine
 10
1.29949999999999
 20
47.0
 30
0.0
 11
4.62899999999999
 21
47.0
 31
0.0
  0
LINE
  5
DB
330
1E
100
AcDbEntity
  8
0
100
AcDbLine
 10
0.5851999999999871
 20
46.6591
 30
0.0
 11
1.29949999999999
 21
47.0
 31
0.0
  0
LINE
  5
DC
330
1E
100
AcDbEntity
  8
0
100
AcDbLine
 10
0.5851999999999871
 20
46.6591
 30
0.0
 11
1.29949999999999
 21
47.0
 31
0.0
  0
LINE
  5
DD
330
1E
100
AcDbEntity
  8
0
100
AcDbLine
 10
0.5851999999999871
 20
46.6591
 30
0.0
 11
0.5851999999999871
 21
46.42619999999999
 31
0.0
  0
LINE
  5
DE
330
1E
100
AcDbEntity
  8
0
100
AcDbLine
 10
0.0851999999999886
 20
45.6364
 30
0.0
 11
0.5851999999999871
 21
46.6591
 31
0.0
  0
LINE
  5
E0
330
1E
100
AcDbEntity
  8
0
100
AcDbLine
 10
6.62899999999999
 20
47.62399999999999
 30
0.0
 11
6.62899999999999
 21
44.744
 31
0.0
  0
LINE
  5
E1
330
1E
100
AcDbEntity
  8
0
100
AcDbLine
 10
6.62899999999999
 20
47.62399999999999
 30
0.0
 11
6.62899999999999
 21
49.352
 31
0.0
  0
LINE
  5
E2
330
1E
100
AcDbEntity
  8
0
100
AcDbLine
 10
6.62899999999999
 20
44.744
 30
0.0
 11
6.62899999999999
 21
40.928
 31
0.0
  0
LINE
  5
E3
330
1E
100
AcDbEntity
  8
0
100
AcDbLine
 10
6.62899999999999
 20
44.744
 30
0.0
 11
6.62899999999999
 21
47.62399999999999
 31
0.0
  0
LINE
  5
E4
330
1E
100
AcDbEntity
  8
0
100
AcDbLine
 10
4.62899999999999
 20
47.0
 30
0.0
 11
4.62899999999999
 21
47.62399999999999
 31
0.0
  0
LINE
  5
E5
330
1E
100
AcDbEntity
  8
0
100
AcDbLine
 10
4.62899999999999
 20
50.0
 30
0.0
 11
4.62899999999999
 21
49.352
 31
0.0
  0
LINE
  5
E6
330
1E
100
AcDbEntity
  8
0
100
AcDbLine
 10
4.62899999999999
 20
50.0
 30
0.0
 11
6.62899999999999
 21
50.0
 31
0.0
  0
LINE
  5
E7
330
1E
100
AcDbEntity
  8
0
100
AcDbLine
 10
6.62899999999999
 20
49.352
 30
0.0
 11
6.62899999999999
 21
47.62399999999999
 31
0.0
  0
LINE
  5
E8
330
1E
100
AcDbEntity
  8
0
100
AcDbLine
 10
6.62899999999999
 20
49.352
 30
0.0
 11
6.62899999999999
 21
50.0
 31
0.0
  0
LINE
  5
E9
330
1E
100
AcDbEntity
  8
0
100
AcDbLine
 10
4.62899999999999
 20
49.352
 30
0.0
 11
4.62899999999999
 21
47.62399999999999
 31
0.0
  0
LINE
  5
EA
330
1E
100
AcDbEntity
  8
0
100
AcDbLine
 10
4.62899999999999
 20
49.352
 30
0.0
 11
4.62899999999999
 21
50.0
 31
0.0
  0
LINE
  5
EB
330
1E
100
AcDbEntity
  8
0
100
AcDbLine
 10
4.62899999999999
 20
47.62399999999999
 30
0.0
 11
4.62899999999999
 21
47.0
 31
0.0
  0
LINE
  5
EC
330
1E
100
AcDbEntity
  8
0
100
AcDbLine
 10
4.62899999999999
 20
47.62399999999999
 30
0.0
 11
4.62899999999999
 21
49.352
 31
0.0
  0
LINE
  5
ED
330
1E
100
AcDbEntity
  8
0
100
AcDbLine
 10
4.62899999999999
 20
47.62399999999999
 30
0.0
 11
4.62899999999999
 21
44.744
 31
0.0
  0
LINE
  5
EE
330
1E
100
AcDbEntity
  8
0
100
AcDbLine
 10
6.62899999999999
 20
48.284
 30
0.0
 11
6.62899999999999
 21
51.964
 31
0.0
  0
LINE
  5
EF
330
1E
100
AcDbEntity
  8
0
100
AcDbLine
 10
6.62899999999999
 20
48.284
 30
0.0
 11
6.62899999999999
 21
43.408
 31
0.0
  0
LINE
  5
F0
330
1E
100
AcDbEntity
  8
0
100
AcDbLine
 10
6.62899999999999
 20
43.408
 30
0.0
 11
6.62899999999999
 21
48.284
 31
0.0
  0
LINE
  5
F1
330
1E
100
AcDbEntity
  8
0
100
AcDbLine
 10
6.62899999999999
 20
43.408
 30
0.0
 11
6.62899999999999
 21
37.888
 31
0.0
  0
LINE
  5
F2
330
1E
100
AcDbEntity
  8
0
100
AcDbLine
 10
6.62899999999999
 20
37.888
 30
0.0
 11
6.62899999999999
 21
43.408
 31
0.0
  0
LINE
  5
F3
330
1E
100
AcDbEntity
  8
0
100
AcDbLine
 10
6.62899999999999
 20
37.888
 30
0.0
 11
6.62899999999999
 21
32.0
 31
0.0
  0
LINE
  5
F4
330
1E
100
AcDbEntity
  8
0
100
AcDbLine
 10
6.62899999999999
 20
54.172
 30
0.0
 11
6.62899999999999
 21
55.0
 31
0.0
  0
LINE
  5
F5
330
1E
100
AcDbEntity
  8
0
100
AcDbLine
 10
6.62899999999999
 20
54.172
 30
0.0
 11
6.62899999999999
 21
51.964
 31
0.0
  0
LINE
  5
F6
330
1E
100
AcDbEntity
  8
0
100
AcDbLine
 10
6.62899999999999
 20
51.964
 30
0.0
 11
6.62899999999999
 21
54.172
 31
0.0
  0
LINE
  5
F7
330
1E
100
AcDbEntity
  8
0
100
AcDbLine
 10
6.62899999999999
 20
51.964
 30
0.0
 11
6.62899999999999
 21
50.0
 31
0.0
  0
LINE
  5
F8
330
1E
100
AcDbEntity
  8
0
100
AcDbLine
 10
6.62899999999999
 20
51.964
 30
0.0
 11
6.62899999999999
 21
48.284
 31
0.0
  0
LINE
  5
FB
330
1E
100
AcDbEntity
  8
0
100
AcDbLine
 10
14.629
 20
37.888
 30
0.0
 11
14.629
 21
32.0
 31
0.0
  0
LINE
  5
FC
330
1E
100
AcDbEntity
  8
0
100
AcDbLine
 10
6.62899999999999
 20
50.0
 30
0.0
 11
6.62899999999999
 21
51.964
 31
0.0
  0
LINE
  5
FD
330
1E
100
AcDbEntity
  8
0
100
AcDbLine
 10
6.62899999999999
 20
50.0
 30
0.0
 11
6.62899999999999
 21
49.352
 31
0.0
  0
LINE
  5
FE
330
1E
100
AcDbEntity
  8
0
100
AcDbLine
 10
14.629
 20
37.0
 30
0.0
 11
15.097
 21
40.328
 31
0.0
  0
LINE
  5
FF
330
1E
100
AcDbEntity
  8
0
100
AcDbLine
 10
14.629
 20
37.0
 30
0.0
 11
15.097
 21
33.67199999999999
 31
0.0
  0
LINE
  5
100
330
1E
100
AcDbEntity
  8
0
100
AcDbLine
 10
15.097
 20
33.67199999999999
 30
0.0
 11
16.345
 21
30.552
 31
0.0
  0
LINE
  5
101
330
1E
100
AcDbEntity
  8
0
100
AcDbLine
 10
16.345
 20
30.552
 30
0.0
 11
18.425
 21
27.796
 31
0.0
  0
LINE
  5
102
330
1E
100
AcDbEntity
  8
0
100
AcDbLine
 10
15.097
 20
40.328
 30
0.0
 11
16.345
 21
43.448
 31
0.0
  0
LINE
  5
103
330
1E
100
AcDbEntity
  8
0
100
AcDbLine
 10
16.345
 20
43.448
 30
0.0
 11
18.425
 21
46.20399999999999
 31
0.0
  0
LINE
  5
104
330
1E
100
AcDbEntity
  8
0
100
AcDbLine
 10
14.629
 20
55.0
 30
0.0
 11
15.097
 21
55.0
 31
0.0
  0
LINE
  5
105
330
1E
100
AcDbEntity
  8
0
100
AcDbLine
 10
6.62899999999999
 20
55.0
 30
0.0
 11
6.62899999999999
 21
54.172
 31
0.0
  0
LINE
  5
106
330
1E
100
AcDbEntity
  8
0
100
AcDbLine
 10
6.62899999999999
 20
55.0
 30
0.0
 11
14.629
 21
55.0
 31
0.0
  0
LINE
  5
107
330
1E
100
AcDbEntity
  8
0
100
AcDbLine
 10
15.097
 20
55.0
 30
0.0
 11
16.345
 21
55.0
 31
0.0
  0
LINE
  5
108
330
1E
100
AcDbEntity
  8
0
100
AcDbLine
 10
16.8873
 20
34.1474
 30
0.0
 11
17.957
 21
31.4731
 31
0.0
  0
LINE
  5
109
330
1E
100
AcDbEntity
  8
0
100
AcDbLine
 10
16.4861
 20
37.0
 30
0.0
 11
16.8873
 21
39.8526
 31
0.0
  0
LINE
  5
10A
330
1E
100
AcDbEntity
  8
0
100
AcDbLine
 10
16.4861
 20
37.0
 30
0.0
 11
16.8873
 21
34.1474
 31
0.0
  0
LINE
  5
10B
330
1E
100
AcDbEntity
  8
0
100
AcDbLine
 10
16.8873
 20
39.8526
 30
0.0
 11
17.957
 21
42.5269
 31
0.0
  0
LINE
  5
10C
330
1E
100
AcDbEntity
  8
0
100
AcDbLine
 10
16.345
 20
55.0
 30
0.0
 11
18.425
 21
55.0
 31
0.0
  0
LINE
  5
10D
330
1E
100
AcDbEntity
  8
0
100
AcDbLine
 10
18.425
 20
13.0
 30
0.0
 11
21.18099999999999
 21
13.0
 31
0.0
  0
LINE
  5
10E
330
1E
100
AcDbEntity
  8
0
100
AcDbLine
 10
17.957
 20
31.4731
 30
0.0
 11
19.73989999999999
 21
29.1109
 31
0.0
  0
LINE
  5
10F
330
1E
100
AcDbEntity
  8
0
100
AcDbLine
 10
18.425
 20
27.796
 30
0.0
 11
21.18099999999999
 21
25.716
 31
0.0
  0
LINE
  5
110
330
1E
100
AcDbEntity
  8
0
100
AcDbLine
 10
17.957
 20
42.5269
 30
0.0
 11
19.73989999999999
 21
44.88909999999999
 31
0.0
  0
LINE
  5
111
330
1E
100
AcDbEntity
  8
0
100
AcDbLine
 10
18.425
 20
46.20399999999999
 30
0.0
 11
21.18099999999999
 21
48.284
 31
0.0
  0
LINE
  5
112
330
1E
100
AcDbEntity
  8
0
100
AcDbLine
 10
19.73989999999999
 20
29.1109
 30
0.0
 11
22.1021
 21
27.328
 31
0.0
  0
LINE
  5
113
330
1E
100
AcDbEntity
  8
0
100
AcDbLine
 10
21.18099999999999
 20
25.716
 30
0.0
 11
24.30099999999999
 21
24.468
 31
0.0
  0
LINE
  5
114
330
1E
100
AcDbEntity
  8
0
100
AcDbLine
 10
19.73989999999999
 20
44.88909999999999
 30
0.0
 11
22.1021
 21
46.672
 31
0.0
  0
LINE
  5
115
330
1E
100
AcDbEntity
  8
0
100
AcDbLine
 10
22.1021
 20
27.328
 30
0.0
 11
24.7764
 21
26.2583
 31
0.0
  0
LINE
  5
116
330
1E
100
AcDbEntity
  8
0
100
AcDbLine
 10
24.30099999999999
 20
24.468
 30
0.0
 11
27.629
 21
24.0
 31
0.0
  0
LINE
  5
117
330
1E
100
AcDbEntity
  8
0
100
AcDbLine
 10
22.1021
 20
46.672
 30
0.0
 11
24.7764
 21
47.7417
 31
0.0
  0
LINE
  5
118
330
1E
100
AcDbEntity
  8
0
100
AcDbLine
 10
21.18099999999999
 20
48.284
 30
0.0
 11
24.30099999999999
 21
49.53199999999999
 31
0.0
  0
LINE
  5
119
330
1E
100
AcDbEntity
  8
0
100
AcDbLine
 10
24.30099999999999
 20
49.53199999999999
 30
0.0
 11
27.629
 21
50.0
 31
0.0
  0
LINE
  5
11A
330
1E
100
AcDbEntity
  8
0
100
AcDbLine
 10
18.425
 20
55.0
 30
0.0
 11
21.18099999999999
 21
55.0
 31
0.0
  0
LINE
  5
11B
330
1E
100
AcDbEntity
  8
0
100
AcDbLine
 10
21.18099999999999
 20
55.0
 30
0.0
 11
24.30099999999999
 21
55.0
 31
0.0
  0
LINE
  5
11C
330
1E
100
AcDbEntity
  8
0
100
AcDbLine
 10
24.30099999999999
 20
55.0
 30
0.0
 11
27.629
 21
55.0
 31
0.0
  0
LINE
  5
11D
330
1E
100
AcDbEntity
  8
0
100
AcDbLine
 10
17.957
 20
13.0
 30
0.0
 11
18.425
 21
13.0
 31
0.0
  0
LINE
  5
11E
330
1E
100
AcDbEntity
  8
0
100
AcDbLine
 10
17.6878235294118
 20
13.0
 30
0.0
 11
18.425
 21
13.0
 31
0.0
  0
LINE
  5
11F
330
1E
100
AcDbEntity
  8
0
100
AcDbLine
 10
17.6878235294118
 20
13.0
 30
0.0
 11
17.957
 21
13.0
 31
0.0
  0
LINE
  5
120
330
1E
100
AcDbEntity
  8
0
100
AcDbLine
 10
21.18099999999999
 20
13.0
 30
0.0
 11
24.30099999999999
 21
13.0
 31
0.0
  0
LINE
  5
121
330
1E
100
AcDbEntity
  8
0
100
AcDbLine
 10
21.18099999999999
 20
13.0
 30
0.0
 11
22.1021
 21
13.0
 31
0.0
  0
LINE
  5
122
330
1E
100
AcDbEntity
  8
0
100
AcDbLine
 10
33.1559
 20
13.0
 30
0.0
 11
35.51809999999999
 21
13.0
 31
0.0
  0
LINE
  5
123
330
1E
100
AcDbEntity
  8
0
100
AcDbLine
 10
30.4816
 20
13.0
 30
0.0
 11
33.1559
 21
13.0
 31
0.0
  0
LINE
  5
124
330
1E
100
AcDbEntity
  8
0
100
AcDbLine
 10
37.12899999999999
 20
1.5
 30
0.0
 11
37.12899999999999
 21
1.698
 31
0.0
  0
LINE
  5
125
330
1E
100
AcDbEntity
  8
0
100
AcDbLine
 10
37.12899999999999
 20
1.5
 30
0.0
 11
38.62899999999999
 21
1.5
 31
0.0
  0
LINE
  5
126
330
1E
100
AcDbEntity
  8
0
100
AcDbLine
 10
37.12899999999999
 20
3.333359999999999
 30
0.0
 11
37.12899999999999
 21
3.465359999999999
 31
0.0
  0
LINE
  5
127
330
1E
100
AcDbEntity
  8
0
100
AcDbLine
 10
37.12899999999999
 20
1.698
 30
0.0
 11
37.12899999999999
 21
1.5
 31
0.0
  0
LINE
  5
128
330
1E
100
AcDbEntity
  8
0
100
AcDbLine
 10
37.12899999999999
 20
1.698
 30
0.0
 11
37.12899999999999
 21
2.225999999999999
 31
0.0
  0
LINE
  5
129
330
1E
100
AcDbEntity
  8
0
100
AcDbLine
 10
37.12899999999999
 20
3.465359999999999
 30
0.0
 11
37.12899999999999
 21
3.817359999999999
 31
0.0
  0
LINE
  5
12A
330
1E
100
AcDbEntity
  8
0
100
AcDbLine
 10
37.12899999999999
 20
3.465359999999999
 30
0.0
 11
37.12899999999999
 21
3.333359999999999
 31
0.0
  0
LINE
  5
12B
330
1E
100
AcDbEntity
  8
0
100
AcDbLine
 10
37.12899999999999
 20
2.225999999999999
 30
0.0
 11
37.12899999999999
 21
1.698
 31
0.0
  0
LINE
  5
12C
330
1E
100
AcDbEntity
  8
0
100
AcDbLine
 10
37.12899999999999
 20
2.225999999999999
 30
0.0
 11
37.12899999999999
 21
3.106
 31
0.0
  0
LINE
  5
12D
330
1E
100
AcDbEntity
  8
0
100
AcDbLine
 10
37.12899999999999
 20
3.817359999999999
 30
0.0
 11
37.12899999999999
 21
4.403999999999999
 31
0.0
  0
LINE
  5
12E
330
1E
100
AcDbEntity
  8
0
100
AcDbLine
 10
37.12899999999999
 20
3.817359999999999
 30
0.0
 11
37.12899999999999
 21
3.465359999999999
 31
0.0
  0
LINE
  5
12F
330
1E
100
AcDbEntity
  8
0
100
AcDbLine
 10
37.12899999999999
 20
3.106
 30
0.0
 11
37.12899999999999
 21
2.225999999999999
 31
0.0
  0
LINE
  5
130
330
1E
100
AcDbEntity
  8
0
100
AcDbLine
 10
37.12899999999999
 20
3.106
 30
0.0
 11
37.12899999999999
 21
4.272
 31
0.0
  0
LINE
  5
131
330
1E
100
AcDbEntity
  8
0
100
AcDbLine
 10
37.12899999999999
 20
4.403999999999999
 30
0.0
 11
37.12899999999999
 21
5.181359999999999
 31
0.0
  0
LINE
  5
132
330
1E
100
AcDbEntity
  8
0
100
AcDbLine
 10
37.12899999999999
 20
4.403999999999999
 30
0.0
 11
37.12899999999999
 21
3.817359999999999
 31
0.0
  0
LINE
  5
133
330
1E
100
AcDbEntity
  8
0
100
AcDbLine
 10
37.12899999999999
 20
4.272
 30
0.0
 11
37.12899999999999
 21
3.106
 31
0.0
  0
LINE
  5
134
330
1E
100
AcDbEntity
  8
0
100
AcDbLine
 10
37.12899999999999
 20
4.272
 30
0.0
 11
37.12899999999999
 21
5.592
 31
0.0
  0
LINE
  5
135
330
1E
100
AcDbEntity
  8
0
100
AcDbLine
 10
37.12899999999999
 20
5.181359999999999
 30
0.0
 11
37.12899999999999
 21
6.06134
 31
0.0
  0
LINE
  5
136
330
1E
100
AcDbEntity
  8
0
100
AcDbLine
 10
37.12899999999999
 20
5.181359999999999
 30
0.0
 11
37.12899999999999
 21
4.403999999999999
 31
0.0
  0
LINE
  5
137
330
1E
100
AcDbEntity
  8
0
100
AcDbLine
 10
37.12899999999999
 20
5.592
 30
0.0
 11
37.12899999999999
 21
4.272
 31
0.0
  0
LINE
  5
138
330
1E
100
AcDbEntity
  8
0
100
AcDbLine
 10
37.12899999999999
 20
5.592
 30
0.0
 11
37.12899999999999
 21
7.0
 31
0.0
  0
LINE
  5
139
330
1E
100
AcDbEntity
  8
0
100
AcDbLine
 10
37.12899999999999
 20
6.06134
 30
0.0
 11
37.12899999999999
 21
7.0
 31
0.0
  0
LINE
  5
13A
330
1E
100
AcDbEntity
  8
0
100
AcDbLine
 10
37.12899999999999
 20
6.06134
 30
0.0
 11
37.12899999999999
 21
5.181359999999999
 31
0.0
  0
LINE
  5
13B
330
1E
100
AcDbEntity
  8
0
100
AcDbLine
 10
37.12899999999999
 20
7.0
 30
0.0
 11
37.12899999999999
 21
8.407999999999999
 31
0.0
  0
LINE
  5
13C
330
1E
100
AcDbEntity
  8
0
100
AcDbLine
 10
37.12899999999999
 20
7.0
 30
0.0
 11
37.12899999999999
 21
7.93866
 31
0.0
  0
LINE
  5
13D
330
1E
100
AcDbEntity
  8
0
100
AcDbLine
 10
37.12899999999999
 20
7.0
 30
0.0
 11
37.12899999999999
 21
5.592
 31
0.0
  0
LINE
  5
13E
330
1E
100
AcDbEntity
  8
0
100
AcDbLine
 10
37.12899999999999
 20
7.0
 30
0.0
 11
37.12899999999999
 21
6.06134
 31
0.0
  0
LINE
  5
13F
330
1E
100
AcDbEntity
  8
0
100
AcDbLine
 10
37.12899999999999
 20
8.407999999999999
 30
0.0
 11
37.12899999999999
 21
9.727999999999999
 31
0.0
  0
LINE
  5
140
330
1E
100
AcDbEntity
  8
0
100
AcDbLine
 10
37.12899999999999
 20
8.407999999999999
 30
0.0
 11
37.12899999999999
 21
7.0
 31
0.0
  0
LINE
  5
141
330
1E
100
AcDbEntity
  8
0
100
AcDbLine
 10
37.12899999999999
 20
9.727999999999999
 30
0.0
 11
37.12899999999999
 21
10.894
 31
0.0
  0
LINE
  5
142
330
1E
100
AcDbEntity
  8
0
100
AcDbLine
 10
37.12899999999999
 20
9.727999999999999
 30
0.0
 11
37.12899999999999
 21
8.407999999999999
 31
0.0
  0
LINE
  5
143
330
1E
100
AcDbEntity
  8
0
100
AcDbLine
 10
37.12899999999999
 20
12.5
 30
0.0
 11
37.12899999999999
 21
12.30199999999999
 31
0.0
  0
LINE
  5
144
330
1E
100
AcDbEntity
  8
0
100
AcDbLine
 10
37.12899999999999
 20
12.5
 30
0.0
 11
38.62899999999999
 21
12.5
 31
0.0
  0
LINE
  5
145
330
1E
100
AcDbEntity
  8
0
100
AcDbLine
 10
37.12899999999999
 20
12.30199999999999
 30
0.0
 11
37.12899999999999
 21
12.5
 31
0.0
  0
LINE
  5
146
330
1E
100
AcDbEntity
  8
0
100
AcDbLine
 10
37.12899999999999
 20
12.30199999999999
 30
0.0
 11
37.12899999999999
 21
11.774
 31
0.0
  0
LINE
  5
147
330
1E
100
AcDbEntity
  8
0
100
AcDbLine
 10
37.12899999999999
 20
11.774
 30
0.0
 11
37.12899999999999
 21
12.30199999999999
 31
0.0
  0
LINE
  5
148
330
1E
100
AcDbEntity
  8
0
100
AcDbLine
 10
37.12899999999999
 20
11.774
 30
0.0
 11
37.12899999999999
 21
10.894
 31
0.0
  0
LINE
  5
149
330
1E
100
AcDbEntity
  8
0
100
AcDbLine
 10
37.12899999999999
 20
10.894
 30
0.0
 11
37.12899999999999
 21
11.774
 31
0.0
  0
LINE
  5
14A
330
1E
100
AcDbEntity
  8
0
100
AcDbLine
 10
37.12899999999999
 20
10.894
 30
0.0
 11
37.12899999999999
 21
9.727999999999999
 31
0.0
  0
LINE
  5
14B
330
1E
100
AcDbEntity
  8
0
100
AcDbLine
 10
37.12899999999999
 20
10.6667
 30
0.0
 11
37.12899999999999
 21
10.5347
 31
0.0
  0
LINE
  5
14C
330
1E
100
AcDbEntity
  8
0
100
AcDbLine
 10
37.12899999999999
 20
10.5347
 30
0.0
 11
37.12899999999999
 21
10.1827
 31
0.0
  0
LINE
  5
14D
330
1E
100
AcDbEntity
  8
0
100
AcDbLine
 10
37.12899999999999
 20
10.5347
 30
0.0
 11
37.12899999999999
 21
10.6667
 31
0.0
  0
LINE
  5
14E
330
1E
100
AcDbEntity
  8
0
100
AcDbLine
 10
37.12899999999999
 20
10.1827
 30
0.0
 11
37.12899999999999
 21
9.596
 31
0.0
  0
LINE
  5
14F
330
1E
100
AcDbEntity
  8
0
100
AcDbLine
 10
37.12899999999999
 20
10.1827
 30
0.0
 11
37.12899999999999
 21
10.5347
 31
0.0
  0
LINE
  5
150
330
1E
100
AcDbEntity
  8
0
100
AcDbLine
 10
37.12899999999999
 20
9.596
 30
0.0
 11
37.12899999999999
 21
8.818660000000001
 31
0.0
  0
LINE
  5
151
330
1E
100
AcDbEntity
  8
0
100
AcDbLine
 10
37.12899999999999
 20
9.596
 30
0.0
 11
37.12899999999999
 21
10.1827
 31
0.0
  0
LINE
  5
152
330
1E
100
AcDbEntity
  8
0
100
AcDbLine
 10
37.12899999999999
 20
8.818660000000001
 30
0.0
 11
37.12899999999999
 21
7.93866
 31
0.0
  0
LINE
  5
153
330
1E
100
AcDbEntity
  8
0
100
AcDbLine
 10
37.12899999999999
 20
8.818660000000001
 30
0.0
 11
37.12899999999999
 21
9.596
 31
0.0
  0
LINE
  5
154
330
1E
100
AcDbEntity
  8
0
100
AcDbLine
 10
37.12899999999999
 20
7.93866
 30
0.0
 11
37.12899999999999
 21
7.0
 31
0.0
  0
LINE
  5
155
330
1E
100
AcDbEntity
  8
0
100
AcDbLine
 10
37.12899999999999
 20
7.93866
 30
0.0
 11
37.12899999999999
 21
8.818660000000001
 31
0.0
  0
LINE
  5
156
330
1E
100
AcDbEntity
  8
0
100
AcDbLine
 10
38.62899999999999
 20
0.252000000000002
 30
0.0
 11
38.62899999999999
 21
0.0000000000000016
 31
0.0
  0
LINE
  5
157
330
1E
100
AcDbEntity
  8
0
100
AcDbLine
 10
38.62899999999999
 20
0.252000000000002
 30
0.0
 11
38.62899999999999
 21
0.924000000000001
 31
0.0
  0
LINE
  5
158
330
1E
100
AcDbEntity
  8
0
100
AcDbLine
 10
38.62899999999999
 20
0.0000000000000016
 30
0.0
 11
43.62899999999999
 21
0.0000000000000013
 31
0.0
  0
LINE
  5
159
330
1E
100
AcDbEntity
  8
0
100
AcDbLine
 10
38.62899999999999
 20
0.0000000000000016
 30
0.0
 11
38.62899999999999
 21
0.252000000000002
 31
0.0
  0
LINE
  5
15A
330
1E
100
AcDbEntity
  8
0
100
AcDbLine
 10
43.62899999999999
 20
0.0000000000000013
 30
0.0
 11
43.62899999999999
 21
0.252000000000001
 31
0.0
  0
LINE
  5
15B
330
1E
100
AcDbEntity
  8
0
100
AcDbLine
 10
43.62899999999999
 20
0.252000000000001
 30
0.0
 11
43.62899999999999
 21
0.924000000000001
 31
0.0
  0
LINE
  5
15C
330
1E
100
AcDbEntity
  8
0
100
AcDbLine
 10
43.62899999999999
 20
0.252000000000001
 30
0.0
 11
43.62899999999999
 21
0.0000000000000013
 31
0.0
  0
LINE
  5
15D
330
1E
100
AcDbEntity
  8
0
100
AcDbLine
 10
45.129
 20
1.5
 30
0.0
 11
45.129
 21
1.698
 31
0.0
  0
LINE
  5
15E
330
1E
100
AcDbEntity
  8
0
100
AcDbLine
 10
43.62899999999999
 20
1.5
 30
0.0
 11
45.129
 21
1.5
 31
0.0
  0
LINE
  5
15F
330
1E
100
AcDbEntity
  8
0
100
AcDbLine
 10
43.62899999999999
 20
0.924000000000001
 30
0.0
 11
43.62899999999999
 21
2.044
 31
0.0
  0
LINE
  5
160
330
1E
100
AcDbEntity
  8
0
100
AcDbLine
 10
43.62899999999999
 20
0.924000000000001
 30
0.0
 11
43.62899999999999
 21
0.252000000000001
 31
0.0
  0
LINE
  5
161
330
1E
100
AcDbEntity
  8
0
100
AcDbLine
 10
38.62899999999999
 20
0.9240000000000019
 30
0.0
 11
38.62899999999999
 21
0.252000000000002
 31
0.0
  0
LINE
  5
162
330
1E
100
AcDbEntity
  8
0
100
AcDbLine
 10
38.62899999999999
 20
0.9240000000000019
 30
0.0
 11
38.62899999999999
 21
1.5
 31
0.0
  0
LINE
  5
163
330
1E
100
AcDbEntity
  8
0
100
AcDbLine
 10
38.62899999999999
 20
0.9240000000000019
 30
0.0
 11
38.62899999999999
 21
2.044
 31
0.0
  0
LINE
  5
164
330
1E
100
AcDbEntity
  8
0
100
AcDbLine
 10
38.62899999999999
 20
2.044
 30
0.0
 11
38.62899999999999
 21
0.9240000000000019
 31
0.0
  0
LINE
  5
165
330
1E
100
AcDbEntity
  8
0
100
AcDbLine
 10
38.62899999999999
 20
2.044
 30
0.0
 11
38.62899999999999
 21
3.528
 31
0.0
  0
LINE
  5
166
330
1E
100
AcDbEntity
  8
0
100
AcDbLine
 10
38.62899999999999
 20
3.528
 30
0.0
 11
38.62899999999999
 21
2.044
 31
0.0
  0
LINE
  5
167
330
1E
100
AcDbEntity
  8
0
100
AcDbLine
 10
38.62899999999999
 20
3.528
 30
0.0
 11
38.62899999999999
 21
5.207999999999999
 31
0.0
  0
LINE
  5
168
330
1E
100
AcDbEntity
  8
0
100
AcDbLine
 10
38.62899999999999
 20
5.207999999999999
 30
0.0
 11
38.62899999999999
 21
3.528
 31
0.0
  0
LINE
  5
169
330
1E
100
AcDbEntity
  8
0
100
AcDbLine
 10
38.62899999999999
 20
5.207999999999999
 30
0.0
 11
38.62899999999999
 21
7.0
 31
0.0
  0
LINE
  5
16A
330
1E
100
AcDbEntity
  8
0
100
AcDbLine
 10
38.62899999999999
 20
7.0
 30
0.0
 11
38.62899999999999
 21
30.1757
 31
0.0
  0
LINE
  5
16B
330
1E
100
AcDbEntity
  8
0
100
AcDbLine
 10
38.62899999999999
 20
7.0
 30
0.0
 11
38.62899999999999
 21
5.207999999999999
 31
0.0
  0
LINE
  5
16C
330
1E
100
AcDbEntity
  8
0
100
AcDbLine
 10
38.62899999999999
 20
13.0
 30
0.0
 11
38.62899999999999
 21
12.5
 31
0.0
  0
LINE
  5
16D
330
1E
100
AcDbEntity
  8
0
100
AcDbLine
 10
38.62899999999999
 20
13.0
 30
0.0
 11
38.62899999999999
 21
12.5
 31
0.0
  0
LINE
  5
16E
330
1E
100
AcDbEntity
  8
0
100
AcDbLine
 10
38.62899999999999
 20
12.5
 30
0.0
 11
38.62899999999999
 21
13.0
 31
0.0
  0
LINE
  5
16F
330
1E
100
AcDbEntity
  8
0
100
AcDbLine
 10
38.62899999999999
 20
12.5
 30
0.0
 11
38.62899999999999
 21
13.0
 31
0.0
  0
LINE
  5
170
330
1E
100
AcDbEntity
  8
0
100
AcDbLine
 10
38.62899999999999
 20
12.5
 30
0.0
 11
38.62899999999999
 21
13.0
 31
0.0
  0
LINE
  5
171
330
1E
100
AcDbEntity
  8
0
100
AcDbLine
 10
43.62899999999999
 20
2.044
 30
0.0
 11
43.62899999999999
 21
3.528
 31
0.0
  0
LINE
  5
172
330
1E
100
AcDbEntity
  8
0
100
AcDbLine
 10
43.62899999999999
 20
2.044
 30
0.0
 11
43.62899999999999
 21
0.924000000000001
 31
0.0
  0
LINE
  5
173
330
1E
100
AcDbEntity
  8
0
100
AcDbLine
 10
43.62899999999999
 20
3.528
 30
0.0
 11
43.62899999999999
 21
5.207999999999999
 31
0.0
  0
LINE
  5
174
330
1E
100
AcDbEntity
  8
0
100
AcDbLine
 10
43.62899999999999
 20
3.528
 30
0.0
 11
43.62899999999999
 21
2.044
 31
0.0
  0
LINE
  5
175
330
1E
100
AcDbEntity
  8
0
100
AcDbLine
 10
45.129
 20
1.698
 30
0.0
 11
45.129
 21
2.225999999999999
 31
0.0
  0
LINE
  5
176
330
1E
100
AcDbEntity
  8
0
100
AcDbLine
 10
45.129
 20
1.698
 30
0.0
 11
45.129
 21
1.5
 31
0.0
  0
LINE
  5
177
330
1E
100
AcDbEntity
  8
0
100
AcDbLine
 10
45.129
 20
2.225999999999999
 30
0.0
 11
45.129
 21
3.106
 31
0.0
  0
LINE
  5
178
330
1E
100
AcDbEntity
  8
0
100
AcDbLine
 10
45.129
 20
2.225999999999999
 30
0.0
 11
45.129
 21
1.698
 31
0.0
  0
LINE
  5
179
330
1E
100
AcDbEntity
  8
0
100
AcDbLine
 10
45.129
 20
3.106
 30
0.0
 11
45.129
 21
4.272
 31
0.0
  0
LINE
  5
17A
330
1E
100
AcDbEntity
  8
0
100
AcDbLine
 10
45.129
 20
3.106
 30
0.0
 11
45.129
 21
2.225999999999999
 31
0.0
  0
LINE
  5
17B
330
1E
100
AcDbEntity
  8
0
100
AcDbLine
 10
45.129
 20
4.272
 30
0.0
 11
45.129
 21
5.592
 31
0.0
  0
LINE
  5
17C
330
1E
100
AcDbEntity
  8
0
100
AcDbLine
 10
45.129
 20
4.272
 30
0.0
 11
45.129
 21
3.106
 31
0.0
  0
LINE
  5
17D
330
1E
100
AcDbEntity
  8
0
100
AcDbLine
 10
45.129
 20
5.592
 30
0.0
 11
45.129
 21
7.0
 31
0.0
  0
LINE
  5
17E
330
1E
100
AcDbEntity
  8
0
100
AcDbLine
 10
45.129
 20
5.592
 30
0.0
 11
45.129
 21
4.272
 31
0.0
  0
LINE
  5
17F
330
1E
100
AcDbEntity
  8
0
100
AcDbLine
 10
45.129
 20
7.0
 30
0.0
 11
45.129
 21
8.407999999999999
 31
0.0
  0
LINE
  5
180
330
1E
100
AcDbEntity
  8
0
100
AcDbLine
 10
45.129
 20
7.0
 30
0.0
 11
45.129
 21
5.592
 31
0.0
  0
LINE
  5
181
330
1E
100
AcDbEntity
  8
0
100
AcDbLine
 10
43.62899999999999
 20
5.207999999999999
 30
0.0
 11
43.62899999999999
 21
7.0
 31
0.0
  0
LINE
  5
182
330
1E
100
AcDbEntity
  8
0
100
AcDbLine
 10
43.62899999999999
 20
5.207999999999999
 30
0.0
 11
43.62899999999999
 21
3.528
 31
0.0
  0
LINE
  5
183
330
1E
100
AcDbEntity
  8
0
100
AcDbLine
 10
45.129
 20
12.5
 30
0.0
 11
45.129
 21
12.30199999999999
 31
0.0
  0
LINE
  5
184
330
1E
100
AcDbEntity
  8
0
100
AcDbLine
 10
45.129
 20
12.30199999999999
 30
0.0
 11
45.129
 21
11.774
 31
0.0
  0
LINE
  5
185
330
1E
100
AcDbEntity
  8
0
100
AcDbLine
 10
45.129
 20
12.30199999999999
 30
0.0
 11
45.129
 21
12.5
 31
0.0
  0
LINE
  5
186
330
1E
100
AcDbEntity
  8
0
100
AcDbLine
 10
45.129
 20
11.774
 30
0.0
 11
45.129
 21
10.894
 31
0.0
  0
LINE
  5
187
330
1E
100
AcDbEntity
  8
0
100
AcDbLine
 10
45.129
 20
11.774
 30
0.0
 11
45.129
 21
12.30199999999999
 31
0.0
  0
LINE
  5
188
330
1E
100
AcDbEntity
  8
0
100
AcDbLine
 10
45.129
 20
10.894
 30
0.0
 11
45.129
 21
9.727999999999999
 31
0.0
  0
LINE
  5
189
330
1E
100
AcDbEntity
  8
0
100
AcDbLine
 10
45.129
 20
10.894
 30
0.0
 11
45.129
 21
11.774
 31
0.0
  0
LINE
  5
18A
330
1E
100
AcDbEntity
  8
0
100
AcDbLine
 10
45.129
 20
9.727999999999999
 30
0.0
 11
45.129
 21
8.407999999999999
 31
0.0
  0
LINE
  5
18B
330
1E
100
AcDbEntity
  8
0
100
AcDbLine
 10
45.129
 20
9.727999999999999
 30
0.0
 11
45.129
 21
10.894
 31
0.0
  0
LINE
  5
18C
330
1E
100
AcDbEntity
  8
0
100
AcDbLine
 10
45.129
 20
8.407999999999999
 30
0.0
 11
45.129
 21
7.0
 31
0.0
  0
LINE
  5
18D
330
1E
100
AcDbEntity
  8
0
100
AcDbLine
 10
45.129
 20
8.407999999999999
 30
0.0
 11
45.129
 21
9.727999999999999
 31
0.0
  0
LINE
  5
18E
330
1E
100
AcDbEntity
  8
0
100
AcDbLine
 10
43.62899999999999
 20
12.5
 30
0.0
 11
45.129
 21
12.5
 31
0.0
  0
LINE
  5
18F
330
1E
100
AcDbEntity
  8
0
100
AcDbLine
 10
43.62899999999999
 20
7.0
 30
0.0
 11
43.62899999999999
 21
32.0
 31
0.0
  0
LINE
  5
190
330
1E
100
AcDbEntity
  8
0
100
AcDbLine
 10
43.62899999999999
 20
7.0
 30
0.0
 11
43.62899999999999
 21
5.207999999999999
 31
0.0
  0
LINE
  5
191
330
1E
100
AcDbEntity
  8
0
100
AcDbLine
 10
38.62899999999999
 20
13.0
 30
0.0
 11
38.62899999999999
 21
12.5
 31
0.0
  0
LINE
  5
192
330
1E
100
AcDbEntity
  8
0
100
AcDbLine
 10
38.62899999999999
 20
1.5
 30
0.0
 11
38.62899999999999
 21
0.9240000000000019
 31
0.0
  0
LINE
  5
193
330
1E
100
AcDbEntity
  8
0
100
AcDbLine
 10
38.3707
 20
13.0
 30
0.0
 11
38.62899999999999
 21
13.0
 31
0.0
  0
LINE
  5
194
330
1E
100
AcDbEntity
  8
0
100
AcDbLine
 10
37.301
 20
13.0
 30
0.0
 11
38.3707
 21
13.0
 31
0.0
  0
LINE
  5
195
330
1E
100
AcDbEntity
  8
0
100
AcDbLine
 10
35.51809999999999
 20
13.0
 30
0.0
 11
37.301
 21
13.0
 31
0.0
  0
LINE
  5
196
330
1E
100
AcDbEntity
  8
0
100
AcDbLine
 10
36.833
 20
13.0
 30
0.0
 11
38.62899999999999
 21
13.0
 31
0.0
  0
LINE
  5
197
330
1E
100
AcDbEntity
  8
0
100
AcDbLine
 10
34.077
 20
13.0
 30
0.0
 11
36.833
 21
13.0
 31
0.0
  0
LINE
  5
198
330
1E
100
AcDbEntity
  8
0
100
AcDbLine
 10
30.95699999999999
 20
13.0
 30
0.0
 11
34.077
 21
13.0
 31
0.0
  0
LINE
  5
199
330
1E
100
AcDbEntity
  8
0
100
AcDbLine
 10
27.629
 20
13.0
 30
0.0
 11
30.95699999999999
 21
13.0
 31
0.0
  0
LINE
  5
19A
330
1E
100
AcDbEntity
  8
0
100
AcDbLine
 10
27.629
 20
13.0
 30
0.0
 11
30.4816
 21
13.0
 31
0.0
  0
LINE
  5
19B
330
1E
100
AcDbEntity
  8
0
100
AcDbLine
 10
27.629
 20
25.8571
 30
0.0
 11
30.4816
 21
26.2583
 31
0.0
  0
LINE
  5
19C
330
1E
100
AcDbEntity
  8
0
100
AcDbLine
 10
27.629
 20
24.0
 30
0.0
 11
30.95699999999999
 21
24.468
 31
0.0
  0
LINE
  5
19D
330
1E
100
AcDbEntity
  8
0
100
AcDbLine
 10
24.7764
 20
26.2583
 30
0.0
 11
27.629
 21
25.8571
 31
0.0
  0
LINE
  5
19E
330
1E
100
AcDbEntity
  8
0
100
AcDbLine
 10
27.629
 20
48.14289999999999
 30
0.0
 11
30.4816
 21
47.7417
 31
0.0
  0
LINE
  5
19F
330
1E
100
AcDbEntity
  8
0
100
AcDbLine
 10
27.629
 20
50.0
 30
0.0
 11
30.95699999999999
 21
49.53199999999999
 31
0.0
  0
LINE
  5
1A0
330
1E
100
AcDbEntity
  8
0
100
AcDbLine
 10
24.7764
 20
47.7417
 30
0.0
 11
27.629
 21
48.14289999999999
 31
0.0
  0
LINE
  5
1A1
330
1E
100
AcDbEntity
  8
0
100
AcDbLine
 10
33.1559
 20
46.672
 30
0.0
 11
35.51809999999999
 21
44.88909999999999
 31
0.0
  0
LINE
  5
1A2
330
1E
100
AcDbEntity
  8
0
100
AcDbLine
 10
30.4816
 20
47.7417
 30
0.0
 11
33.1559
 21
46.672
 31
0.0
  0
LINE
  5
1A3
330
1E
100
AcDbEntity
  8
0
100
AcDbLine
 10
30.95699999999999
 20
49.53199999999999
 30
0.0
 11
34.077
 21
48.284
 31
0.0
  0
LINE
  5
1A4
330
1E
100
AcDbEntity
  8
0
100
AcDbLine
 10
34.077
 20
48.284
 30
0.0
 11
36.833
 21
46.20399999999999
 31
0.0
  0
LINE
  5
1A5
330
1E
100
AcDbEntity
  8
0
100
AcDbLine
 10
33.1559
 20
27.328
 30
0.0
 11
35.51809999999999
 21
29.1109
 31
0.0
  0
LINE
  5
1A6
330
1E
100
AcDbEntity
  8
0
100
AcDbLine
 10
30.4816
 20
26.2583
 30
0.0
 11
33.1559
 21
27.328
 31
0.0
  0
LINE
  5
1A7
330
1E
100
AcDbEntity
  8
0
100
AcDbLine
 10
34.077
 20
25.716
 30
0.0
 11
36.833
 21
27.796
 31
0.0
  0
LINE
  5
1A8
330
1E
100
AcDbEntity
  8
0
100
AcDbLine
 10
30.95699999999999
 20
24.468
 30
0.0
 11
34.077
 21
25.716
 31
0.0
  0
LINE
  5
1A9
330
1E
100
AcDbEntity
  8
0
100
AcDbLine
 10
35.51809999999999
 20
44.88909999999999
 30
0.0
 11
37.301
 21
42.5269
 31
0.0
  0
LINE
  5
1AA
330
1E
100
AcDbEntity
  8
0
100
AcDbLine
 10
36.833
 20
46.20399999999999
 30
0.0
 11
38.913
 21
43.448
 31
0.0
  0
LINE
  5
1AB
330
1E
100
AcDbEntity
  8
0
100
AcDbLine
 10
35.51809999999999
 20
29.1109
 30
0.0
 11
37.301
 21
31.4731
 31
0.0
  0
LINE
  5
1AC
330
1E
100
AcDbEntity
  8
0
100
AcDbLine
 10
38.62899999999999
 20
30.1757
 30
0.0
 11
38.62899999999999
 21
7.0
 31
0.0
  0
LINE
  5
1AD
330
1E
100
AcDbEntity
  8
0
100
AcDbLine
 10
38.62899999999999
 20
30.1757
 30
0.0
 11
38.62899999999999
 21
30.0
 31
0.0
  0
LINE
  5
1AE
330
1E
100
AcDbEntity
  8
0
100
AcDbLine
 10
38.3707
 20
39.8526
 30
0.0
 11
38.7719
 21
37.0
 31
0.0
  0
LINE
  5
1AF
330
1E
100
AcDbEntity
  8
0
100
AcDbLine
 10
37.12899999999999
 20
51.5
 30
0.0
 11
37.12899999999999
 21
51.698
 31
0.0
  0
LINE
  5
1B0
330
1E
100
AcDbEntity
  8
0
100
AcDbLine
 10
37.12899999999999
 20
51.5
 30
0.0
 11
38.62899999999999
 21
51.5
 31
0.0
  0
LINE
  5
1B1
330
1E
100
AcDbEntity
  8
0
100
AcDbLine
 10
37.12899999999999
 20
53.33339999999999
 30
0.0
 11
37.12899999999999
 21
53.4654
 31
0.0
  0
LINE
  5
1B2
330
1E
100
AcDbEntity
  8
0
100
AcDbLine
 10
37.12899999999999
 20
51.698
 30
0.0
 11
37.12899999999999
 21
51.5
 31
0.0
  0
LINE
  5
1B3
330
1E
100
AcDbEntity
  8
0
100
AcDbLine
 10
37.12899999999999
 20
51.698
 30
0.0
 11
37.12899999999999
 21
52.226
 31
0.0
  0
LINE
  5
1B4
330
1E
100
AcDbEntity
  8
0
100
AcDbLine
 10
37.12899999999999
 20
53.4654
 30
0.0
 11
37.12899999999999
 21
53.8174
 31
0.0
  0
LINE
  5
1B5
330
1E
100
AcDbEntity
  8
0
100
AcDbLine
 10
37.12899999999999
 20
53.4654
 30
0.0
 11
37.12899999999999
 21
53.33339999999999
 31
0.0
  0
LINE
  5
1B6
330
1E
100
AcDbEntity
  8
0
100
AcDbLine
 10
37.12899999999999
 20
52.226
 30
0.0
 11
37.12899999999999
 21
51.698
 31
0.0
  0
LINE
  5
1B7
330
1E
100
AcDbEntity
  8
0
100
AcDbLine
 10
37.12899999999999
 20
52.226
 30
0.0
 11
37.12899999999999
 21
53.106
 31
0.0
  0
LINE
  5
1B8
330
1E
100
AcDbEntity
  8
0
100
AcDbLine
 10
37.12899999999999
 20
53.8174
 30
0.0
 11
37.12899999999999
 21
54.404
 31
0.0
  0
LINE
  5
1B9
330
1E
100
AcDbEntity
  8
0
100
AcDbLine
 10
37.12899999999999
 20
53.8174
 30
0.0
 11
37.12899999999999
 21
53.4654
 31
0.0
  0
LINE
  5
1BA
330
1E
100
AcDbEntity
  8
0
100
AcDbLine
 10
37.12899999999999
 20
53.106
 30
0.0
 11
37.12899999999999
 21
52.226
 31
0.0
  0
LINE
  5
1BB
330
1E
100
AcDbEntity
  8
0
100
AcDbLine
 10
37.12899999999999
 20
53.106
 30
0.0
 11
37.12899999999999
 21
54.272
 31
0.0
  0
LINE
  5
1BC
330
1E
100
AcDbEntity
  8
0
100
AcDbLine
 10
37.12899999999999
 20
54.404
 30
0.0
 11
37.12899999999999
 21
55.18139999999999
 31
0.0
  0
LINE
  5
1BD
330
1E
100
AcDbEntity
  8
0
100
AcDbLine
 10
37.12899999999999
 20
54.404
 30
0.0
 11
37.12899999999999
 21
53.8174
 31
0.0
  0
LINE
  5
1BE
330
1E
100
AcDbEntity
  8
0
100
AcDbLine
 10
37.12899999999999
 20
54.272
 30
0.0
 11
37.12899999999999
 21
53.106
 31
0.0
  0
LINE
  5
1BF
330
1E
100
AcDbEntity
  8
0
100
AcDbLine
 10
37.12899999999999
 20
54.272
 30
0.0
 11
37.12899999999999
 21
55.592
 31
0.0
  0
LINE
  5
1C0
330
1E
100
AcDbEntity
  8
0
100
AcDbLine
 10
37.12899999999999
 20
55.0
 30
0.0
 11
37.12899999999999
 21
55.18139999999999
 31
0.0
  0
LINE
  5
1C1
330
1E
100
AcDbEntity
  8
0
100
AcDbLine
 10
37.12899999999999
 20
55.0
 30
0.0
 11
37.12899999999999
 21
55.592
 31
0.0
  0
LINE
  5
1C2
330
1E
100
AcDbEntity
  8
0
100
AcDbLine
 10
37.301
 20
42.5269
 30
0.0
 11
38.3707
 21
39.8526
 31
0.0
  0
LINE
  5
1C7
330
1E
100
AcDbEntity
  8
0
100
AcDbLine
 10
40.161
 20
40.328
 30
0.0
 11
40.62899999999999
 21
37.0
 31
0.0
  0
LINE
  5
1C8
330
1E
100
AcDbEntity
  8
0
100
AcDbLine
 10
38.62899999999999
 20
51.5
 30
0.0
 11
38.62899999999999
 21
43.8243
 31
0.0
  0
LINE
  5
1C9
330
1E
100
AcDbEntity
  8
0
100
AcDbLine
 10
38.62899999999999
 20
43.8243
 30
0.0
 11
38.62899999999999
 21
57.0
 31
0.0
  0
LINE
  5
1CA
330
1E
100
AcDbEntity
  8
0
100
AcDbLine
 10
38.62899999999999
 20
43.8243
 30
0.0
 11
38.62899999999999
 21
51.5
 31
0.0
  0
LINE
  5
1CB
330
1E
100
AcDbEntity
  8
0
100
AcDbLine
 10
38.913
 20
43.448
 30
0.0
 11
40.161
 21
40.328
 31
0.0
  0
LINE
  5
1CC
330
1E
100
AcDbEntity
  8
0
100
AcDbLine
 10
38.3707
 20
34.1474
 30
0.0
 11
38.7719
 21
37.0
 31
0.0
  0
LINE
  5
1CD
330
1E
100
AcDbEntity
  8
0
100
AcDbLine
 10
37.301
 20
31.4731
 30
0.0
 11
38.3707
 21
34.1474
 31
0.0
  0
LINE
  5
1CE
330
1E
100
AcDbEntity
  8
0
100
AcDbLine
 10
45.129
 20
51.5
 30
0.0
 11
45.129
 21
51.698
 31
0.0
  0
LINE
  5
1CF
330
1E
100
AcDbEntity
  8
0
100
AcDbLine
 10
45.129
 20
51.698
 30
0.0
 11
45.129
 21
52.226
 31
0.0
  0
LINE
  5
1D0
330
1E
100
AcDbEntity
  8
0
100
AcDbLine
 10
45.129
 20
51.698
 30
0.0
 11
45.129
 21
51.5
 31
0.0
  0
LINE
  5
1D1
330
1E
100
AcDbEntity
  8
0
100
AcDbLine
 10
45.129
 20
52.226
 30
0.0
 11
45.129
 21
53.106
 31
0.0
  0
LINE
  5
1D2
330
1E
100
AcDbEntity
  8
0
100
AcDbLine
 10
45.129
 20
52.226
 30
0.0
 11
45.129
 21
51.698
 31
0.0
  0
LINE
  5
1D3
330
1E
100
AcDbEntity
  8
0
100
AcDbLine
 10
45.129
 20
53.106
 30
0.0
 11
45.129
 21
54.272
 31
0.0
  0
LINE
  5
1D4
330
1E
100
AcDbEntity
  8
0
100
AcDbLine
 10
45.129
 20
53.106
 30
0.0
 11
45.129
 21
52.226
 31
0.0
  0
LINE
  5
1D5
330
1E
100
AcDbEntity
  8
0
100
AcDbLine
 10
45.129
 20
54.272
 30
0.0
 11
45.129
 21
55.592
 31
0.0
  0
LINE
  5
1D6
330
1E
100
AcDbEntity
  8
0
100
AcDbLine
 10
45.129
 20
54.272
 30
0.0
 11
45.129
 21
53.106
 31
0.0
  0
LINE
  5
1D7
330
1E
100
AcDbEntity
  8
0
100
AcDbLine
 10
43.62899999999999
 20
51.5
 30
0.0
 11
45.129
 21
51.5
 31
0.0
  0
LINE
  5
1D8
330
1E
100
AcDbEntity
  8
0
100
AcDbLine
 10
43.62899999999999
 20
32.0
 30
0.0
 11
43.62899999999999
 21
57.0
 31
0.0
  0
LINE
  5
1D9
330
1E
100
AcDbEntity
  8
0
100
AcDbLine
 10
43.62899999999999
 20
32.0
 30
0.0
 11
43.62899999999999
 21
7.0
 31
0.0
  0
LINE
  5
1DA
330
1E
100
AcDbEntity
  8
0
100
AcDbLine
 10
40.161
 20
33.67199999999999
 30
0.0
 11
40.62899999999999
 21
37.0
 31
0.0
  0
LINE
  5
1DB
330
1E
100
AcDbEntity
  8
0
100
AcDbLine
 10
38.913
 20
30.552
 30
0.0
 11
40.161
 21
33.67199999999999
 31
0.0
  0
LINE
  5
1DC
330
1E
100
AcDbEntity
  8
0
100
AcDbLine
 10
36.833
 20
27.796
 30
0.0
 11
38.913
 21
30.552
 31
0.0
  0
LINE
  5
1DD
330
1E
100
AcDbEntity
  8
0
100
AcDbLine
 10
36.833
 20
55.0
 30
0.0
 11
37.12899999999999
 21
55.0
 31
0.0
  0
LINE
  5
1DE
330
1E
100
AcDbEntity
  8
0
100
AcDbLine
 10
34.077
 20
55.0
 30
0.0
 11
36.833
 21
55.0
 31
0.0
  0
LINE
  5
1DF
330
1E
100
AcDbEntity
  8
0
100
AcDbLine
 10
37.12899999999999
 20
55.18139999999999
 30
0.0
 11
37.12899999999999
 21
56.0613
 31
0.0
  0
LINE
  5
1E0
330
1E
100
AcDbEntity
  8
0
100
AcDbLine
 10
37.12899999999999
 20
55.18139999999999
 30
0.0
 11
37.12899999999999
 21
55.0
 31
0.0
  0
LINE
  5
1E1
330
1E
100
AcDbEntity
  8
0
100
AcDbLine
 10
37.12899999999999
 20
55.18139999999999
 30
0.0
 11
37.12899999999999
 21
54.404
 31
0.0
  0
LINE
  5
1E2
330
1E
100
AcDbEntity
  8
0
100
AcDbLine
 10
37.12899999999999
 20
55.592
 30
0.0
 11
37.12899999999999
 21
55.0
 31
0.0
  0
LINE
  5
1E3
330
1E
100
AcDbEntity
  8
0
100
AcDbLine
 10
37.12899999999999
 20
55.592
 30
0.0
 11
37.12899999999999
 21
57.0
 31
0.0
  0
LINE
  5
1E4
330
1E
100
AcDbEntity
  8
0
100
AcDbLine
 10
37.12899999999999
 20
55.592
 30
0.0
 11
37.12899999999999
 21
54.272
 31
0.0
  0
LINE
  5
1E5
330
1E
100
AcDbEntity
  8
0
100
AcDbLine
 10
37.12899999999999
 20
56.0613
 30
0.0
 11
37.12899999999999
 21
57.0
 31
0.0
  0
LINE
  5
1E6
330
1E
100
AcDbEntity
  8
0
100
AcDbLine
 10
37.12899999999999
 20
56.0613
 30
0.0
 11
37.12899999999999
 21
55.18139999999999
 31
0.0
  0
LINE
  5
1E7
330
1E
100
AcDbEntity
  8
0
100
AcDbLine
 10
37.12899999999999
 20
58.408
 30
0.0
 11
37.12899999999999
 21
59.728
 31
0.0
  0
LINE
  5
1E8
330
1E
100
AcDbEntity
  8
0
100
AcDbLine
 10
37.12899999999999
 20
58.408
 30
0.0
 11
37.12899999999999
 21
57.0
 31
0.0
  0
LINE
  5
1E9
330
1E
100
AcDbEntity
  8
0
100
AcDbLine
 10
37.12899999999999
 20
57.0
 30
0.0
 11
37.12899999999999
 21
58.408
 31
0.0
  0
LINE
  5
1EA
330
1E
100
AcDbEntity
  8
0
100
AcDbLine
 10
37.12899999999999
 20
57.0
 30
0.0
 11
37.12899999999999
 21
57.9387
 31
0.0
  0
LINE
  5
1EB
330
1E
100
AcDbEntity
  8
0
100
AcDbLine
 10
37.12899999999999
 20
57.0
 30
0.0
 11
37.12899999999999
 21
55.592
 31
0.0
  0
LINE
  5
1EC
330
1E
100
AcDbEntity
  8
0
100
AcDbLine
 10
37.12899999999999
 20
57.0
 30
0.0
 11
37.12899999999999
 21
56.0613
 31
0.0
  0
LINE
  5
1ED
330
1E
100
AcDbEntity
  8
0
100
AcDbLine
 10
37.12899999999999
 20
57.9387
 30
0.0
 11
37.12899999999999
 21
57.0
 31
0.0
  0
LINE
  5
1EE
330
1E
100
AcDbEntity
  8
0
100
AcDbLine
 10
37.12899999999999
 20
57.9387
 30
0.0
 11
37.12899999999999
 21
58.8187
 31
0.0
  0
LINE
  5
1EF
330
1E
100
AcDbEntity
  8
0
100
AcDbLine
 10
37.12899999999999
 20
59.728
 30
0.0
 11
37.12899999999999
 21
60.894
 31
0.0
  0
LINE
  5
1F0
330
1E
100
AcDbEntity
  8
0
100
AcDbLine
 10
37.12899999999999
 20
59.728
 30
0.0
 11
37.12899999999999
 21
58.408
 31
0.0
  0
LINE
  5
1F1
330
1E
100
AcDbEntity
  8
0
100
AcDbLine
 10
37.12899999999999
 20
61.77399999999999
 30
0.0
 11
37.12899999999999
 21
62.30199999999999
 31
0.0
  0
LINE
  5
1F2
330
1E
100
AcDbEntity
  8
0
100
AcDbLine
 10
37.12899999999999
 20
61.77399999999999
 30
0.0
 11
37.12899999999999
 21
60.894
 31
0.0
  0
LINE
  5
1F3
330
1E
100
AcDbEntity
  8
0
100
AcDbLine
 10
37.12899999999999
 20
60.894
 30
0.0
 11
37.12899999999999
 21
61.77399999999999
 31
0.0
  0
LINE
  5
1F4
330
1E
100
AcDbEntity
  8
0
100
AcDbLine
 10
37.12899999999999
 20
60.894
 30
0.0
 11
37.12899999999999
 21
59.728
 31
0.0
  0
LINE
  5
1F5
330
1E
100
AcDbEntity
  8
0
100
AcDbLine
 10
37.12899999999999
 20
60.6667
 30
0.0
 11
37.12899999999999
 21
60.5347
 31
0.0
  0
LINE
  5
1F6
330
1E
100
AcDbEntity
  8
0
100
AcDbLine
 10
37.12899999999999
 20
60.5347
 30
0.0
 11
37.12899999999999
 21
60.1827
 31
0.0
  0
LINE
  5
1F7
330
1E
100
AcDbEntity
  8
0
100
AcDbLine
 10
37.12899999999999
 20
60.5347
 30
0.0
 11
37.12899999999999
 21
60.6667
 31
0.0
  0
LINE
  5
1F8
330
1E
100
AcDbEntity
  8
0
100
AcDbLine
 10
37.12899999999999
 20
60.1827
 30
0.0
 11
37.12899999999999
 21
59.596
 31
0.0
  0
LINE
  5
1F9
330
1E
100
AcDbEntity
  8
0
100
AcDbLine
 10
37.12899999999999
 20
60.1827
 30
0.0
 11
37.12899999999999
 21
60.5347
 31
0.0
  0
LINE
  5
1FA
330
1E
100
AcDbEntity
  8
0
100
AcDbLine
 10
37.12899999999999
 20
59.596
 30
0.0
 11
37.12899999999999
 21
58.8187
 31
0.0
  0
LINE
  5
1FB
330
1E
100
AcDbEntity
  8
0
100
AcDbLine
 10
37.12899999999999
 20
59.596
 30
0.0
 11
37.12899999999999
 21
60.1827
 31
0.0
  0
LINE
  5
1FC
330
1E
100
AcDbEntity
  8
0
100
AcDbLine
 10
37.12899999999999
 20
58.8187
 30
0.0
 11
37.12899999999999
 21
57.9387
 31
0.0
  0
LINE
  5
1FD
330
1E
100
AcDbEntity
  8
0
100
AcDbLine
 10
37.12899999999999
 20
58.8187
 30
0.0
 11
37.12899999999999
 21
59.596
 31
0.0
  0
LINE
  5
1FE
330
1E
100
AcDbEntity
  8
0
100
AcDbLine
 10
37.12899999999999
 20
62.5
 30
0.0
 11
37.12899999999999
 21
62.30199999999999
 31
0.0
  0
LINE
  5
1FF
330
1E
100
AcDbEntity
  8
0
100
AcDbLine
 10
37.12899999999999
 20
62.5
 30
0.0
 11
38.62899999999999
 21
62.5
 31
0.0
  0
LINE
  5
200
330
1E
100
AcDbEntity
  8
0
100
AcDbLine
 10
37.12899999999999
 20
62.30199999999999
 30
0.0
 11
37.12899999999999
 21
62.5
 31
0.0
  0
LINE
  5
201
330
1E
100
AcDbEntity
  8
0
100
AcDbLine
 10
37.12899999999999
 20
62.30199999999999
 30
0.0
 11
37.12899999999999
 21
61.77399999999999
 31
0.0
  0
LINE
  5
202
330
1E
100
AcDbEntity
  8
0
100
AcDbLine
 10
38.62899999999999
 20
61.956
 30
0.0
 11
38.62899999999999
 21
60.472
 31
0.0
  0
LINE
  5
203
330
1E
100
AcDbEntity
  8
0
100
AcDbLine
 10
38.62899999999999
 20
61.956
 30
0.0
 11
38.62899999999999
 21
63.076
 31
0.0
  0
LINE
  5
204
330
1E
100
AcDbEntity
  8
0
100
AcDbLine
 10
38.62899999999999
 20
60.472
 30
0.0
 11
38.62899999999999
 21
58.792
 31
0.0
  0
LINE
  5
205
330
1E
100
AcDbEntity
  8
0
100
AcDbLine
 10
38.62899999999999
 20
60.472
 30
0.0
 11
38.62899999999999
 21
61.956
 31
0.0
  0
LINE
  5
206
330
1E
100
AcDbEntity
  8
0
100
AcDbLine
 10
38.62899999999999
 20
58.792
 30
0.0
 11
38.62899999999999
 21
57.0
 31
0.0
  0
LINE
  5
207
330
1E
100
AcDbEntity
  8
0
100
AcDbLine
 10
38.62899999999999
 20
58.792
 30
0.0
 11
38.62899999999999
 21
60.472
 31
0.0
  0
LINE
  5
208
330
1E
100
AcDbEntity
  8
0
100
AcDbLine
 10
38.62899999999999
 20
57.0
 30
0.0
 11
38.62899999999999
 21
43.8243
 31
0.0
  0
LINE
  5
209
330
1E
100
AcDbEntity
  8
0
100
AcDbLine
 10
38.62899999999999
 20
57.0
 30
0.0
 11
38.62899999999999
 21
58.792
 31
0.0
  0
LINE
  5
20A
330
1E
100
AcDbEntity
  8
0
100
AcDbLine
 10
38.62899999999999
 20
64.0
 30
0.0
 11
38.62899999999999
 21
63.748
 31
0.0
  0
LINE
  5
20B
330
1E
100
AcDbEntity
  8
0
100
AcDbLine
 10
38.62899999999999
 20
64.0
 30
0.0
 11
43.62899999999999
 21
64.0
 31
0.0
  0
LINE
  5
20C
330
1E
100
AcDbEntity
  8
0
100
AcDbLine
 10
38.62899999999999
 20
63.748
 30
0.0
 11
38.62899999999999
 21
64.0
 31
0.0
  0
LINE
  5
20D
330
1E
100
AcDbEntity
  8
0
100
AcDbLine
 10
38.62899999999999
 20
63.748
 30
0.0
 11
38.62899999999999
 21
63.076
 31
0.0
  0
LINE
  5
20E
330
1E
100
AcDbEntity
  8
0
100
AcDbLine
 10
38.62899999999999
 20
63.076
 30
0.0
 11
38.62899999999999
 21
63.748
 31
0.0
  0
LINE
  5
20F
330
1E
100
AcDbEntity
  8
0
100
AcDbLine
 10
38.62899999999999
 20
63.076
 30
0.0
 11
38.62899999999999
 21
62.5
 31
0.0
  0
LINE
  5
210
330
1E
100
AcDbEntity
  8
0
100
AcDbLine
 10
38.62899999999999
 20
63.076
 30
0.0
 11
38.62899999999999
 21
61.956
 31
0.0
  0
LINE
  5
211
330
1E
100
AcDbEntity
  8
0
100
AcDbLine
 10
45.129
 20
55.592
 30
0.0
 11
45.129
 21
57.0
 31
0.0
  0
LINE
  5
212
330
1E
100
AcDbEntity
  8
0
100
AcDbLine
 10
45.129
 20
55.592
 30
0.0
 11
45.129
 21
54.272
 31
0.0
  0
LINE
  5
213
330
1E
100
AcDbEntity
  8
0
100
AcDbLine
 10
45.129
 20
57.0
 30
0.0
 11
45.129
 21
58.408
 31
0.0
  0
LINE
  5
214
330
1E
100
AcDbEntity
  8
0
100
AcDbLine
 10
45.129
 20
57.0
 30
0.0
 11
45.129
 21
55.592
 31
0.0
  0
LINE
  5
215
330
1E
100
AcDbEntity
  8
0
100
AcDbLine
 10
43.62899999999999
 20
62.5
 30
0.0
 11
45.129
 21
62.5
 31
0.0
  0
LINE
  5
216
330
1E
100
AcDbEntity
  8
0
100
AcDbLine
 10
43.62899999999999
 20
64.0
 30
0.0
 11
43.62899999999999
 21
63.748
 31
0.0
  0
LINE
  5
217
330
1E
100
AcDbEntity
  8
0
100
AcDbLine
 10
43.62899999999999
 20
63.748
 30
0.0
 11
43.62899999999999
 21
64.0
 31
0.0
  0
LINE
  5
218
330
1E
100
AcDbEntity
  8
0
100
AcDbLine
 10
43.62899999999999
 20
63.748
 30
0.0
 11
43.62899999999999
 21
63.076
 31
0.0
  0
LINE
  5
219
330
1E
100
AcDbEntity
  8
0
100
AcDbLine
 10
43.62899999999999
 20
63.076
 30
0.0
 11
43.62899999999999
 21
63.748
 31
0.0
  0
LINE
  5
21A
330
1E
100
AcDbEntity
  8
0
100
AcDbLine
 10
43.62899999999999
 20
63.076
 30
0.0
 11
43.62899999999999
 21
61.956
 31
0.0
  0
LINE
  5
21B
330
1E
100
AcDbEntity
  8
0
100
AcDbLine
 10
43.62899999999999
 20
61.956
 30
0.0
 11
43.62899999999999
 21
63.076
 31
0.0
  0
LINE
  5
21C
330
1E
100
AcDbEntity
  8
0
100
AcDbLine
 10
43.62899999999999
 20
61.956
 30
0.0
 11
43.62899999999999
 21
60.472
 31
0.0
  0
LINE
  5
21D
330
1E
100
AcDbEntity
  8
0
100
AcDbLine
 10
43.62899999999999
 20
60.472
 30
0.0
 11
43.62899999999999
 21
61.956
 31
0.0
  0
LINE
  5
21E
330
1E
100
AcDbEntity
  8
0
100
AcDbLine
 10
43.62899999999999
 20
60.472
 30
0.0
 11
43.62899999999999
 21
58.792
 31
0.0
  0
LINE
  5
21F
330
1E
100
AcDbEntity
  8
0
100
AcDbLine
 10
45.129
 20
62.5
 30
0.0
 11
45.129
 21
62.30199999999999
 31
0.0
  0
LINE
  5
220
330
1E
100
AcDbEntity
  8
0
100
AcDbLine
 10
45.129
 20
62.30199999999999
 30
0.0
 11
45.129
 21
61.77399999999999
 31
0.0
  0
LINE
  5
221
330
1E
100
AcDbEntity
  8
0
100
AcDbLine
 10
45.129
 20
62.30199999999999
 30
0.0
 11
45.129
 21
62.5
 31
0.0
  0
LINE
  5
222
330
1E
100
AcDbEntity
  8
0
100
AcDbLine
 10
45.129
 20
61.77399999999999
 30
0.0
 11
45.129
 21
60.894
 31
0.0
  0
LINE
  5
223
330
1E
100
AcDbEntity
  8
0
100
AcDbLine
 10
45.129
 20
61.77399999999999
 30
0.0
 11
45.129
 21
62.30199999999999
 31
0.0
  0
LINE
  5
224
330
1E
100
AcDbEntity
  8
0
100
AcDbLine
 10
45.129
 20
60.894
 30
0.0
 11
45.129
 21
59.728
 31
0.0
  0
LINE
  5
225
330
1E
100
AcDbEntity
  8
0
100
AcDbLine
 10
45.129
 20
60.894
 30
0.0
 11
45.129
 21
61.77399999999999
 31
0.0
  0
LINE
  5
226
330
1E
100
AcDbEntity
  8
0
100
AcDbLine
 10
45.129
 20
59.728
 30
0.0
 11
45.129
 21
58.408
 31
0.0
  0
LINE
  5
227
330
1E
100
AcDbEntity
  8
0
100
AcDbLine
 10
45.129
 20
59.728
 30
0.0
 11
45.129
 21
60.894
 31
0.0
  0
LINE
  5
228
330
1E
100
AcDbEntity
  8
0
100
AcDbLine
 10
45.129
 20
58.408
 30
0.0
 11
45.129
 21
57.0
 31
0.0
  0
LINE
  5
229
330
1E
100
AcDbEntity
  8
0
100
AcDbLine
 10
45.129
 20
58.408
 30
0.0
 11
45.129
 21
59.728
 31
0.0
  0
LINE
  5
22A
330
1E
100
AcDbEntity
  8
0
100
AcDbLine
 10
43.62899999999999
 20
58.792
 30
0.0
 11
43.62899999999999
 21
60.472
 31
0.0
  0
LINE
  5
22B
330
1E
100
AcDbEntity
  8
0
100
AcDbLine
 10
43.62899999999999
 20
58.792
 30
0.0
 11
43.62899999999999
 21
57.0
 31
0.0
  0
LINE
  5
22C
330
1E
100
AcDbEntity
  8
0
100
AcDbLine
 10
43.62899999999999
 20
57.0
 30
0.0
 11
43.62899999999999
 21
32.0
 31
0.0
  0
LINE
  5
22D
330
1E
100
AcDbEntity
  8
0
100
AcDbLine
 10
43.62899999999999
 20
57.0
 30
0.0
 11
43.62899999999999
 21
58.792
 31
0.0
  0
LINE
  5
22E
330
1E
100
AcDbEntity
  8
0
100
AcDbLine
 10
38.62899999999999
 20
62.5
 30
0.0
 11
38.62899999999999
 21
63.076
 31
0.0
  0
LINE
  5
22F
330
1E
100
AcDbEntity
  8
0
100
AcDbLine
 10
30.95699999999999
 20
55.0
 30
0.0
 11
34.077
 21
55.0
 31
0.0
  0
LINE
  5
230
330
1E
100
AcDbEntity
  8
0
100
AcDbLine
 10
27.629
 20
55.0
 30
0.0
 11
30.95699999999999
 21
55.0
 31
0.0
  0
LINE
  5
231
330
1E
100
AcDbEntity
  8
0
100
AcDbLine
 10
24.7764
 20
13.0
 30
0.0
 11
27.629
 21
13.0
 31
0.0
  0
LINE
  5
232
330
1E
100
AcDbEntity
  8
0
100
AcDbLine
 10
24.30099999999999
 20
13.0
 30
0.0
 11
27.629
 21
13.0
 31
0.0
  0
ENDSEC
  0
SECTION
  2
OBJECTS
  0
DICTIONARY
  5
C
330
0
100
AcDbDictionary
  3
ACAD_GROUP
350
D
  3
ACAD_LAYOUT
350
19
  3
ACAD_MLINESTYLE
350
16
  3
ACAD_PLOTSETTINGS
350
18
  3
ACAD_PLOTSTYLENAME
350
E
  3
ACDBHEADERROUNDTRIPXREC
350
23A
  3
ACDBVARIABLEDICTIONARY
350
237
  0
DICTIONARY
  5
25C
330
1E
100
AcDbDictionary
280
     1
  3
ACAD_LAYOUTSELFREF
360
25D
  0
DICTIONARY
  5
25A
330
1A
100
AcDbDictionary
280
     1
  3
ACAD_LAYOUTSELFREF
360
25B
  0
DICTIONARY
  5
D
102
{ACAD_REACTORS
330
C
102
}
330
C
100
AcDbDictionary
  0
DICTIONARY
  5
19
102
{ACAD_REACTORS
330
C
102
}
330
C
100
AcDbDictionary
  0
DICTIONARY
  5
16
102
{ACAD_REACTORS
330
C
102
}
330
C
100
AcDbDictionary
  3
STANDARD
350
17
  0
DICTIONARY
  5
18
102
{ACAD_REACTORS
330
C
102
}
330
C
100
AcDbDictionary
  0
ACDBDICTIONARYWDFLT
  5
E
102
{ACAD_REACTORS
330
C
102
}
330
C
100
AcDbDictionary
281
     1
  3
Normal
350
F
100
AcDbDictionaryWithDefault
340
F
  0
DICTIONARY
  5
23A
102
{ACAD_REACTORS
330
C
102
}
330
C
100
AcDbDictionary
  3
CEPSNTYPE
350
244
  3
FINGERPRINTGUID
350
245
  3
HYPERLINKBASE
350
23D
  3
INSUNITS
350
243
  3
LAYOUTDICT
350
23F
  3
LWETCUNION
350
242
  3
PLOTSETDICT
350
240
  3
PLOTSTYLNAMDICT
350
241
  3
PSVPSCALE
350
247
  3
PUCSBASE
350
24A
  3
PUCSORGBACK
350
250
  3
PUCSORGBOTTOM
350
24C
  3
PUCSORGFRONT
350
24F
  3
PUCSORGLEFT
350
24D
  3
PUCSORGRIGHT
350
24E
  3
PUCSORGTOP
350
24B
  3
PUCSORTHOREF
350
248
  3
PUCSORTHOVIEW
350
249
  3
STYLESHEET
350
23E
  3
TSTACKALIGN
350
23B
  3
TSTACKSIZE
350
23C
  3
UCSBASE
350
253
  3
UCSORGBACK
350
259
  3
UCSORGBOTTOM
350
255
  3
UCSORGFRONT
350
258
  3
UCSORGLEFT
350
256
  3
UCSORGRIGHT
350
257
  3
UCSORGTOP
350
254
  3
UCSORTHOREF
350
251
  3
UCSORTHOVIEW
350
252
  3
VERSIONGUID
350
246
  0
DICTIONARY
  5
237
102
{ACAD_REACTORS
330
C
102
}
330
C
100
AcDbDictionary
  3
DIMASSOC
350
238
  0
XRECORD
  5
25D
102
{ACAD_REACTORS
330
25C
102
}
330
25C
100
AcDbXrecord
340
1E
  0
XRECORD
  5
25B
102
{ACAD_REACTORS
330
25A
102
}
330
25A
100
AcDbXrecord
340
1A
  0
MLINESTYLE
  5
17
102
{ACAD_REACTORS
330
16
102
}
330
16
100
AcDbMlineStyle
  2
STANDARD
 70
     0
  3

 62
   256
 51
90.0
 52
90.0
 71
     2
 49
0.5
 62
   256
  6
BYLAYER
 49
-0.5
 62
   256
  6
BYLAYER
  0
ACDBPLACEHOLDER
  5
F
102
{ACAD_REACTORS
330
E
102
}
330
E
100
AcDbPlaceHolder
280
     0
  0
XRECORD
  5
244
102
{ACAD_REACTORS
330
23A
102
}
330
23A
100
AcDbXrecord
 90
        0
  0
XRECORD
  5
245
102
{ACAD_REACTORS
330
23A
102
}
330
23A
100
AcDbXrecord
  1
{34EC6AE4-AB13-4C80-B5D7-22CCA26BD49A}
  0
XRECORD
  5
23D
102
{ACAD_REACTORS
330
23A
102
}
330
23A
100
AcDbXrecord
  1

  0
XRECORD
  5
243
102
{ACAD_REACTORS
330
23A
102
}
330
23A
100
AcDbXrecord
 90
        0
  0
XRECORD
  5
23F
102
{ACAD_REACTORS
330
23A
102
}
330
23A
100
AcDbXrecord
340
19
  0
XRECORD
  5
242
102
{ACAD_REACTORS
330
23A
102
}
330
23A
100
AcDbXrecord
 90
    10781
  0
XRECORD
  5
240
102
{ACAD_REACTORS
330
23A
102
}
330
23A
100
AcDbXrecord
340
18
  0
XRECORD
  5
241
102
{ACAD_REACTORS
330
23A
102
}
330
23A
100
AcDbXrecord
340
E
  0
XRECORD
  5
247
102
{ACAD_REACTORS
330
23A
102
}
330
23A
100
AcDbXrecord
 40
0.0
  0
XRECORD
  5
24A
102
{ACAD_REACTORS
330
23A
102
}
330
23A
100
AcDbXrecord
340
0
  0
XRECORD
  5
250
102
{ACAD_REACTORS
330
23A
102
}
330
23A
100
AcDbXrecord
 10
0.0
 20
0.0
 30
0.0
  0
XRECORD
  5
24C
102
{ACAD_REACTORS
330
23A
102
}
330
23A
100
AcDbXrecord
 10
0.0
 20
0.0
 30
0.0
  0
XRECORD
  5
24F
102
{ACAD_REACTORS
330
23A
102
}
330
23A
100
AcDbXrecord
 10
0.0
 20
0.0
 30
0.0
  0
XRECORD
  5
24D
102
{ACAD_REACTORS
330
23A
102
}
330
23A
100
AcDbXrecord
 10
0.0
 20
0.0
 30
0.0
  0
XRECORD
  5
24E
102
{ACAD_REACTORS
330
23A
102
}
330
23A
100
AcDbXrecord
 10
0.0
 20
0.0
 30
0.0
  0
XRECORD
  5
24B
102
{ACAD_REACTORS
330
23A
102
}
330
23A
100
AcDbXrecord
 10
0.0
 20
0.0
 30
0.0
  0
XRECORD
  5
248
102
{ACAD_REACTORS
330
23A
102
}
330
23A
100
AcDbXrecord
340
0
  0
XRECORD
  5
249
102
{ACAD_REACTORS
330
23A
102
}
330
23A
100
AcDbXrecord
 70
     0
  0
XRECORD
  5
23E
102
{ACAD_REACTORS
330
23A
102
}
330
23A
100
AcDbXrecord
  1

  0
XRECORD
  5
23B
102
{ACAD_REACTORS
330
23A
102
}
330
23A
100
AcDbXrecord
 90
        1
  0
XRECORD
  5
23C
102
{ACAD_REACTORS
330
23A
102
}
330
23A
100
AcDbXrecord
 90
       70
  0
XRECORD
  5
253
102
{ACAD_REACTORS
330
23A
102
}
330
23A
100
AcDbXrecord
340
0
  0
XRECORD
  5
259
102
{ACAD_REACTORS
330
23A
102
}
330
23A
100
AcDbXrecord
 10
0.0
 20
0.0
 30
0.0
  0
XRECORD
  5
255
102
{ACAD_REACTORS
330
23A
102
}
330
23A
100
AcDbXrecord
 10
0.0
 20
0.0
 30
0.0
  0
XRECORD
  5
258
102
{ACAD_REACTORS
330
23A
102
}
330
23A
100
AcDbXrecord
 10
0.0
 20
0.0
 30
0.0
  0
XRECORD
  5
256
102
{ACAD_REACTORS
330
23A
102
}
330
23A
100
AcDbXrecord
 10
0.0
 20
0.0
 30
0.0
  0
XRECORD
  5
257
102
{ACAD_REACTORS
330
23A
102
}
330
23A
100
AcDbXrecord
 10
0.0
 20
0.0
 30
0.0
  0
XRECORD
  5
254
102
{ACAD_REACTORS
330
23A
102
}
330
23A
100
AcDbXrecord
 10
0.0
 20
0.0
 30
0.0
  0
XRECORD
  5
251
102
{ACAD_REACTORS
330
23A
102
}
330
23A
100
AcDbXrecord
340
0
  0
XRECORD
  5
252
102
{ACAD_REACTORS
330
23A
102
}
330
23A
100
AcDbXrecord
 70
     1
  0
XRECORD
  5
246
102
{ACAD_REACTORS
330
23A
102
}
330
23A
100
AcDbXrecord
  1
{500A46FB-C43D-4FC4-9138-EE5D4F804579}
  0
DICTIONARYVAR
  5
238
102
{ACAD_REACTORS
330
237
102
}
330
237
100
DictionaryVariables
280
     0
  1
1
  0
ENDSEC
  0
EOF
