  0
SECTION
  2
HEADER
  9
$ACADVER
  1
AC1015
  9
$ACADMAINTVER
 70
    13
  9
$DWGCODEPAGE
  3
ANSI_1252
  9
$INSBASE
 10
0.0
 20
0.0
 30
0.0
  9
$EXTMIN
 10
0.0000000000000014
 20
-0.0000000000000046
 30
0.0
  9
$EXTMAX
 10
69.0
 20
69.0
 30
0.0
  9
$LIMMIN
 10
0.0
 20
0.0
  9
$LIMMAX
 10
12.0
 20
9.0
  9
$ORTHOMODE
 70
     0
  9
$REGENMODE
 70
     1
  9
$FILLMODE
 70
     1
  9
$QTEXTMODE
 70
     0
  9
$MIRRTEXT
 70
     1
  9
$LTSCALE
 40
1.0
  9
$ATTMODE
 70
     1
  9
$TEXTSIZE
 40
0.2
  9
$TRACEWID
 40
0.05
  9
$TEXTSTYLE
  7
Standard
  9
$CLAYER
  8
0
  9
$CELTYPE
  6
Continuous
  9
$CECOLOR
 62
   256
  9
$CELTSCALE
 40
1.0
  9
$DISPSILH
 70
     0
  9
$DIMSCALE
 40
1.0
  9
$DIMASZ
 40
0.18
  9
$DIMEXO
 40
0.0625
  9
$DIMDLI
 40
0.38
  9
$DIMRND
 40
0.0
  9
$DIMDLE
 40
0.0
  9
$DIMEXE
 40
0.18
  9
$DIMTP
 40
0.0
  9
$DIMTM
 40
0.0
  9
$DIMTXT
 40
0.18
  9
$DIMCEN
 40
0.09
  9
$DIMTSZ
 40
0.0
  9
$DIMTOL
 70
     0
  9
$DIMLIM
 70
     0
  9
$DIMTIH
 70
     1
  9
$DIMTOH
 70
     1
  9
$DIMSE1
 70
     0
  9
$DIMSE2
 70
     0
  9
$DIMTAD
 70
     0
  9
$DIMZIN
 70
     0
  9
$DIMBLK
  1

  9
$DIMASO
 70
     1
  9
$DIMSHO
 70
     1
  9
$DIMPOST
  1

  9
$DIMAPOST
  1

  9
$DIMALT
 70
     0
  9
$DIMALTD
 70
     2
  9
$DIMALTF
 40
25.4
  9
$DIMLFAC
 40
1.0
  9
$DIMTOFL
 70
     0
  9
$DIMTVP
 40
0.0
  9
$DIMTIX
 70
     0
  9
$DIMSOXD
 70
     0
  9
$DIMSAH
 70
     0
  9
$DIMBLK1
  1

  9
$DIMBLK2
  1

  9
$DIMSTYLE
  2
Standard
  9
$DIMCLRD
 70
     0
  9
$DIMCLRE
 70
     0
  9
$DIMCLRT
 70
     0
  9
$DIMTFAC
 40
1.0
  9
$DIMGAP
 40
0.09
  9
$DIMJUST
 70
     0
  9
$DIMSD1
 70
     0
  9
$DIMSD2
 70
     0
  9
$DIMTOLJ
 70
     1
  9
$DIMTZIN
 70
     0
  9
$DIMALTZ
 70
     0
  9
$DIMALTTZ
 70
     0
  9
$DIMUPT
 70
     0
  9
$DIMDEC
 70
     4
  9
$DIMTDEC
 70
     4
  9
$DIMALTU
 70
     2
  9
$DIMALTTD
 70
     2
  9
$DIMTXSTY
  7
Standard
  9
$DIMAUNIT
 70
     0
  9
$DIMADEC
 70
     0
  9
$DIMALTRND
 40
0.0
  9
$DIMAZIN
 70
     0
  9
$DIMDSEP
 70
    46
  9
$DIMATFIT
 70
     3
  9
$DIMFRAC
 70
     0
  9
$DIMLDRBLK
  1

  9
$DIMLUNIT
 70
     2
  9
$DIMLWD
 70
    -2
  9
$DIMLWE
 70
    -2
  9
$DIMTMOVE
 70
     0
  9
$LUNITS
 70
     2
  9
$LUPREC
 70
     4
  9
$SKETCHINC
 40
0.1
  9
$FILLETRAD
 40
0.0
  9
$AUNITS
 70
     0
  9
$AUPREC
 70
     0
  9
$MENU
  1
.
  9
$ELEVATION
 40
0.0
  9
$PELEVATION
 40
0.0
  9
$THICKNESS
 40
0.0
  9
$LIMCHECK
 70
     0
  9
$CHAMFERA
 40
0.0
  9
$CHAMFERB
 40
0.0
  9
$CHAMFERC
 40
0.0
  9
$CHAMFERD
 40
0.0
  9
$SKPOLY
 70
     0
  9
$TDCREATE
 40
2454779.627366898
  9
$TDUCREATE
 40
2454779.585700231
  9
$TDUPDATE
 40
2454779.631111111
  9
$TDUUPDATE
 40
2454779.589444444
  9
$TDINDWG
 40
0.0037443866
  9
$TDUSRTIMER
 40
0.0037443866
  9
$USRTIMER
 70
     1
  9
$ANGBASE
 50
0.0
  9
$ANGDIR
 70
     0
  9
$PDMODE
 70
     0
  9
$PDSIZE
 40
0.0
  9
$PLINEWID
 40
0.0
  9
$SPLFRAME
 70
     0
  9
$SPLINETYPE
 70
     6
  9
$SPLINESEGS
 70
     8
  9
$HANDSEED
  5
342
  9
$SURFTAB1
 70
     6
  9
$SURFTAB2
 70
     6
  9
$SURFTYPE
 70
     6
  9
$SURFU
 70
     6
  9
$SURFV
 70
     6
  9
$UCSBASE
  2

  9
$UCSNAME
  2

  9
$UCSORG
 10
0.0
 20
0.0
 30
0.0
  9
$UCSXDIR
 10
1.0
 20
0.0
 30
0.0
  9
$UCSYDIR
 10
0.0
 20
1.0
 30
0.0
  9
$UCSORTHOREF
  2

  9
$UCSORTHOVIEW
 70
     1
  9
$UCSORGTOP
 10
0.0
 20
0.0
 30
0.0
  9
$UCSORGBOTTOM
 10
0.0
 20
0.0
 30
0.0
  9
$UCSORGLEFT
 10
0.0
 20
0.0
 30
0.0
  9
$UCSORGRIGHT
 10
0.0
 20
0.0
 30
0.0
  9
$UCSORGFRONT
 10
0.0
 20
0.0
 30
0.0
  9
$UCSORGBACK
 10
0.0
 20
0.0
 30
0.0
  9
$PUCSBASE
  2

  9
$PUCSNAME
  2

  9
$PUCSORG
 10
0.0
 20
0.0
 30
0.0
  9
$PUCSXDIR
 10
1.0
 20
0.0
 30
0.0
  9
$PUCSYDIR
 10
0.0
 20
1.0
 30
0.0
  9
$PUCSORTHOREF
  2

  9
$PUCSORTHOVIEW
 70
     0
  9
$PUCSORGTOP
 10
0.0
 20
0.0
 30
0.0
  9
$PUCSORGBOTTOM
 10
0.0
 20
0.0
 30
0.0
  9
$PUCSORGLEFT
 10
0.0
 20
0.0
 30
0.0
  9
$PUCSORGRIGHT
 10
0.0
 20
0.0
 30
0.0
  9
$PUCSORGFRONT
 10
0.0
 20
0.0
 30
0.0
  9
$PUCSORGBACK
 10
0.0
 20
0.0
 30
0.0
  9
$USERI1
 70
     0
  9
$USERI2
 70
     0
  9
$USERI3
 70
     0
  9
$USERI4
 70
     0
  9
$USERI5
 70
     0
  9
$USERR1
 40
0.0
  9
$USERR2
 40
0.0
  9
$USERR3
 40
0.0
  9
$USERR4
 40
0.0
  9
$USERR5
 40
0.0
  9
$WORLDVIEW
 70
     1
  9
$SHADEDGE
 70
     3
  9
$SHADEDIF
 70
    70
  9
$TILEMODE
 70
     1
  9
$MAXACTVP
 70
    64
  9
$PINSBASE
 10
0.0
 20
0.0
 30
0.0
  9
$PLIMCHECK
 70
     0
  9
$PEXTMIN
 10
1.000000000000000E+20
 20
1.000000000000000E+20
 30
1.000000000000000E+20
  9
$PEXTMAX
 10
-1.000000000000000E+20
 20
-1.000000000000000E+20
 30
-1.000000000000000E+20
  9
$PLIMMIN
 10
0.0
 20
0.0
  9
$PLIMMAX
 10
12.0
 20
9.0
  9
$UNITMODE
 70
     0
  9
$VISRETAIN
 70
     1
  9
$PLINEGEN
 70
     0
  9
$PSLTSCALE
 70
     1
  9
$TREEDEPTH
 70
  3020
  9
$CMLSTYLE
  2
Standard
  9
$CMLJUST
 70
     0
  9
$CMLSCALE
 40
1.0
  9
$PROXYGRAPHICS
 70
     1
  9
$MEASUREMENT
 70
     0
  9
$CELWEIGHT
370
    -1
  9
$ENDCAPS
280
     0
  9
$JOINSTYLE
280
     0
  9
$LWDISPLAY
290
     0
  9
$INSUNITS
 70
     0
  9
$HYPERLINKBASE
  1

  9
$STYLESHEET
  1

  9
$XEDIT
290
     1
  9
$CEPSNTYPE
380
     0
  9
$PSTYLEMODE
290
     1
  9
$FINGERPRINTGUID
  2
{E31E1869-9AE0-4946-ABBB-20D0EEBD001B}
  9
$VERSIONGUID
  2
{19A9EF2B-D60A-4F23-A6E4-96253C6C9BCE}
  9
$EXTNAMES
290
     1
  9
$PSVPSCALE
 40
0.0
  9
$OLESTARTUP
290
     0
  0
ENDSEC
  0
SECTION
  2
CLASSES
  0
CLASS
  1
ACDBDICTIONARYWDFLT
  2
AcDbDictionaryWithDefault
  3
AutoCAD 2000
 90
        0
280
     0
281
     0
  0
CLASS
  1
ACDBPLACEHOLDER
  2
AcDbPlaceHolder
  3
AutoCAD 2000
 90
        0
280
     0
281
     0
  0
CLASS
  1
LAYOUT
  2
AcDbLayout
  3
AutoCAD 2000
 90
        0
280
     0
281
     0
  0
CLASS
  1
DICTIONARYVAR
  2
AcDbDictionaryVar
  3
AutoCAD 2000
 90
        0
280
     0
281
     0
  0
ENDSEC
  0
SECTION
  2
TABLES
  0
TABLE
  2
VPORT
  5
8
330
0
100
AcDbSymbolTable
 70
     2
  0
VPORT
  5
341
330
8
100
AcDbSymbolTableRecord
100
AcDbViewportTableRecord
  2
*Active
 70
     0
 10
0.0
 20
0.0
 11
1.0
 21
1.0
 12
34.5
 22
34.49999999999999
 13
0.0
 23
0.0
 14
1.0
 24
1.0
 15
0.0
 25
0.0
 16
0.0
 26
0.0
 36
1.0
 17
0.0
 27
0.0
 37
0.0
 40
69.52941176470588
 41
2.078104993597951
 42
50.0
 43
0.0
 44
0.0
 50
0.0
 51
0.0
 71
     0
 72
   100
 73
     1
 74
     3
 75
     0
 76
     0
 77
     0
 78
     0
281
     0
 65
     1
110
0.0
120
0.0
130
0.0
111
1.0
121
0.0
131
0.0
112
0.0
122
1.0
132
0.0
 79
     1
146
0.0
  0
ENDTAB
  0
TABLE
  2
LTYPE
  5
5
330
0
100
AcDbSymbolTable
 70
     1
  0
LTYPE
  5
13
330
5
100
AcDbSymbolTableRecord
100
AcDbLinetypeTableRecord
  2
ByBlock
 70
     0
  3

 72
    65
 73
     0
 40
0.0
  0
LTYPE
  5
14
330
5
100
AcDbSymbolTableRecord
100
AcDbLinetypeTableRecord
  2
ByLayer
 70
     0
  3

 72
    65
 73
     0
 40
0.0
  0
LTYPE
  5
15
330
5
100
AcDbSymbolTableRecord
100
AcDbLinetypeTableRecord
  2
Continuous
 70
     0
  3
Solid line
 72
    65
 73
     0
 40
0.0
  0
ENDTAB
  0
TABLE
  2
LAYER
  5
2
330
0
100
AcDbSymbolTable
 70
     1
  0
LAYER
  5
10
330
2
100
AcDbSymbolTableRecord
100
AcDbLayerTableRecord
  2
0
 70
     0
 62
     7
  6
Continuous
370
    -3
390
F
  0
ENDTAB
  0
TABLE
  2
STYLE
  5
3
330
0
100
AcDbSymbolTable
 70
     1
  0
STYLE
  5
11
330
3
100
AcDbSymbolTableRecord
100
AcDbTextStyleTableRecord
  2
Standard
 70
     0
 40
0.0
 41
1.0
 50
0.0
 71
     0
 42
0.2
  3
txt
  4

  0
ENDTAB
  0
TABLE
  2
VIEW
  5
6
330
0
100
AcDbSymbolTable
 70
     0
  0
ENDTAB
  0
TABLE
  2
UCS
  5
7
330
0
100
AcDbSymbolTable
 70
     0
  0
ENDTAB
  0
TABLE
  2
APPID
  5
9
330
0
100
AcDbSymbolTable
 70
     1
  0
APPID
  5
12
330
9
100
AcDbSymbolTableRecord
100
AcDbRegAppTableRecord
  2
ACAD
 70
     0
  0
ENDTAB
  0
TABLE
  2
DIMSTYLE
  5
A
330
0
100
AcDbSymbolTable
 70
     1
100
AcDbDimStyleTable
 71
     0
  0
DIMSTYLE
105
33A
330
A
100
AcDbSymbolTableRecord
100
AcDbDimStyleTableRecord
  2
Standard
 70
     0
340
11
  0
ENDTAB
  0
TABLE
  2
BLOCK_RECORD
  5
1
330
0
100
AcDbSymbolTable
 70
     0
  0
BLOCK_RECORD
  5
1E
330
1
100
AcDbSymbolTableRecord
100
AcDbBlockTableRecord
  2
*Model_Space
340
21
  0
BLOCK_RECORD
  5
1A
330
1
100
AcDbSymbolTableRecord
100
AcDbBlockTableRecord
  2
*Paper_Space
340
1D
  0
ENDTAB
  0
ENDSEC
  0
SECTION
  2
BLOCKS
  0
BLOCK
  5
1F
330
1E
100
AcDbEntity
  8
0
100
AcDbBlockBegin
  2
*Model_Space
 70
     0
 10
0.0
 20
0.0
 30
0.0
  3
*Model_Space
  1

  0
ENDBLK
  5
20
330
1E
100
AcDbEntity
  8
0
100
AcDbBlockEnd
  0
BLOCK
  5
1B
330
1A
100
AcDbEntity
 67
     1
  8
0
100
AcDbBlockBegin
  2
*Paper_Space
 70
     0
 10
0.0
 20
0.0
 30
0.0
  3
*Paper_Space
  1

  0
ENDBLK
  5
1C
330
1A
100
AcDbEntity
 67
     1
  8
0
100
AcDbBlockEnd
  0
ENDSEC
  0
SECTION
  2
ENTITIES
  0
LINE
  5
22
330
1E
100
AcDbEntity
  8
0
100
AcDbLine
 10
41.0
 20
0.0571439999999971
 30
0.0
 11
41.0
 21
0.137143999999997
 31
0.0
  0
LINE
  5
23
330
1E
100
AcDbEntity
  8
0
100
AcDbLine
 10
41.0
 20
0.0571439999999971
 30
0.0
 11
41.3684
 21
-0.000000000000003
 31
0.0
  0
LINE
  5
24
330
1E
100
AcDbEntity
  8
0
100
AcDbLine
 10
41.0
 20
0.0571439999999971
 30
0.0
 11
41.3684
 21
-0.000000000000003
 31
0.0
  0
LINE
  5
25
330
1E
100
AcDbEntity
  8
0
100
AcDbLine
 10
41.0
 20
7.428569999999999
 30
0.0
 11
41.0
 21
6.857139999999999
 31
0.0
  0
LINE
  5
26
330
1E
100
AcDbEntity
  8
0
100
AcDbLine
 10
41.0
 20
7.428569999999999
 30
0.0
 11
41.0
 21
7.86286
 31
0.0
  0
LINE
  5
27
330
1E
100
AcDbEntity
  8
0
100
AcDbLine
 10
41.0
 20
7.428569999999999
 30
0.0
 11
41.2947
 21
7.428569999999999
 31
0.0
  0
LINE
  5
28
330
1E
100
AcDbEntity
  8
0
100
AcDbLine
 10
41.0
 20
6.857139999999999
 30
0.0
 11
41.0
 21
1.142859999999999
 31
0.0
  0
LINE
  5
29
330
1E
100
AcDbEntity
  8
0
100
AcDbLine
 10
41.0
 20
6.857139999999999
 30
0.0
 11
41.0
 21
7.428569999999999
 31
0.0
  0
LINE
  5
2A
330
1E
100
AcDbEntity
  8
0
100
AcDbLine
 10
41.0
 20
1.142859999999999
 30
0.0
 11
41.0
 21
0.5714319999999971
 31
0.0
  0
LINE
  5
2B
330
1E
100
AcDbEntity
  8
0
100
AcDbLine
 10
41.0
 20
1.142859999999999
 30
0.0
 11
41.0
 21
6.857139999999999
 31
0.0
  0
LINE
  5
2E
330
1E
100
AcDbEntity
  8
0
100
AcDbLine
 10
41.0
 20
1.142859999999999
 30
0.0
 11
42.1999
 21
0.5714319999999971
 31
0.0
  0
LINE
  5
2F
330
1E
100
AcDbEntity
  8
0
100
AcDbLine
 10
41.0
 20
7.86286
 30
0.0
 11
41.0
 21
7.428569999999999
 31
0.0
  0
LINE
  5
30
330
1E
100
AcDbEntity
  8
0
100
AcDbLine
 10
41.0
 20
7.86286
 30
0.0
 11
41.0
 21
7.94286
 31
0.0
  0
LINE
  5
31
330
1E
100
AcDbEntity
  8
0
100
AcDbLine
 10
41.0
 20
0.5714319999999971
 30
0.0
 11
41.0
 21
0.137143999999997
 31
0.0
  0
LINE
  5
32
330
1E
100
AcDbEntity
  8
0
100
AcDbLine
 10
41.0
 20
0.5714319999999971
 30
0.0
 11
41.0
 21
1.142859999999999
 31
0.0
  0
LINE
  5
34
330
1E
100
AcDbEntity
  8
0
100
AcDbLine
 10
41.0
 20
7.94286
 30
0.0
 11
41.0
 21
7.86286
 31
0.0
  0
LINE
  5
35
330
1E
100
AcDbEntity
  8
0
100
AcDbLine
 10
41.0
 20
7.94286
 30
0.0
 11
41.3684
 21
8.0
 31
0.0
  0
LINE
  5
3C
330
1E
100
AcDbEntity
  8
0
100
AcDbLine
 10
41.2947
 20
7.428569999999999
 30
0.0
 11
42.1999
 21
7.428569999999999
 31
0.0
  0
LINE
  5
3E
330
1E
100
AcDbEntity
  8
0
100
AcDbLine
 10
41.3684
 20
8.0
 30
0.0
 11
41.88419999999999
 21
8.0
 31
0.0
  0
LINE
  5
40
330
1E
100
AcDbEntity
  8
0
100
AcDbLine
 10
41.3684
 20
-0.000000000000003
 30
0.0
 11
41.88419999999999
 21
-0.000000000000003
 31
0.0
  0
LINE
  5
41
330
1E
100
AcDbEntity
  8
0
100
AcDbLine
 10
41.0
 20
0.137143999999997
 30
0.0
 11
41.0
 21
0.0571439999999971
 31
0.0
  0
LINE
  5
42
330
1E
100
AcDbEntity
  8
0
100
AcDbLine
 10
41.0
 20
0.137143999999997
 30
0.0
 11
41.0
 21
0.5714319999999971
 31
0.0
  0
LINE
  5
48
330
1E
100
AcDbEntity
  8
0
100
AcDbLine
 10
33.6
 20
17.648
 30
0.0
 11
33.6
 21
17.0
 31
0.0
  0
LINE
  5
49
330
1E
100
AcDbEntity
  8
0
100
AcDbLine
 10
33.6
 20
17.648
 30
0.0
 11
33.6
 21
19.37599999999999
 31
0.0
  0
LINE
  5
4A
330
1E
100
AcDbEntity
  8
0
100
AcDbLine
 10
33.0
 20
17.432
 30
0.0
 11
33.0
 21
18.07999999999999
 31
0.0
  0
LINE
  5
4B
330
1E
100
AcDbEntity
  8
0
100
AcDbLine
 10
33.0
 20
17.432
 30
0.0
 11
33.6
 21
17.0
 31
0.0
  0
LINE
  5
4C
330
1E
100
AcDbEntity
  8
0
100
AcDbLine
 10
28.0
 20
19.384
 30
0.0
 11
28.3
 21
19.0
 31
0.0
  0
LINE
  5
4D
330
1E
100
AcDbEntity
  8
0
100
AcDbLine
 10
28.0
 20
19.384
 30
0.0
 11
28.0
 21
19.96
 31
0.0
  0
LINE
  5
4E
330
1E
100
AcDbEntity
  8
0
100
AcDbLine
 10
28.3
 20
19.576
 30
0.0
 11
28.3
 21
21.11199999999999
 31
0.0
  0
LINE
  5
4F
330
1E
100
AcDbEntity
  8
0
100
AcDbLine
 10
28.3
 20
19.576
 30
0.0
 11
28.3
 21
19.0
 31
0.0
  0
LINE
  5
50
330
1E
100
AcDbEntity
  8
0
100
AcDbLine
 10
28.3
 20
19.0
 30
0.0
 11
28.3
 21
19.576
 31
0.0
  0
LINE
  5
51
330
1E
100
AcDbEntity
  8
0
100
AcDbLine
 10
28.3
 20
19.0
 30
0.0
 11
33.0
 21
19.0
 31
0.0
  0
LINE
  5
52
330
1E
100
AcDbEntity
  8
0
100
AcDbLine
 10
33.0
 20
19.576
 30
0.0
 11
33.0
 21
19.0
 31
0.0
  0
LINE
  5
53
330
1E
100
AcDbEntity
  8
0
100
AcDbLine
 10
25.18
 20
21.0
 30
0.0
 11
25.18
 21
21.504
 31
0.0
  0
LINE
  5
54
330
1E
100
AcDbEntity
  8
0
100
AcDbLine
 10
25.18
 20
21.0
 30
0.0
 11
28.0
 21
21.0
 31
0.0
  0
LINE
  5
55
330
1E
100
AcDbEntity
  8
0
100
AcDbLine
 10
25.0
 20
21.84
 30
0.0
 11
25.0
 21
23.184
 31
0.0
  0
LINE
  5
56
330
1E
100
AcDbEntity
  8
0
100
AcDbLine
 10
25.0
 20
21.84
 30
0.0
 11
25.0
 21
21.33599999999999
 31
0.0
  0
LINE
  5
57
330
1E
100
AcDbEntity
  8
0
100
AcDbLine
 10
25.0
 20
21.33599999999999
 30
0.0
 11
25.18
 21
21.0
 31
0.0
  0
LINE
  5
58
330
1E
100
AcDbEntity
  8
0
100
AcDbLine
 10
25.0
 20
21.33599999999999
 30
0.0
 11
25.0
 21
21.84
 31
0.0
  0
LINE
  5
59
330
1E
100
AcDbEntity
  8
0
100
AcDbLine
 10
25.18
 20
22.848
 30
0.0
 11
25.18
 21
25.088
 31
0.0
  0
LINE
  5
5A
330
1E
100
AcDbEntity
  8
0
100
AcDbLine
 10
25.18
 20
22.848
 30
0.0
 11
25.18
 21
21.504
 31
0.0
  0
LINE
  5
5B
330
1E
100
AcDbEntity
  8
0
100
AcDbLine
 10
25.18
 20
21.504
 30
0.0
 11
25.18
 21
22.848
 31
0.0
  0
LINE
  5
5C
330
1E
100
AcDbEntity
  8
0
100
AcDbLine
 10
25.18
 20
21.504
 30
0.0
 11
25.18
 21
21.0
 31
0.0
  0
LINE
  5
5D
330
1E
100
AcDbEntity
  8
0
100
AcDbLine
 10
23.0
 20
23.288
 30
0.0
 11
23.18
 21
23.0
 31
0.0
  0
LINE
  5
5E
330
1E
100
AcDbEntity
  8
0
100
AcDbLine
 10
23.0
 20
23.288
 30
0.0
 11
23.0
 21
23.71999999999999
 31
0.0
  0
LINE
  5
5F
330
1E
100
AcDbEntity
  8
0
100
AcDbLine
 10
23.18
 20
23.43199999999999
 30
0.0
 11
23.18
 21
24.584
 31
0.0
  0
LINE
  5
60
330
1E
100
AcDbEntity
  8
0
100
AcDbLine
 10
23.18
 20
23.43199999999999
 30
0.0
 11
23.18
 21
23.0
 31
0.0
  0
LINE
  5
61
330
1E
100
AcDbEntity
  8
0
100
AcDbLine
 10
23.18
 20
23.0
 30
0.0
 11
23.18
 21
23.43199999999999
 31
0.0
  0
LINE
  5
62
330
1E
100
AcDbEntity
  8
0
100
AcDbLine
 10
23.18
 20
23.0
 30
0.0
 11
25.0
 21
23.0
 31
0.0
  0
LINE
  5
63
330
1E
100
AcDbEntity
  8
0
100
AcDbLine
 10
25.0
 20
23.43199999999999
 30
0.0
 11
25.0
 21
23.0
 31
0.0
  0
LINE
  5
64
330
1E
100
AcDbEntity
  8
0
100
AcDbLine
 10
25.0
 20
23.184
 30
0.0
 11
25.0
 21
25.368
 31
0.0
  0
LINE
  5
65
330
1E
100
AcDbEntity
  8
0
100
AcDbLine
 10
25.0
 20
23.184
 30
0.0
 11
25.0
 21
21.84
 31
0.0
  0
LINE
  5
66
330
1E
100
AcDbEntity
  8
0
100
AcDbLine
 10
28.0
 20
22.848
 30
0.0
 11
28.0
 21
21.504
 31
0.0
  0
LINE
  5
67
330
1E
100
AcDbEntity
  8
0
100
AcDbLine
 10
28.0
 20
21.504
 30
0.0
 11
28.0
 21
21.0
 31
0.0
  0
LINE
  5
68
330
1E
100
AcDbEntity
  8
0
100
AcDbLine
 10
28.0
 20
21.0
 30
0.0
 11
28.0
 21
19.96
 31
0.0
  0
LINE
  5
69
330
1E
100
AcDbEntity
  8
0
100
AcDbLine
 10
28.0
 20
21.49599999999999
 30
0.0
 11
28.0
 21
23.99199999999999
 31
0.0
  0
LINE
  5
6A
330
1E
100
AcDbEntity
  8
0
100
AcDbLine
 10
28.0
 20
21.49599999999999
 30
0.0
 11
28.0
 21
19.96
 31
0.0
  0
LINE
  5
6B
330
1E
100
AcDbEntity
  8
0
100
AcDbLine
 10
28.0
 20
19.96
 30
0.0
 11
28.0
 21
21.49599999999999
 31
0.0
  0
LINE
  5
6C
330
1E
100
AcDbEntity
  8
0
100
AcDbLine
 10
28.0
 20
19.96
 30
0.0
 11
28.0
 21
19.384
 31
0.0
  0
LINE
  5
6D
330
1E
100
AcDbEntity
  8
0
100
AcDbLine
 10
28.0
 20
19.96
 30
0.0
 11
28.0
 21
21.0
 31
0.0
  0
LINE
  5
6E
330
1E
100
AcDbEntity
  8
0
100
AcDbLine
 10
28.3
 20
23.67199999999999
 30
0.0
 11
28.3
 21
27.064
 31
0.0
  0
LINE
  5
6F
330
1E
100
AcDbEntity
  8
0
100
AcDbLine
 10
28.3
 20
21.11199999999999
 30
0.0
 11
28.3
 21
23.67199999999999
 31
0.0
  0
LINE
  5
70
330
1E
100
AcDbEntity
  8
0
100
AcDbLine
 10
28.3
 20
21.11199999999999
 30
0.0
 11
28.3
 21
19.576
 31
0.0
  0
LINE
  5
71
330
1E
100
AcDbEntity
  8
0
100
AcDbLine
 10
23.0
 20
23.71999999999999
 30
0.0
 11
23.0
 21
24.872
 31
0.0
  0
LINE
  5
72
330
1E
100
AcDbEntity
  8
0
100
AcDbLine
 10
23.0
 20
23.71999999999999
 30
0.0
 11
23.0
 21
23.288
 31
0.0
  0
LINE
  5
73
330
1E
100
AcDbEntity
  8
0
100
AcDbLine
 10
23.18
 20
24.584
 30
0.0
 11
23.18
 21
26.504
 31
0.0
  0
LINE
  5
74
330
1E
100
AcDbEntity
  8
0
100
AcDbLine
 10
23.18
 20
24.584
 30
0.0
 11
23.18
 21
23.43199999999999
 31
0.0
  0
LINE
  5
75
330
1E
100
AcDbEntity
  8
0
100
AcDbLine
 10
16.8163
 20
25.0
 30
0.0
 11
23.0
 21
25.0
 31
0.0
  0
LINE
  5
76
330
1E
100
AcDbEntity
  8
0
100
AcDbLine
 10
23.0
 20
25.0701
 30
0.0
 11
23.0
 21
25.3825
 31
0.0
  0
LINE
  5
77
330
1E
100
AcDbEntity
  8
0
100
AcDbLine
 10
23.0
 20
25.0
 30
0.0
 11
23.0
 21
24.872
 31
0.0
  0
LINE
  5
78
330
1E
100
AcDbEntity
  8
0
100
AcDbLine
 10
23.0
 20
25.0
 30
0.0
 11
23.0
 21
25.0701
 31
0.0
  0
LINE
  5
79
330
1E
100
AcDbEntity
  8
0
100
AcDbLine
 10
23.0
 20
24.872
 30
0.0
 11
23.0
 21
23.71999999999999
 31
0.0
  0
LINE
  5
7A
330
1E
100
AcDbEntity
  8
0
100
AcDbLine
 10
23.0
 20
24.872
 30
0.0
 11
23.0
 21
25.0
 31
0.0
  0
LINE
  5
7B
330
1E
100
AcDbEntity
  8
0
100
AcDbLine
 10
25.0
 20
24.584
 30
0.0
 11
25.0
 21
23.43199999999999
 31
0.0
  0
LINE
  5
7C
330
1E
100
AcDbEntity
  8
0
100
AcDbLine
 10
25.18
 20
25.088
 30
0.0
 11
25.18
 21
28.056
 31
0.0
  0
LINE
  5
7D
330
1E
100
AcDbEntity
  8
0
100
AcDbLine
 10
25.18
 20
25.088
 30
0.0
 11
25.18
 21
22.848
 31
0.0
  0
LINE
  5
7E
330
1E
100
AcDbEntity
  8
0
100
AcDbLine
 10
16.4082
 20
25.3825
 30
0.0
 11
16.4082
 21
25.2273
 31
0.0
  0
LINE
  5
80
330
1E
100
AcDbEntity
  8
0
100
AcDbLine
 10
23.0
 20
25.3825
 30
0.0
 11
23.0
 21
26.1194
 31
0.0
  0
LINE
  5
81
330
1E
100
AcDbEntity
  8
0
100
AcDbLine
 10
16.4082
 20
25.2273
 30
0.0
 11
16.8163
 21
25.0
 31
0.0
  0
LINE
  5
82
330
1E
100
AcDbEntity
  8
0
100
AcDbLine
 10
16.4082
 20
25.2273
 30
0.0
 11
16.4082
 21
25.3825
 31
0.0
  0
LINE
  5
83
330
1E
100
AcDbEntity
  8
0
100
AcDbLine
 10
23.0
 20
26.1194
 30
0.0
 11
23.0
 21
27.3291
 31
0.0
  0
LINE
  5
84
330
1E
100
AcDbEntity
  8
0
100
AcDbLine
 10
16.1709
 20
26.1194
 30
0.0
 11
16.4082
 21
25.3825
 31
0.0
  0
LINE
  5
85
330
1E
100
AcDbEntity
  8
0
100
AcDbLine
 10
16.12239999999999
 20
25.9091
 30
0.0
 11
16.4082
 21
25.2273
 31
0.0
  0
LINE
  5
88
330
1E
100
AcDbEntity
  8
0
100
AcDbLine
 10
25.0
 20
25.368
 30
0.0
 11
25.0
 21
28.224
 31
0.0
  0
LINE
  5
89
330
1E
100
AcDbEntity
  8
0
100
AcDbLine
 10
25.0
 20
25.368
 30
0.0
 11
25.0
 21
23.184
 31
0.0
  0
LINE
  5
8A
330
1E
100
AcDbEntity
  8
0
100
AcDbLine
 10
28.0
 20
25.088
 30
0.0
 11
28.0
 21
22.848
 31
0.0
  0
LINE
  5
8B
330
1E
100
AcDbEntity
  8
0
100
AcDbLine
 10
28.0
 20
23.99199999999999
 30
0.0
 11
28.0
 21
27.256
 31
0.0
  0
LINE
  5
8C
330
1E
100
AcDbEntity
  8
0
100
AcDbLine
 10
28.0
 20
23.99199999999999
 30
0.0
 11
28.0
 21
21.49599999999999
 31
0.0
  0
LINE
  5
8D
330
1E
100
AcDbEntity
  8
0
100
AcDbLine
 10
33.0
 20
23.67199999999999
 30
0.0
 11
33.0
 21
21.11199999999999
 31
0.0
  0
LINE
  5
8E
330
1E
100
AcDbEntity
  8
0
100
AcDbLine
 10
33.0
 20
21.11199999999999
 30
0.0
 11
33.0
 21
19.576
 31
0.0
  0
LINE
  5
8F
330
1E
100
AcDbEntity
  8
0
100
AcDbLine
 10
33.0
 20
19.808
 30
0.0
 11
33.0
 21
18.07999999999999
 31
0.0
  0
LINE
  5
90
330
1E
100
AcDbEntity
  8
0
100
AcDbLine
 10
33.0
 20
19.808
 30
0.0
 11
33.0
 21
22.616
 31
0.0
  0
LINE
  5
91
330
1E
100
AcDbEntity
  8
0
100
AcDbLine
 10
33.0
 20
22.616
 30
0.0
 11
33.0
 21
19.808
 31
0.0
  0
LINE
  5
92
330
1E
100
AcDbEntity
  8
0
100
AcDbLine
 10
33.0
 20
22.616
 30
0.0
 11
33.0
 21
26.288
 31
0.0
  0
LINE
  5
93
330
1E
100
AcDbEntity
  8
0
100
AcDbLine
 10
16.0
 20
26.5909
 30
0.0
 11
16.12239999999999
 21
25.9091
 31
0.0
  0
LINE
  5
94
330
1E
100
AcDbEntity
  8
0
100
AcDbLine
 10
16.0
 20
26.5909
 30
0.0
 11
16.0
 21
26.9091
 31
0.0
  0
LINE
  5
95
330
1E
100
AcDbEntity
  8
0
100
AcDbLine
 10
16.0
 20
26.9091
 30
0.0
 11
16.0
 21
26.5909
 31
0.0
  0
LINE
  5
96
330
1E
100
AcDbEntity
  8
0
100
AcDbLine
 10
16.0
 20
26.9091
 30
0.0
 11
16.0
 21
27.7273
 31
0.0
  0
LINE
  5
99
330
1E
100
AcDbEntity
  8
0
100
AcDbLine
 10
23.0
 20
26.744
 30
0.0
 11
23.0
 21
29.192
 31
0.0
  0
LINE
  5
9A
330
1E
100
AcDbEntity
  8
0
100
AcDbLine
 10
23.18
 20
26.504
 30
0.0
 11
23.18
 21
29.048
 31
0.0
  0
LINE
  5
9B
330
1E
100
AcDbEntity
  8
0
100
AcDbLine
 10
25.0
 20
26.504
 30
0.0
 11
25.0
 21
24.584
 31
0.0
  0
LINE
  5
9C
330
1E
100
AcDbEntity
  8
0
100
AcDbLine
 10
16.0
 20
27.7273
 30
0.0
 11
16.0
 21
26.9091
 31
0.0
  0
LINE
  5
9D
330
1E
100
AcDbEntity
  8
0
100
AcDbLine
 10
16.0
 20
27.7273
 30
0.0
 11
16.0
 21
29.0455
 31
0.0
  0
LINE
  5
9E
330
1E
100
AcDbEntity
  8
0
100
AcDbLine
 10
23.0
 20
27.3291
 30
0.0
 11
23.0
 21
28.5455
 31
0.0
  0
LINE
  5
9F
330
1E
100
AcDbEntity
  8
0
100
AcDbLine
 10
16.08249999999999
 20
27.3291
 30
0.0
 11
16.1484
 21
28.5455
 31
0.0
  0
LINE
  5
A0
330
1E
100
AcDbEntity
  8
0
100
AcDbLine
 10
16.08249999999999
 20
27.3291
 30
0.0
 11
16.1709
 21
26.1194
 31
0.0
  0
LINE
  5
A1
330
1E
100
AcDbEntity
  8
0
100
AcDbLine
 10
16.0
 20
27.6833
 30
0.0
 11
16.0
 21
27.93449999999999
 31
0.0
  0
LINE
  5
A2
330
1E
100
AcDbEntity
  8
0
100
AcDbLine
 10
16.0
 20
27.93449999999999
 30
0.0
 11
16.0
 21
27.6833
 31
0.0
  0
LINE
  5
A3
330
1E
100
AcDbEntity
  8
0
100
AcDbLine
 10
16.0
 20
27.93449999999999
 30
0.0
 11
16.0
 21
28.6492
 31
0.0
  0
LINE
  5
A4
330
1E
100
AcDbEntity
  8
0
100
AcDbLine
 10
16.0
 20
27.93449999999999
 30
0.0
 11
16.0
 21
28.6685
 31
0.0
  0
LINE
  5
A5
330
1E
100
AcDbEntity
  8
0
100
AcDbLine
 10
25.18
 20
28.056
 30
0.0
 11
25.18
 21
31.416
 31
0.0
  0
LINE
  5
A6
330
1E
100
AcDbEntity
  8
0
100
AcDbLine
 10
25.18
 20
28.056
 30
0.0
 11
25.18
 21
25.088
 31
0.0
  0
LINE
  5
A7
330
1E
100
AcDbEntity
  8
0
100
AcDbLine
 10
23.0
 20
28.5455
 30
0.0
 11
23.0
 21
29.3973
 31
0.0
  0
LINE
  5
A8
330
1E
100
AcDbEntity
  8
0
100
AcDbLine
 10
16.1484
 20
28.5455
 30
0.0
 11
16.4082
 21
29.3973
 31
0.0
  0
LINE
  5
A9
330
1E
100
AcDbEntity
  8
0
100
AcDbLine
 10
16.0
 20
28.6685
 30
0.0
 11
16.0
 21
27.93449999999999
 31
0.0
  0
LINE
  5
AA
330
1E
100
AcDbEntity
  8
0
100
AcDbLine
 10
16.0
 20
28.6685
 30
0.0
 11
16.0
 21
29.9049
 31
0.0
  0
LINE
  5
AB
330
1E
100
AcDbEntity
  8
0
100
AcDbLine
 10
16.0
 20
29.0455
 30
0.0
 11
16.0
 21
30.8182
 31
0.0
  0
LINE
  5
AC
330
1E
100
AcDbEntity
  8
0
100
AcDbLine
 10
16.0
 20
29.0455
 30
0.0
 11
16.0
 21
27.7273
 31
0.0
  0
LINE
  5
AD
330
1E
100
AcDbEntity
  8
0
100
AcDbLine
 10
16.0
 20
28.6492
 30
0.0
 11
16.0
 21
29.8855
 31
0.0
  0
LINE
  5
AE
330
1E
100
AcDbEntity
  8
0
100
AcDbLine
 10
16.0
 20
28.6492
 30
0.0
 11
16.0
 21
27.93449999999999
 31
0.0
  0
LINE
  5
AF
330
1E
100
AcDbEntity
  8
0
100
AcDbLine
 10
23.18
 20
29.048
 30
0.0
 11
23.18
 21
31.928
 31
0.0
  0
LINE
  5
B0
330
1E
100
AcDbEntity
  8
0
100
AcDbLine
 10
23.18
 20
29.048
 30
0.0
 11
23.18
 21
26.504
 31
0.0
  0
LINE
  5
B1
330
1E
100
AcDbEntity
  8
0
100
AcDbLine
 10
10.36
 20
30.0
 30
0.0
 11
16.0
 21
30.0
 31
0.0
  0
LINE
  5
B2
330
1E
100
AcDbEntity
  8
0
100
AcDbLine
 10
16.0
 20
29.9049
 30
0.0
 11
16.0
 21
28.6685
 31
0.0
  0
LINE
  5
B3
330
1E
100
AcDbEntity
  8
0
100
AcDbLine
 10
16.0
 20
29.9049
 30
0.0
 11
16.0
 21
31.5662
 31
0.0
  0
LINE
  5
B4
330
1E
100
AcDbEntity
  8
0
100
AcDbLine
 10
23.0
 20
29.3973
 30
0.0
 11
23.0
 21
29.7034
 31
0.0
  0
LINE
  5
B5
330
1E
100
AcDbEntity
  8
0
100
AcDbLine
 10
23.0
 20
29.7034
 30
0.0
 11
23.0
 21
29.9874
 31
0.0
  0
LINE
  5
B7
330
1E
100
AcDbEntity
  8
0
100
AcDbLine
 10
23.0
 20
29.9874
 30
0.0
 11
23.0
 21
30.5866
 31
0.0
  0
LINE
  5
B9
330
1E
100
AcDbEntity
  8
0
100
AcDbLine
 10
16.4082
 20
29.3973
 30
0.0
 11
16.4082
 21
30.1364
 31
0.0
  0
LINE
  5
BA
330
1E
100
AcDbEntity
  8
0
100
AcDbLine
 10
16.0
 20
29.8855
 30
0.0
 11
16.0
 21
30.0
 31
0.0
  0
LINE
  5
BB
330
1E
100
AcDbEntity
  8
0
100
AcDbLine
 10
16.0
 20
29.8855
 30
0.0
 11
16.0
 21
28.6492
 31
0.0
  0
LINE
  5
BC
330
1E
100
AcDbEntity
  8
0
100
AcDbLine
 10
10.0
 20
30.12
 30
0.0
 11
10.0
 21
30.3
 31
0.0
  0
LINE
  5
BD
330
1E
100
AcDbEntity
  8
0
100
AcDbLine
 10
10.0
 20
30.12
 30
0.0
 11
10.36
 21
30.0
 31
0.0
  0
LINE
  5
BE
330
1E
100
AcDbEntity
  8
0
100
AcDbLine
 10
10.0
 20
30.78
 30
0.0
 11
10.0
 21
31.56
 31
0.0
  0
LINE
  5
BF
330
1E
100
AcDbEntity
  8
0
100
AcDbLine
 10
10.0
 20
30.78
 30
0.0
 11
10.0
 21
30.3
 31
0.0
  0
LINE
  5
C0
330
1E
100
AcDbEntity
  8
0
100
AcDbLine
 10
10.0
 20
30.78
 30
0.0
 11
10.0
 21
31.0
 31
0.0
  0
LINE
  5
C1
330
1E
100
AcDbEntity
  8
0
100
AcDbLine
 10
10.0
 20
30.3
 30
0.0
 11
10.0
 21
30.78
 31
0.0
  0
LINE
  5
C2
330
1E
100
AcDbEntity
  8
0
100
AcDbLine
 10
10.0
 20
30.3
 30
0.0
 11
10.0
 21
30.12
 31
0.0
  0
LINE
  5
C3
330
1E
100
AcDbEntity
  8
0
100
AcDbLine
 10
16.0
 20
30.66
 30
0.0
 11
16.0
 21
30.18
 31
0.0
  0
LINE
  5
C4
330
1E
100
AcDbEntity
  8
0
100
AcDbLine
 10
16.0
 20
30.18
 30
0.0
 11
16.0
 21
30.0
 31
0.0
  0
LINE
  5
C6
330
1E
100
AcDbEntity
  8
0
100
AcDbLine
 10
16.4082
 20
30.5866
 30
0.0
 11
16.4082
 21
30.1364
 31
0.0
  0
LINE
  5
C7
330
1E
100
AcDbEntity
  8
0
100
AcDbLine
 10
23.0
 20
30.5866
 30
0.0
 11
23.0
 21
32.7091
 31
0.0
  0
LINE
  5
CA
330
1E
100
AcDbEntity
  8
0
100
AcDbLine
 10
16.4082
 20
30.1364
 30
0.0
 11
16.4082
 21
30.5866
 31
0.0
  0
LINE
  5
CB
330
1E
100
AcDbEntity
  8
0
100
AcDbLine
 10
16.4082
 20
30.1364
 30
0.0
 11
16.4082
 21
29.3973
 31
0.0
  0
LINE
  5
CC
330
1E
100
AcDbEntity
  8
0
100
AcDbLine
 10
16.0
 20
30.8182
 30
0.0
 11
16.0
 21
29.0455
 31
0.0
  0
LINE
  5
CD
330
1E
100
AcDbEntity
  8
0
100
AcDbLine
 10
16.0
 20
30.8182
 30
0.0
 11
16.0
 21
32.81819999999999
 31
0.0
  0
LINE
  5
CE
330
1E
100
AcDbEntity
  8
0
100
AcDbLine
 10
16.0
 20
30.0
 30
0.0
 11
16.0
 21
29.8855
 31
0.0
  0
LINE
  5
CF
330
1E
100
AcDbEntity
  8
0
100
AcDbLine
 10
23.0
 20
29.192
 30
0.0
 11
23.0
 21
26.744
 31
0.0
  0
LINE
  5
D0
330
1E
100
AcDbEntity
  8
0
100
AcDbLine
 10
25.0
 20
29.048
 30
0.0
 11
25.0
 21
26.504
 31
0.0
  0
LINE
  5
D1
330
1E
100
AcDbEntity
  8
0
100
AcDbLine
 10
25.0
 20
28.224
 30
0.0
 11
25.0
 21
31.47199999999999
 31
0.0
  0
LINE
  5
D2
330
1E
100
AcDbEntity
  8
0
100
AcDbLine
 10
25.0
 20
28.224
 30
0.0
 11
25.0
 21
25.368
 31
0.0
  0
LINE
  5
D3
330
1E
100
AcDbEntity
  8
0
100
AcDbLine
 10
28.0
 20
28.056
 30
0.0
 11
28.0
 21
25.088
 31
0.0
  0
LINE
  5
D4
330
1E
100
AcDbEntity
  8
0
100
AcDbLine
 10
28.0
 20
27.256
 30
0.0
 11
28.0
 21
30.968
 31
0.0
  0
LINE
  5
D5
330
1E
100
AcDbEntity
  8
0
100
AcDbLine
 10
28.0
 20
27.256
 30
0.0
 11
28.0
 21
23.99199999999999
 31
0.0
  0
LINE
  5
D6
330
1E
100
AcDbEntity
  8
0
100
AcDbLine
 10
0.6000000000000022
 20
31.0
 30
0.0
 11
10.0
 21
31.0
 31
0.0
  0
LINE
  5
D7
330
1E
100
AcDbEntity
  8
0
100
AcDbLine
 10
0.6000000000000022
 20
31.0
 30
0.0
 11
10.0
 21
31.0
 31
0.0
  0
LINE
  5
D8
330
1E
100
AcDbEntity
  8
0
100
AcDbLine
 10
0.0000000000000014
 20
31.096
 30
0.0
 11
0.6000000000000022
 21
31.0
 31
0.0
  0
LINE
  5
D9
330
1E
100
AcDbEntity
  8
0
100
AcDbLine
 10
0.0000000000000015
 20
31.24
 30
0.0
 11
0.0000000000000015
 21
31.624
 31
0.0
  0
LINE
  5
DA
330
1E
100
AcDbEntity
  8
0
100
AcDbLine
 10
0.0000000000000015
 20
31.096
 30
0.0
 11
0.0000000000000015
 21
31.24
 31
0.0
  0
LINE
  5
DB
330
1E
100
AcDbEntity
  8
0
100
AcDbLine
 10
0.0000000000000015
 20
31.096
 30
0.0
 11
0.6000000000000022
 21
31.0
 31
0.0
  0
LINE
  5
DC
330
1E
100
AcDbEntity
  8
0
100
AcDbLine
 10
10.0
 20
31.144
 30
0.0
 11
10.0
 21
31.0
 31
0.0
  0
LINE
  5
DD
330
1E
100
AcDbEntity
  8
0
100
AcDbLine
 10
10.0
 20
31.0
 30
0.0
 11
10.0
 21
30.78
 31
0.0
  0
LINE
  5
DE
330
1E
100
AcDbEntity
  8
0
100
AcDbLine
 10
25.18
 20
31.416
 30
0.0
 11
25.18
 21
35.0
 31
0.0
  0
LINE
  5
DF
330
1E
100
AcDbEntity
  8
0
100
AcDbLine
 10
25.18
 20
31.416
 30
0.0
 11
25.18
 21
28.056
 31
0.0
  0
LINE
  5
E0
330
1E
100
AcDbEntity
  8
0
100
AcDbLine
 10
10.0
 20
31.528
 30
0.0
 11
10.0
 21
31.144
 31
0.0
  0
LINE
  5
E1
330
1E
100
AcDbEntity
  8
0
100
AcDbLine
 10
10.0
 20
31.56
 30
0.0
 11
10.0
 21
32.58
 31
0.0
  0
LINE
  5
E2
330
1E
100
AcDbEntity
  8
0
100
AcDbLine
 10
10.0
 20
31.56
 30
0.0
 11
10.0
 21
30.78
 31
0.0
  0
LINE
  5
E3
330
1E
100
AcDbEntity
  8
0
100
AcDbLine
 10
16.0
 20
31.46
 30
0.0
 11
16.0
 21
30.66
 31
0.0
  0
LINE
  5
E4
330
1E
100
AcDbEntity
  8
0
100
AcDbLine
 10
0.0000000000000015
 20
31.624
 30
0.0
 11
0.0000000000000016
 21
32.248
 31
0.0
  0
LINE
  5
E5
330
1E
100
AcDbEntity
  8
0
100
AcDbLine
 10
16.0
 20
31.5662
 30
0.0
 11
16.0
 21
29.9049
 31
0.0
  0
LINE
  5
E6
330
1E
100
AcDbEntity
  8
0
100
AcDbLine
 10
16.0
 20
31.5662
 30
0.0
 11
16.0
 21
33.1888
 31
0.0
  0
LINE
  5
E7
330
1E
100
AcDbEntity
  8
0
100
AcDbLine
 10
23.18
 20
31.928
 30
0.0
 11
23.18
 21
35.0
 31
0.0
  0
LINE
  5
E8
330
1E
100
AcDbEntity
  8
0
100
AcDbLine
 10
23.18
 20
31.928
 30
0.0
 11
23.18
 21
29.048
 31
0.0
  0
LINE
  5
E9
330
1E
100
AcDbEntity
  8
0
100
AcDbLine
 10
0.0000000000000016
 20
32.248
 30
0.0
 11
0.0000000000000016
 21
33.064
 31
0.0
  0
LINE
  5
EA
330
1E
100
AcDbEntity
  8
0
100
AcDbLine
 10
10.0
 20
32.168
 30
0.0
 11
10.0
 21
31.528
 31
0.0
  0
LINE
  5
EB
330
1E
100
AcDbEntity
  8
0
100
AcDbLine
 10
0.0000000000000016
 20
33.064
 30
0.0
 11
0.0000000000000017
 21
33.99199999999999
 31
0.0
  0
LINE
  5
EC
330
1E
100
AcDbEntity
  8
0
100
AcDbLine
 10
10.0
 20
33.016
 30
0.0
 11
10.0
 21
32.168
 31
0.0
  0
LINE
  5
ED
330
1E
100
AcDbEntity
  8
0
100
AcDbLine
 10
10.0
 20
32.58
 30
0.0
 11
10.0
 21
33.74
 31
0.0
  0
LINE
  5
EE
330
1E
100
AcDbEntity
  8
0
100
AcDbLine
 10
10.0
 20
32.58
 30
0.0
 11
10.0
 21
31.56
 31
0.0
  0
LINE
  5
EF
330
1E
100
AcDbEntity
  8
0
100
AcDbLine
 10
16.0
 20
32.52
 30
0.0
 11
16.0
 21
31.46
 31
0.0
  0
LINE
  5
F0
330
1E
100
AcDbEntity
  8
0
100
AcDbLine
 10
0.0000000000000017
 20
33.99199999999999
 30
0.0
 11
0.0000000000000017
 21
35.0
 31
0.0
  0
LINE
  5
F1
330
1E
100
AcDbEntity
  8
0
100
AcDbLine
 10
10.0
 20
33.976
 30
0.0
 11
10.0
 21
33.016
 31
0.0
  0
LINE
  5
F2
330
1E
100
AcDbEntity
  8
0
100
AcDbLine
 10
10.0
 20
33.74
 30
0.0
 11
10.0
 21
35.0
 31
0.0
  0
LINE
  5
F3
330
1E
100
AcDbEntity
  8
0
100
AcDbLine
 10
10.0
 20
33.74
 30
0.0
 11
10.0
 21
32.58
 31
0.0
  0
LINE
  5
F4
330
1E
100
AcDbEntity
  8
0
100
AcDbLine
 10
16.0
 20
33.71999999999999
 30
0.0
 11
16.0
 21
32.52
 31
0.0
  0
LINE
  5
F5
330
1E
100
AcDbEntity
  8
0
100
AcDbLine
 10
16.0
 20
33.1888
 30
0.0
 11
16.0
 21
31.5662
 31
0.0
  0
LINE
  5
F6
330
1E
100
AcDbEntity
  8
0
100
AcDbLine
 10
16.0
 20
33.1888
 30
0.0
 11
16.0
 21
34.92739999999999
 31
0.0
  0
LINE
  5
F7
330
1E
100
AcDbEntity
  8
0
100
AcDbLine
 10
16.0
 20
32.81819999999999
 30
0.0
 11
16.0
 21
35.0
 31
0.0
  0
LINE
  5
F8
330
1E
100
AcDbEntity
  8
0
100
AcDbLine
 10
16.0
 20
32.81819999999999
 30
0.0
 11
16.0
 21
30.8182
 31
0.0
  0
LINE
  5
F9
330
1E
100
AcDbEntity
  8
0
100
AcDbLine
 10
16.0
 20
34.92739999999999
 30
0.0
 11
16.0
 21
33.1888
 31
0.0
  0
LINE
  5
FA
330
1E
100
AcDbEntity
  8
0
100
AcDbLine
 10
16.0
 20
34.92739999999999
 30
0.0
 11
16.0
 21
36.6081
 31
0.0
  0
LINE
  5
FB
330
1E
100
AcDbEntity
  8
0
100
AcDbLine
 10
23.0
 20
32.7091
 30
0.0
 11
23.0
 21
35.0
 31
0.0
  0
LINE
  5
FC
330
1E
100
AcDbEntity
  8
0
100
AcDbLine
 10
16.09799999999999
 20
32.7091
 30
0.0
 11
16.4082
 21
30.5866
 31
0.0
  0
LINE
  5
FD
330
1E
100
AcDbEntity
  8
0
100
AcDbLine
 10
25.0
 20
35.0
 30
0.0
 11
25.0
 21
29.048
 31
0.0
  0
LINE
  5
FE
330
1E
100
AcDbEntity
  8
0
100
AcDbLine
 10
25.0
 20
31.47199999999999
 30
0.0
 11
25.0
 21
28.224
 31
0.0
  0
LINE
  5
FF
330
1E
100
AcDbEntity
  8
0
100
AcDbLine
 10
28.0
 20
31.416
 30
0.0
 11
28.0
 21
28.056
 31
0.0
  0
LINE
  5
100
330
1E
100
AcDbEntity
  8
0
100
AcDbLine
 10
28.0
 20
35.0
 30
0.0
 11
28.0
 21
30.968
 31
0.0
  0
LINE
  5
101
330
1E
100
AcDbEntity
  8
0
100
AcDbLine
 10
28.0
 20
35.0
 30
0.0
 11
28.0
 21
39.032
 31
0.0
  0
LINE
  5
102
330
1E
100
AcDbEntity
  8
0
100
AcDbLine
 10
28.0
 20
35.0
 30
0.0
 11
28.0
 21
31.416
 31
0.0
  0
LINE
  5
103
330
1E
100
AcDbEntity
  8
0
100
AcDbLine
 10
28.0
 20
30.968
 30
0.0
 11
28.0
 21
35.0
 31
0.0
  0
LINE
  5
104
330
1E
100
AcDbEntity
  8
0
100
AcDbLine
 10
28.0
 20
30.968
 30
0.0
 11
28.0
 21
27.256
 31
0.0
  0
LINE
  5
105
330
1E
100
AcDbEntity
  8
0
100
AcDbLine
 10
28.3
 20
35.0
 30
0.0
 11
28.3
 21
30.904
 31
0.0
  0
LINE
  5
106
330
1E
100
AcDbEntity
  8
0
100
AcDbLine
 10
28.3
 20
35.0
 30
0.0
 11
28.3
 21
39.09599999999999
 31
0.0
  0
LINE
  5
107
330
1E
100
AcDbEntity
  8
0
100
AcDbLine
 10
28.3
 20
30.904
 30
0.0
 11
28.3
 21
35.0
 31
0.0
  0
LINE
  5
108
330
1E
100
AcDbEntity
  8
0
100
AcDbLine
 10
28.3
 20
30.904
 30
0.0
 11
28.3
 21
27.064
 31
0.0
  0
LINE
  5
109
330
1E
100
AcDbEntity
  8
0
100
AcDbLine
 10
33.0
 20
30.904
 30
0.0
 11
33.0
 21
27.064
 31
0.0
  0
LINE
  5
10A
330
1E
100
AcDbEntity
  8
0
100
AcDbLine
 10
28.3
 20
27.064
 30
0.0
 11
28.3
 21
30.904
 31
0.0
  0
LINE
  5
10B
330
1E
100
AcDbEntity
  8
0
100
AcDbLine
 10
28.3
 20
27.064
 30
0.0
 11
28.3
 21
23.67199999999999
 31
0.0
  0
LINE
  5
10C
330
1E
100
AcDbEntity
  8
0
100
AcDbLine
 10
33.0
 20
27.064
 30
0.0
 11
33.0
 21
23.67199999999999
 31
0.0
  0
LINE
  5
10D
330
1E
100
AcDbEntity
  8
0
100
AcDbLine
 10
33.0
 20
26.288
 30
0.0
 11
33.0
 21
22.616
 31
0.0
  0
LINE
  5
10E
330
1E
100
AcDbEntity
  8
0
100
AcDbLine
 10
33.0
 20
26.288
 30
0.0
 11
33.0
 21
30.464
 31
0.0
  0
LINE
  5
10F
330
1E
100
AcDbEntity
  8
0
100
AcDbLine
 10
33.0
 20
30.464
 30
0.0
 11
33.0
 21
26.288
 31
0.0
  0
LINE
  5
110
330
1E
100
AcDbEntity
  8
0
100
AcDbLine
 10
33.0
 20
30.464
 30
0.0
 11
33.0
 21
35.0
 31
0.0
  0
LINE
  5
111
330
1E
100
AcDbEntity
  8
0
100
AcDbLine
 10
0.0000000000000017
 20
35.0
 30
0.0
 11
0.0000000000000018
 21
36.008
 31
0.0
  0
LINE
  5
112
330
1E
100
AcDbEntity
  8
0
100
AcDbLine
 10
10.0
 20
35.0
 30
0.0
 11
10.0
 21
33.74
 31
0.0
  0
LINE
  5
113
330
1E
100
AcDbEntity
  8
0
100
AcDbLine
 10
10.0
 20
35.0
 30
0.0
 11
10.0
 21
36.25999999999999
 31
0.0
  0
LINE
  5
114
330
1E
100
AcDbEntity
  8
0
100
AcDbLine
 10
10.0
 20
35.0
 30
0.0
 11
10.0
 21
33.976
 31
0.0
  0
LINE
  5
115
330
1E
100
AcDbEntity
  8
0
100
AcDbLine
 10
16.0
 20
35.0
 30
0.0
 11
16.0
 21
32.81819999999999
 31
0.0
  0
LINE
  5
116
330
1E
100
AcDbEntity
  8
0
100
AcDbLine
 10
16.0
 20
35.0
 30
0.0
 11
16.0
 21
37.1818
 31
0.0
  0
LINE
  5
117
330
1E
100
AcDbEntity
  8
0
100
AcDbLine
 10
16.0
 20
35.0
 30
0.0
 11
16.0
 21
33.71999999999999
 31
0.0
  0
LINE
  5
118
330
1E
100
AcDbEntity
  8
0
100
AcDbLine
 10
23.0
 20
35.0
 30
0.0
 11
23.0
 21
37.2909
 31
0.0
  0
LINE
  5
119
330
1E
100
AcDbEntity
  8
0
100
AcDbLine
 10
16.0408
 20
35.0
 30
0.0
 11
16.09799999999999
 21
32.7091
 31
0.0
  0
LINE
  5
11A
330
1E
100
AcDbEntity
  8
0
100
AcDbLine
 10
16.0408
 20
35.0
 30
0.0
 11
16.09799999999999
 21
37.2909
 31
0.0
  0
LINE
  5
11B
330
1E
100
AcDbEntity
  8
0
100
AcDbLine
 10
23.18
 20
35.0
 30
0.0
 11
23.18
 21
31.928
 31
0.0
  0
LINE
  5
11C
330
1E
100
AcDbEntity
  8
0
100
AcDbLine
 10
23.18
 20
35.0
 30
0.0
 11
23.18
 21
38.07199999999999
 31
0.0
  0
LINE
  5
11D
330
1E
100
AcDbEntity
  8
0
100
AcDbLine
 10
0.0000000000000018
 20
36.008
 30
0.0
 11
0.0000000000000018
 21
36.93599999999999
 31
0.0
  0
LINE
  5
11E
330
1E
100
AcDbEntity
  8
0
100
AcDbLine
 10
10.0
 20
36.024
 30
0.0
 11
10.0
 21
35.0
 31
0.0
  0
LINE
  5
11F
330
1E
100
AcDbEntity
  8
0
100
AcDbLine
 10
10.0
 20
36.25999999999999
 30
0.0
 11
10.0
 21
37.42
 31
0.0
  0
LINE
  5
120
330
1E
100
AcDbEntity
  8
0
100
AcDbLine
 10
10.0
 20
36.25999999999999
 30
0.0
 11
10.0
 21
35.0
 31
0.0
  0
LINE
  5
121
330
1E
100
AcDbEntity
  8
0
100
AcDbLine
 10
16.0
 20
36.28
 30
0.0
 11
16.0
 21
35.0
 31
0.0
  0
LINE
  5
122
330
1E
100
AcDbEntity
  8
0
100
AcDbLine
 10
0.0000000000000018
 20
36.93599999999999
 30
0.0
 11
0.0000000000000019
 21
37.75199999999999
 31
0.0
  0
LINE
  5
123
330
1E
100
AcDbEntity
  8
0
100
AcDbLine
 10
10.0
 20
36.984
 30
0.0
 11
10.0
 21
36.024
 31
0.0
  0
LINE
  5
124
330
1E
100
AcDbEntity
  8
0
100
AcDbLine
 10
0.0000000000000019
 20
37.75199999999999
 30
0.0
 11
0.0000000000000019
 21
38.376
 31
0.0
  0
LINE
  5
125
330
1E
100
AcDbEntity
  8
0
100
AcDbLine
 10
10.0
 20
37.832
 30
0.0
 11
10.0
 21
36.984
 31
0.0
  0
LINE
  5
126
330
1E
100
AcDbEntity
  8
0
100
AcDbLine
 10
10.0
 20
37.42
 30
0.0
 11
10.0
 21
38.43999999999999
 31
0.0
  0
LINE
  5
127
330
1E
100
AcDbEntity
  8
0
100
AcDbLine
 10
10.0
 20
37.42
 30
0.0
 11
10.0
 21
36.25999999999999
 31
0.0
  0
LINE
  5
128
330
1E
100
AcDbEntity
  8
0
100
AcDbLine
 10
16.0
 20
37.47999999999999
 30
0.0
 11
16.0
 21
36.28
 31
0.0
  0
LINE
  5
129
330
1E
100
AcDbEntity
  8
0
100
AcDbLine
 10
16.0
 20
36.6081
 30
0.0
 11
16.0
 21
34.92739999999999
 31
0.0
  0
LINE
  5
12A
330
1E
100
AcDbEntity
  8
0
100
AcDbLine
 10
16.0
 20
36.6081
 30
0.0
 11
16.0
 21
38.23069999999999
 31
0.0
  0
LINE
  5
12B
330
1E
100
AcDbEntity
  8
0
100
AcDbLine
 10
23.0
 20
37.2909
 30
0.0
 11
23.0
 21
39.4134
 31
0.0
  0
LINE
  5
12C
330
1E
100
AcDbEntity
  8
0
100
AcDbLine
 10
16.09799999999999
 20
37.2909
 30
0.0
 11
16.4082
 21
39.4134
 31
0.0
  0
LINE
  5
12D
330
1E
100
AcDbEntity
  8
0
100
AcDbLine
 10
16.0
 20
37.1818
 30
0.0
 11
16.0
 21
39.1818
 31
0.0
  0
LINE
  5
12E
330
1E
100
AcDbEntity
  8
0
100
AcDbLine
 10
16.0
 20
37.1818
 30
0.0
 11
16.0
 21
35.0
 31
0.0
  0
LINE
  5
12F
330
1E
100
AcDbEntity
  8
0
100
AcDbLine
 10
23.0
 20
38.024
 30
0.0
 11
23.0
 21
40.80799999999999
 31
0.0
  0
LINE
  5
130
330
1E
100
AcDbEntity
  8
0
100
AcDbLine
 10
25.0
 20
38.07199999999999
 30
0.0
 11
25.0
 21
35.0
 31
0.0
  0
LINE
  5
131
330
1E
100
AcDbEntity
  8
0
100
AcDbLine
 10
0.0000000000000019
 20
38.376
 30
0.0
 11
0.000000000000002
 21
38.75999999999999
 31
0.0
  0
LINE
  5
132
330
1E
100
AcDbEntity
  8
0
100
AcDbLine
 10
10.0
 20
38.472
 30
0.0
 11
10.0
 21
37.832
 31
0.0
  0
LINE
  5
133
330
1E
100
AcDbEntity
  8
0
100
AcDbLine
 10
10.0
 20
38.43999999999999
 30
0.0
 11
10.0
 21
39.22
 31
0.0
  0
LINE
  5
134
330
1E
100
AcDbEntity
  8
0
100
AcDbLine
 10
10.0
 20
38.43999999999999
 30
0.0
 11
10.0
 21
37.42
 31
0.0
  0
LINE
  5
135
330
1E
100
AcDbEntity
  8
0
100
AcDbLine
 10
0.0000000000000019
 20
38.904
 30
0.0
 11
0.6000000000000022
 21
39.0
 31
0.0
  0
LINE
  5
136
330
1E
100
AcDbEntity
  8
0
100
AcDbLine
 10
0.000000000000002
 20
38.75999999999999
 30
0.0
 11
0.000000000000002
 21
38.904
 31
0.0
  0
LINE
  5
137
330
1E
100
AcDbEntity
  8
0
100
AcDbLine
 10
0.6000000000000022
 20
39.0
 30
0.0
 11
10.0
 21
39.0
 31
0.0
  0
LINE
  5
138
330
1E
100
AcDbEntity
  8
0
100
AcDbLine
 10
0.000000000000002
 20
38.904
 30
0.0
 11
0.6000000000000022
 21
39.0
 31
0.0
  0
LINE
  5
139
330
1E
100
AcDbEntity
  8
0
100
AcDbLine
 10
10.0
 20
38.856
 30
0.0
 11
10.0
 21
38.472
 31
0.0
  0
LINE
  5
13A
330
1E
100
AcDbEntity
  8
0
100
AcDbLine
 10
0.6000000000000022
 20
39.0
 30
0.0
 11
10.0
 21
39.0
 31
0.0
  0
LINE
  5
13B
330
1E
100
AcDbEntity
  8
0
100
AcDbLine
 10
10.0
 20
39.0
 30
0.0
 11
10.0
 21
39.22
 31
0.0
  0
LINE
  5
13C
330
1E
100
AcDbEntity
  8
0
100
AcDbLine
 10
10.0
 20
39.0
 30
0.0
 11
10.0
 21
38.856
 31
0.0
  0
LINE
  5
13D
330
1E
100
AcDbEntity
  8
0
100
AcDbLine
 10
16.0
 20
38.54
 30
0.0
 11
16.0
 21
37.47999999999999
 31
0.0
  0
LINE
  5
13E
330
1E
100
AcDbEntity
  8
0
100
AcDbLine
 10
16.0
 20
38.23069999999999
 30
0.0
 11
16.0
 21
36.6081
 31
0.0
  0
LINE
  5
13F
330
1E
100
AcDbEntity
  8
0
100
AcDbLine
 10
16.0
 20
38.23069999999999
 30
0.0
 11
16.0
 21
39.8727
 31
0.0
  0
LINE
  5
140
330
1E
100
AcDbEntity
  8
0
100
AcDbLine
 10
23.18
 20
38.07199999999999
 30
0.0
 11
23.18
 21
40.952
 31
0.0
  0
LINE
  5
141
330
1E
100
AcDbEntity
  8
0
100
AcDbLine
 10
23.18
 20
38.07199999999999
 30
0.0
 11
23.18
 21
35.0
 31
0.0
  0
LINE
  5
142
330
1E
100
AcDbEntity
  8
0
100
AcDbLine
 10
28.0
 20
38.584
 30
0.0
 11
28.0
 21
35.0
 31
0.0
  0
LINE
  5
143
330
1E
100
AcDbEntity
  8
0
100
AcDbLine
 10
25.18
 20
38.584
 30
0.0
 11
25.18
 21
41.94399999999999
 31
0.0
  0
LINE
  5
144
330
1E
100
AcDbEntity
  8
0
100
AcDbLine
 10
25.18
 20
38.584
 30
0.0
 11
25.18
 21
35.0
 31
0.0
  0
LINE
  5
145
330
1E
100
AcDbEntity
  8
0
100
AcDbLine
 10
25.18
 20
35.0
 30
0.0
 11
25.18
 21
31.416
 31
0.0
  0
LINE
  5
146
330
1E
100
AcDbEntity
  8
0
100
AcDbLine
 10
25.18
 20
35.0
 30
0.0
 11
25.18
 21
38.584
 31
0.0
  0
LINE
  5
147
330
1E
100
AcDbEntity
  8
0
100
AcDbLine
 10
28.0
 20
39.032
 30
0.0
 11
28.0
 21
42.74399999999999
 31
0.0
  0
LINE
  5
148
330
1E
100
AcDbEntity
  8
0
100
AcDbLine
 10
28.0
 20
39.032
 30
0.0
 11
28.0
 21
35.0
 31
0.0
  0
LINE
  5
149
330
1E
100
AcDbEntity
  8
0
100
AcDbLine
 10
10.0
 20
39.22
 30
0.0
 11
10.0
 21
39.7
 31
0.0
  0
LINE
  5
14A
330
1E
100
AcDbEntity
  8
0
100
AcDbLine
 10
10.0
 20
39.22
 30
0.0
 11
10.0
 21
38.43999999999999
 31
0.0
  0
LINE
  5
14B
330
1E
100
AcDbEntity
  8
0
100
AcDbLine
 10
10.0
 20
39.22
 30
0.0
 11
10.0
 21
39.0
 31
0.0
  0
LINE
  5
14C
330
1E
100
AcDbEntity
  8
0
100
AcDbLine
 10
10.0
 20
39.7
 30
0.0
 11
10.0
 21
39.88
 31
0.0
  0
LINE
  5
14D
330
1E
100
AcDbEntity
  8
0
100
AcDbLine
 10
10.0
 20
39.7
 30
0.0
 11
10.0
 21
39.22
 31
0.0
  0
LINE
  5
14E
330
1E
100
AcDbEntity
  8
0
100
AcDbLine
 10
16.0
 20
39.34
 30
0.0
 11
16.0
 21
38.54
 31
0.0
  0
LINE
  5
14F
330
1E
100
AcDbEntity
  8
0
100
AcDbLine
 10
16.0
 20
39.82
 30
0.0
 11
16.0
 21
39.34
 31
0.0
  0
LINE
  5
150
330
1E
100
AcDbEntity
  8
0
100
AcDbLine
 10
16.0
 20
39.1818
 30
0.0
 11
16.0
 21
40.9545
 31
0.0
  0
LINE
  5
151
330
1E
100
AcDbEntity
  8
0
100
AcDbLine
 10
16.0
 20
39.1818
 30
0.0
 11
16.0
 21
37.1818
 31
0.0
  0
LINE
  5
152
330
1E
100
AcDbEntity
  8
0
100
AcDbLine
 10
10.0
 20
39.88
 30
0.0
 11
10.36
 21
40.0
 31
0.0
  0
LINE
  5
153
330
1E
100
AcDbEntity
  8
0
100
AcDbLine
 10
10.0
 20
39.88
 30
0.0
 11
10.0
 21
39.7
 31
0.0
  0
LINE
  5
154
330
1E
100
AcDbEntity
  8
0
100
AcDbLine
 10
10.36
 20
40.0
 30
0.0
 11
16.0
 21
40.0
 31
0.0
  0
LINE
  5
155
330
1E
100
AcDbEntity
  8
0
100
AcDbLine
 10
16.0
 20
39.8727
 30
0.0
 11
16.0
 21
38.23069999999999
 31
0.0
  0
LINE
  5
156
330
1E
100
AcDbEntity
  8
0
100
AcDbLine
 10
16.0
 20
39.8727
 30
0.0
 11
16.0
 21
41.32159999999999
 31
0.0
  0
LINE
  5
157
330
1E
100
AcDbEntity
  8
0
100
AcDbLine
 10
16.4082
 20
39.8637
 30
0.0
 11
16.4082
 21
40.6027
 31
0.0
  0
LINE
  5
158
330
1E
100
AcDbEntity
  8
0
100
AcDbLine
 10
16.4082
 20
39.8637
 30
0.0
 11
16.4082
 21
39.4134
 31
0.0
  0
LINE
  5
15B
330
1E
100
AcDbEntity
  8
0
100
AcDbLine
 10
23.0
 20
40.0127
 30
0.0
 11
23.0
 21
40.2967
 31
0.0
  0
LINE
  5
15C
330
1E
100
AcDbEntity
  8
0
100
AcDbLine
 10
23.0
 20
39.4134
 30
0.0
 11
23.0
 21
40.0127
 31
0.0
  0
LINE
  5
15F
330
1E
100
AcDbEntity
  8
0
100
AcDbLine
 10
16.4082
 20
39.4134
 30
0.0
 11
16.4082
 21
39.8637
 31
0.0
  0
LINE
  5
160
330
1E
100
AcDbEntity
  8
0
100
AcDbLine
 10
23.0
 20
40.6027
 30
0.0
 11
23.0
 21
41.4545
 31
0.0
  0
LINE
  5
162
330
1E
100
AcDbEntity
  8
0
100
AcDbLine
 10
16.4082
 20
40.6027
 30
0.0
 11
16.4082
 21
39.8637
 31
0.0
  0
LINE
  5
163
330
1E
100
AcDbEntity
  8
0
100
AcDbLine
 10
23.0
 20
40.2967
 30
0.0
 11
23.0
 21
40.6027
 31
0.0
  0
LINE
  5
164
330
1E
100
AcDbEntity
  8
0
100
AcDbLine
 10
16.0
 20
40.0
 30
0.0
 11
16.0
 21
41.2636
 31
0.0
  0
LINE
  5
165
330
1E
100
AcDbEntity
  8
0
100
AcDbLine
 10
16.0
 20
40.0
 30
0.0
 11
16.0
 21
39.82
 31
0.0
  0
LINE
  5
166
330
1E
100
AcDbEntity
  8
0
100
AcDbLine
 10
23.0
 20
40.80799999999999
 30
0.0
 11
23.0
 21
38.024
 31
0.0
  0
LINE
  5
167
330
1E
100
AcDbEntity
  8
0
100
AcDbLine
 10
25.0
 20
40.952
 30
0.0
 11
25.0
 21
38.07199999999999
 31
0.0
  0
LINE
  5
168
330
1E
100
AcDbEntity
  8
0
100
AcDbLine
 10
16.0
 20
40.9545
 30
0.0
 11
16.0
 21
42.27269999999999
 31
0.0
  0
LINE
  5
16A
330
1E
100
AcDbEntity
  8
0
100
AcDbLine
 10
16.0
 20
40.9545
 30
0.0
 11
16.0
 21
39.1818
 31
0.0
  0
LINE
  5
16B
330
1E
100
AcDbEntity
  8
0
100
AcDbLine
 10
16.0
 20
41.32159999999999
 30
0.0
 11
16.0
 21
39.8727
 31
0.0
  0
LINE
  5
16C
330
1E
100
AcDbEntity
  8
0
100
AcDbLine
 10
16.0
 20
41.32159999999999
 30
0.0
 11
16.0
 21
42.0556
 31
0.0
  0
LINE
  5
16D
330
1E
100
AcDbEntity
  8
0
100
AcDbLine
 10
23.0
 20
41.4545
 30
0.0
 11
23.0
 21
42.6709
 31
0.0
  0
LINE
  5
16E
330
1E
100
AcDbEntity
  8
0
100
AcDbLine
 10
16.1484
 20
41.4545
 30
0.0
 11
16.4082
 21
40.6027
 31
0.0
  0
LINE
  5
16F
330
1E
100
AcDbEntity
  8
0
100
AcDbLine
 10
16.0
 20
41.2636
 30
0.0
 11
16.0
 21
41.9977
 31
0.0
  0
LINE
  5
170
330
1E
100
AcDbEntity
  8
0
100
AcDbLine
 10
16.0
 20
41.2636
 30
0.0
 11
16.0
 21
40.0
 31
0.0
  0
LINE
  5
171
330
1E
100
AcDbEntity
  8
0
100
AcDbLine
 10
23.18
 20
40.952
 30
0.0
 11
23.18
 21
43.496
 31
0.0
  0
LINE
  5
172
330
1E
100
AcDbEntity
  8
0
100
AcDbLine
 10
23.18
 20
40.952
 30
0.0
 11
23.18
 21
38.07199999999999
 31
0.0
  0
LINE
  5
173
330
1E
100
AcDbEntity
  8
0
100
AcDbLine
 10
28.0
 20
41.94399999999999
 30
0.0
 11
28.0
 21
38.584
 31
0.0
  0
LINE
  5
174
330
1E
100
AcDbEntity
  8
0
100
AcDbLine
 10
16.0
 20
42.27269999999999
 30
0.0
 11
16.0
 21
43.0909
 31
0.0
  0
LINE
  5
176
330
1E
100
AcDbEntity
  8
0
100
AcDbLine
 10
16.0
 20
42.27269999999999
 30
0.0
 11
16.0
 21
40.9545
 31
0.0
  0
LINE
  5
177
330
1E
100
AcDbEntity
  8
0
100
AcDbLine
 10
16.0
 20
42.0556
 30
0.0
 11
16.0
 21
41.32159999999999
 31
0.0
  0
LINE
  5
178
330
1E
100
AcDbEntity
  8
0
100
AcDbLine
 10
16.0
 20
42.0556
 30
0.0
 11
16.0
 21
42.34539999999999
 31
0.0
  0
LINE
  5
179
330
1E
100
AcDbEntity
  8
0
100
AcDbLine
 10
16.0
 20
43.0909
 30
0.0
 11
16.0
 21
43.4091
 31
0.0
  0
LINE
  5
17C
330
1E
100
AcDbEntity
  8
0
100
AcDbLine
 10
16.0
 20
43.0909
 30
0.0
 11
16.0
 21
42.27269999999999
 31
0.0
  0
LINE
  5
17D
330
1E
100
AcDbEntity
  8
0
100
AcDbLine
 10
16.0
 20
43.4091
 30
0.0
 11
16.12239999999999
 21
44.09089999999999
 31
0.0
  0
LINE
  5
17E
330
1E
100
AcDbEntity
  8
0
100
AcDbLine
 10
16.0
 20
43.4091
 30
0.0
 11
16.0
 21
43.0909
 31
0.0
  0
LINE
  5
17F
330
1E
100
AcDbEntity
  8
0
100
AcDbLine
 10
23.0
 20
42.6709
 30
0.0
 11
23.0
 21
43.88049999999999
 31
0.0
  0
LINE
  5
180
330
1E
100
AcDbEntity
  8
0
100
AcDbLine
 10
16.08249999999999
 20
42.6709
 30
0.0
 11
16.1484
 21
41.4545
 31
0.0
  0
LINE
  5
181
330
1E
100
AcDbEntity
  8
0
100
AcDbLine
 10
16.08249999999999
 20
42.6709
 30
0.0
 11
16.1709
 21
43.88049999999999
 31
0.0
  0
LINE
  5
182
330
1E
100
AcDbEntity
  8
0
100
AcDbLine
 10
16.0
 20
42.34539999999999
 30
0.0
 11
16.0
 21
41.9977
 31
0.0
  0
LINE
  5
183
330
1E
100
AcDbEntity
  8
0
100
AcDbLine
 10
16.0
 20
42.34539999999999
 30
0.0
 11
16.0
 21
42.0556
 31
0.0
  0
LINE
  5
184
330
1E
100
AcDbEntity
  8
0
100
AcDbLine
 10
16.0
 20
41.9977
 30
0.0
 11
16.0
 21
41.2636
 31
0.0
  0
LINE
  5
185
330
1E
100
AcDbEntity
  8
0
100
AcDbLine
 10
16.0
 20
41.9977
 30
0.0
 11
16.0
 21
42.34539999999999
 31
0.0
  0
LINE
  5
186
330
1E
100
AcDbEntity
  8
0
100
AcDbLine
 10
25.0
 20
43.496
 30
0.0
 11
25.0
 21
40.952
 31
0.0
  0
LINE
  5
187
330
1E
100
AcDbEntity
  8
0
100
AcDbLine
 10
23.18
 20
43.496
 30
0.0
 11
23.18
 21
45.416
 31
0.0
  0
LINE
  5
188
330
1E
100
AcDbEntity
  8
0
100
AcDbLine
 10
23.18
 20
43.496
 30
0.0
 11
23.18
 21
40.952
 31
0.0
  0
LINE
  5
189
330
1E
100
AcDbEntity
  8
0
100
AcDbLine
 10
25.18
 20
41.94399999999999
 30
0.0
 11
25.18
 21
44.912
 31
0.0
  0
LINE
  5
18A
330
1E
100
AcDbEntity
  8
0
100
AcDbLine
 10
25.18
 20
41.94399999999999
 30
0.0
 11
25.18
 21
38.584
 31
0.0
  0
LINE
  5
18B
330
1E
100
AcDbEntity
  8
0
100
AcDbLine
 10
28.0
 20
42.74399999999999
 30
0.0
 11
28.0
 21
46.008
 31
0.0
  0
LINE
  5
18C
330
1E
100
AcDbEntity
  8
0
100
AcDbLine
 10
28.0
 20
42.74399999999999
 30
0.0
 11
28.0
 21
39.032
 31
0.0
  0
LINE
  5
18D
330
1E
100
AcDbEntity
  8
0
100
AcDbLine
 10
28.3
 20
39.09599999999999
 30
0.0
 11
28.3
 21
42.936
 31
0.0
  0
LINE
  5
18E
330
1E
100
AcDbEntity
  8
0
100
AcDbLine
 10
28.3
 20
39.09599999999999
 30
0.0
 11
28.3
 21
35.0
 31
0.0
  0
LINE
  5
18F
330
1E
100
AcDbEntity
  8
0
100
AcDbLine
 10
33.0
 20
39.09599999999999
 30
0.0
 11
33.0
 21
35.0
 31
0.0
  0
LINE
  5
190
330
1E
100
AcDbEntity
  8
0
100
AcDbLine
 10
33.0
 20
42.936
 30
0.0
 11
33.0
 21
39.09599999999999
 31
0.0
  0
LINE
  5
191
330
1E
100
AcDbEntity
  8
0
100
AcDbLine
 10
28.3
 20
42.936
 30
0.0
 11
28.3
 21
46.328
 31
0.0
  0
LINE
  5
192
330
1E
100
AcDbEntity
  8
0
100
AcDbLine
 10
28.3
 20
42.936
 30
0.0
 11
28.3
 21
39.09599999999999
 31
0.0
  0
LINE
  5
193
330
1E
100
AcDbEntity
  8
0
100
AcDbLine
 10
16.1709
 20
43.88049999999999
 30
0.0
 11
16.4082
 21
44.6175
 31
0.0
  0
LINE
  5
194
330
1E
100
AcDbEntity
  8
0
100
AcDbLine
 10
23.0
 20
43.88049999999999
 30
0.0
 11
23.0
 21
44.6175
 31
0.0
  0
LINE
  5
196
330
1E
100
AcDbEntity
  8
0
100
AcDbLine
 10
16.4082
 20
44.6175
 30
0.0
 11
16.4082
 21
44.77269999999999
 31
0.0
  0
LINE
  5
197
330
1E
100
AcDbEntity
  8
0
100
AcDbLine
 10
23.0
 20
44.6175
 30
0.0
 11
23.0
 21
44.9299
 31
0.0
  0
LINE
  5
198
330
1E
100
AcDbEntity
  8
0
100
AcDbLine
 10
16.4082
 20
44.77269999999999
 30
0.0
 11
16.8163
 21
45.0
 31
0.0
  0
LINE
  5
199
330
1E
100
AcDbEntity
  8
0
100
AcDbLine
 10
16.4082
 20
44.77269999999999
 30
0.0
 11
16.4082
 21
44.6175
 31
0.0
  0
LINE
  5
19A
330
1E
100
AcDbEntity
  8
0
100
AcDbLine
 10
16.12239999999999
 20
44.09089999999999
 30
0.0
 11
16.4082
 21
44.77269999999999
 31
0.0
  0
LINE
  5
19C
330
1E
100
AcDbEntity
  8
0
100
AcDbLine
 10
28.0
 20
44.912
 30
0.0
 11
28.0
 21
41.94399999999999
 31
0.0
  0
LINE
  5
19D
330
1E
100
AcDbEntity
  8
0
100
AcDbLine
 10
23.0
 20
44.9299
 30
0.0
 11
23.0
 21
45.0
 31
0.0
  0
LINE
  5
19E
330
1E
100
AcDbEntity
  8
0
100
AcDbLine
 10
16.8163
 20
45.0
 30
0.0
 11
23.0
 21
45.0
 31
0.0
  0
LINE
  5
19F
330
1E
100
AcDbEntity
  8
0
100
AcDbLine
 10
23.0
 20
45.0
 30
0.0
 11
23.0
 21
45.128
 31
0.0
  0
LINE
  5
1A0
330
1E
100
AcDbEntity
  8
0
100
AcDbLine
 10
23.0
 20
46.28
 30
0.0
 11
23.0
 21
45.128
 31
0.0
  0
LINE
  5
1A1
330
1E
100
AcDbEntity
  8
0
100
AcDbLine
 10
23.0
 20
46.28
 30
0.0
 11
23.0
 21
46.71199999999999
 31
0.0
  0
LINE
  5
1A2
330
1E
100
AcDbEntity
  8
0
100
AcDbLine
 10
23.0
 20
45.128
 30
0.0
 11
23.0
 21
46.28
 31
0.0
  0
LINE
  5
1A3
330
1E
100
AcDbEntity
  8
0
100
AcDbLine
 10
23.0
 20
45.128
 30
0.0
 11
23.0
 21
45.0
 31
0.0
  0
LINE
  5
1A4
330
1E
100
AcDbEntity
  8
0
100
AcDbLine
 10
25.0
 20
45.416
 30
0.0
 11
25.0
 21
43.496
 31
0.0
  0
LINE
  5
1A5
330
1E
100
AcDbEntity
  8
0
100
AcDbLine
 10
23.18
 20
45.416
 30
0.0
 11
23.18
 21
46.568
 31
0.0
  0
LINE
  5
1A6
330
1E
100
AcDbEntity
  8
0
100
AcDbLine
 10
23.18
 20
45.416
 30
0.0
 11
23.18
 21
43.496
 31
0.0
  0
LINE
  5
1A7
330
1E
100
AcDbEntity
  8
0
100
AcDbLine
 10
25.18
 20
44.912
 30
0.0
 11
25.18
 21
47.152
 31
0.0
  0
LINE
  5
1A8
330
1E
100
AcDbEntity
  8
0
100
AcDbLine
 10
28.0
 20
46.008
 30
0.0
 11
28.0
 21
48.504
 31
0.0
  0
LINE
  5
1A9
330
1E
100
AcDbEntity
  8
0
100
AcDbLine
 10
28.0
 20
46.008
 30
0.0
 11
28.0
 21
42.74399999999999
 31
0.0
  0
LINE
  5
1AA
330
1E
100
AcDbEntity
  8
0
100
AcDbLine
 10
25.0
 20
46.568
 30
0.0
 11
25.0
 21
45.416
 31
0.0
  0
LINE
  5
1AB
330
1E
100
AcDbEntity
  8
0
100
AcDbLine
 10
23.0
 20
46.71199999999999
 30
0.0
 11
23.18
 21
47.0
 31
0.0
  0
LINE
  5
1AC
330
1E
100
AcDbEntity
  8
0
100
AcDbLine
 10
23.0
 20
46.71199999999999
 30
0.0
 11
23.0
 21
46.28
 31
0.0
  0
LINE
  5
1AD
330
1E
100
AcDbEntity
  8
0
100
AcDbLine
 10
23.18
 20
47.0
 30
0.0
 11
25.0
 21
47.0
 31
0.0
  0
LINE
  5
1AE
330
1E
100
AcDbEntity
  8
0
100
AcDbLine
 10
23.18
 20
47.0
 30
0.0
 11
23.18
 21
46.568
 31
0.0
  0
LINE
  5
1AF
330
1E
100
AcDbEntity
  8
0
100
AcDbLine
 10
25.0
 20
47.0
 30
0.0
 11
25.0
 21
46.568
 31
0.0
  0
LINE
  5
1B0
330
1E
100
AcDbEntity
  8
0
100
AcDbLine
 10
23.18
 20
46.568
 30
0.0
 11
23.18
 21
47.0
 31
0.0
  0
LINE
  5
1B1
330
1E
100
AcDbEntity
  8
0
100
AcDbLine
 10
23.18
 20
46.568
 30
0.0
 11
23.18
 21
45.416
 31
0.0
  0
LINE
  5
1B2
330
1E
100
AcDbEntity
  8
0
100
AcDbLine
 10
25.0
 20
46.816
 30
0.0
 11
25.0
 21
48.15999999999999
 31
0.0
  0
LINE
  5
1B3
330
1E
100
AcDbEntity
  8
0
100
AcDbLine
 10
25.0
 20
48.15999999999999
 30
0.0
 11
25.0
 21
46.816
 31
0.0
  0
LINE
  5
1B4
330
1E
100
AcDbEntity
  8
0
100
AcDbLine
 10
25.0
 20
48.15999999999999
 30
0.0
 11
25.0
 21
48.66399999999999
 31
0.0
  0
LINE
  5
1B5
330
1E
100
AcDbEntity
  8
0
100
AcDbLine
 10
25.18
 20
47.152
 30
0.0
 11
25.18
 21
48.496
 31
0.0
  0
LINE
  5
1B6
330
1E
100
AcDbEntity
  8
0
100
AcDbLine
 10
25.18
 20
47.152
 30
0.0
 11
25.18
 21
44.912
 31
0.0
  0
LINE
  5
1B7
330
1E
100
AcDbEntity
  8
0
100
AcDbLine
 10
28.0
 20
47.152
 30
0.0
 11
28.0
 21
44.912
 31
0.0
  0
LINE
  5
1B8
330
1E
100
AcDbEntity
  8
0
100
AcDbLine
 10
28.0
 20
48.496
 30
0.0
 11
28.0
 21
47.152
 31
0.0
  0
LINE
  5
1B9
330
1E
100
AcDbEntity
  8
0
100
AcDbLine
 10
25.18
 20
48.496
 30
0.0
 11
25.18
 21
49.0
 31
0.0
  0
LINE
  5
1BA
330
1E
100
AcDbEntity
  8
0
100
AcDbLine
 10
25.18
 20
48.496
 30
0.0
 11
25.18
 21
47.152
 31
0.0
  0
LINE
  5
1BB
330
1E
100
AcDbEntity
  8
0
100
AcDbLine
 10
25.0
 20
48.66399999999999
 30
0.0
 11
25.18
 21
49.0
 31
0.0
  0
LINE
  5
1BC
330
1E
100
AcDbEntity
  8
0
100
AcDbLine
 10
25.0
 20
48.66399999999999
 30
0.0
 11
25.0
 21
48.15999999999999
 31
0.0
  0
LINE
  5
1BD
330
1E
100
AcDbEntity
  8
0
100
AcDbLine
 10
25.18
 20
49.0
 30
0.0
 11
28.0
 21
49.0
 31
0.0
  0
LINE
  5
1BE
330
1E
100
AcDbEntity
  8
0
100
AcDbLine
 10
25.18
 20
49.0
 30
0.0
 11
25.18
 21
48.496
 31
0.0
  0
LINE
  5
1BF
330
1E
100
AcDbEntity
  8
0
100
AcDbLine
 10
28.0
 20
49.0
 30
0.0
 11
28.0
 21
50.04
 31
0.0
  0
LINE
  5
1C0
330
1E
100
AcDbEntity
  8
0
100
AcDbLine
 10
28.0
 20
49.0
 30
0.0
 11
28.0
 21
48.496
 31
0.0
  0
LINE
  5
1C1
330
1E
100
AcDbEntity
  8
0
100
AcDbLine
 10
28.0
 20
48.504
 30
0.0
 11
28.0
 21
50.04
 31
0.0
  0
LINE
  5
1C2
330
1E
100
AcDbEntity
  8
0
100
AcDbLine
 10
28.0
 20
48.504
 30
0.0
 11
28.0
 21
46.008
 31
0.0
  0
LINE
  5
1C3
330
1E
100
AcDbEntity
  8
0
100
AcDbLine
 10
28.0
 20
50.04
 30
0.0
 11
28.0
 21
50.61600000000001
 31
0.0
  0
LINE
  5
1C4
330
1E
100
AcDbEntity
  8
0
100
AcDbLine
 10
28.0
 20
50.04
 30
0.0
 11
28.0
 21
48.504
 31
0.0
  0
LINE
  5
1C5
330
1E
100
AcDbEntity
  8
0
100
AcDbLine
 10
28.0
 20
50.04
 30
0.0
 11
28.0
 21
49.0
 31
0.0
  0
LINE
  5
1C6
330
1E
100
AcDbEntity
  8
0
100
AcDbLine
 10
28.3
 20
46.328
 30
0.0
 11
28.3
 21
48.888
 31
0.0
  0
LINE
  5
1C7
330
1E
100
AcDbEntity
  8
0
100
AcDbLine
 10
28.3
 20
46.328
 30
0.0
 11
28.3
 21
42.936
 31
0.0
  0
LINE
  5
1C8
330
1E
100
AcDbEntity
  8
0
100
AcDbLine
 10
33.0
 20
46.328
 30
0.0
 11
33.0
 21
47.38399999999999
 31
0.0
  0
LINE
  5
1C9
330
1E
100
AcDbEntity
  8
0
100
AcDbLine
 10
33.0
 20
46.328
 30
0.0
 11
33.0
 21
42.936
 31
0.0
  0
LINE
  5
1CA
330
1E
100
AcDbEntity
  8
0
100
AcDbLine
 10
28.3
 20
48.888
 30
0.0
 11
28.3
 21
50.424
 31
0.0
  0
LINE
  5
1CB
330
1E
100
AcDbEntity
  8
0
100
AcDbLine
 10
28.3
 20
48.888
 30
0.0
 11
28.3
 21
46.328
 31
0.0
  0
LINE
  5
1CC
330
1E
100
AcDbEntity
  8
0
100
AcDbLine
 10
28.0
 20
50.61600000000001
 30
0.0
 11
28.3
 21
51.0
 31
0.0
  0
LINE
  5
1CD
330
1E
100
AcDbEntity
  8
0
100
AcDbLine
 10
28.0
 20
50.61600000000001
 30
0.0
 11
28.0
 21
50.04
 31
0.0
  0
LINE
  5
1CE
330
1E
100
AcDbEntity
  8
0
100
AcDbLine
 10
28.3
 20
51.0
 30
0.0
 11
33.0
 21
51.0
 31
0.0
  0
LINE
  5
1CF
330
1E
100
AcDbEntity
  8
0
100
AcDbLine
 10
28.3
 20
51.0
 30
0.0
 11
28.3
 21
50.424
 31
0.0
  0
LINE
  5
1D0
330
1E
100
AcDbEntity
  8
0
100
AcDbLine
 10
28.3
 20
50.424
 30
0.0
 11
28.3
 21
51.0
 31
0.0
  0
LINE
  5
1D1
330
1E
100
AcDbEntity
  8
0
100
AcDbLine
 10
28.3
 20
50.424
 30
0.0
 11
28.3
 21
48.888
 31
0.0
  0
LINE
  5
1D2
330
1E
100
AcDbEntity
  8
0
100
AcDbLine
 10
33.0
 20
47.38399999999999
 30
0.0
 11
33.0
 21
43.71199999999999
 31
0.0
  0
LINE
  5
1D3
330
1E
100
AcDbEntity
  8
0
100
AcDbLine
 10
33.0
 20
47.38399999999999
 30
0.0
 11
33.0
 21
50.192
 31
0.0
  0
LINE
  5
1D4
330
1E
100
AcDbEntity
  8
0
100
AcDbLine
 10
33.0
 20
43.71199999999999
 30
0.0
 11
33.0
 21
39.536
 31
0.0
  0
LINE
  5
1D5
330
1E
100
AcDbEntity
  8
0
100
AcDbLine
 10
33.0
 20
43.71199999999999
 30
0.0
 11
33.0
 21
47.38399999999999
 31
0.0
  0
LINE
  5
1D6
330
1E
100
AcDbEntity
  8
0
100
AcDbLine
 10
33.0
 20
39.536
 30
0.0
 11
33.0
 21
35.0
 31
0.0
  0
LINE
  5
1D7
330
1E
100
AcDbEntity
  8
0
100
AcDbLine
 10
33.0
 20
39.536
 30
0.0
 11
33.0
 21
43.71199999999999
 31
0.0
  0
LINE
  5
1D8
330
1E
100
AcDbEntity
  8
0
100
AcDbLine
 10
33.0
 20
35.0
 30
0.0
 11
33.0
 21
30.464
 31
0.0
  0
LINE
  5
1D9
330
1E
100
AcDbEntity
  8
0
100
AcDbLine
 10
33.0
 20
35.0
 30
0.0
 11
33.0
 21
39.536
 31
0.0
  0
LINE
  5
1DA
330
1E
100
AcDbEntity
  8
0
100
AcDbLine
 10
33.0
 20
35.0
 30
0.0
 11
33.0
 21
30.904
 31
0.0
  0
LINE
  5
1DB
330
1E
100
AcDbEntity
  8
0
100
AcDbLine
 10
33.6
 20
19.37599999999999
 30
0.0
 11
33.6
 21
17.648
 31
0.0
  0
LINE
  5
1DC
330
1E
100
AcDbEntity
  8
0
100
AcDbLine
 10
33.6
 20
19.37599999999999
 30
0.0
 11
33.6
 21
22.256
 31
0.0
  0
LINE
  5
1DD
330
1E
100
AcDbEntity
  8
0
100
AcDbLine
 10
33.6
 20
22.256
 30
0.0
 11
33.6
 21
19.37599999999999
 31
0.0
  0
LINE
  5
1DE
330
1E
100
AcDbEntity
  8
0
100
AcDbLine
 10
33.6
 20
22.256
 30
0.0
 11
33.6
 21
26.072
 31
0.0
  0
LINE
  5
1DF
330
1E
100
AcDbEntity
  8
0
100
AcDbLine
 10
33.0
 20
50.424
 30
0.0
 11
33.0
 21
50.192
 31
0.0
  0
LINE
  5
1E0
330
1E
100
AcDbEntity
  8
0
100
AcDbLine
 10
33.0
 20
50.192
 30
0.0
 11
33.0
 21
51.92
 31
0.0
  0
LINE
  5
1E1
330
1E
100
AcDbEntity
  8
0
100
AcDbLine
 10
33.6
 20
26.072
 30
0.0
 11
33.6
 21
22.256
 31
0.0
  0
LINE
  5
1E2
330
1E
100
AcDbEntity
  8
0
100
AcDbLine
 10
33.6
 20
26.072
 30
0.0
 11
33.6
 21
30.392
 31
0.0
  0
LINE
  5
1E3
330
1E
100
AcDbEntity
  8
0
100
AcDbLine
 10
33.6
 20
30.392
 30
0.0
 11
33.6
 21
35.0
 31
0.0
  0
LINE
  5
1E4
330
1E
100
AcDbEntity
  8
0
100
AcDbLine
 10
33.6
 20
30.392
 30
0.0
 11
33.6
 21
26.072
 31
0.0
  0
LINE
  5
1E5
330
1E
100
AcDbEntity
  8
0
100
AcDbLine
 10
33.0
 20
51.92
 30
0.0
 11
33.0
 21
52.56800000000001
 31
0.0
  0
LINE
  5
1E6
330
1E
100
AcDbEntity
  8
0
100
AcDbLine
 10
33.0
 20
51.92
 30
0.0
 11
33.0
 21
51.0
 31
0.0
  0
LINE
  5
1E7
330
1E
100
AcDbEntity
  8
0
100
AcDbLine
 10
33.0
 20
51.92
 30
0.0
 11
33.0
 21
50.192
 31
0.0
  0
LINE
  5
1E8
330
1E
100
AcDbEntity
  8
0
100
AcDbLine
 10
33.0
 20
52.56800000000001
 30
0.0
 11
33.6
 21
53.0
 31
0.0
  0
LINE
  5
1E9
330
1E
100
AcDbEntity
  8
0
100
AcDbLine
 10
33.0
 20
52.56800000000001
 30
0.0
 11
33.0
 21
51.92
 31
0.0
  0
LINE
  5
1EA
330
1E
100
AcDbEntity
  8
0
100
AcDbLine
 10
33.0
 20
51.0
 30
0.0
 11
33.0
 21
51.92
 31
0.0
  0
LINE
  5
1EB
330
1E
100
AcDbEntity
  8
0
100
AcDbLine
 10
33.0
 20
51.0
 30
0.0
 11
33.0
 21
50.424
 31
0.0
  0
LINE
  5
1EC
330
1E
100
AcDbEntity
  8
0
100
AcDbLine
 10
33.0
 20
19.0
 30
0.0
 11
33.0
 21
18.07999999999999
 31
0.0
  0
LINE
  5
1ED
330
1E
100
AcDbEntity
  8
0
100
AcDbLine
 10
33.0
 20
18.07999999999999
 30
0.0
 11
33.0
 21
19.0
 31
0.0
  0
LINE
  5
1EE
330
1E
100
AcDbEntity
  8
0
100
AcDbLine
 10
33.0
 20
18.07999999999999
 30
0.0
 11
33.0
 21
17.432
 31
0.0
  0
LINE
  5
1EF
330
1E
100
AcDbEntity
  8
0
100
AcDbLine
 10
33.0
 20
18.07999999999999
 30
0.0
 11
33.0
 21
19.808
 31
0.0
  0
LINE
  5
1F0
330
1E
100
AcDbEntity
  8
0
100
AcDbLine
 10
33.6
 20
35.0
 30
0.0
 11
33.6
 21
39.608
 31
0.0
  0
LINE
  5
1F1
330
1E
100
AcDbEntity
  8
0
100
AcDbLine
 10
33.6
 20
52.35199999999999
 30
0.0
 11
33.6
 21
50.624
 31
0.0
  0
LINE
  5
1F2
330
1E
100
AcDbEntity
  8
0
100
AcDbLine
 10
33.6
 20
52.35199999999999
 30
0.0
 11
33.6
 21
53.0
 31
0.0
  0
LINE
  5
1F3
330
1E
100
AcDbEntity
  8
0
100
AcDbLine
 10
33.6
 20
50.624
 30
0.0
 11
33.6
 21
47.74399999999999
 31
0.0
  0
LINE
  5
1F4
330
1E
100
AcDbEntity
  8
0
100
AcDbLine
 10
33.6
 20
50.624
 30
0.0
 11
33.6
 21
52.35199999999999
 31
0.0
  0
LINE
  5
1F5
330
1E
100
AcDbEntity
  8
0
100
AcDbLine
 10
33.6
 20
47.74399999999999
 30
0.0
 11
33.6
 21
43.928
 31
0.0
  0
LINE
  5
1F6
330
1E
100
AcDbEntity
  8
0
100
AcDbLine
 10
33.6
 20
47.74399999999999
 30
0.0
 11
33.6
 21
50.624
 31
0.0
  0
LINE
  5
1F7
330
1E
100
AcDbEntity
  8
0
100
AcDbLine
 10
33.6
 20
43.928
 30
0.0
 11
33.6
 21
39.608
 31
0.0
  0
LINE
  5
1F8
330
1E
100
AcDbEntity
  8
0
100
AcDbLine
 10
33.6
 20
43.928
 30
0.0
 11
33.6
 21
47.74399999999999
 31
0.0
  0
LINE
  5
1FE
330
1E
100
AcDbEntity
  8
0
100
AcDbLine
 10
33.6
 20
39.608
 30
0.0
 11
33.6
 21
35.0
 31
0.0
  0
LINE
  5
1FF
330
1E
100
AcDbEntity
  8
0
100
AcDbLine
 10
33.6
 20
39.608
 30
0.0
 11
33.6
 21
43.928
 31
0.0
  0
LINE
  5
200
330
1E
100
AcDbEntity
  8
0
100
AcDbLine
 10
33.6
 20
53.0
 30
0.0
 11
33.9755058973508
 21
52.9298119818036
 31
0.0
  0
LINE
  5
201
330
1E
100
AcDbEntity
  8
0
100
AcDbLine
 10
33.6
 20
53.0
 30
0.0
 11
33.6
 21
52.35199999999999
 31
0.0
  0
LINE
  5
202
330
1E
100
AcDbEntity
  8
0
100
AcDbLine
 10
33.6
 20
17.0
 30
0.0
 11
41.0
 21
18.3831775700935
 31
0.0
  0
LINE
  5
203
330
1E
100
AcDbEntity
  8
0
100
AcDbLine
 10
33.6
 20
17.0
 30
0.0
 11
33.6
 21
17.648
 31
0.0
  0
LINE
  5
204
330
1E
100
AcDbEntity
  8
0
100
AcDbLine
 10
41.0
 20
61.0
 30
0.0
 11
41.504
 21
61.0
 31
0.0
  0
LINE
  5
205
330
1E
100
AcDbEntity
  8
0
100
AcDbLine
 10
41.0
 20
60.7405586898544
 30
0.0
 11
41.0
 21
61.0
 31
0.0
  0
LINE
  5
206
330
1E
100
AcDbEntity
  8
0
100
AcDbLine
 10
41.0
 20
8.0
 30
0.0
 11
41.504
 21
8.0
 31
0.0
  0
LINE
  5
207
330
1E
100
AcDbEntity
  8
0
100
AcDbLine
 10
41.0
 20
8.0
 30
0.0
 11
41.0
 21
18.3831775700935
 31
0.0
  0
LINE
  5
208
330
1E
100
AcDbEntity
  8
0
100
AcDbLine
 10
41.0
 20
8.0
 30
0.0
 11
41.0
 21
18.3831775700935
 31
0.0
  0
LINE
  5
209
330
1E
100
AcDbEntity
  8
0
100
AcDbLine
 10
41.0
 20
8.0
 30
0.0
 11
41.3684
 21
8.0
 31
0.0
  0
LINE
  5
20A
330
1E
100
AcDbEntity
  8
0
100
AcDbLine
 10
41.88419999999999
 20
-0.000000000000003
 30
0.0
 11
43.2105
 21
-0.0000000000000031
 31
0.0
  0
LINE
  5
20B
330
1E
100
AcDbEntity
  8
0
100
AcDbLine
 10
41.88419999999999
 20
8.0
 30
0.0
 11
43.2105
 21
8.0
 31
0.0
  0
LINE
  5
20C
330
1E
100
AcDbEntity
  8
0
100
AcDbLine
 10
42.1999
 20
7.428569999999999
 30
0.0
 11
44.5368
 21
7.79221
 31
0.0
  0
LINE
  5
211
330
1E
100
AcDbEntity
  8
0
100
AcDbLine
 10
42.1999
 20
0.5714319999999971
 30
0.0
 11
44.0453427575944
 21
0.2842476553563269
 31
0.0
  0
LINE
  5
212
330
1E
100
AcDbEntity
  8
0
100
AcDbLine
 10
42.1999
 20
0.5714319999999971
 30
0.0
 11
44.5368
 21
0.207767999999997
 31
0.0
  0
LINE
  5
213
330
1E
100
AcDbEntity
  8
0
100
AcDbLine
 10
42.1999
 20
0.5714319999999971
 30
0.0
 11
44.5368
 21
0.207767999999997
 31
0.0
  0
LINE
  5
214
330
1E
100
AcDbEntity
  8
0
100
AcDbLine
 10
41.504
 20
61.0
 30
0.0
 11
42.84799999999999
 21
61.0
 31
0.0
  0
LINE
  5
215
330
1E
100
AcDbEntity
  8
0
100
AcDbLine
 10
41.504
 20
8.0
 30
0.0
 11
42.84799999999999
 21
8.0
 31
0.0
  0
LINE
  5
216
330
1E
100
AcDbEntity
  8
0
100
AcDbLine
 10
42.84799999999999
 20
61.0
 30
0.0
 11
45.08799999999999
 21
61.0
 31
0.0
  0
LINE
  5
217
330
1E
100
AcDbEntity
  8
0
100
AcDbLine
 10
43.2105
 20
-0.0000000000000031
 30
0.0
 11
45.3474
 21
-0.0000000000000032
 31
0.0
  0
LINE
  5
218
330
1E
100
AcDbEntity
  8
0
100
AcDbLine
 10
43.2105
 20
8.0
 30
0.0
 11
45.08799999999999
 21
8.0
 31
0.0
  0
LINE
  5
219
330
1E
100
AcDbEntity
  8
0
100
AcDbLine
 10
44.5368
 20
7.79221
 30
0.0
 11
47.8736
 21
7.8845
 31
0.0
  0
LINE
  5
21A
330
1E
100
AcDbEntity
  8
0
100
AcDbLine
 10
44.5368
 20
0.207767999999997
 30
0.0
 11
47.8736
 21
0.115487999999997
 31
0.0
  0
LINE
  5
21D
330
1E
100
AcDbEntity
  8
0
100
AcDbLine
 10
42.84799999999999
 20
8.0
 30
0.0
 11
45.08799999999999
 21
8.0
 31
0.0
  0
LINE
  5
21E
330
1E
100
AcDbEntity
  8
0
100
AcDbLine
 10
45.08799999999999
 20
61.0
 30
0.0
 11
48.056
 21
61.0
 31
0.0
  0
LINE
  5
221
330
1E
100
AcDbEntity
  8
0
100
AcDbLine
 10
47.8736
 20
7.8845
 30
0.0
 11
51.1921
 21
7.760789999999999
 31
0.0
  0
LINE
  5
224
330
1E
100
AcDbEntity
  8
0
100
AcDbLine
 10
48.056
 20
8.0
 30
0.0
 11
49.4949
 21
8.0
 31
0.0
  0
LINE
  5
225
330
1E
100
AcDbEntity
  8
0
100
AcDbLine
 10
47.8736
 20
0.115487999999997
 30
0.0
 11
51.1921
 21
0.239199999999997
 31
0.0
  0
LINE
  5
228
330
1E
100
AcDbEntity
  8
0
100
AcDbLine
 10
45.3474
 20
-0.0000000000000032
 30
0.0
 11
46.97529999999999
 21
-0.0000000000000033
 31
0.0
  0
LINE
  5
229
330
1E
100
AcDbEntity
  8
0
100
AcDbLine
 10
45.3474
 20
-0.0000000000000032
 30
0.0
 11
48.2211
 21
-0.0000000000000034
 31
0.0
  0
LINE
  5
22C
330
1E
100
AcDbEntity
  8
0
100
AcDbLine
 10
45.08799999999999
 20
8.0
 30
0.0
 11
48.056
 21
8.0
 31
0.0
  0
LINE
  5
22D
330
1E
100
AcDbEntity
  8
0
100
AcDbLine
 10
48.056
 20
61.0
 30
0.0
 11
51.416
 21
61.0
 31
0.0
  0
LINE
  5
22F
330
1E
100
AcDbEntity
  8
0
100
AcDbLine
 10
49.2922
 20
-0.0000000000000034
 30
0.0
 11
52.0725
 21
-0.0000000000000036
 31
0.0
  0
LINE
  5
230
330
1E
100
AcDbEntity
  8
0
100
AcDbLine
 10
48.2211
 20
8.0
 30
0.0
 11
51.4632
 21
8.0
 31
0.0
  0
LINE
  5
231
330
1E
100
AcDbEntity
  8
0
100
AcDbLine
 10
48.2211
 20
-0.0000000000000034
 30
0.0
 11
49.408
 21
-0.0000000000000034
 31
0.0
  0
LINE
  5
232
330
1E
100
AcDbEntity
  8
0
100
AcDbLine
 10
48.2211
 20
-0.0000000000000034
 30
0.0
 11
51.4632
 21
-0.0000000000000036
 31
0.0
  0
LINE
  5
233
330
1E
100
AcDbEntity
  8
0
100
AcDbLine
 10
48.2211
 20
-0.0000000000000034
 30
0.0
 11
49.2922
 21
-0.0000000000000034
 31
0.0
  0
LINE
  5
235
330
1E
100
AcDbEntity
  8
0
100
AcDbLine
 10
51.1921
 20
0.239199999999997
 30
0.0
 11
53.2697
 21
0.571431999999996
 31
0.0
  0
LINE
  5
237
330
1E
100
AcDbEntity
  8
0
100
AcDbLine
 10
51.1921
 20
7.760789999999999
 30
0.0
 11
53.2697
 21
7.428569999999999
 31
0.0
  0
LINE
  5
23A
330
1E
100
AcDbEntity
  8
0
100
AcDbLine
 10
51.1921
 20
0.239199999999997
 30
0.0
 11
53.2697
 21
0.571431999999996
 31
0.0
  0
LINE
  5
23F
330
1E
100
AcDbEntity
  8
0
100
AcDbLine
 10
49.408
 20
-0.0000000000000034
 30
0.0
 11
51.9537
 21
-0.0000000000000036
 31
0.0
  0
LINE
  5
240
330
1E
100
AcDbEntity
  8
0
100
AcDbLine
 10
49.408
 20
-0.0000000000000034
 30
0.0
 11
51.4632
 21
-0.0000000000000036
 31
0.0
  0
LINE
  5
242
330
1E
100
AcDbEntity
  8
0
100
AcDbLine
 10
48.056
 20
8.0
 30
0.0
 11
51.416
 21
8.0
 31
0.0
  0
LINE
  5
243
330
1E
100
AcDbEntity
  8
0
100
AcDbLine
 10
48.056
 20
8.0
 30
0.0
 11
48.2211
 21
8.0
 31
0.0
  0
LINE
  5
244
330
1E
100
AcDbEntity
  8
0
100
AcDbLine
 10
41.0
 20
61.0571
 30
0.0
 11
41.0
 21
61.1371
 31
0.0
  0
LINE
  5
245
330
1E
100
AcDbEntity
  8
0
100
AcDbLine
 10
41.0
 20
61.0571
 30
0.0
 11
41.3684
 21
61.0
 31
0.0
  0
LINE
  5
246
330
1E
100
AcDbEntity
  8
0
100
AcDbLine
 10
41.0
 20
68.4286
 30
0.0
 11
41.0
 21
67.8571
 31
0.0
  0
LINE
  5
247
330
1E
100
AcDbEntity
  8
0
100
AcDbLine
 10
41.0
 20
68.4286
 30
0.0
 11
41.0
 21
68.86289999999999
 31
0.0
  0
LINE
  5
248
330
1E
100
AcDbEntity
  8
0
100
AcDbLine
 10
41.0
 20
68.4286
 30
0.0
 11
41.2947
 21
68.4286
 31
0.0
  0
LINE
  5
249
330
1E
100
AcDbEntity
  8
0
100
AcDbLine
 10
41.0
 20
67.8571
 30
0.0
 11
41.0
 21
62.1429
 31
0.0
  0
LINE
  5
24A
330
1E
100
AcDbEntity
  8
0
100
AcDbLine
 10
41.0
 20
67.8571
 30
0.0
 11
41.0
 21
68.4286
 31
0.0
  0
LINE
  5
24B
330
1E
100
AcDbEntity
  8
0
100
AcDbLine
 10
41.0
 20
62.1429
 30
0.0
 11
41.0
 21
61.5714
 31
0.0
  0
LINE
  5
24C
330
1E
100
AcDbEntity
  8
0
100
AcDbLine
 10
41.0
 20
62.1429
 30
0.0
 11
41.0
 21
67.8571
 31
0.0
  0
LINE
  5
250
330
1E
100
AcDbEntity
  8
0
100
AcDbLine
 10
41.0
 20
68.86289999999999
 30
0.0
 11
41.0
 21
68.4286
 31
0.0
  0
LINE
  5
251
330
1E
100
AcDbEntity
  8
0
100
AcDbLine
 10
41.0
 20
68.86289999999999
 30
0.0
 11
41.0
 21
68.94289999999999
 31
0.0
  0
LINE
  5
252
330
1E
100
AcDbEntity
  8
0
100
AcDbLine
 10
41.0
 20
61.5714
 30
0.0
 11
41.0
 21
61.1371
 31
0.0
  0
LINE
  5
253
330
1E
100
AcDbEntity
  8
0
100
AcDbLine
 10
41.0
 20
61.5714
 30
0.0
 11
41.0
 21
62.1429
 31
0.0
  0
LINE
  5
254
330
1E
100
AcDbEntity
  8
0
100
AcDbLine
 10
41.0
 20
61.5714
 30
0.0
 11
41.2947
 21
61.5714
 31
0.0
  0
LINE
  5
255
330
1E
100
AcDbEntity
  8
0
100
AcDbLine
 10
41.0
 20
68.94289999999999
 30
0.0
 11
41.0
 21
68.86289999999999
 31
0.0
  0
LINE
  5
256
330
1E
100
AcDbEntity
  8
0
100
AcDbLine
 10
41.0
 20
68.94289999999999
 30
0.0
 11
41.3684
 21
69.0
 31
0.0
  0
LINE
  5
258
330
1E
100
AcDbEntity
  8
0
100
AcDbLine
 10
41.2947
 20
61.5714
 30
0.0
 11
42.1999
 21
61.5714
 31
0.0
  0
LINE
  5
25C
330
1E
100
AcDbEntity
  8
0
100
AcDbLine
 10
47.8736
 20
61.1155
 30
0.0
 11
51.1921
 21
61.2392
 31
0.0
  0
LINE
  5
25E
330
1E
100
AcDbEntity
  8
0
100
AcDbLine
 10
51.1921
 20
61.2392
 30
0.0
 11
53.2697
 21
61.5714
 31
0.0
  0
LINE
  5
262
330
1E
100
AcDbEntity
  8
0
100
AcDbLine
 10
44.5368
 20
61.20779999999999
 30
0.0
 11
47.8736
 21
61.1155
 31
0.0
  0
LINE
  5
264
330
1E
100
AcDbEntity
  8
0
100
AcDbLine
 10
42.1999
 20
61.5714
 30
0.0
 11
44.5368
 21
61.20779999999999
 31
0.0
  0
LINE
  5
266
330
1E
100
AcDbEntity
  8
0
100
AcDbLine
 10
41.2947
 20
68.4286
 30
0.0
 11
42.1999
 21
68.4286
 31
0.0
  0
LINE
  5
267
330
1E
100
AcDbEntity
  8
0
100
AcDbLine
 10
41.3684
 20
69.0
 30
0.0
 11
41.88419999999999
 21
69.0
 31
0.0
  0
LINE
  5
268
330
1E
100
AcDbEntity
  8
0
100
AcDbLine
 10
43.2105
 20
69.0
 30
0.0
 11
45.3474
 21
69.0
 31
0.0
  0
LINE
  5
269
330
1E
100
AcDbEntity
  8
0
100
AcDbLine
 10
41.88419999999999
 20
69.0
 30
0.0
 11
43.2105
 21
69.0
 31
0.0
  0
LINE
  5
26A
330
1E
100
AcDbEntity
  8
0
100
AcDbLine
 10
51.1921
 20
68.7608
 30
0.0
 11
53.2697
 21
68.4286
 31
0.0
  0
LINE
  5
26D
330
1E
100
AcDbEntity
  8
0
100
AcDbLine
 10
45.3474
 20
69.0
 30
0.0
 11
48.2211
 21
69.0
 31
0.0
  0
LINE
  5
26F
330
1E
100
AcDbEntity
  8
0
100
AcDbLine
 10
48.2211
 20
69.0
 30
0.0
 11
51.4632
 21
69.0
 31
0.0
  0
LINE
  5
270
330
1E
100
AcDbEntity
  8
0
100
AcDbLine
 10
47.8736
 20
68.8845
 30
0.0
 11
51.1921
 21
68.7608
 31
0.0
  0
LINE
  5
273
330
1E
100
AcDbEntity
  8
0
100
AcDbLine
 10
44.5368
 20
68.7922
 30
0.0
 11
47.8736
 21
68.8845
 31
0.0
  0
LINE
  5
274
330
1E
100
AcDbEntity
  8
0
100
AcDbLine
 10
42.1999
 20
68.4286
 30
0.0
 11
44.5368
 21
68.7922
 31
0.0
  0
LINE
  5
278
330
1E
100
AcDbEntity
  8
0
100
AcDbLine
 10
41.0
 20
61.1371
 30
0.0
 11
41.0
 21
61.0571
 31
0.0
  0
LINE
  5
279
330
1E
100
AcDbEntity
  8
0
100
AcDbLine
 10
41.0
 20
61.1371
 30
0.0
 11
41.0
 21
61.5714
 31
0.0
  0
LINE
  5
27D
330
1E
100
AcDbEntity
  8
0
100
AcDbLine
 10
51.416
 20
61.0
 30
0.0
 11
64.91199999999999
 21
61.0
 31
0.0
  0
LINE
  5
27E
330
1E
100
AcDbEntity
  8
0
100
AcDbLine
 10
52.0725
 20
-0.0000000000000036
 30
0.0
 11
55.0
 21
-0.0000000000000038
 31
0.0
  0
LINE
  5
280
330
1E
100
AcDbEntity
  8
0
100
AcDbLine
 10
64.79210000000001
 20
-0.0000000000000044
 30
0.0
 11
65.63200000000001
 21
-0.0000000000000044
 31
0.0
  0
LINE
  5
281
330
1E
100
AcDbEntity
  8
0
100
AcDbLine
 10
64.6526
 20
-0.0000000000000044
 30
0.0
 11
66.7895
 21
-0.0000000000000045
 31
0.0
  0
LINE
  5
284
330
1E
100
AcDbEntity
  8
0
100
AcDbLine
 10
60.7
 20
-0.0000000000000041
 30
0.0
 11
63.0544
 21
-0.0000000000000043
 31
0.0
  0
LINE
  5
285
330
1E
100
AcDbEntity
  8
0
100
AcDbLine
 10
63.0834
 20
-0.0000000000000043
 30
0.0
 11
64.6526
 21
-0.0000000000000044
 31
0.0
  0
LINE
  5
286
330
1E
100
AcDbEntity
  8
0
100
AcDbLine
 10
61.7789
 20
-0.0000000000000042
 30
0.0
 11
64.6526
 21
-0.0000000000000044
 31
0.0
  0
LINE
  5
289
330
1E
100
AcDbEntity
  8
0
100
AcDbLine
 10
60.6796
 20
-0.0000000000000041
 30
0.0
 11
63.0834
 21
-0.0000000000000043
 31
0.0
  0
LINE
  5
28A
330
1E
100
AcDbEntity
  8
0
100
AcDbLine
 10
57.98619999999999
 20
-0.000000000000004
 30
0.0
 11
60.6796
 21
-0.0000000000000041
 31
0.0
  0
LINE
  5
28C
330
1E
100
AcDbEntity
  8
0
100
AcDbLine
 10
58.5368
 20
-0.000000000000004
 30
0.0
 11
61.7789
 21
-0.0000000000000042
 31
0.0
  0
LINE
  5
28D
330
1E
100
AcDbEntity
  8
0
100
AcDbLine
 10
55.0
 20
-0.0000000000000038
 30
0.0
 11
58.5368
 21
-0.000000000000004
 31
0.0
  0
LINE
  5
28E
330
1E
100
AcDbEntity
  8
0
100
AcDbLine
 10
55.0
 20
0.571431999999996
 30
0.0
 11
56.7303
 21
0.571431999999996
 31
0.0
  0
LINE
  5
292
330
1E
100
AcDbEntity
  8
0
100
AcDbLine
 10
58.8079
 20
0.239199999999996
 30
0.0
 11
62.1264
 21
0.115487999999996
 31
0.0
  0
LINE
  5
295
330
1E
100
AcDbEntity
  8
0
100
AcDbLine
 10
62.1264
 20
0.115487999999996
 30
0.0
 11
65.4632
 21
0.207767999999996
 31
0.0
  0
LINE
  5
298
330
1E
100
AcDbEntity
  8
0
100
AcDbLine
 10
56.7303
 20
0.571431999999996
 30
0.0
 11
58.8079
 21
0.239199999999996
 31
0.0
  0
LINE
  5
299
330
1E
100
AcDbEntity
  8
0
100
AcDbLine
 10
56.7303
 20
0.571431999999996
 30
0.0
 11
58.8079
 21
0.239199999999996
 31
0.0
  0
LINE
  5
29D
330
1E
100
AcDbEntity
  8
0
100
AcDbLine
 10
56.7303
 20
7.428569999999999
 30
0.0
 11
58.8079
 21
7.760789999999999
 31
0.0
  0
LINE
  5
29F
330
1E
100
AcDbEntity
  8
0
100
AcDbLine
 10
58.8079
 20
7.760789999999999
 30
0.0
 11
62.1264
 21
7.8845
 31
0.0
  0
LINE
  5
2A0
330
1E
100
AcDbEntity
  8
0
100
AcDbLine
 10
64.6526
 20
8.0
 30
0.0
 11
66.7895
 21
8.0
 31
0.0
  0
LINE
  5
2A1
330
1E
100
AcDbEntity
  8
0
100
AcDbLine
 10
62.1264
 20
7.8845
 30
0.0
 11
65.4632
 21
7.79221
 31
0.0
  0
LINE
  5
2A7
330
1E
100
AcDbEntity
  8
0
100
AcDbLine
 10
55.0
 20
7.428569999999999
 30
0.0
 11
56.7303
 21
7.428569999999999
 31
0.0
  0
LINE
  5
2AA
330
1E
100
AcDbEntity
  8
0
100
AcDbLine
 10
53.2697
 20
7.428569999999999
 30
0.0
 11
55.0
 21
7.428569999999999
 31
0.0
  0
LINE
  5
2AC
330
1E
100
AcDbEntity
  8
0
100
AcDbLine
 10
53.2697
 20
0.571431999999996
 30
0.0
 11
55.0
 21
0.571431999999996
 31
0.0
  0
LINE
  5
2AD
330
1E
100
AcDbEntity
  8
0
100
AcDbLine
 10
51.4632
 20
-0.0000000000000036
 30
0.0
 11
55.0
 21
-0.0000000000000038
 31
0.0
  0
LINE
  5
2AE
330
1E
100
AcDbEntity
  8
0
100
AcDbLine
 10
51.9537
 20
-0.0000000000000036
 30
0.0
 11
55.0236
 21
-0.0000000000000038
 31
0.0
  0
LINE
  5
2B0
330
1E
100
AcDbEntity
  8
0
100
AcDbLine
 10
65.68989999999999
 20
-0.0000000000000044
 30
0.0
 11
66.0085
 21
-0.0000000000000045
 31
0.0
  0
LINE
  5
2B2
330
1E
100
AcDbEntity
  8
0
100
AcDbLine
 10
66.7895
 20
-0.0000000000000045
 30
0.0
 11
68.11579999999999
 21
-0.0000000000000046
 31
0.0
  0
LINE
  5
2B4
330
1E
100
AcDbEntity
  8
0
100
AcDbLine
 10
65.4632
 20
0.207767999999996
 30
0.0
 11
67.8001
 21
0.5714319999999951
 31
0.0
  0
LINE
  5
2B7
330
1E
100
AcDbEntity
  8
0
100
AcDbLine
 10
66.7895
 20
8.0
 30
0.0
 11
68.11579999999999
 21
8.0
 31
0.0
  0
LINE
  5
2BA
330
1E
100
AcDbEntity
  8
0
100
AcDbLine
 10
65.4632
 20
7.79221
 30
0.0
 11
67.8001
 21
7.428569999999999
 31
0.0
  0
LINE
  5
2BC
330
1E
100
AcDbEntity
  8
0
100
AcDbLine
 10
67.8001
 20
7.428569999999999
 30
0.0
 11
68.70529999999999
 21
7.428569999999999
 31
0.0
  0
LINE
  5
2BD
330
1E
100
AcDbEntity
  8
0
100
AcDbLine
 10
68.11579999999999
 20
-0.0000000000000046
 30
0.0
 11
68.6316
 21
-0.0000000000000046
 31
0.0
  0
LINE
  5
2BF
330
1E
100
AcDbEntity
  8
0
100
AcDbLine
 10
68.6316
 20
-0.0000000000000046
 30
0.0
 11
69.0
 21
0.0571439999999954
 31
0.0
  0
LINE
  5
2C0
330
1E
100
AcDbEntity
  8
0
100
AcDbLine
 10
68.6316
 20
-0.0000000000000046
 30
0.0
 11
69.0
 21
0.0571439999999954
 31
0.0
  0
LINE
  5
2C1
330
1E
100
AcDbEntity
  8
0
100
AcDbLine
 10
69.0
 20
0.0571439999999954
 30
0.0
 11
69.0
 21
0.137143999999995
 31
0.0
  0
LINE
  5
2C3
330
1E
100
AcDbEntity
  8
0
100
AcDbLine
 10
69.0
 20
0.5714319999999951
 30
0.0
 11
69.0
 21
0.137143999999995
 31
0.0
  0
LINE
  5
2C4
330
1E
100
AcDbEntity
  8
0
100
AcDbLine
 10
69.0
 20
0.5714319999999951
 30
0.0
 11
69.0
 21
1.142859999999999
 31
0.0
  0
LINE
  5
2C5
330
1E
100
AcDbEntity
  8
0
100
AcDbLine
 10
69.0
 20
0.137143999999995
 30
0.0
 11
69.0
 21
0.5714319999999951
 31
0.0
  0
LINE
  5
2C6
330
1E
100
AcDbEntity
  8
0
100
AcDbLine
 10
69.0
 20
0.137143999999995
 30
0.0
 11
69.0
 21
0.0571439999999954
 31
0.0
  0
LINE
  5
2C8
330
1E
100
AcDbEntity
  8
0
100
AcDbLine
 10
68.11579999999999
 20
8.0
 30
0.0
 11
68.6316
 21
8.0
 31
0.0
  0
LINE
  5
2C9
330
1E
100
AcDbEntity
  8
0
100
AcDbLine
 10
69.0
 20
6.85713999999999
 30
0.0
 11
69.0
 21
1.142859999999989
 31
0.0
  0
LINE
  5
2CA
330
1E
100
AcDbEntity
  8
0
100
AcDbLine
 10
69.0
 20
6.85713999999999
 30
0.0
 11
69.0
 21
7.428569999999999
 31
0.0
  0
LINE
  5
2CB
330
1E
100
AcDbEntity
  8
0
100
AcDbLine
 10
69.0
 20
1.142859999999999
 30
0.0
 11
69.0
 21
0.5714319999999951
 31
0.0
  0
LINE
  5
2CC
330
1E
100
AcDbEntity
  8
0
100
AcDbLine
 10
69.0
 20
1.142859999999999
 30
0.0
 11
69.0
 21
6.857139999999999
 31
0.0
  0
LINE
  5
2CD
330
1E
100
AcDbEntity
  8
0
100
AcDbLine
 10
69.0
 20
7.86286
 30
0.0
 11
69.0
 21
7.428569999999999
 31
0.0
  0
LINE
  5
2CE
330
1E
100
AcDbEntity
  8
0
100
AcDbLine
 10
69.0
 20
7.86286
 30
0.0
 11
69.0
 21
7.94286
 31
0.0
  0
LINE
  5
2CF
330
1E
100
AcDbEntity
  8
0
100
AcDbLine
 10
69.0
 20
7.94286
 30
0.0
 11
69.0
 21
7.86286
 31
0.0
  0
LINE
  5
2D0
330
1E
100
AcDbEntity
  8
0
100
AcDbLine
 10
69.0
 20
7.428569999999999
 30
0.0
 11
69.0
 21
7.86286
 31
0.0
  0
LINE
  5
2D1
330
1E
100
AcDbEntity
  8
0
100
AcDbLine
 10
69.0
 20
7.428569999999999
 30
0.0
 11
69.0
 21
6.85713999999999
 31
0.0
  0
LINE
  5
2D2
330
1E
100
AcDbEntity
  8
0
100
AcDbLine
 10
68.70529999999999
 20
7.428569999999999
 30
0.0
 11
69.0
 21
7.428569999999999
 31
0.0
  0
LINE
  5
2D3
330
1E
100
AcDbEntity
  8
0
100
AcDbLine
 10
68.70529999999999
 20
0.5714319999999951
 30
0.0
 11
69.0
 21
0.5714319999999951
 31
0.0
  0
LINE
  5
2D6
330
1E
100
AcDbEntity
  8
0
100
AcDbLine
 10
67.8001
 20
0.5714319999999951
 30
0.0
 11
68.70529999999999
 21
0.5714319999999951
 31
0.0
  0
LINE
  5
2D8
330
1E
100
AcDbEntity
  8
0
100
AcDbLine
 10
68.49600000000001
 20
8.0
 30
0.0
 11
69.0
 21
8.0
 31
0.0
  0
LINE
  5
2D9
330
1E
100
AcDbEntity
  8
0
100
AcDbLine
 10
69.0
 20
8.0
 30
0.0
 11
69.0
 21
61.0
 31
0.0
  0
LINE
  5
2DA
330
1E
100
AcDbEntity
  8
0
100
AcDbLine
 10
67.152
 20
8.0
 30
0.0
 11
68.49600000000001
 21
8.0
 31
0.0
  0
LINE
  5
2DB
330
1E
100
AcDbEntity
  8
0
100
AcDbLine
 10
64.91199999999999
 20
8.0
 30
0.0
 11
67.152
 21
8.0
 31
0.0
  0
LINE
  5
2DD
330
1E
100
AcDbEntity
  8
0
100
AcDbLine
 10
58.5368
 20
8.0
 30
0.0
 11
61.7789
 21
8.0
 31
0.0
  0
LINE
  5
2DF
330
1E
100
AcDbEntity
  8
0
100
AcDbLine
 10
51.4632
 20
8.0
 30
0.0
 11
55.0
 21
8.0
 31
0.0
  0
LINE
  5
2E0
330
1E
100
AcDbEntity
  8
0
100
AcDbLine
 10
61.7789
 20
8.0
 30
0.0
 11
61.94399999999999
 21
8.0
 31
0.0
  0
LINE
  5
2E1
330
1E
100
AcDbEntity
  8
0
100
AcDbLine
 10
61.7789
 20
8.0
 30
0.0
 11
64.6526
 21
8.0
 31
0.0
  0
LINE
  5
2E2
330
1E
100
AcDbEntity
  8
0
100
AcDbLine
 10
61.94399999999999
 20
8.0
 30
0.0
 11
64.91199999999999
 21
8.0
 31
0.0
  0
LINE
  5
2E3
330
1E
100
AcDbEntity
  8
0
100
AcDbLine
 10
58.58399999999999
 20
8.0
 30
0.0
 11
61.94399999999999
 21
8.0
 31
0.0
  0
LINE
  5
2E6
330
1E
100
AcDbEntity
  8
0
100
AcDbLine
 10
53.2697
 20
68.4286
 30
0.0
 11
55.0
 21
68.4286
 31
0.0
  0
LINE
  5
2E7
330
1E
100
AcDbEntity
  8
0
100
AcDbLine
 10
55.0
 20
61.5714
 30
0.0
 11
56.7303
 21
61.5714
 31
0.0
  0
LINE
  5
2ED
330
1E
100
AcDbEntity
  8
0
100
AcDbLine
 10
55.0
 20
69.0
 30
0.0
 11
58.5368
 21
69.0
 31
0.0
  0
LINE
  5
2F3
330
1E
100
AcDbEntity
  8
0
100
AcDbLine
 10
55.0
 20
68.4286
 30
0.0
 11
56.7303
 21
68.4286
 31
0.0
  0
LINE
  5
2F5
330
1E
100
AcDbEntity
  8
0
100
AcDbLine
 10
53.2697
 20
61.5714
 30
0.0
 11
55.0
 21
61.5714
 31
0.0
  0
LINE
  5
2F6
330
1E
100
AcDbEntity
  8
0
100
AcDbLine
 10
51.4632
 20
69.0
 30
0.0
 11
55.0
 21
69.0
 31
0.0
  0
LINE
  5
2FB
330
1E
100
AcDbEntity
  8
0
100
AcDbLine
 10
68.6316
 20
61.0
 30
0.0
 11
69.0
 21
61.0571
 31
0.0
  0
LINE
  5
2FD
330
1E
100
AcDbEntity
  8
0
100
AcDbLine
 10
68.49600000000001
 20
61.0
 30
0.0
 11
69.0
 21
61.0
 31
0.0
  0
LINE
  5
2FE
330
1E
100
AcDbEntity
  8
0
100
AcDbLine
 10
67.152
 20
61.0
 30
0.0
 11
68.49600000000001
 21
61.0
 31
0.0
  0
LINE
  5
2FF
330
1E
100
AcDbEntity
  8
0
100
AcDbLine
 10
64.91199999999999
 20
61.0
 30
0.0
 11
67.152
 21
61.0
 31
0.0
  0
LINE
  5
303
330
1E
100
AcDbEntity
  8
0
100
AcDbLine
 10
62.1264
 20
61.1155
 30
0.0
 11
65.4632
 21
61.20779999999999
 31
0.0
  0
LINE
  5
305
330
1E
100
AcDbEntity
  8
0
100
AcDbLine
 10
58.8079
 20
61.2392
 30
0.0
 11
62.1264
 21
61.1155
 31
0.0
  0
LINE
  5
307
330
1E
100
AcDbEntity
  8
0
100
AcDbLine
 10
65.4632
 20
61.20779999999999
 30
0.0
 11
67.8001
 21
61.5714
 31
0.0
  0
LINE
  5
30A
330
1E
100
AcDbEntity
  8
0
100
AcDbLine
 10
69.0
 20
61.0571
 30
0.0
 11
69.0
 21
61.1371
 31
0.0
  0
LINE
  5
30B
330
1E
100
AcDbEntity
  8
0
100
AcDbLine
 10
69.0
 20
61.5714
 30
0.0
 11
69.0
 21
61.1371
 31
0.0
  0
LINE
  5
30C
330
1E
100
AcDbEntity
  8
0
100
AcDbLine
 10
69.0
 20
61.5714
 30
0.0
 11
69.0
 21
62.1429
 31
0.0
  0
LINE
  5
30D
330
1E
100
AcDbEntity
  8
0
100
AcDbLine
 10
69.0
 20
61.1371
 30
0.0
 11
69.0
 21
61.5714
 31
0.0
  0
LINE
  5
30E
330
1E
100
AcDbEntity
  8
0
100
AcDbLine
 10
69.0
 20
61.1371
 30
0.0
 11
69.0
 21
61.0571
 31
0.0
  0
LINE
  5
30F
330
1E
100
AcDbEntity
  8
0
100
AcDbLine
 10
68.70529999999999
 20
61.5714
 30
0.0
 11
69.0
 21
61.5714
 31
0.0
  0
LINE
  5
312
330
1E
100
AcDbEntity
  8
0
100
AcDbLine
 10
67.8001
 20
61.5714
 30
0.0
 11
68.70529999999999
 21
61.5714
 31
0.0
  0
LINE
  5
314
330
1E
100
AcDbEntity
  8
0
100
AcDbLine
 10
56.7303
 20
68.4286
 30
0.0
 11
58.8079
 21
68.7608
 31
0.0
  0
LINE
  5
316
330
1E
100
AcDbEntity
  8
0
100
AcDbLine
 10
69.0
 20
67.8571
 30
0.0
 11
69.0
 21
62.1429
 31
0.0
  0
LINE
  5
317
330
1E
100
AcDbEntity
  8
0
100
AcDbLine
 10
69.0
 20
67.8571
 30
0.0
 11
69.0
 21
68.4286
 31
0.0
  0
LINE
  5
318
330
1E
100
AcDbEntity
  8
0
100
AcDbLine
 10
69.0
 20
62.1429
 30
0.0
 11
69.0
 21
61.5714
 31
0.0
  0
LINE
  5
319
330
1E
100
AcDbEntity
  8
0
100
AcDbLine
 10
69.0
 20
62.1429
 30
0.0
 11
69.0
 21
67.8571
 31
0.0
  0
LINE
  5
31A
330
1E
100
AcDbEntity
  8
0
100
AcDbLine
 10
69.0
 20
68.4286
 30
0.0
 11
69.0
 21
68.86289999999999
 31
0.0
  0
LINE
  5
31B
330
1E
100
AcDbEntity
  8
0
100
AcDbLine
 10
69.0
 20
68.4286
 30
0.0
 11
69.0
 21
67.8571
 31
0.0
  0
LINE
  5
31C
330
1E
100
AcDbEntity
  8
0
100
AcDbLine
 10
68.70529999999999
 20
68.4286
 30
0.0
 11
69.0
 21
68.4286
 31
0.0
  0
LINE
  5
31D
330
1E
100
AcDbEntity
  8
0
100
AcDbLine
 10
58.8079
 20
68.7608
 30
0.0
 11
62.1264
 21
68.8845
 31
0.0
  0
LINE
  5
31E
330
1E
100
AcDbEntity
  8
0
100
AcDbLine
 10
61.7789
 20
69.0
 30
0.0
 11
64.6526
 21
69.0
 31
0.0
  0
LINE
  5
31F
330
1E
100
AcDbEntity
  8
0
100
AcDbLine
 10
64.6526
 20
69.0
 30
0.0
 11
66.7895
 21
69.0
 31
0.0
  0
LINE
  5
320
330
1E
100
AcDbEntity
  8
0
100
AcDbLine
 10
62.1264
 20
68.8845
 30
0.0
 11
65.4632
 21
68.7922
 31
0.0
  0
LINE
  5
321
330
1E
100
AcDbEntity
  8
0
100
AcDbLine
 10
66.7895
 20
69.0
 30
0.0
 11
68.11579999999999
 21
69.0
 31
0.0
  0
LINE
  5
322
330
1E
100
AcDbEntity
  8
0
100
AcDbLine
 10
68.6316
 20
69.0
 30
0.0
 11
69.0
 21
68.94289999999999
 31
0.0
  0
LINE
  5
323
330
1E
100
AcDbEntity
  8
0
100
AcDbLine
 10
68.11579999999999
 20
69.0
 30
0.0
 11
68.6316
 21
69.0
 31
0.0
  0
LINE
  5
324
330
1E
100
AcDbEntity
  8
0
100
AcDbLine
 10
69.0
 20
68.86289999999999
 30
0.0
 11
69.0
 21
68.4286
 31
0.0
  0
LINE
  5
325
330
1E
100
AcDbEntity
  8
0
100
AcDbLine
 10
69.0
 20
68.86289999999999
 30
0.0
 11
69.0
 21
68.94289999999999
 31
0.0
  0
LINE
  5
326
330
1E
100
AcDbEntity
  8
0
100
AcDbLine
 10
69.0
 20
68.94289999999999
 30
0.0
 11
69.0
 21
68.86289999999999
 31
0.0
  0
LINE
  5
329
330
1E
100
AcDbEntity
  8
0
100
AcDbLine
 10
65.4632
 20
68.7922
 30
0.0
 11
67.8001
 21
68.4286
 31
0.0
  0
LINE
  5
32B
330
1E
100
AcDbEntity
  8
0
100
AcDbLine
 10
67.8001
 20
68.4286
 30
0.0
 11
68.70529999999999
 21
68.4286
 31
0.0
  0
LINE
  5
32D
330
1E
100
AcDbEntity
  8
0
100
AcDbLine
 10
58.5368
 20
69.0
 30
0.0
 11
61.7789
 21
69.0
 31
0.0
  0
LINE
  5
32F
330
1E
100
AcDbEntity
  8
0
100
AcDbLine
 10
56.7303
 20
61.5714
 30
0.0
 11
58.8079
 21
61.2392
 31
0.0
  0
LINE
  5
333
330
1E
100
AcDbEntity
  8
0
100
AcDbLine
 10
55.0
 20
8.0
 30
0.0
 11
58.58399999999999
 21
8.0
 31
0.0
  0
LINE
  5
335
330
1E
100
AcDbEntity
  8
0
100
AcDbLine
 10
55.0
 20
8.0
 30
0.0
 11
58.5368
 21
8.0
 31
0.0
  0
LINE
  5
336
330
1E
100
AcDbEntity
  8
0
100
AcDbLine
 10
69.0
 20
61.0
 30
0.0
 11
69.0
 21
8.0
 31
0.0
  0
LINE
  5
337
330
1E
100
AcDbEntity
  8
0
100
AcDbLine
 10
68.6316
 20
8.0
 30
0.0
 11
69.0
 21
8.0
 31
0.0
  0
LINE
  5
338
330
1E
100
AcDbEntity
  8
0
100
AcDbLine
 10
68.6316
 20
8.0
 30
0.0
 11
69.0
 21
7.94286
 31
0.0
  0
LINE
  5
339
330
1E
100
AcDbEntity
  8
0
100
AcDbLine
 10
51.416
 20
8.0
 30
0.0
 11
55.0
 21
8.0
 31
0.0
  0
LINE
  5
33E
330
1E
100
AcDbEntity
  8
0
100
AcDbLine
 10
41.0
 20
60.7405586898544
 30
0.0
 11
33.9755058973508
 21
52.9298119818036
 31
0.0
  0
ENDSEC
  0
SECTION
  2
OBJECTS
  0
DICTIONARY
  5
C
330
0
100
AcDbDictionary
281
     1
  3
ACAD_GROUP
350
D
  3
ACAD_LAYOUT
350
19
  3
ACAD_MLINESTYLE
350
16
  3
ACAD_PLOTSETTINGS
350
18
  3
ACAD_PLOTSTYLENAME
350
E
  3
AcDbVariableDictionary
350
33F
  0
DICTIONARY
  5
D
102
{ACAD_REACTORS
330
C
102
}
330
C
100
AcDbDictionary
281
     1
  0
DICTIONARY
  5
19
102
{ACAD_REACTORS
330
C
102
}
330
C
100
AcDbDictionary
281
     1
  3
Layout1
350
1D
  3
Model
350
21
  0
DICTIONARY
  5
16
102
{ACAD_REACTORS
330
C
102
}
330
C
100
AcDbDictionary
281
     1
  3
Standard
350
17
  0
DICTIONARY
  5
18
102
{ACAD_REACTORS
330
C
102
}
330
C
100
AcDbDictionary
281
     1
  0
ACDBDICTIONARYWDFLT
  5
E
102
{ACAD_REACTORS
330
C
102
}
330
C
100
AcDbDictionary
281
     1
  3
Normal
350
F
100
AcDbDictionaryWithDefault
340
F
  0
DICTIONARY
  5
33F
102
{ACAD_REACTORS
330
C
102
}
330
C
100
AcDbDictionary
281
     1
  3
DIMASSOC
350
340
  0
LAYOUT
  5
1D
102
{ACAD_REACTORS
330
19
102
}
330
19
100
AcDbPlotSettings
  1

  2
hp deskjet 980c series
  4

  6

 40
0.0
 41
0.0
 42
0.0
 43
0.0
 44
0.0
 45
0.0
 46
0.0
 47
0.0
 48
0.0
 49
0.0
140
0.0
141
0.0
142
1.0
143
1.0
 70
   688
 72
     0
 73
     0
 74
     5
  7

 75
    16
147
1.0
148
0.0
149
0.0
100
AcDbLayout
  1
Layout1
 70
     1
 71
     1
 10
0.0
 20
0.0
 11
12.0
 21
9.0
 12
0.0
 22
0.0
 32
0.0
 14
1.000000000000000E+20
 24
1.000000000000000E+20
 34
1.000000000000000E+20
 15
-1.000000000000000E+20
 25
-1.000000000000000E+20
 35
-1.000000000000000E+20
146
0.0
 13
0.0
 23
0.0
 33
0.0
 16
1.0
 26
0.0
 36
0.0
 17
0.0
 27
1.0
 37
0.0
 76
     0
330
1A
  0
LAYOUT
  5
21
102
{ACAD_REACTORS
330
19
102
}
330
19
100
AcDbPlotSettings
  1

  2
hp deskjet 980c series
  4

  6

 40
0.0
 41
0.0
 42
0.0
 43
0.0
 44
0.0
 45
0.0
 46
0.0
 47
0.0
 48
0.0
 49
0.0
140
0.0
141
0.0
142
1.0
143
1.0
 70
  1712
 72
     0
 73
     0
 74
     0
  7

 75
     0
147
1.0
148
0.0
149
0.0
100
AcDbLayout
  1
Model
 70
     1
 71
     0
 10
0.0
 20
0.0
 11
12.0
 21
9.0
 12
0.0
 22
0.0
 32
0.0
 14
0.0
 24
0.0
 34
0.0
 15
0.0
 25
0.0
 35
0.0
146
0.0
 13
0.0
 23
0.0
 33
0.0
 16
1.0
 26
0.0
 36
0.0
 17
0.0
 27
1.0
 37
0.0
 76
     0
330
1E
  0
MLINESTYLE
  5
17
102
{ACAD_REACTORS
330
16
102
}
330
16
100
AcDbMlineStyle
  2
STANDARD
 70
     0
  3

 62
   256
 51
90.0
 52
90.0
 71
     2
 49
0.5
 62
   256
  6
BYLAYER
 49
-0.5
 62
   256
  6
BYLAYER
  0
ACDBPLACEHOLDER
  5
F
102
{ACAD_REACTORS
330
E
102
}
330
E
  0
DICTIONARYVAR
  5
340
102
{ACAD_REACTORS
330
33F
102
}
330
33F
100
DictionaryVariables
280
     0
  1
1
  0
ENDSEC
  0
EOF
