  0
SECTION
  2
HEADER
  9
$ACADVER
  1
AC1015
  9
$ACADMAINTVER
 70
    13
  9
$DWGCODEPAGE
  3
ANSI_1252
  9
$INSBASE
 10
0.0
 20
0.0
 30
0.0
  9
$EXTMIN
 10
0.0399999999999996
 20
0.103350000000025
 30
0.0
  9
$EXTMAX
 10
110.9599999999999
 20
208.89665
 30
0.0
  9
$LIMMIN
 10
0.0
 20
0.0
  9
$LIMMAX
 10
12.0
 20
9.0
  9
$ORTHOMODE
 70
     0
  9
$REGENMODE
 70
     1
  9
$FILLMODE
 70
     1
  9
$QTEXTMODE
 70
     0
  9
$MIRRTEXT
 70
     1
  9
$LTSCALE
 40
1.0
  9
$ATTMODE
 70
     1
  9
$TEXTSIZE
 40
0.2
  9
$TRACEWID
 40
0.05
  9
$TEXTSTYLE
  7
Standard
  9
$CLAYER
  8
0
  9
$CELTYPE
  6
Continuous
  9
$CECOLOR
 62
   256
  9
$CELTSCALE
 40
1.0
  9
$DISPSILH
 70
     0
  9
$DIMSCALE
 40
1.0
  9
$DIMASZ
 40
0.18
  9
$DIMEXO
 40
0.0625
  9
$DIMDLI
 40
0.38
  9
$DIMRND
 40
0.0
  9
$DIMDLE
 40
0.0
  9
$DIMEXE
 40
0.18
  9
$DIMTP
 40
0.0
  9
$DIMTM
 40
0.0
  9
$DIMTXT
 40
0.18
  9
$DIMCEN
 40
0.09
  9
$DIMTSZ
 40
0.0
  9
$DIMTOL
 70
     0
  9
$DIMLIM
 70
     0
  9
$DIMTIH
 70
     1
  9
$DIMTOH
 70
     1
  9
$DIMSE1
 70
     0
  9
$DIMSE2
 70
     0
  9
$DIMTAD
 70
     0
  9
$DIMZIN
 70
     0
  9
$DIMBLK
  1

  9
$DIMASO
 70
     1
  9
$DIMSHO
 70
     1
  9
$DIMPOST
  1

  9
$DIMAPOST
  1

  9
$DIMALT
 70
     0
  9
$DIMALTD
 70
     2
  9
$DIMALTF
 40
25.4
  9
$DIMLFAC
 40
1.0
  9
$DIMTOFL
 70
     0
  9
$DIMTVP
 40
0.0
  9
$DIMTIX
 70
     0
  9
$DIMSOXD
 70
     0
  9
$DIMSAH
 70
     0
  9
$DIMBLK1
  1

  9
$DIMBLK2
  1

  9
$DIMSTYLE
  2
Standard
  9
$DIMCLRD
 70
     0
  9
$DIMCLRE
 70
     0
  9
$DIMCLRT
 70
     0
  9
$DIMTFAC
 40
1.0
  9
$DIMGAP
 40
0.09
  9
$DIMJUST
 70
     0
  9
$DIMSD1
 70
     0
  9
$DIMSD2
 70
     0
  9
$DIMTOLJ
 70
     1
  9
$DIMTZIN
 70
     0
  9
$DIMALTZ
 70
     0
  9
$DIMALTTZ
 70
     0
  9
$DIMUPT
 70
     0
  9
$DIMDEC
 70
     4
  9
$DIMTDEC
 70
     4
  9
$DIMALTU
 70
     2
  9
$DIMALTTD
 70
     2
  9
$DIMTXSTY
  7
Standard
  9
$DIMAUNIT
 70
     0
  9
$DIMADEC
 70
     0
  9
$DIMALTRND
 40
0.0
  9
$DIMAZIN
 70
     0
  9
$DIMDSEP
 70
    46
  9
$DIMATFIT
 70
     3
  9
$DIMFRAC
 70
     0
  9
$DIMLDRBLK
  1

  9
$DIMLUNIT
 70
     2
  9
$DIMLWD
 70
    -2
  9
$DIMLWE
 70
    -2
  9
$DIMTMOVE
 70
     0
  9
$LUNITS
 70
     2
  9
$LUPREC
 70
     4
  9
$SKETCHINC
 40
0.1
  9
$FILLETRAD
 40
0.0
  9
$AUNITS
 70
     0
  9
$AUPREC
 70
     0
  9
$MENU
  1
.
  9
$ELEVATION
 40
0.0
  9
$PELEVATION
 40
0.0
  9
$THICKNESS
 40
0.0
  9
$LIMCHECK
 70
     0
  9
$CHAMFERA
 40
0.0
  9
$CHAMFERB
 40
0.0
  9
$CHAMFERC
 40
0.0
  9
$CHAMFERD
 40
0.0
  9
$SKPOLY
 70
     0
  9
$TDCREATE
 40
2455651.044160879
  9
$TDUCREATE
 40
2455650.960827546
  9
$TDUPDATE
 40
2455651.046920382
  9
$TDUUPDATE
 40
2455650.963587048
  9
$TDINDWG
 40
0.0027595023
  9
$TDUSRTIMER
 40
0.0027595023
  9
$USRTIMER
 70
     1
  9
$ANGBASE
 50
0.0
  9
$ANGDIR
 70
     0
  9
$PDMODE
 70
     0
  9
$PDSIZE
 40
0.0
  9
$PLINEWID
 40
0.0
  9
$SPLFRAME
 70
     0
  9
$SPLINETYPE
 70
     6
  9
$SPLINESEGS
 70
     8
  9
$HANDSEED
  5
167
  9
$SURFTAB1
 70
     6
  9
$SURFTAB2
 70
     6
  9
$SURFTYPE
 70
     6
  9
$SURFU
 70
     6
  9
$SURFV
 70
     6
  9
$UCSBASE
  2

  9
$UCSNAME
  2

  9
$UCSORG
 10
0.0
 20
0.0
 30
0.0
  9
$UCSXDIR
 10
1.0
 20
0.0
 30
0.0
  9
$UCSYDIR
 10
0.0
 20
1.0
 30
0.0
  9
$UCSORTHOREF
  2

  9
$UCSORTHOVIEW
 70
     1
  9
$UCSORGTOP
 10
0.0
 20
0.0
 30
0.0
  9
$UCSORGBOTTOM
 10
0.0
 20
0.0
 30
0.0
  9
$UCSORGLEFT
 10
0.0
 20
0.0
 30
0.0
  9
$UCSORGRIGHT
 10
0.0
 20
0.0
 30
0.0
  9
$UCSORGFRONT
 10
0.0
 20
0.0
 30
0.0
  9
$UCSORGBACK
 10
0.0
 20
0.0
 30
0.0
  9
$PUCSBASE
  2

  9
$PUCSNAME
  2

  9
$PUCSORG
 10
0.0
 20
0.0
 30
0.0
  9
$PUCSXDIR
 10
1.0
 20
0.0
 30
0.0
  9
$PUCSYDIR
 10
0.0
 20
1.0
 30
0.0
  9
$PUCSORTHOREF
  2

  9
$PUCSORTHOVIEW
 70
     0
  9
$PUCSORGTOP
 10
0.0
 20
0.0
 30
0.0
  9
$PUCSORGBOTTOM
 10
0.0
 20
0.0
 30
0.0
  9
$PUCSORGLEFT
 10
0.0
 20
0.0
 30
0.0
  9
$PUCSORGRIGHT
 10
0.0
 20
0.0
 30
0.0
  9
$PUCSORGFRONT
 10
0.0
 20
0.0
 30
0.0
  9
$PUCSORGBACK
 10
0.0
 20
0.0
 30
0.0
  9
$USERI1
 70
     0
  9
$USERI2
 70
     0
  9
$USERI3
 70
     0
  9
$USERI4
 70
     0
  9
$USERI5
 70
     0
  9
$USERR1
 40
0.0
  9
$USERR2
 40
0.0
  9
$USERR3
 40
0.0
  9
$USERR4
 40
0.0
  9
$USERR5
 40
0.0
  9
$WORLDVIEW
 70
     1
  9
$SHADEDGE
 70
     3
  9
$SHADEDIF
 70
    70
  9
$TILEMODE
 70
     1
  9
$MAXACTVP
 70
    64
  9
$PINSBASE
 10
0.0
 20
0.0
 30
0.0
  9
$PLIMCHECK
 70
     0
  9
$PEXTMIN
 10
1.000000000000000E+20
 20
1.000000000000000E+20
 30
1.000000000000000E+20
  9
$PEXTMAX
 10
-1.000000000000000E+20
 20
-1.000000000000000E+20
 30
-1.000000000000000E+20
  9
$PLIMMIN
 10
0.0
 20
0.0
  9
$PLIMMAX
 10
12.0
 20
9.0
  9
$UNITMODE
 70
     0
  9
$VISRETAIN
 70
     1
  9
$PLINEGEN
 70
     0
  9
$PSLTSCALE
 70
     1
  9
$TREEDEPTH
 70
  3020
  9
$CMLSTYLE
  2
Standard
  9
$CMLJUST
 70
     0
  9
$CMLSCALE
 40
1.0
  9
$PROXYGRAPHICS
 70
     1
  9
$MEASUREMENT
 70
     0
  9
$CELWEIGHT
370
    -1
  9
$ENDCAPS
280
     0
  9
$JOINSTYLE
280
     0
  9
$LWDISPLAY
290
     0
  9
$INSUNITS
 70
     0
  9
$HYPERLINKBASE
  1

  9
$STYLESHEET
  1

  9
$XEDIT
290
     1
  9
$CEPSNTYPE
380
     0
  9
$PSTYLEMODE
290
     1
  9
$FINGERPRINTGUID
  2
{A4F4E3DE-8ED5-4C36-94D6-72CF783A4E11}
  9
$VERSIONGUID
  2
{996BD050-76C7-4AB6-AF71-75CE78F7C8B2}
  9
$EXTNAMES
290
     1
  9
$PSVPSCALE
 40
0.0
  9
$OLESTARTUP
290
     0
  0
ENDSEC
  0
SECTION
  2
CLASSES
  0
CLASS
  1
ACDBDICTIONARYWDFLT
  2
AcDbDictionaryWithDefault
  3
AutoCAD 2000
 90
        0
280
     0
281
     0
  0
CLASS
  1
ACDBPLACEHOLDER
  2
AcDbPlaceHolder
  3
AutoCAD 2000
 90
        0
280
     0
281
     0
  0
CLASS
  1
LAYOUT
  2
AcDbLayout
  3
AutoCAD 2000
 90
        0
280
     0
281
     0
  0
CLASS
  1
DICTIONARYVAR
  2
AcDbDictionaryVar
  3
AutoCAD 2000
 90
        0
280
     0
281
     0
  0
ENDSEC
  0
SECTION
  2
TABLES
  0
TABLE
  2
VPORT
  5
8
330
0
100
AcDbSymbolTable
 70
     3
  0
VPORT
  5
166
330
8
100
AcDbSymbolTableRecord
100
AcDbViewportTableRecord
  2
*Active
 70
     0
 10
0.0
 20
0.0
 11
1.0
 21
1.0
 12
55.49999999999999
 22
104.4999999999999
 13
0.0
 23
0.0
 14
1.0
 24
1.0
 15
0.0
 25
0.0
 16
0.0
 26
0.0
 36
1.0
 17
0.0
 27
0.0
 37
0.0
 40
210.205656031567
 41
2.073363431151241
 42
50.0
 43
0.0
 44
0.0
 50
0.0
 51
0.0
 71
     0
 72
   100
 73
     1
 74
     3
 75
     0
 76
     0
 77
     0
 78
     0
281
     0
 65
     1
110
0.0
120
0.0
130
0.0
111
1.0
121
0.0
131
0.0
112
0.0
122
1.0
132
0.0
 79
     1
146
0.0
  0
ENDTAB
  0
TABLE
  2
LTYPE
  5
5
330
0
100
AcDbSymbolTable
 70
     1
  0
LTYPE
  5
13
330
5
100
AcDbSymbolTableRecord
100
AcDbLinetypeTableRecord
  2
ByBlock
 70
     0
  3

 72
    65
 73
     0
 40
0.0
  0
LTYPE
  5
14
330
5
100
AcDbSymbolTableRecord
100
AcDbLinetypeTableRecord
  2
ByLayer
 70
     0
  3

 72
    65
 73
     0
 40
0.0
  0
LTYPE
  5
15
330
5
100
AcDbSymbolTableRecord
100
AcDbLinetypeTableRecord
  2
Continuous
 70
     0
  3
Solid line
 72
    65
 73
     0
 40
0.0
  0
ENDTAB
  0
TABLE
  2
LAYER
  5
2
330
0
100
AcDbSymbolTable
 70
     1
  0
LAYER
  5
10
330
2
100
AcDbSymbolTableRecord
100
AcDbLayerTableRecord
  2
0
 70
     0
 62
     7
  6
Continuous
370
    -3
390
F
  0
ENDTAB
  0
TABLE
  2
STYLE
  5
3
330
0
100
AcDbSymbolTable
 70
     1
  0
STYLE
  5
11
330
3
100
AcDbSymbolTableRecord
100
AcDbTextStyleTableRecord
  2
Standard
 70
     0
 40
0.0
 41
1.0
 50
0.0
 71
     0
 42
0.2
  3
txt
  4

  0
ENDTAB
  0
TABLE
  2
VIEW
  5
6
330
0
100
AcDbSymbolTable
 70
     0
  0
ENDTAB
  0
TABLE
  2
UCS
  5
7
330
0
100
AcDbSymbolTable
 70
     0
  0
ENDTAB
  0
TABLE
  2
APPID
  5
9
330
0
100
AcDbSymbolTable
 70
     1
  0
APPID
  5
12
330
9
100
AcDbSymbolTableRecord
100
AcDbRegAppTableRecord
  2
ACAD
 70
     0
  0
ENDTAB
  0
TABLE
  2
DIMSTYLE
  5
A
330
0
100
AcDbSymbolTable
 70
     1
100
AcDbDimStyleTable
 71
     0
  0
DIMSTYLE
105
15F
330
A
100
AcDbSymbolTableRecord
100
AcDbDimStyleTableRecord
  2
Standard
 70
     0
340
11
  0
ENDTAB
  0
TABLE
  2
BLOCK_RECORD
  5
1
330
0
100
AcDbSymbolTable
 70
     0
  0
BLOCK_RECORD
  5
1E
330
1
100
AcDbSymbolTableRecord
100
AcDbBlockTableRecord
  2
*Model_Space
340
21
  0
BLOCK_RECORD
  5
1A
330
1
100
AcDbSymbolTableRecord
100
AcDbBlockTableRecord
  2
*Paper_Space
340
1D
  0
ENDTAB
  0
ENDSEC
  0
SECTION
  2
BLOCKS
  0
BLOCK
  5
1F
330
1E
100
AcDbEntity
  8
0
100
AcDbBlockBegin
  2
*Model_Space
 70
     0
 10
0.0
 20
0.0
 30
0.0
  3
*Model_Space
  1

  0
ENDBLK
  5
20
330
1E
100
AcDbEntity
  8
0
100
AcDbBlockEnd
  0
BLOCK
  5
1B
330
1A
100
AcDbEntity
 67
     1
  8
0
100
AcDbBlockBegin
  2
*Paper_Space
 70
     0
 10
0.0
 20
0.0
 30
0.0
  3
*Paper_Space
  1

  0
ENDBLK
  5
1C
330
1A
100
AcDbEntity
 67
     1
  8
0
100
AcDbBlockEnd
  0
ENDSEC
  0
SECTION
  2
ENTITIES
  0
LINE
  5
22
330
1E
100
AcDbEntity
  8
0
100
AcDbLine
 10
0.922353
 20
177.49965
 30
0.0
 11
3.422349999999999
 21
171.47065
 31
0.0
  0
LINE
  5
23
330
1E
100
AcDbEntity
  8
0
100
AcDbLine
 10
0.9223529999999989
 20
177.49965
 30
0.0
 11
3.422349999999999
 21
171.47065
 31
0.0
  0
LINE
  5
25
330
1E
100
AcDbEntity
  8
0
100
AcDbLine
 10
3.422349999999999
 20
171.47065
 30
0.0
 11
7.392939999999999
 21
166.24965
 31
0.0
  0
LINE
  5
26
330
1E
100
AcDbEntity
  8
0
100
AcDbLine
 10
0.0399999999999996
 20
183.8966499999999
 30
0.0
 11
0.922353
 21
177.49965
 31
0.0
  0
LINE
  5
27
330
1E
100
AcDbEntity
  8
0
100
AcDbLine
 10
0.0399999999999996
 20
183.8966499999999
 30
0.0
 11
0.922353
 21
190.29365
 31
0.0
  0
LINE
  5
28
330
1E
100
AcDbEntity
  8
0
100
AcDbLine
 10
11.03999999999999
 20
27.87494999999999
 30
0.0
 11
11.03999999999999
 21
21.55245
 31
0.0
  0
LINE
  5
29
330
1E
100
AcDbEntity
  8
0
100
AcDbLine
 10
11.03999999999999
 20
27.87494999999999
 30
0.0
 11
11.03999999999999
 21
35.37834999999999
 31
0.0
  0
LINE
  5
2A
330
1E
100
AcDbEntity
  8
0
100
AcDbLine
 10
11.03999999999999
 20
35.37834999999999
 30
0.0
 11
11.03999999999999
 21
43.93444999999999
 31
0.0
  0
LINE
  5
2B
330
1E
100
AcDbEntity
  8
0
100
AcDbLine
 10
11.03999999999999
 20
35.37834999999999
 30
0.0
 11
11.03999999999999
 21
27.87494999999999
 31
0.0
  0
LINE
  5
2C
330
1E
100
AcDbEntity
  8
0
100
AcDbLine
 10
11.03999999999999
 20
74.37935
 30
0.0
 11
11.03999999999999
 21
85.54085
 31
0.0
  0
LINE
  5
2D
330
1E
100
AcDbEntity
  8
0
100
AcDbLine
 10
11.03999999999999
 20
74.37935
 30
0.0
 11
11.03999999999999
 21
63.60314999999999
 31
0.0
  0
LINE
  5
2E
330
1E
100
AcDbEntity
  8
0
100
AcDbLine
 10
11.03999999999999
 20
85.54085
 30
0.0
 11
11.03999999999999
 21
74.37935
 31
0.0
  0
LINE
  5
2F
330
1E
100
AcDbEntity
  8
0
100
AcDbLine
 10
11.03999999999999
 20
85.54085
 30
0.0
 11
11.03999999999999
 21
96.89664999999999
 31
0.0
  0
LINE
  5
30
330
1E
100
AcDbEntity
  8
0
100
AcDbLine
 10
11.03999999999999
 20
53.39665
 30
0.0
 11
11.03999999999999
 21
63.60314999999999
 31
0.0
  0
LINE
  5
31
330
1E
100
AcDbEntity
  8
0
100
AcDbLine
 10
11.03999999999999
 20
53.39665
 30
0.0
 11
11.03999999999999
 21
43.93444999999999
 31
0.0
  0
LINE
  5
32
330
1E
100
AcDbEntity
  8
0
100
AcDbLine
 10
11.03999999999999
 20
63.60314999999999
 30
0.0
 11
11.03999999999999
 21
53.39665
 31
0.0
  0
LINE
  5
33
330
1E
100
AcDbEntity
  8
0
100
AcDbLine
 10
11.03999999999999
 20
63.60314999999999
 30
0.0
 11
11.03999999999999
 21
74.37935
 31
0.0
  0
LINE
  5
34
330
1E
100
AcDbEntity
  8
0
100
AcDbLine
 10
11.03999999999999
 20
43.93444999999999
 30
0.0
 11
11.03999999999999
 21
35.37834999999999
 31
0.0
  0
LINE
  5
35
330
1E
100
AcDbEntity
  8
0
100
AcDbLine
 10
11.03999999999999
 20
43.93444999999999
 30
0.0
 11
11.03999999999999
 21
53.39665
 31
0.0
  0
LINE
  5
36
330
1E
100
AcDbEntity
  8
0
100
AcDbLine
 10
11.03999999999999
 20
21.55245
 30
0.0
 11
11.03999999999999
 21
18.15255
 31
0.0
  0
LINE
  5
37
330
1E
100
AcDbEntity
  8
0
100
AcDbLine
 10
11.03999999999999
 20
21.55245
 30
0.0
 11
11.03999999999999
 21
27.87494999999999
 31
0.0
  0
LINE
  5
38
330
1E
100
AcDbEntity
  8
0
100
AcDbLine
 10
11.03999999999999
 20
140.3966499999999
 30
0.0
 11
11.03999999999999
 21
149.85865
 31
0.0
  0
LINE
  5
39
330
1E
100
AcDbEntity
  8
0
100
AcDbLine
 10
11.03999999999999
 20
140.3966499999999
 30
0.0
 11
11.03999999999999
 21
130.18965
 31
0.0
  0
LINE
  5
3A
330
1E
100
AcDbEntity
  8
0
100
AcDbLine
 10
11.03999999999999
 20
149.85865
 30
0.0
 11
11.03999999999999
 21
140.3966499999999
 31
0.0
  0
LINE
  5
3B
330
1E
100
AcDbEntity
  8
0
100
AcDbLine
 10
11.03999999999999
 20
149.85865
 30
0.0
 11
11.03999999999999
 21
158.4146499999999
 31
0.0
  0
LINE
  5
3C
330
1E
100
AcDbEntity
  8
0
100
AcDbLine
 10
11.03999999999999
 20
119.41365
 30
0.0
 11
11.03999999999999
 21
130.18965
 31
0.0
  0
LINE
  5
3D
330
1E
100
AcDbEntity
  8
0
100
AcDbLine
 10
11.03999999999999
 20
119.41365
 30
0.0
 11
11.03999999999999
 21
108.2526499999999
 31
0.0
  0
LINE
  5
3E
330
1E
100
AcDbEntity
  8
0
100
AcDbLine
 10
11.03999999999999
 20
130.18965
 30
0.0
 11
11.03999999999999
 21
119.41365
 31
0.0
  0
LINE
  5
3F
330
1E
100
AcDbEntity
  8
0
100
AcDbLine
 10
11.03999999999999
 20
130.18965
 30
0.0
 11
11.03999999999999
 21
140.3966499999999
 31
0.0
  0
LINE
  5
40
330
1E
100
AcDbEntity
  8
0
100
AcDbLine
 10
11.03999999999999
 20
96.89664999999999
 30
0.0
 11
11.03999999999999
 21
108.2526499999999
 31
0.0
  0
LINE
  5
41
330
1E
100
AcDbEntity
  8
0
100
AcDbLine
 10
11.03999999999999
 20
96.89664999999999
 30
0.0
 11
11.03999999999999
 21
85.54085
 31
0.0
  0
LINE
  5
42
330
1E
100
AcDbEntity
  8
0
100
AcDbLine
 10
11.03999999999999
 20
108.2526499999999
 30
0.0
 11
11.03999999999999
 21
96.89664999999999
 31
0.0
  0
LINE
  5
43
330
1E
100
AcDbEntity
  8
0
100
AcDbLine
 10
11.03999999999999
 20
108.2526499999999
 30
0.0
 11
11.03999999999999
 21
119.41365
 31
0.0
  0
LINE
  5
44
330
1E
100
AcDbEntity
  8
0
100
AcDbLine
 10
11.03999999999999
 20
158.4146499999999
 30
0.0
 11
11.03999999999999
 21
165.91865
 31
0.0
  0
LINE
  5
45
330
1E
100
AcDbEntity
  8
0
100
AcDbLine
 10
11.03999999999999
 20
158.4146499999999
 30
0.0
 11
11.03999999999999
 21
149.85865
 31
0.0
  0
LINE
  5
46
330
1E
100
AcDbEntity
  8
0
100
AcDbLine
 10
11.03999999999999
 20
165.91865
 30
0.0
 11
11.03999999999999
 21
158.4146499999999
 31
0.0
  0
LINE
  5
47
330
1E
100
AcDbEntity
  8
0
100
AcDbLine
 10
11.03999999999999
 20
165.91865
 30
0.0
 11
11.03999999999999
 21
172.2406499999999
 31
0.0
  0
LINE
  5
48
330
1E
100
AcDbEntity
  8
0
100
AcDbLine
 10
11.03999999999999
 20
180.93265
 30
0.0
 11
11.03999999999999
 21
177.27465
 31
0.0
  0
LINE
  5
49
330
1E
100
AcDbEntity
  8
0
100
AcDbLine
 10
11.03999999999999
 20
180.93265
 30
0.0
 11
11.03999999999999
 21
183.15265
 31
0.0
  0
LINE
  5
4A
330
1E
100
AcDbEntity
  8
0
100
AcDbLine
 10
11.03999999999999
 20
183.15265
 30
0.0
 11
11.03999999999999
 21
183.8966499999999
 31
0.0
  0
LINE
  5
4B
330
1E
100
AcDbEntity
  8
0
100
AcDbLine
 10
11.03999999999999
 20
183.15265
 30
0.0
 11
11.03999999999999
 21
180.93265
 31
0.0
  0
LINE
  5
4C
330
1E
100
AcDbEntity
  8
0
100
AcDbLine
 10
11.03999999999999
 20
172.2406499999999
 30
0.0
 11
11.03999999999999
 21
177.27465
 31
0.0
  0
LINE
  5
4D
330
1E
100
AcDbEntity
  8
0
100
AcDbLine
 10
11.03999999999999
 20
172.2406499999999
 30
0.0
 11
11.03999999999999
 21
165.91865
 31
0.0
  0
LINE
  5
4E
330
1E
100
AcDbEntity
  8
0
100
AcDbLine
 10
11.03999999999999
 20
177.27465
 30
0.0
 11
11.03999999999999
 21
172.2406499999999
 31
0.0
  0
LINE
  5
4F
330
1E
100
AcDbEntity
  8
0
100
AcDbLine
 10
11.03999999999999
 20
177.27465
 30
0.0
 11
11.03999999999999
 21
180.93265
 31
0.0
  0
LINE
  5
51
330
1E
100
AcDbEntity
  8
0
100
AcDbLine
 10
7.392939999999999
 20
166.24965
 30
0.0
 11
11.03999999999999
 21
163.4755270591659
 31
0.0
  0
LINE
  5
52
330
1E
100
AcDbEntity
  8
0
100
AcDbLine
 10
0.922353
 20
190.29365
 30
0.0
 11
3.422349999999999
 21
196.32265
 31
0.0
  0
LINE
  5
54
330
1E
100
AcDbEntity
  8
0
100
AcDbLine
 10
3.422349999999999
 20
196.32265
 30
0.0
 11
7.392939999999999
 21
201.54365
 31
0.0
  0
LINE
  5
55
330
1E
100
AcDbEntity
  8
0
100
AcDbLine
 10
0.9223529999999989
 20
190.29365
 30
0.0
 11
3.422349999999999
 21
196.32265
 31
0.0
  0
LINE
  5
57
330
1E
100
AcDbEntity
  8
0
100
AcDbLine
 10
7.392939999999999
 20
201.54365
 30
0.0
 11
12.6135
 21
205.5146499999999
 31
0.0
  0
LINE
  5
58
330
1E
100
AcDbEntity
  8
0
100
AcDbLine
 10
11.03999999999999
 20
183.8966499999999
 30
0.0
 11
11.544
 21
187.48065
 31
0.0
  0
LINE
  5
59
330
1E
100
AcDbEntity
  8
0
100
AcDbLine
 10
11.03999999999999
 20
183.8966499999999
 30
0.0
 11
11.03999999999999
 21
183.15265
 31
0.0
  0
LINE
  5
5A
330
1E
100
AcDbEntity
  8
0
100
AcDbLine
 10
11.03999999999999
 20
18.15255
 30
0.0
 11
11.03999999999999
 21
17.14475
 31
0.0
  0
LINE
  5
5B
330
1E
100
AcDbEntity
  8
0
100
AcDbLine
 10
11.03999999999999
 20
18.15255
 30
0.0
 11
11.03999999999999
 21
21.55245
 31
0.0
  0
LINE
  5
5C
330
1E
100
AcDbEntity
  8
0
100
AcDbLine
 10
14.3308
 20
4.63625000000003
 30
0.0
 11
15.2599
 21
3.72295000000002
 31
0.0
  0
LINE
  5
5D
330
1E
100
AcDbEntity
  8
0
100
AcDbLine
 10
13.5048
 20
5.62655000000003
 30
0.0
 11
14.3308
 21
4.63625000000003
 31
0.0
  0
LINE
  5
5E
330
1E
100
AcDbEntity
  8
0
100
AcDbLine
 10
18.5731
 20
1.537750000000019
 30
0.0
 11
19.8172
 21
1.01815000000003
 31
0.0
  0
LINE
  5
5F
330
1E
100
AcDbEntity
  8
0
100
AcDbLine
 10
17.3911
 20
2.16735000000003
 30
0.0
 11
18.5731
 21
1.537750000000019
 31
0.0
  0
LINE
  5
60
330
1E
100
AcDbEntity
  8
0
100
AcDbLine
 10
21.1113
 20
0.610350000000024
 30
0.0
 11
22.4434
 21
0.319750000000025
 31
0.0
  0
LINE
  5
61
330
1E
100
AcDbEntity
  8
0
100
AcDbLine
 10
19.8172
 20
1.01815000000003
 30
0.0
 11
21.1113
 21
0.610350000000024
 31
0.0
  0
LINE
  5
62
330
1E
100
AcDbEntity
  8
0
100
AcDbLine
 10
16.283
 20
2.89775000000003
 30
0.0
 11
17.3911
 21
2.16735000000003
 31
0.0
  0
LINE
  5
63
330
1E
100
AcDbEntity
  8
0
100
AcDbLine
 10
15.2599
 20
3.72295000000002
 30
0.0
 11
16.283
 21
2.89775000000003
 31
0.0
  0
LINE
  5
64
330
1E
100
AcDbEntity
  8
0
100
AcDbLine
 10
12.1917
 20
7.803450000000029
 30
0.0
 11
12.7887
 21
6.686350000000018
 31
0.0
  0
LINE
  5
65
330
1E
100
AcDbEntity
  8
0
100
AcDbLine
 10
12.7887
 20
6.686350000000018
 30
0.0
 11
13.5048
 21
5.62655000000003
 31
0.0
  0
LINE
  5
66
330
1E
100
AcDbEntity
  8
0
100
AcDbLine
 10
12.1567
 20
7.870950000000029
 30
0.0
 11
12.1917
 21
7.803450000000029
 31
0.0
  0
LINE
  5
67
330
1E
100
AcDbEntity
  8
0
100
AcDbLine
 10
11.6826
 20
9.039950000000018
 30
0.0
 11
12.1567
 21
7.870950000000029
 31
0.0
  0
LINE
  5
68
330
1E
100
AcDbEntity
  8
0
100
AcDbLine
 10
11.3366
 20
10.24505
 30
0.0
 11
11.6826
 21
9.039950000000018
 31
0.0
  0
LINE
  5
69
330
1E
100
AcDbEntity
  8
0
100
AcDbLine
 10
11.1226
 20
11.47405
 30
0.0
 11
11.3366
 21
10.24505
 31
0.0
  0
LINE
  5
6A
330
1E
100
AcDbEntity
  8
0
100
AcDbLine
 10
11.0426
 20
12.94845
 30
0.0
 11
11.0426
 21
16.83625
 31
0.0
  0
LINE
  5
6B
330
1E
100
AcDbEntity
  8
0
100
AcDbLine
 10
11.0426
 20
16.83625
 30
0.0
 11
11.0426
 21
12.94845
 31
0.0
  0
LINE
  5
6C
330
1E
100
AcDbEntity
  8
0
100
AcDbLine
 10
11.0426
 20
16.83625
 30
0.0
 11
11.0558641744998
 21
17.0425079134718
 31
0.0
  0
LINE
  5
6D
330
1E
100
AcDbEntity
  8
0
100
AcDbLine
 10
11.0426
 20
16.60585
 30
0.0
 11
11.0426
 21
12.71805
 31
0.0
  0
LINE
  5
6E
330
1E
100
AcDbEntity
  8
0
100
AcDbLine
 10
11.0426
 20
16.60585
 30
0.0
 11
11.0477
 21
16.72105
 31
0.0
  0
LINE
  5
6F
330
1E
100
AcDbEntity
  8
0
100
AcDbLine
 10
11.0426
 20
12.71805
 30
0.0
 11
11.1226
 21
11.47405
 31
0.0
  0
LINE
  5
70
330
1E
100
AcDbEntity
  8
0
100
AcDbLine
 10
11.0426
 20
12.71805
 30
0.0
 11
11.0426
 21
16.60585
 31
0.0
  0
LINE
  5
71
330
1E
100
AcDbEntity
  8
0
100
AcDbLine
 10
11.544
 20
13.89655
 30
0.0
 11
12.888
 21
10.85134999999999
 31
0.0
  0
LINE
  5
72
330
1E
100
AcDbEntity
  8
0
100
AcDbLine
 10
12.888
 20
10.85134999999999
 30
0.0
 11
15.128
 21
8.16145000000003
 31
0.0
  0
LINE
  5
73
330
1E
100
AcDbEntity
  8
0
100
AcDbLine
 10
15.128
 20
8.16145000000003
 30
0.0
 11
18.096
 21
6.131350000000029
 31
0.0
  0
LINE
  5
74
330
1E
100
AcDbEntity
  8
0
100
AcDbLine
 10
18.096
 20
6.131350000000029
 30
0.0
 11
21.45599999999999
 21
4.91325000000003
 31
0.0
  0
LINE
  5
75
330
1E
100
AcDbEntity
  8
0
100
AcDbLine
 10
22.4434
 20
0.319750000000025
 30
0.0
 11
23.8005
 21
0.147850000000024
 31
0.0
  0
LINE
  5
76
330
1E
100
AcDbEntity
  8
0
100
AcDbLine
 10
23.8005
 20
0.147850000000024
 30
0.0
 11
25.04
 21
0.103350000000025
 31
0.0
  0
LINE
  5
77
330
1E
100
AcDbEntity
  8
0
100
AcDbLine
 10
25.04
 20
0.103350000000025
 30
0.0
 11
26.2795
 21
0.147850000000024
 31
0.0
  0
LINE
  5
78
330
1E
100
AcDbEntity
  8
0
100
AcDbLine
 10
26.2795
 20
0.147850000000024
 30
0.0
 11
27.6366
 21
0.319750000000025
 31
0.0
  0
LINE
  5
79
330
1E
100
AcDbEntity
  8
0
100
AcDbLine
 10
27.6366
 20
0.319750000000025
 30
0.0
 11
28.96869999999999
 21
0.610350000000024
 31
0.0
  0
LINE
  5
7A
330
1E
100
AcDbEntity
  8
0
100
AcDbLine
 10
28.96869999999999
 20
0.610350000000024
 30
0.0
 11
30.26279999999999
 21
1.01815000000003
 31
0.0
  0
LINE
  5
7B
330
1E
100
AcDbEntity
  8
0
100
AcDbLine
 10
30.26279999999999
 20
1.01815000000003
 30
0.0
 11
31.5069
 21
1.537750000000019
 31
0.0
  0
LINE
  5
7C
330
1E
100
AcDbEntity
  8
0
100
AcDbLine
 10
31.5069
 20
1.537750000000019
 30
0.0
 11
32.68889999999999
 21
2.16735000000003
 31
0.0
  0
LINE
  5
7D
330
1E
100
AcDbEntity
  8
0
100
AcDbLine
 10
32.68889999999999
 20
2.16735000000003
 30
0.0
 11
33.79699999999999
 21
2.89775000000003
 31
0.0
  0
LINE
  5
7E
330
1E
100
AcDbEntity
  8
0
100
AcDbLine
 10
33.79699999999999
 20
2.89775000000003
 30
0.0
 11
34.82009999999999
 21
3.72295000000002
 31
0.0
  0
LINE
  5
7F
330
1E
100
AcDbEntity
  8
0
100
AcDbLine
 10
34.82009999999999
 20
3.72295000000002
 30
0.0
 11
35.7492
 21
4.63625000000003
 31
0.0
  0
LINE
  5
80
330
1E
100
AcDbEntity
  8
0
100
AcDbLine
 10
35.7492
 20
4.63625000000003
 30
0.0
 11
36.5752
 21
5.62655000000003
 31
0.0
  0
LINE
  5
81
330
1E
100
AcDbEntity
  8
0
100
AcDbLine
 10
36.5752
 20
5.62655000000003
 30
0.0
 11
37.2913
 21
6.686350000000018
 31
0.0
  0
LINE
  5
82
330
1E
100
AcDbEntity
  8
0
100
AcDbLine
 10
37.8883
 20
7.803450000000029
 30
0.0
 11
37.92329999999999
 21
7.870950000000029
 31
0.0
  0
LINE
  5
83
330
1E
100
AcDbEntity
  8
0
100
AcDbLine
 10
37.2913
 20
6.686350000000018
 30
0.0
 11
37.8883
 21
7.803450000000029
 31
0.0
  0
LINE
  5
84
330
1E
100
AcDbEntity
  8
0
100
AcDbLine
 10
37.92329999999999
 20
7.870950000000029
 30
0.0
 11
38.39739999999999
 21
9.039950000000018
 31
0.0
  0
LINE
  5
85
330
1E
100
AcDbEntity
  8
0
100
AcDbLine
 10
38.39739999999999
 20
9.039950000000018
 30
0.0
 11
38.7434
 21
10.24505
 31
0.0
  0
LINE
  5
86
330
1E
100
AcDbEntity
  8
0
100
AcDbLine
 10
38.7434
 20
10.24505
 30
0.0
 11
38.95739999999999
 21
11.47405
 31
0.0
  0
LINE
  5
87
330
1E
100
AcDbEntity
  8
0
100
AcDbLine
 10
39.03739999999999
 20
12.71805
 30
0.0
 11
39.03739999999999
 21
16.60585
 31
0.0
  0
LINE
  5
88
330
1E
100
AcDbEntity
  8
0
100
AcDbLine
 10
38.95739999999999
 20
11.47405
 30
0.0
 11
39.03739999999999
 21
12.71805
 31
0.0
  0
LINE
  5
89
330
1E
100
AcDbEntity
  8
0
100
AcDbLine
 10
39.03739999999999
 20
16.60585
 30
0.0
 11
39.03739999999999
 21
12.71805
 31
0.0
  0
LINE
  5
8A
330
1E
100
AcDbEntity
  8
0
100
AcDbLine
 10
39.03739999999999
 20
16.60585
 30
0.0
 11
39.03739999999999
 21
16.83625
 31
0.0
  0
LINE
  5
8B
330
1E
100
AcDbEntity
  8
0
100
AcDbLine
 10
39.03739999999999
 20
16.83625
 30
0.0
 11
39.03739999999999
 21
16.60585
 31
0.0
  0
LINE
  5
8C
330
1E
100
AcDbEntity
  8
0
100
AcDbLine
 10
39.0241358255002
 20
17.0425079134718
 30
0.0
 11
39.03739999999999
 21
16.83625
 31
0.0
  0
LINE
  5
8D
330
1E
100
AcDbEntity
  8
0
100
AcDbLine
 10
39.0323
 20
16.72105
 30
0.0
 11
39.03739999999999
 21
16.60585
 31
0.0
  0
LINE
  5
8E
330
1E
100
AcDbEntity
  8
0
100
AcDbLine
 10
39.03999999999999
 20
17.14475
 30
0.0
 11
39.03999999999999
 21
18.15255
 31
0.0
  0
LINE
  5
8F
330
1E
100
AcDbEntity
  8
0
100
AcDbLine
 10
38.536
 20
13.89655
 30
0.0
 11
39.03999999999999
 21
17.14475
 31
0.0
  0
LINE
  5
90
330
1E
100
AcDbEntity
  8
0
100
AcDbLine
 10
37.192
 20
10.85134999999999
 30
0.0
 11
38.536
 21
13.89655
 31
0.0
  0
LINE
  5
91
330
1E
100
AcDbEntity
  8
0
100
AcDbLine
 10
34.952
 20
8.16145000000003
 30
0.0
 11
37.192
 21
10.85134999999999
 31
0.0
  0
LINE
  5
92
330
1E
100
AcDbEntity
  8
0
100
AcDbLine
 10
31.984
 20
6.131350000000029
 30
0.0
 11
34.952
 21
8.16145000000003
 31
0.0
  0
LINE
  5
93
330
1E
100
AcDbEntity
  8
0
100
AcDbLine
 10
28.624
 20
4.91325000000003
 30
0.0
 11
31.984
 21
6.131350000000029
 31
0.0
  0
LINE
  5
94
330
1E
100
AcDbEntity
  8
0
100
AcDbLine
 10
25.04
 20
4.45645000000003
 30
0.0
 11
28.624
 21
4.91325000000003
 31
0.0
  0
LINE
  5
95
330
1E
100
AcDbEntity
  8
0
100
AcDbLine
 10
39.03999999999999
 20
21.55245
 30
0.0
 11
39.03999999999999
 21
18.15255
 31
0.0
  0
LINE
  5
96
330
1E
100
AcDbEntity
  8
0
100
AcDbLine
 10
39.03999999999999
 20
21.55245
 30
0.0
 11
39.03999999999999
 21
27.87494999999999
 31
0.0
  0
LINE
  5
97
330
1E
100
AcDbEntity
  8
0
100
AcDbLine
 10
39.03999999999999
 20
18.15255
 30
0.0
 11
39.03999999999999
 21
21.55245
 31
0.0
  0
LINE
  5
98
330
1E
100
AcDbEntity
  8
0
100
AcDbLine
 10
39.03999999999999
 20
18.15255
 30
0.0
 11
39.03999999999999
 21
17.14475
 31
0.0
  0
LINE
  5
99
330
1E
100
AcDbEntity
  8
0
100
AcDbLine
 10
21.45599999999999
 20
4.91325000000003
 30
0.0
 11
25.04
 21
4.45645000000003
 31
0.0
  0
LINE
  5
9A
330
1E
100
AcDbEntity
  8
0
100
AcDbLine
 10
11.544
 20
187.48065
 30
0.0
 11
12.888
 21
190.84065
 31
0.0
  0
LINE
  5
9B
330
1E
100
AcDbEntity
  8
0
100
AcDbLine
 10
12.888
 20
190.84065
 30
0.0
 11
15.128
 21
193.80865
 31
0.0
  0
LINE
  5
9C
330
1E
100
AcDbEntity
  8
0
100
AcDbLine
 10
15.128
 20
193.80865
 30
0.0
 11
18.096
 21
196.04865
 31
0.0
  0
LINE
  5
9D
330
1E
100
AcDbEntity
  8
0
100
AcDbLine
 10
12.6135
 20
205.5146499999999
 30
0.0
 11
18.6429
 21
208.01465
 31
0.0
  0
LINE
  5
9E
330
1E
100
AcDbEntity
  8
0
100
AcDbLine
 10
18.6429
 20
208.01465
 30
0.0
 11
25.04
 21
208.89665
 31
0.0
  0
LINE
  5
9F
330
1E
100
AcDbEntity
  8
0
100
AcDbLine
 10
18.096
 20
196.04865
 30
0.0
 11
21.45599999999999
 21
197.39265
 31
0.0
  0
LINE
  5
A0
330
1E
100
AcDbEntity
  8
0
100
AcDbLine
 10
39.03999999999999
 20
35.37834999999999
 30
0.0
 11
39.03999999999999
 21
27.87494999999999
 31
0.0
  0
LINE
  5
A1
330
1E
100
AcDbEntity
  8
0
100
AcDbLine
 10
39.03999999999999
 20
35.37834999999999
 30
0.0
 11
39.03999999999999
 21
43.93444999999999
 31
0.0
  0
LINE
  5
A2
330
1E
100
AcDbEntity
  8
0
100
AcDbLine
 10
39.03999999999999
 20
27.87494999999999
 30
0.0
 11
39.03999999999999
 21
35.37834999999999
 31
0.0
  0
LINE
  5
A3
330
1E
100
AcDbEntity
  8
0
100
AcDbLine
 10
39.03999999999999
 20
27.87494999999999
 30
0.0
 11
39.03999999999999
 21
21.55245
 31
0.0
  0
LINE
  5
A4
330
1E
100
AcDbEntity
  8
0
100
AcDbLine
 10
39.03999999999999
 20
53.39665
 30
0.0
 11
39.03999999999999
 21
43.93444999999999
 31
0.0
  0
LINE
  5
A5
330
1E
100
AcDbEntity
  8
0
100
AcDbLine
 10
39.03999999999999
 20
53.39665
 30
0.0
 11
39.03999999999999
 21
63.60314999999999
 31
0.0
  0
LINE
  5
A6
330
1E
100
AcDbEntity
  8
0
100
AcDbLine
 10
39.03999999999999
 20
43.93444999999999
 30
0.0
 11
39.03999999999999
 21
53.39665
 31
0.0
  0
LINE
  5
A7
330
1E
100
AcDbEntity
  8
0
100
AcDbLine
 10
39.03999999999999
 20
43.93444999999999
 30
0.0
 11
39.03999999999999
 21
35.37834999999999
 31
0.0
  0
LINE
  5
A8
330
1E
100
AcDbEntity
  8
0
100
AcDbLine
 10
39.03999999999999
 20
119.41365
 30
0.0
 11
39.03999999999999
 21
108.2526499999999
 31
0.0
  0
LINE
  5
A9
330
1E
100
AcDbEntity
  8
0
100
AcDbLine
 10
39.03999999999999
 20
119.41365
 30
0.0
 11
39.03999999999999
 21
130.18965
 31
0.0
  0
LINE
  5
AA
330
1E
100
AcDbEntity
  8
0
100
AcDbLine
 10
39.03999999999999
 20
108.2526499999999
 30
0.0
 11
39.03999999999999
 21
119.41365
 31
0.0
  0
LINE
  5
AB
330
1E
100
AcDbEntity
  8
0
100
AcDbLine
 10
39.03999999999999
 20
108.2526499999999
 30
0.0
 11
39.03999999999999
 21
96.89664999999999
 31
0.0
  0
LINE
  5
AC
330
1E
100
AcDbEntity
  8
0
100
AcDbLine
 10
39.03999999999999
 20
140.3966499999999
 30
0.0
 11
39.03999999999999
 21
130.18965
 31
0.0
  0
LINE
  5
AD
330
1E
100
AcDbEntity
  8
0
100
AcDbLine
 10
39.03999999999999
 20
140.3966499999999
 30
0.0
 11
39.03999999999999
 21
149.85865
 31
0.0
  0
LINE
  5
AE
330
1E
100
AcDbEntity
  8
0
100
AcDbLine
 10
39.03999999999999
 20
130.18965
 30
0.0
 11
39.03999999999999
 21
140.3966499999999
 31
0.0
  0
LINE
  5
AF
330
1E
100
AcDbEntity
  8
0
100
AcDbLine
 10
39.03999999999999
 20
130.18965
 30
0.0
 11
39.03999999999999
 21
119.41365
 31
0.0
  0
LINE
  5
B0
330
1E
100
AcDbEntity
  8
0
100
AcDbLine
 10
39.03999999999999
 20
159.8966499999999
 30
0.0
 11
67.48090000000001
 21
159.8966499999999
 31
0.0
  0
LINE
  5
B1
330
1E
100
AcDbEntity
  8
0
100
AcDbLine
 10
39.03999999999999
 20
158.4146499999999
 30
0.0
 11
39.03999999999999
 21
149.85865
 31
0.0
  0
LINE
  5
B2
330
1E
100
AcDbEntity
  8
0
100
AcDbLine
 10
39.03999999999999
 20
158.4146499999999
 30
0.0
 11
39.03999999999999
 21
165.91865
 31
0.0
  0
LINE
  5
B3
330
1E
100
AcDbEntity
  8
0
100
AcDbLine
 10
39.03999999999999
 20
149.85865
 30
0.0
 11
39.03999999999999
 21
158.4146499999999
 31
0.0
  0
LINE
  5
B4
330
1E
100
AcDbEntity
  8
0
100
AcDbLine
 10
39.03999999999999
 20
149.85865
 30
0.0
 11
39.03999999999999
 21
140.3966499999999
 31
0.0
  0
LINE
  5
B5
330
1E
100
AcDbEntity
  8
0
100
AcDbLine
 10
39.03999999999999
 20
96.89664999999999
 30
0.0
 11
39.03999999999999
 21
85.54085
 31
0.0
  0
LINE
  5
B6
330
1E
100
AcDbEntity
  8
0
100
AcDbLine
 10
39.03999999999999
 20
96.89664999999999
 30
0.0
 11
39.03999999999999
 21
108.2526499999999
 31
0.0
  0
LINE
  5
B7
330
1E
100
AcDbEntity
  8
0
100
AcDbLine
 10
39.03999999999999
 20
85.54085
 30
0.0
 11
39.03999999999999
 21
96.89664999999999
 31
0.0
  0
LINE
  5
B8
330
1E
100
AcDbEntity
  8
0
100
AcDbLine
 10
39.03999999999999
 20
85.54085
 30
0.0
 11
39.03999999999999
 21
74.37935
 31
0.0
  0
LINE
  5
B9
330
1E
100
AcDbEntity
  8
0
100
AcDbLine
 10
39.03999999999999
 20
74.37935
 30
0.0
 11
39.03999999999999
 21
63.60314999999999
 31
0.0
  0
LINE
  5
BA
330
1E
100
AcDbEntity
  8
0
100
AcDbLine
 10
39.03999999999999
 20
74.37935
 30
0.0
 11
39.03999999999999
 21
85.54085
 31
0.0
  0
LINE
  5
BB
330
1E
100
AcDbEntity
  8
0
100
AcDbLine
 10
39.03999999999999
 20
63.60314999999999
 30
0.0
 11
39.03999999999999
 21
74.37935
 31
0.0
  0
LINE
  5
BC
330
1E
100
AcDbEntity
  8
0
100
AcDbLine
 10
39.03999999999999
 20
63.60314999999999
 30
0.0
 11
39.03999999999999
 21
53.39665
 31
0.0
  0
LINE
  5
BD
330
1E
100
AcDbEntity
  8
0
100
AcDbLine
 10
39.03999999999999
 20
165.91865
 30
0.0
 11
39.03999999999999
 21
172.2406499999999
 31
0.0
  0
LINE
  5
BE
330
1E
100
AcDbEntity
  8
0
100
AcDbLine
 10
39.03999999999999
 20
165.91865
 30
0.0
 11
39.03999999999999
 21
158.4146499999999
 31
0.0
  0
LINE
  5
C0
330
1E
100
AcDbEntity
  8
0
100
AcDbLine
 10
39.03999999999999
 20
159.8966499999999
 30
0.0
 11
67.48090000000001
 21
159.8966499999999
 31
0.0
  0
LINE
  5
C1
330
1E
100
AcDbEntity
  8
0
100
AcDbLine
 10
39.03999999999999
 20
163.4755178887479
 30
0.0
 11
42.6871
 21
166.24965
 31
0.0
  0
LINE
  5
C2
330
1E
100
AcDbEntity
  8
0
100
AcDbLine
 10
39.03999999999999
 20
172.2406499999999
 30
0.0
 11
39.03999999999999
 21
165.91865
 31
0.0
  0
LINE
  5
C3
330
1E
100
AcDbEntity
  8
0
100
AcDbLine
 10
39.03999999999999
 20
172.2406499999999
 30
0.0
 11
39.03999999999999
 21
177.27465
 31
0.0
  0
LINE
  5
C4
330
1E
100
AcDbEntity
  8
0
100
AcDbLine
 10
39.03999999999999
 20
177.27465
 30
0.0
 11
39.03999999999999
 21
180.93265
 31
0.0
  0
LINE
  5
C5
330
1E
100
AcDbEntity
  8
0
100
AcDbLine
 10
39.03999999999999
 20
177.27465
 30
0.0
 11
39.03999999999999
 21
172.2406499999999
 31
0.0
  0
LINE
  5
C7
330
1E
100
AcDbEntity
  8
0
100
AcDbLine
 10
42.6871
 20
166.24965
 30
0.0
 11
46.6576
 21
171.47065
 31
0.0
  0
LINE
  5
C8
330
1E
100
AcDbEntity
  8
0
100
AcDbLine
 10
67.48090000000001
 20
159.8966499999999
 30
0.0
 11
69.0703
 21
160.74365
 31
0.0
  0
LINE
  5
C9
330
1E
100
AcDbEntity
  8
0
100
AcDbLine
 10
104.186
 20
159.8966499999999
 30
0.0
 11
105.776
 21
160.74365
 31
0.0
  0
LINE
  5
CA
330
1E
100
AcDbEntity
  8
0
100
AcDbLine
 10
66.467
 20
161.09665
 30
0.0
 11
68.0382
 21
160.2496499999999
 31
0.0
  0
LINE
  5
CB
330
1E
100
AcDbEntity
  8
0
100
AcDbLine
 10
64.98709999999999
 20
163.42565
 30
0.0
 11
66.467
 21
161.09665
 31
0.0
  0
LINE
  5
CC
330
1E
100
AcDbEntity
  8
0
100
AcDbLine
 10
62.74
 20
172.10865
 30
0.0
 11
63.7083
 21
167.16765
 31
0.0
  0
LINE
  5
CD
330
1E
100
AcDbEntity
  8
0
100
AcDbLine
 10
63.7083
 20
167.16765
 30
0.0
 11
64.98709999999999
 21
163.42565
 31
0.0
  0
LINE
  5
CE
330
1E
100
AcDbEntity
  8
0
100
AcDbLine
 10
65.8433
 20
171.96765
 30
0.0
 11
66.8299
 21
166.9556499999999
 31
0.0
  0
LINE
  5
CF
330
1E
100
AcDbEntity
  8
0
100
AcDbLine
 10
66.8299
 20
166.9556499999999
 30
0.0
 11
68.12699999999999
 21
163.14365
 31
0.0
  0
LINE
  5
D0
330
1E
100
AcDbEntity
  8
0
100
AcDbLine
 10
68.12699999999999
 20
163.14365
 30
0.0
 11
69.6251
 21
160.74365
 31
0.0
  0
LINE
  5
D2
330
1E
100
AcDbEntity
  8
0
100
AcDbLine
 10
99.4452
 20
172.10865
 30
0.0
 11
100.4129999999999
 21
167.16765
 31
0.0
  0
LINE
  5
D3
330
1E
100
AcDbEntity
  8
0
100
AcDbLine
 10
100.4129999999999
 20
167.16765
 30
0.0
 11
101.692
 21
163.42565
 31
0.0
  0
LINE
  5
D4
330
1E
100
AcDbEntity
  8
0
100
AcDbLine
 10
101.692
 20
163.42565
 30
0.0
 11
103.172
 21
161.09665
 31
0.0
  0
LINE
  5
D5
330
1E
100
AcDbEntity
  8
0
100
AcDbLine
 10
103.172
 20
161.09665
 30
0.0
 11
104.7429999999999
 21
160.2496499999999
 31
0.0
  0
LINE
  5
D6
330
1E
100
AcDbEntity
  8
0
100
AcDbLine
 10
69.6251
 20
160.74365
 30
0.0
 11
71.2146
 21
159.8966499999999
 31
0.0
  0
LINE
  5
D7
330
1E
100
AcDbEntity
  8
0
100
AcDbLine
 10
69.0703
 20
160.74365
 30
0.0
 11
69.46410912060621
 21
161.001562095685
 31
0.0
  0
LINE
  5
D9
330
1E
100
AcDbEntity
  8
0
100
AcDbLine
 10
109.2239999999999
 20
167.66165
 30
0.0
 11
110.156
 21
172.4616499999999
 31
0.0
  0
LINE
  5
DA
330
1E
100
AcDbEntity
  8
0
100
AcDbLine
 10
110.156
 20
172.4616499999999
 30
0.0
 11
110.7399999999999
 21
177.9676499999999
 31
0.0
  0
LINE
  5
DB
330
1E
100
AcDbEntity
  8
0
100
AcDbLine
 10
109.0729999999999
 20
167.16765
 30
0.0
 11
109.2239999999999
 21
167.66165
 31
0.0
  0
LINE
  5
DC
330
1E
100
AcDbEntity
  8
0
100
AcDbLine
 10
109.0729999999999
 20
167.16765
 30
0.0
 11
109.0985934180209
 21
167.29815266093
 31
0.0
  0
LINE
  5
DD
330
1E
100
AcDbEntity
  8
0
100
AcDbLine
 10
107.7939999999999
 20
163.42565
 30
0.0
 11
109.0729999999999
 21
167.16765
 31
0.0
  0
LINE
  5
DE
330
1E
100
AcDbEntity
  8
0
100
AcDbLine
 10
106.315
 20
161.09665
 30
0.0
 11
107.7939999999999
 21
163.42565
 31
0.0
  0
LINE
  5
DF
330
1E
100
AcDbEntity
  8
0
100
AcDbLine
 10
105.776
 20
160.74365
 30
0.0
 11
106.315
 21
161.09665
 31
0.0
  0
LINE
  5
E0
330
1E
100
AcDbEntity
  8
0
100
AcDbLine
 10
104.7429999999999
 20
160.2496499999999
 30
0.0
 11
106.315
 21
161.09665
 31
0.0
  0
LINE
  5
E1
330
1E
100
AcDbEntity
  8
0
100
AcDbLine
 10
71.2146
 20
159.8966499999999
 30
0.0
 11
104.186
 21
159.8966499999999
 31
0.0
  0
LINE
  5
E2
330
1E
100
AcDbEntity
  8
0
100
AcDbLine
 10
46.6576
 20
171.47065
 30
0.0
 11
49.1576
 21
177.49965
 31
0.0
  0
LINE
  5
E3
330
1E
100
AcDbEntity
  8
0
100
AcDbLine
 10
25.04
 20
208.89665
 30
0.0
 11
31.4371
 21
208.01465
 31
0.0
  0
LINE
  5
E4
330
1E
100
AcDbEntity
  8
0
100
AcDbLine
 10
37.192
 20
190.84065
 30
0.0
 11
38.536
 21
187.48065
 31
0.0
  0
LINE
  5
E5
330
1E
100
AcDbEntity
  8
0
100
AcDbLine
 10
39.03999999999999
 20
180.93265
 30
0.0
 11
39.03999999999999
 21
177.27465
 31
0.0
  0
LINE
  5
E6
330
1E
100
AcDbEntity
  8
0
100
AcDbLine
 10
39.03999999999999
 20
180.93265
 30
0.0
 11
39.03999999999999
 21
183.15265
 31
0.0
  0
LINE
  5
E7
330
1E
100
AcDbEntity
  8
0
100
AcDbLine
 10
39.03999999999999
 20
183.8966499999999
 30
0.0
 11
39.03999999999999
 21
183.15265
 31
0.0
  0
LINE
  5
E8
330
1E
100
AcDbEntity
  8
0
100
AcDbLine
 10
62.13709999999999
 20
177.8256499999999
 30
0.0
 11
62.74
 21
172.10865
 31
0.0
  0
LINE
  5
E9
330
1E
100
AcDbEntity
  8
0
100
AcDbLine
 10
98.8423
 20
177.8256499999999
 30
0.0
 11
99.4452
 21
172.10865
 31
0.0
  0
LINE
  5
EA
330
1E
100
AcDbEntity
  8
0
100
AcDbLine
 10
65.2221
 20
177.75565
 30
0.0
 11
65.8433
 21
171.96765
 31
0.0
  0
LINE
  5
EB
330
1E
100
AcDbEntity
  8
0
100
AcDbLine
 10
61.9178
 20
183.8966499999999
 30
0.0
 11
62.13709999999999
 21
189.9676499999999
 31
0.0
  0
LINE
  5
EC
330
1E
100
AcDbEntity
  8
0
100
AcDbLine
 10
61.9178
 20
183.8966499999999
 30
0.0
 11
62.13709999999999
 21
177.8256499999999
 31
0.0
  0
LINE
  5
ED
330
1E
100
AcDbEntity
  8
0
100
AcDbLine
 10
91.865
 20
181.9906499999999
 30
0.0
 11
92.46500000000001
 21
181.19065
 31
0.0
  0
LINE
  5
EE
330
1E
100
AcDbEntity
  8
0
100
AcDbLine
 10
91.75920000000001
 20
181.93165
 30
0.0
 11
92.38269999999999
 21
181.10865
 31
0.0
  0
LINE
  5
EF
330
1E
100
AcDbEntity
  8
0
100
AcDbLine
 10
91.4886
 20
182.90865
 30
0.0
 11
91.865
 21
181.9906499999999
 31
0.0
  0
LINE
  5
F0
330
1E
100
AcDbEntity
  8
0
100
AcDbLine
 10
91.3709
 20
182.88465
 30
0.0
 11
91.75920000000001
 21
181.93165
 31
0.0
  0
LINE
  5
F1
330
1E
100
AcDbEntity
  8
0
100
AcDbLine
 10
92.46500000000001
 20
181.19065
 30
0.0
 11
93.26500000000001
 21
180.59065
 31
0.0
  0
LINE
  5
F2
330
1E
100
AcDbEntity
  8
0
100
AcDbLine
 10
93.26500000000001
 20
180.59065
 30
0.0
 11
94.18269999999999
 21
180.21465
 31
0.0
  0
LINE
  5
F3
330
1E
100
AcDbEntity
  8
0
100
AcDbLine
 10
92.38269999999999
 20
181.10865
 30
0.0
 11
93.20619999999999
 21
180.48465
 31
0.0
  0
LINE
  5
F4
330
1E
100
AcDbEntity
  8
0
100
AcDbLine
 10
93.20619999999999
 20
180.48465
 30
0.0
 11
94.15919999999999
 21
180.09665
 31
0.0
  0
LINE
  5
F5
330
1E
100
AcDbEntity
  8
0
100
AcDbLine
 10
94.18269999999999
 20
180.21465
 30
0.0
 11
95.17090000000001
 21
180.07265
 31
0.0
  0
LINE
  5
F6
330
1E
100
AcDbEntity
  8
0
100
AcDbLine
 10
94.15919999999999
 20
180.09665
 30
0.0
 11
95.17090000000001
 21
179.95565
 31
0.0
  0
LINE
  5
F7
330
1E
100
AcDbEntity
  8
0
100
AcDbLine
 10
91.34739999999998
 20
183.8966499999999
 30
0.0
 11
91.4886
 21
184.88465
 31
0.0
  0
LINE
  5
F8
330
1E
100
AcDbEntity
  8
0
100
AcDbLine
 10
91.34739999999998
 20
183.8966499999999
 30
0.0
 11
91.4886
 21
182.90865
 31
0.0
  0
LINE
  5
F9
330
1E
100
AcDbEntity
  8
0
100
AcDbLine
 10
91.2298
 20
183.8966499999999
 30
0.0
 11
91.3709
 21
184.90865
 31
0.0
  0
LINE
  5
FA
330
1E
100
AcDbEntity
  8
0
100
AcDbLine
 10
91.2298
 20
183.8966499999999
 30
0.0
 11
91.3709
 21
182.88465
 31
0.0
  0
LINE
  5
FB
330
1E
100
AcDbEntity
  8
0
100
AcDbLine
 10
91.4886
 20
184.88465
 30
0.0
 11
91.865
 21
185.80265
 31
0.0
  0
LINE
  5
FC
330
1E
100
AcDbEntity
  8
0
100
AcDbLine
 10
91.3709
 20
184.90865
 30
0.0
 11
91.75920000000001
 21
185.86165
 31
0.0
  0
LINE
  5
FF
330
1E
100
AcDbEntity
  8
0
100
AcDbLine
 10
96.1592
 20
180.21465
 30
0.0
 11
97.07680000000001
 21
180.59065
 31
0.0
  0
LINE
  5
100
330
1E
100
AcDbEntity
  8
0
100
AcDbLine
 10
95.17090000000001
 20
180.07265
 30
0.0
 11
96.1592
 21
180.21465
 31
0.0
  0
LINE
  5
101
330
1E
100
AcDbEntity
  8
0
100
AcDbLine
 10
97.87680000000001
 20
181.19065
 30
0.0
 11
98.4768
 21
181.9906499999999
 31
0.0
  0
LINE
  5
102
330
1E
100
AcDbEntity
  8
0
100
AcDbLine
 10
97.9592
 20
181.10865
 30
0.0
 11
98.5827
 21
181.93165
 31
0.0
  0
LINE
  5
103
330
1E
100
AcDbEntity
  8
0
100
AcDbLine
 10
98.4768
 20
181.9906499999999
 30
0.0
 11
98.85330000000001
 21
182.90865
 31
0.0
  0
LINE
  5
104
330
1E
100
AcDbEntity
  8
0
100
AcDbLine
 10
98.5827
 20
181.93165
 30
0.0
 11
98.9709
 21
182.88465
 31
0.0
  0
LINE
  5
105
330
1E
100
AcDbEntity
  8
0
100
AcDbLine
 10
97.07680000000001
 20
180.59065
 30
0.0
 11
97.87680000000001
 21
181.19065
 31
0.0
  0
LINE
  5
106
330
1E
100
AcDbEntity
  8
0
100
AcDbLine
 10
97.13560000000001
 20
180.48465
 30
0.0
 11
97.9592
 21
181.10865
 31
0.0
  0
LINE
  5
107
330
1E
100
AcDbEntity
  8
0
100
AcDbLine
 10
96.1827
 20
180.09665
 30
0.0
 11
97.13560000000001
 21
180.48465
 31
0.0
  0
LINE
  5
108
330
1E
100
AcDbEntity
  8
0
100
AcDbLine
 10
95.17090000000001
 20
179.95565
 30
0.0
 11
96.1827
 21
180.09665
 31
0.0
  0
LINE
  5
109
330
1E
100
AcDbEntity
  8
0
100
AcDbLine
 10
98.85330000000001
 20
182.90865
 30
0.0
 11
98.99450000000001
 21
183.8966499999999
 31
0.0
  0
LINE
  5
10A
330
1E
100
AcDbEntity
  8
0
100
AcDbLine
 10
98.9709
 20
182.88465
 30
0.0
 11
99.1121
 21
183.8966499999999
 31
0.0
  0
LINE
  5
10B
330
1E
100
AcDbEntity
  8
0
100
AcDbLine
 10
98.85330000000001
 20
184.88465
 30
0.0
 11
98.99450000000001
 21
183.8966499999999
 31
0.0
  0
LINE
  5
10C
330
1E
100
AcDbEntity
  8
0
100
AcDbLine
 10
98.9709
 20
184.90865
 30
0.0
 11
99.1121
 21
183.8966499999999
 31
0.0
  0
LINE
  5
10E
330
1E
100
AcDbEntity
  8
0
100
AcDbLine
 10
98.68960406375711
 20
182.052813834613
 30
0.0
 11
98.8423
 21
177.8256499999999
 31
0.0
  0
LINE
  5
10F
330
1E
100
AcDbEntity
  8
0
100
AcDbLine
 10
91.865
 20
185.80265
 30
0.0
 11
92.46500000000001
 21
186.60265
 31
0.0
  0
LINE
  5
110
330
1E
100
AcDbEntity
  8
0
100
AcDbLine
 10
92.46500000000001
 20
186.60265
 30
0.0
 11
93.26500000000001
 21
187.20265
 31
0.0
  0
LINE
  5
111
330
1E
100
AcDbEntity
  8
0
100
AcDbLine
 10
91.75920000000001
 20
185.86165
 30
0.0
 11
92.38269999999999
 21
186.68465
 31
0.0
  0
LINE
  5
113
330
1E
100
AcDbEntity
  8
0
100
AcDbLine
 10
92.38269999999999
 20
186.68465
 30
0.0
 11
93.20619999999999
 21
187.30865
 31
0.0
  0
LINE
  5
114
330
1E
100
AcDbEntity
  8
0
100
AcDbLine
 10
97.87680000000001
 20
186.60265
 30
0.0
 11
98.4768
 21
185.80265
 31
0.0
  0
LINE
  5
115
330
1E
100
AcDbEntity
  8
0
100
AcDbLine
 10
98.4768
 20
185.80265
 30
0.0
 11
98.85330000000001
 21
184.88465
 31
0.0
  0
LINE
  5
117
330
1E
100
AcDbEntity
  8
0
100
AcDbLine
 10
97.9592
 20
186.68465
 30
0.0
 11
98.5827
 21
185.86165
 31
0.0
  0
LINE
  5
118
330
1E
100
AcDbEntity
  8
0
100
AcDbLine
 10
98.5827
 20
185.86165
 30
0.0
 11
98.9709
 21
184.90865
 31
0.0
  0
LINE
  5
119
330
1E
100
AcDbEntity
  8
0
100
AcDbLine
 10
93.26500000000001
 20
187.20265
 30
0.0
 11
94.18269999999999
 21
187.57865
 31
0.0
  0
LINE
  5
11A
330
1E
100
AcDbEntity
  8
0
100
AcDbLine
 10
93.20619999999999
 20
187.30865
 30
0.0
 11
94.15919999999999
 21
187.6966499999999
 31
0.0
  0
LINE
  5
11B
330
1E
100
AcDbEntity
  8
0
100
AcDbLine
 10
97.07680000000001
 20
187.20265
 30
0.0
 11
97.87680000000001
 21
186.60265
 31
0.0
  0
LINE
  5
11D
330
1E
100
AcDbEntity
  8
0
100
AcDbLine
 10
97.13560000000001
 20
187.30865
 30
0.0
 11
97.9592
 21
186.68465
 31
0.0
  0
LINE
  5
121
330
1E
100
AcDbEntity
  8
0
100
AcDbLine
 10
98.68960406375711
 20
185.740486165387
 30
0.0
 11
98.8423
 21
189.9676499999999
 31
0.0
  0
LINE
  5
122
330
1E
100
AcDbEntity
  8
0
100
AcDbLine
 10
65.00289999999999
 20
183.8966499999999
 30
0.0
 11
65.2221
 21
190.03765
 31
0.0
  0
LINE
  5
123
330
1E
100
AcDbEntity
  8
0
100
AcDbLine
 10
65.00289999999999
 20
183.8966499999999
 30
0.0
 11
65.2221
 21
177.75565
 31
0.0
  0
LINE
  5
124
330
1E
100
AcDbEntity
  8
0
100
AcDbLine
 10
110.7399999999999
 20
177.9676499999999
 30
0.0
 11
110.9599999999999
 21
183.8966499999999
 31
0.0
  0
LINE
  5
125
330
1E
100
AcDbEntity
  8
0
100
AcDbLine
 10
39.03999999999999
 20
183.15265
 30
0.0
 11
39.03999999999999
 21
183.8966499999999
 31
0.0
  0
LINE
  5
126
330
1E
100
AcDbEntity
  8
0
100
AcDbLine
 10
39.03999999999999
 20
183.15265
 30
0.0
 11
39.03999999999999
 21
180.93265
 31
0.0
  0
LINE
  5
127
330
1E
100
AcDbEntity
  8
0
100
AcDbLine
 10
94.18269999999999
 20
187.57865
 30
0.0
 11
95.17090000000001
 21
187.7206499999999
 31
0.0
  0
LINE
  5
128
330
1E
100
AcDbEntity
  8
0
100
AcDbLine
 10
94.15919999999999
 20
187.6966499999999
 30
0.0
 11
95.17090000000001
 21
187.8376499999999
 31
0.0
  0
LINE
  5
12A
330
1E
100
AcDbEntity
  8
0
100
AcDbLine
 10
95.17090000000001
 20
187.7206499999999
 30
0.0
 11
96.1592
 21
187.57865
 31
0.0
  0
LINE
  5
12B
330
1E
100
AcDbEntity
  8
0
100
AcDbLine
 10
95.17090000000001
 20
187.8376499999999
 30
0.0
 11
96.1827
 21
187.6966499999999
 31
0.0
  0
LINE
  5
12C
330
1E
100
AcDbEntity
  8
0
100
AcDbLine
 10
96.1592
 20
187.57865
 30
0.0
 11
97.07680000000001
 21
187.20265
 31
0.0
  0
LINE
  5
12D
330
1E
100
AcDbEntity
  8
0
100
AcDbLine
 10
96.1827
 20
187.6966499999999
 30
0.0
 11
97.13560000000001
 21
187.30865
 31
0.0
  0
LINE
  5
130
330
1E
100
AcDbEntity
  8
0
100
AcDbLine
 10
62.13709999999999
 20
189.9676499999999
 30
0.0
 11
62.74
 21
195.68465
 31
0.0
  0
LINE
  5
131
330
1E
100
AcDbEntity
  8
0
100
AcDbLine
 10
98.8423
 20
189.9676499999999
 30
0.0
 11
99.4452
 21
195.68465
 31
0.0
  0
LINE
  5
132
330
1E
100
AcDbEntity
  8
0
100
AcDbLine
 10
65.2221
 20
190.03765
 30
0.0
 11
65.8433
 21
195.82565
 31
0.0
  0
LINE
  5
133
330
1E
100
AcDbEntity
  8
0
100
AcDbLine
 10
110.7399999999999
 20
189.82565
 30
0.0
 11
110.9599999999999
 21
183.8966499999999
 31
0.0
  0
LINE
  5
134
330
1E
100
AcDbEntity
  8
0
100
AcDbLine
 10
49.1576
 20
190.29365
 30
0.0
 11
50.04
 21
183.8966499999999
 31
0.0
  0
LINE
  5
135
330
1E
100
AcDbEntity
  8
0
100
AcDbLine
 10
38.536
 20
187.48065
 30
0.0
 11
39.03999999999999
 21
183.8966499999999
 31
0.0
  0
LINE
  5
136
330
1E
100
AcDbEntity
  8
0
100
AcDbLine
 10
62.74
 20
195.68465
 30
0.0
 11
63.7083
 21
200.62565
 31
0.0
  0
LINE
  5
137
330
1E
100
AcDbEntity
  8
0
100
AcDbLine
 10
99.4452
 20
195.68465
 30
0.0
 11
100.4129999999999
 21
200.62565
 31
0.0
  0
LINE
  5
138
330
1E
100
AcDbEntity
  8
0
100
AcDbLine
 10
65.8433
 20
195.82565
 30
0.0
 11
66.8299
 21
200.8376499999999
 31
0.0
  0
LINE
  5
139
330
1E
100
AcDbEntity
  8
0
100
AcDbLine
 10
110.156
 20
195.3316499999999
 30
0.0
 11
110.7399999999999
 21
189.82565
 31
0.0
  0
LINE
  5
13A
330
1E
100
AcDbEntity
  8
0
100
AcDbLine
 10
46.6576
 20
196.32265
 30
0.0
 11
49.1576
 21
190.29365
 31
0.0
  0
LINE
  5
13B
330
1E
100
AcDbEntity
  8
0
100
AcDbLine
 10
34.952
 20
193.80865
 30
0.0
 11
37.192
 21
190.84065
 31
0.0
  0
LINE
  5
13C
330
1E
100
AcDbEntity
  8
0
100
AcDbLine
 10
31.984
 20
196.04865
 30
0.0
 11
34.952
 21
193.80865
 31
0.0
  0
LINE
  5
13E
330
1E
100
AcDbEntity
  8
0
100
AcDbLine
 10
31.72168768
 20
207.8966499999999
 30
0.0
 11
67.48090000000001
 21
207.8966499999999
 31
0.0
  0
LINE
  5
13F
330
1E
100
AcDbEntity
  8
0
100
AcDbLine
 10
37.4665
 20
205.5146499999999
 30
0.0
 11
42.6871
 21
201.54365
 31
0.0
  0
LINE
  5
140
330
1E
100
AcDbEntity
  8
0
100
AcDbLine
 10
31.4371
 20
208.01465
 30
0.0
 11
37.4665
 21
205.5146499999999
 31
0.0
  0
LINE
  5
142
330
1E
100
AcDbEntity
  8
0
100
AcDbLine
 10
63.7083
 20
200.62565
 30
0.0
 11
64.98709999999999
 21
204.36765
 31
0.0
  0
LINE
  5
143
330
1E
100
AcDbEntity
  8
0
100
AcDbLine
 10
100.4129999999999
 20
200.62565
 30
0.0
 11
101.692
 21
204.36765
 31
0.0
  0
LINE
  5
144
330
1E
100
AcDbEntity
  8
0
100
AcDbLine
 10
109.2239999999999
 20
200.13165
 30
0.0
 11
110.156
 21
195.3316499999999
 31
0.0
  0
LINE
  5
145
330
1E
100
AcDbEntity
  8
0
100
AcDbLine
 10
64.98709999999999
 20
204.36765
 30
0.0
 11
66.467
 21
206.6966499999999
 31
0.0
  0
LINE
  5
146
330
1E
100
AcDbEntity
  8
0
100
AcDbLine
 10
66.467
 20
206.6966499999999
 30
0.0
 11
68.0382
 21
207.54365
 31
0.0
  0
LINE
  5
147
330
1E
100
AcDbEntity
  8
0
100
AcDbLine
 10
66.8299
 20
200.8376499999999
 30
0.0
 11
68.12699999999999
 21
204.6496499999999
 31
0.0
  0
LINE
  5
148
330
1E
100
AcDbEntity
  8
0
100
AcDbLine
 10
68.12699999999999
 20
204.6496499999999
 30
0.0
 11
69.6251
 21
207.0496499999999
 31
0.0
  0
LINE
  5
14A
330
1E
100
AcDbEntity
  8
0
100
AcDbLine
 10
101.692
 20
204.36765
 30
0.0
 11
103.172
 21
206.6966499999999
 31
0.0
  0
LINE
  5
14B
330
1E
100
AcDbEntity
  8
0
100
AcDbLine
 10
103.172
 20
206.6966499999999
 30
0.0
 11
104.7429999999999
 21
207.54365
 31
0.0
  0
LINE
  5
14C
330
1E
100
AcDbEntity
  8
0
100
AcDbLine
 10
69.6251
 20
207.0496499999999
 30
0.0
 11
71.2146
 21
207.8966499999999
 31
0.0
  0
LINE
  5
14D
330
1E
100
AcDbEntity
  8
0
100
AcDbLine
 10
69.0703
 20
207.0496499999999
 30
0.0
 11
69.46410912060621
 21
206.791737904315
 31
0.0
  0
LINE
  5
14F
330
1E
100
AcDbEntity
  8
0
100
AcDbLine
 10
67.48090000000001
 20
207.8966499999999
 30
0.0
 11
69.0703
 21
207.0496499999999
 31
0.0
  0
LINE
  5
150
330
1E
100
AcDbEntity
  8
0
100
AcDbLine
 10
71.2146
 20
207.8966499999999
 30
0.0
 11
104.186
 21
207.8966499999999
 31
0.0
  0
LINE
  5
151
330
1E
100
AcDbEntity
  8
0
100
AcDbLine
 10
107.7939999999999
 20
204.36765
 30
0.0
 11
109.0729999999999
 21
200.62565
 31
0.0
  0
LINE
  5
152
330
1E
100
AcDbEntity
  8
0
100
AcDbLine
 10
106.315
 20
206.6966499999999
 30
0.0
 11
107.7939999999999
 21
204.36765
 31
0.0
  0
LINE
  5
153
330
1E
100
AcDbEntity
  8
0
100
AcDbLine
 10
105.776
 20
207.0496499999999
 30
0.0
 11
106.315
 21
206.6966499999999
 31
0.0
  0
LINE
  5
154
330
1E
100
AcDbEntity
  8
0
100
AcDbLine
 10
104.7429999999999
 20
207.54365
 30
0.0
 11
106.315
 21
206.6966499999999
 31
0.0
  0
LINE
  5
155
330
1E
100
AcDbEntity
  8
0
100
AcDbLine
 10
104.186
 20
207.8966499999999
 30
0.0
 11
105.776
 21
207.0496499999999
 31
0.0
  0
LINE
  5
156
330
1E
100
AcDbEntity
  8
0
100
AcDbLine
 10
109.0729999999999
 20
200.62565
 30
0.0
 11
109.0985934180209
 21
200.4951473390699
 31
0.0
  0
LINE
  5
157
330
1E
100
AcDbEntity
  8
0
100
AcDbLine
 10
109.0729999999999
 20
200.62565
 30
0.0
 11
109.2239999999999
 21
200.13165
 31
0.0
  0
LINE
  5
158
330
1E
100
AcDbEntity
  8
0
100
AcDbLine
 10
42.6871
 20
201.54365
 30
0.0
 11
46.6576
 21
196.32265
 31
0.0
  0
LINE
  5
159
330
1E
100
AcDbEntity
  8
0
100
AcDbLine
 10
28.624
 20
197.39265
 30
0.0
 11
31.984
 21
196.04865
 31
0.0
  0
LINE
  5
15A
330
1E
100
AcDbEntity
  8
0
100
AcDbLine
 10
25.04
 20
197.89665
 30
0.0
 11
28.624
 21
197.39265
 31
0.0
  0
LINE
  5
15B
330
1E
100
AcDbEntity
  8
0
100
AcDbLine
 10
49.1576
 20
177.49965
 30
0.0
 11
50.04
 21
183.8966499999999
 31
0.0
  0
LINE
  5
15C
330
1E
100
AcDbEntity
  8
0
100
AcDbLine
 10
21.45599999999999
 20
197.39265
 30
0.0
 11
25.04
 21
197.89665
 31
0.0
  0
LINE
  5
15D
330
1E
100
AcDbEntity
  8
0
100
AcDbLine
 10
11.03999999999999
 20
17.14475
 30
0.0
 11
11.03999999999999
 21
18.15255
 31
0.0
  0
LINE
  5
15E
330
1E
100
AcDbEntity
  8
0
100
AcDbLine
 10
11.03999999999999
 20
17.14475
 30
0.0
 11
11.544
 21
13.89655
 31
0.0
  0
ENDSEC
  0
SECTION
  2
OBJECTS
  0
DICTIONARY
  5
C
330
0
100
AcDbDictionary
281
     1
  3
ACAD_GROUP
350
D
  3
ACAD_LAYOUT
350
19
  3
ACAD_MLINESTYLE
350
16
  3
ACAD_PLOTSETTINGS
350
18
  3
ACAD_PLOTSTYLENAME
350
E
  3
AcDbVariableDictionary
350
164
  0
DICTIONARY
  5
D
102
{ACAD_REACTORS
330
C
102
}
330
C
100
AcDbDictionary
281
     1
  0
DICTIONARY
  5
19
102
{ACAD_REACTORS
330
C
102
}
330
C
100
AcDbDictionary
281
     1
  3
Layout1
350
1D
  3
Model
350
21
  0
DICTIONARY
  5
16
102
{ACAD_REACTORS
330
C
102
}
330
C
100
AcDbDictionary
281
     1
  3
Standard
350
17
  0
DICTIONARY
  5
18
102
{ACAD_REACTORS
330
C
102
}
330
C
100
AcDbDictionary
281
     1
  0
ACDBDICTIONARYWDFLT
  5
E
102
{ACAD_REACTORS
330
C
102
}
330
C
100
AcDbDictionary
281
     1
  3
Normal
350
F
100
AcDbDictionaryWithDefault
340
F
  0
DICTIONARY
  5
164
102
{ACAD_REACTORS
330
C
102
}
330
C
100
AcDbDictionary
281
     1
  3
DIMASSOC
350
165
  0
LAYOUT
  5
1D
102
{ACAD_REACTORS
330
19
102
}
330
19
100
AcDbPlotSettings
  1

  2
C:\Programme\AutoCAD LT 2002 Deu\plotters\DWF ePlot (optimized for plotting).pc3
  4

  6

 40
0.0
 41
0.0
 42
0.0
 43
0.0
 44
0.0
 45
0.0
 46
0.0
 47
0.0
 48
0.0
 49
0.0
140
0.0
141
0.0
142
1.0
143
1.0
 70
   688
 72
     0
 73
     0
 74
     5
  7

 75
    16
147
1.0
148
0.0
149
0.0
100
AcDbLayout
  1
Layout1
 70
     1
 71
     1
 10
0.0
 20
0.0
 11
12.0
 21
9.0
 12
0.0
 22
0.0
 32
0.0
 14
1.000000000000000E+20
 24
1.000000000000000E+20
 34
1.000000000000000E+20
 15
-1.000000000000000E+20
 25
-1.000000000000000E+20
 35
-1.000000000000000E+20
146
0.0
 13
0.0
 23
0.0
 33
0.0
 16
1.0
 26
0.0
 36
0.0
 17
0.0
 27
1.0
 37
0.0
 76
     0
330
1A
  0
LAYOUT
  5
21
102
{ACAD_REACTORS
330
19
102
}
330
19
100
AcDbPlotSettings
  1

  2
C:\Programme\AutoCAD LT 2002 Deu\plotters\DWF ePlot (optimized for plotting).pc3
  4

  6

 40
0.0
 41
0.0
 42
0.0
 43
0.0
 44
0.0
 45
0.0
 46
0.0
 47
0.0
 48
0.0
 49
0.0
140
0.0
141
0.0
142
1.0
143
1.0
 70
  1712
 72
     0
 73
     0
 74
     0
  7

 75
     0
147
1.0
148
0.0
149
0.0
100
AcDbLayout
  1
Model
 70
     1
 71
     0
 10
0.0
 20
0.0
 11
12.0
 21
9.0
 12
0.0
 22
0.0
 32
0.0
 14
0.0
 24
0.0
 34
0.0
 15
0.0
 25
0.0
 35
0.0
146
0.0
 13
0.0
 23
0.0
 33
0.0
 16
1.0
 26
0.0
 36
0.0
 17
0.0
 27
1.0
 37
0.0
 76
     0
330
1E
  0
MLINESTYLE
  5
17
102
{ACAD_REACTORS
330
16
102
}
330
16
100
AcDbMlineStyle
  2
STANDARD
 70
     0
  3

 62
   256
 51
90.0
 52
90.0
 71
     2
 49
0.5
 62
   256
  6
BYLAYER
 49
-0.5
 62
   256
  6
BYLAYER
  0
ACDBPLACEHOLDER
  5
F
102
{ACAD_REACTORS
330
E
102
}
330
E
  0
DICTIONARYVAR
  5
165
102
{ACAD_REACTORS
330
164
102
}
330
164
100
DictionaryVariables
280
     0
  1
1
  0
ENDSEC
  0
EOF
