  0
SECTION
  2
HEADER
  9
$ACADVER
  1
AC1015
  9
$ACADMAINTVER
 70
    13
  9
$DWGCODEPAGE
  3
ANSI_1252
  9
$INSBASE
 10
0.0
 20
0.0
 30
0.0
  9
$EXTMIN
 10
-0.129600000000007
 20
-0.0000000000000109
 30
0.0
  9
$EXTMAX
 10
91.12959999999999
 20
274.0
 30
0.0
  9
$LIMMIN
 10
0.0
 20
0.0
  9
$LIMMAX
 10
12.0
 20
9.0
  9
$ORTHOMODE
 70
     0
  9
$REGENMODE
 70
     1
  9
$FILLMODE
 70
     1
  9
$QTEXTMODE
 70
     0
  9
$MIRRTEXT
 70
     1
  9
$LTSCALE
 40
1.0
  9
$ATTMODE
 70
     1
  9
$TEXTSIZE
 40
0.2
  9
$TRACEWID
 40
0.05
  9
$TEXTSTYLE
  7
Standard
  9
$CLAYER
  8
0
  9
$CELTYPE
  6
Continuous
  9
$CECOLOR
 62
   256
  9
$CELTSCALE
 40
1.0
  9
$DISPSILH
 70
     0
  9
$DIMSCALE
 40
1.0
  9
$DIMASZ
 40
0.18
  9
$DIMEXO
 40
0.0625
  9
$DIMDLI
 40
0.38
  9
$DIMRND
 40
0.0
  9
$DIMDLE
 40
0.0
  9
$DIMEXE
 40
0.18
  9
$DIMTP
 40
0.0
  9
$DIMTM
 40
0.0
  9
$DIMTXT
 40
0.18
  9
$DIMCEN
 40
0.09
  9
$DIMTSZ
 40
0.0
  9
$DIMTOL
 70
     0
  9
$DIMLIM
 70
     0
  9
$DIMTIH
 70
     1
  9
$DIMTOH
 70
     1
  9
$DIMSE1
 70
     0
  9
$DIMSE2
 70
     0
  9
$DIMTAD
 70
     0
  9
$DIMZIN
 70
     0
  9
$DIMBLK
  1

  9
$DIMASO
 70
     1
  9
$DIMSHO
 70
     1
  9
$DIMPOST
  1

  9
$DIMAPOST
  1

  9
$DIMALT
 70
     0
  9
$DIMALTD
 70
     2
  9
$DIMALTF
 40
25.4
  9
$DIMLFAC
 40
1.0
  9
$DIMTOFL
 70
     0
  9
$DIMTVP
 40
0.0
  9
$DIMTIX
 70
     0
  9
$DIMSOXD
 70
     0
  9
$DIMSAH
 70
     0
  9
$DIMBLK1
  1

  9
$DIMBLK2
  1

  9
$DIMSTYLE
  2
Standard
  9
$DIMCLRD
 70
     0
  9
$DIMCLRE
 70
     0
  9
$DIMCLRT
 70
     0
  9
$DIMTFAC
 40
1.0
  9
$DIMGAP
 40
0.09
  9
$DIMJUST
 70
     0
  9
$DIMSD1
 70
     0
  9
$DIMSD2
 70
     0
  9
$DIMTOLJ
 70
     1
  9
$DIMTZIN
 70
     0
  9
$DIMALTZ
 70
     0
  9
$DIMALTTZ
 70
     0
  9
$DIMUPT
 70
     0
  9
$DIMDEC
 70
     4
  9
$DIMTDEC
 70
     4
  9
$DIMALTU
 70
     2
  9
$DIMALTTD
 70
     2
  9
$DIMTXSTY
  7
Standard
  9
$DIMAUNIT
 70
     0
  9
$DIMADEC
 70
     0
  9
$DIMALTRND
 40
0.0
  9
$DIMAZIN
 70
     0
  9
$DIMDSEP
 70
    46
  9
$DIMATFIT
 70
     3
  9
$DIMFRAC
 70
     0
  9
$DIMLDRBLK
  1

  9
$DIMLUNIT
 70
     2
  9
$DIMLWD
 70
    -2
  9
$DIMLWE
 70
    -2
  9
$DIMTMOVE
 70
     0
  9
$LUNITS
 70
     2
  9
$LUPREC
 70
     4
  9
$SKETCHINC
 40
0.1
  9
$FILLETRAD
 40
0.0
  9
$AUNITS
 70
     0
  9
$AUPREC
 70
     0
  9
$MENU
  1
.
  9
$ELEVATION
 40
0.0
  9
$PELEVATION
 40
0.0
  9
$THICKNESS
 40
0.0
  9
$LIMCHECK
 70
     0
  9
$CHAMFERA
 40
0.0
  9
$CHAMFERB
 40
0.0
  9
$CHAMFERC
 40
0.0
  9
$CHAMFERD
 40
0.0
  9
$SKPOLY
 70
     0
  9
$TDCREATE
 40
2454779.612230173
  9
$TDUCREATE
 40
2454779.570563506
  9
$TDUPDATE
 40
2454779.614763808
  9
$TDUUPDATE
 40
2454779.573097141
  9
$TDINDWG
 40
0.0025336343
  9
$TDUSRTIMER
 40
0.0025336343
  9
$USRTIMER
 70
     1
  9
$ANGBASE
 50
0.0
  9
$ANGDIR
 70
     0
  9
$PDMODE
 70
     0
  9
$PDSIZE
 40
0.0
  9
$PLINEWID
 40
0.0
  9
$SPLFRAME
 70
     0
  9
$SPLINETYPE
 70
     6
  9
$SPLINESEGS
 70
     8
  9
$HANDSEED
  5
162
  9
$SURFTAB1
 70
     6
  9
$SURFTAB2
 70
     6
  9
$SURFTYPE
 70
     6
  9
$SURFU
 70
     6
  9
$SURFV
 70
     6
  9
$UCSBASE
  2

  9
$UCSNAME
  2

  9
$UCSORG
 10
0.0
 20
0.0
 30
0.0
  9
$UCSXDIR
 10
1.0
 20
0.0
 30
0.0
  9
$UCSYDIR
 10
0.0
 20
1.0
 30
0.0
  9
$UCSORTHOREF
  2

  9
$UCSORTHOVIEW
 70
     1
  9
$UCSORGTOP
 10
0.0
 20
0.0
 30
0.0
  9
$UCSORGBOTTOM
 10
0.0
 20
0.0
 30
0.0
  9
$UCSORGLEFT
 10
0.0
 20
0.0
 30
0.0
  9
$UCSORGRIGHT
 10
0.0
 20
0.0
 30
0.0
  9
$UCSORGFRONT
 10
0.0
 20
0.0
 30
0.0
  9
$UCSORGBACK
 10
0.0
 20
0.0
 30
0.0
  9
$PUCSBASE
  2

  9
$PUCSNAME
  2

  9
$PUCSORG
 10
0.0
 20
0.0
 30
0.0
  9
$PUCSXDIR
 10
1.0
 20
0.0
 30
0.0
  9
$PUCSYDIR
 10
0.0
 20
1.0
 30
0.0
  9
$PUCSORTHOREF
  2

  9
$PUCSORTHOVIEW
 70
     0
  9
$PUCSORGTOP
 10
0.0
 20
0.0
 30
0.0
  9
$PUCSORGBOTTOM
 10
0.0
 20
0.0
 30
0.0
  9
$PUCSORGLEFT
 10
0.0
 20
0.0
 30
0.0
  9
$PUCSORGRIGHT
 10
0.0
 20
0.0
 30
0.0
  9
$PUCSORGFRONT
 10
0.0
 20
0.0
 30
0.0
  9
$PUCSORGBACK
 10
0.0
 20
0.0
 30
0.0
  9
$USERI1
 70
     0
  9
$USERI2
 70
     0
  9
$USERI3
 70
     0
  9
$USERI4
 70
     0
  9
$USERI5
 70
     0
  9
$USERR1
 40
0.0
  9
$USERR2
 40
0.0
  9
$USERR3
 40
0.0
  9
$USERR4
 40
0.0
  9
$USERR5
 40
0.0
  9
$WORLDVIEW
 70
     1
  9
$SHADEDGE
 70
     3
  9
$SHADEDIF
 70
    70
  9
$TILEMODE
 70
     1
  9
$MAXACTVP
 70
    64
  9
$PINSBASE
 10
0.0
 20
0.0
 30
0.0
  9
$PLIMCHECK
 70
     0
  9
$PEXTMIN
 10
1.000000000000000E+20
 20
1.000000000000000E+20
 30
1.000000000000000E+20
  9
$PEXTMAX
 10
-1.000000000000000E+20
 20
-1.000000000000000E+20
 30
-1.000000000000000E+20
  9
$PLIMMIN
 10
0.0
 20
0.0
  9
$PLIMMAX
 10
12.0
 20
9.0
  9
$UNITMODE
 70
     0
  9
$VISRETAIN
 70
     1
  9
$PLINEGEN
 70
     0
  9
$PSLTSCALE
 70
     1
  9
$TREEDEPTH
 70
  3020
  9
$CMLSTYLE
  2
Standard
  9
$CMLJUST
 70
     0
  9
$CMLSCALE
 40
1.0
  9
$PROXYGRAPHICS
 70
     1
  9
$MEASUREMENT
 70
     0
  9
$CELWEIGHT
370
    -1
  9
$ENDCAPS
280
     0
  9
$JOINSTYLE
280
     0
  9
$LWDISPLAY
290
     0
  9
$INSUNITS
 70
     0
  9
$HYPERLINKBASE
  1

  9
$STYLESHEET
  1

  9
$XEDIT
290
     1
  9
$CEPSNTYPE
380
     0
  9
$PSTYLEMODE
290
     1
  9
$FINGERPRINTGUID
  2
{F6A3827D-0DF2-456D-B9B2-0D1DB58204E0}
  9
$VERSIONGUID
  2
{074A097B-22D4-405D-8BA8-F12DF2004392}
  9
$EXTNAMES
290
     1
  9
$PSVPSCALE
 40
0.0
  9
$OLESTARTUP
290
     0
  0
ENDSEC
  0
SECTION
  2
CLASSES
  0
CLASS
  1
ACDBDICTIONARYWDFLT
  2
AcDbDictionaryWithDefault
  3
AutoCAD 2000
 90
        0
280
     0
281
     0
  0
CLASS
  1
ACDBPLACEHOLDER
  2
AcDbPlaceHolder
  3
AutoCAD 2000
 90
        0
280
     0
281
     0
  0
CLASS
  1
LAYOUT
  2
AcDbLayout
  3
AutoCAD 2000
 90
        0
280
     0
281
     0
  0
CLASS
  1
DICTIONARYVAR
  2
AcDbDictionaryVar
  3
AutoCAD 2000
 90
        0
280
     0
281
     0
  0
ENDSEC
  0
SECTION
  2
TABLES
  0
TABLE
  2
VPORT
  5
8
330
0
100
AcDbSymbolTable
 70
     2
  0
VPORT
  5
161
330
8
100
AcDbSymbolTableRecord
100
AcDbViewportTableRecord
  2
*Active
 70
     0
 10
0.0
 20
0.0
 11
1.0
 21
1.0
 12
45.49999999999999
 22
137.0
 13
0.0
 23
0.0
 14
1.0
 24
1.0
 15
0.0
 25
0.0
 16
0.0
 26
0.0
 36
1.0
 17
0.0
 27
0.0
 37
0.0
 40
276.1023017902813
 41
2.078104993597951
 42
50.0
 43
0.0
 44
0.0
 50
0.0
 51
0.0
 71
     0
 72
   100
 73
     1
 74
     3
 75
     0
 76
     0
 77
     0
 78
     0
281
     0
 65
     1
110
0.0
120
0.0
130
0.0
111
1.0
121
0.0
131
0.0
112
0.0
122
1.0
132
0.0
 79
     1
146
0.0
  0
ENDTAB
  0
TABLE
  2
LTYPE
  5
5
330
0
100
AcDbSymbolTable
 70
     1
  0
LTYPE
  5
13
330
5
100
AcDbSymbolTableRecord
100
AcDbLinetypeTableRecord
  2
ByBlock
 70
     0
  3

 72
    65
 73
     0
 40
0.0
  0
LTYPE
  5
14
330
5
100
AcDbSymbolTableRecord
100
AcDbLinetypeTableRecord
  2
ByLayer
 70
     0
  3

 72
    65
 73
     0
 40
0.0
  0
LTYPE
  5
15
330
5
100
AcDbSymbolTableRecord
100
AcDbLinetypeTableRecord
  2
Continuous
 70
     0
  3
Solid line
 72
    65
 73
     0
 40
0.0
  0
ENDTAB
  0
TABLE
  2
LAYER
  5
2
330
0
100
AcDbSymbolTable
 70
     1
  0
LAYER
  5
10
330
2
100
AcDbSymbolTableRecord
100
AcDbLayerTableRecord
  2
0
 70
     0
 62
     7
  6
Continuous
370
    -3
390
F
  0
ENDTAB
  0
TABLE
  2
STYLE
  5
3
330
0
100
AcDbSymbolTable
 70
     1
  0
STYLE
  5
11
330
3
100
AcDbSymbolTableRecord
100
AcDbTextStyleTableRecord
  2
Standard
 70
     0
 40
0.0
 41
1.0
 50
0.0
 71
     0
 42
0.2
  3
txt
  4

  0
ENDTAB
  0
TABLE
  2
VIEW
  5
6
330
0
100
AcDbSymbolTable
 70
     0
  0
ENDTAB
  0
TABLE
  2
UCS
  5
7
330
0
100
AcDbSymbolTable
 70
     0
  0
ENDTAB
  0
TABLE
  2
APPID
  5
9
330
0
100
AcDbSymbolTable
 70
     1
  0
APPID
  5
12
330
9
100
AcDbSymbolTableRecord
100
AcDbRegAppTableRecord
  2
ACAD
 70
     0
  0
ENDTAB
  0
TABLE
  2
DIMSTYLE
  5
A
330
0
100
AcDbSymbolTable
 70
     1
100
AcDbDimStyleTable
 71
     0
  0
DIMSTYLE
105
15A
330
A
100
AcDbSymbolTableRecord
100
AcDbDimStyleTableRecord
  2
Standard
 70
     0
340
11
  0
ENDTAB
  0
TABLE
  2
BLOCK_RECORD
  5
1
330
0
100
AcDbSymbolTable
 70
     0
  0
BLOCK_RECORD
  5
1E
330
1
100
AcDbSymbolTableRecord
100
AcDbBlockTableRecord
  2
*Model_Space
340
21
  0
BLOCK_RECORD
  5
1A
330
1
100
AcDbSymbolTableRecord
100
AcDbBlockTableRecord
  2
*Paper_Space
340
1D
  0
ENDTAB
  0
ENDSEC
  0
SECTION
  2
BLOCKS
  0
BLOCK
  5
1F
330
1E
100
AcDbEntity
  8
0
100
AcDbBlockBegin
  2
*Model_Space
 70
     0
 10
0.0
 20
0.0
 30
0.0
  3
*Model_Space
  1

  0
ENDBLK
  5
20
330
1E
100
AcDbEntity
  8
0
100
AcDbBlockEnd
  0
BLOCK
  5
1B
330
1A
100
AcDbEntity
 67
     1
  8
0
100
AcDbBlockBegin
  2
*Paper_Space
 70
     0
 10
0.0
 20
0.0
 30
0.0
  3
*Paper_Space
  1

  0
ENDBLK
  5
1C
330
1A
100
AcDbEntity
 67
     1
  8
0
100
AcDbBlockEnd
  0
ENDSEC
  0
SECTION
  2
ENTITIES
  0
LINE
  5
22
330
1E
100
AcDbEntity
  8
0
100
AcDbLine
 10
-0.129600000000007
 20
-0.0000000000000092
 30
0.0
 11
0.8423999999999928
 21
-0.0000000000000096
 31
0.0
  0
LINE
  5
23
330
1E
100
AcDbEntity
  8
0
100
AcDbLine
 10
-0.129600000000007
 20
-0.0000000000000092
 30
0.0
 11
0.8423999999999928
 21
-0.0000000000000088
 31
0.0
  0
LINE
  5
24
330
1E
100
AcDbEntity
  8
0
100
AcDbLine
 10
-0.129600000000007
 20
49.4
 30
0.0
 11
0.8423999999999928
 21
49.4
 31
0.0
  0
LINE
  5
25
330
1E
100
AcDbEntity
  8
0
100
AcDbLine
 10
0.518399999999993
 20
50.0
 30
0.0
 11
1.490399999999989
 21
50.0
 31
0.0
  0
LINE
  5
26
330
1E
100
AcDbEntity
  8
0
100
AcDbLine
 10
0.518399999999993
 20
50.0
 30
0.0
 11
1.490399999999989
 21
50.0
 31
0.0
  0
LINE
  5
27
330
1E
100
AcDbEntity
  8
0
100
AcDbLine
 10
0.8423999999999928
 20
49.4
 30
0.0
 11
3.43439999999999
 21
49.4
 31
0.0
  0
LINE
  5
28
330
1E
100
AcDbEntity
  8
0
100
AcDbLine
 10
0.8423999999999928
 20
-0.0000000000000088
 30
0.0
 11
3.43439999999999
 21
-0.0000000000000084
 31
0.0
  0
LINE
  5
29
330
1E
100
AcDbEntity
  8
0
100
AcDbLine
 10
-0.129600000000007
 20
49.4
 30
0.0
 11
0.518399999999993
 21
50.0
 31
0.0
  0
LINE
  5
2A
330
1E
100
AcDbEntity
  8
0
100
AcDbLine
 10
-0.129600000000007
 20
49.4
 30
0.0
 11
-0.129600000000007
 21
-0.0000000000000076
 31
0.0
  0
LINE
  5
2B
330
1E
100
AcDbEntity
  8
0
100
AcDbLine
 10
-0.129600000000007
 20
49.4
 30
0.0
 11
0.8423999999999928
 21
49.4
 31
0.0
  0
LINE
  5
2C
330
1E
100
AcDbEntity
  8
0
100
AcDbLine
 10
-0.129600000000007
 20
-0.0000000000000092
 30
0.0
 11
0.8423999999999928
 21
-0.0000000000000096
 31
0.0
  0
LINE
  5
2D
330
1E
100
AcDbEntity
  8
0
100
AcDbLine
 10
-0.129600000000007
 20
-0.0000000000000092
 30
0.0
 11
-0.129600000000007
 21
49.4
 31
0.0
  0
LINE
  5
2E
330
1E
100
AcDbEntity
  8
0
100
AcDbLine
 10
-0.129600000000007
 20
-0.0000000000000092
 30
0.0
 11
0.8423999999999928
 21
-0.0000000000000088
 31
0.0
  0
LINE
  5
2F
330
1E
100
AcDbEntity
  8
0
100
AcDbLine
 10
0.8423999999999928
 20
49.4
 30
0.0
 11
3.43439999999999
 21
49.4
 31
0.0
  0
LINE
  5
30
330
1E
100
AcDbEntity
  8
0
100
AcDbLine
 10
0.8423999999999928
 20
-0.0000000000000088
 30
0.0
 11
3.43439999999999
 21
-0.0000000000000084
 31
0.0
  0
LINE
  5
31
330
1E
100
AcDbEntity
  8
0
100
AcDbLine
 10
0.8423999999999928
 20
-0.0000000000000096
 30
0.0
 11
3.43439999999999
 21
-0.00000000000001
 31
0.0
  0
LINE
  5
32
330
1E
100
AcDbEntity
  8
0
100
AcDbLine
 10
0.8423999999999928
 20
-0.0000000000000096
 30
0.0
 11
3.43439999999999
 21
-0.00000000000001
 31
0.0
  0
LINE
  5
33
330
1E
100
AcDbEntity
  8
0
100
AcDbLine
 10
0.8703999999999927
 20
209.1
 30
0.0
 11
1.494399999999989
 21
210.0
 31
0.0
  0
LINE
  5
34
330
1E
100
AcDbEntity
  8
0
100
AcDbLine
 10
0.8703999999999927
 20
209.1
 30
0.0
 11
0.8703999999999927
 21
50.0
 31
0.0
  0
LINE
  5
35
330
1E
100
AcDbEntity
  8
0
100
AcDbLine
 10
0.8703999999999927
 20
209.1
 30
0.0
 11
1.806399999999989
 21
209.1
 31
0.0
  0
LINE
  5
36
330
1E
100
AcDbEntity
  8
0
100
AcDbLine
 10
0.8703999999999927
 20
50.0
 30
0.0
 11
0.8703999999999927
 21
209.1
 31
0.0
  0
LINE
  5
37
330
1E
100
AcDbEntity
  8
0
100
AcDbLine
 10
1.370399999999989
 20
213.0
 30
0.0
 11
2.37039999999999
 21
212.0
 31
0.0
  0
LINE
  5
38
330
1E
100
AcDbEntity
  8
0
100
AcDbLine
 10
1.370399999999989
 20
213.0
 30
0.0
 11
1.370399999999989
 21
246.0
 31
0.0
  0
LINE
  5
39
330
1E
100
AcDbEntity
  8
0
100
AcDbLine
 10
1.370399999999989
 20
213.0
 30
0.0
 11
2.27039999999999
 21
213.0
 31
0.0
  0
LINE
  5
3A
330
1E
100
AcDbEntity
  8
0
100
AcDbLine
 10
1.490399999999989
 20
50.0
 30
0.0
 11
4.08239999999999
 21
50.0
 31
0.0
  0
LINE
  5
3B
330
1E
100
AcDbEntity
  8
0
100
AcDbLine
 10
1.494399999999989
 20
210.0
 30
0.0
 11
2.43039999999999
 21
210.0
 31
0.0
  0
LINE
  5
3C
330
1E
100
AcDbEntity
  8
0
100
AcDbLine
 10
1.806399999999989
 20
209.1
 30
0.0
 11
4.30239999999999
 21
209.1
 31
0.0
  0
LINE
  5
3D
330
1E
100
AcDbEntity
  8
0
100
AcDbLine
 10
2.43039999999999
 20
210.0
 30
0.0
 11
4.92639999999999
 21
210.0
 31
0.0
  0
LINE
  5
3E
330
1E
100
AcDbEntity
  8
0
100
AcDbLine
 10
3.37039999999999
 20
212.0
 30
0.0
 11
3.37039999999999
 21
210.0
 31
0.0
  0
LINE
  5
3F
330
1E
100
AcDbEntity
  8
0
100
AcDbLine
 10
2.37039999999999
 20
212.0
 30
0.0
 11
3.27039999999999
 21
212.0
 31
0.0
  0
LINE
  5
40
330
1E
100
AcDbEntity
  8
0
100
AcDbLine
 10
3.27039999999999
 20
212.0
 30
0.0
 11
5.67039999999999
 21
212.0
 31
0.0
  0
LINE
  5
41
330
1E
100
AcDbEntity
  8
0
100
AcDbLine
 10
2.27039999999999
 20
213.0
 30
0.0
 11
4.77039999999999
 21
213.0
 31
0.0
  0
LINE
  5
42
330
1E
100
AcDbEntity
  8
0
100
AcDbLine
 10
2.77039999999999
 20
247.5
 30
0.0
 11
5.27039999999999
 21
247.5
 31
0.0
  0
LINE
  5
43
330
1E
100
AcDbEntity
  8
0
100
AcDbLine
 10
1.370399999999989
 20
246.0
 30
0.0
 11
1.870399999999989
 21
247.5
 31
0.0
  0
LINE
  5
44
330
1E
100
AcDbEntity
  8
0
100
AcDbLine
 10
1.370399999999989
 20
246.0
 30
0.0
 11
1.370399999999989
 21
213.0
 31
0.0
  0
LINE
  5
45
330
1E
100
AcDbEntity
  8
0
100
AcDbLine
 10
1.870399999999989
 20
247.5
 30
0.0
 11
3.37039999999999
 21
248.0
 31
0.0
  0
LINE
  5
46
330
1E
100
AcDbEntity
  8
0
100
AcDbLine
 10
1.870399999999989
 20
247.5
 30
0.0
 11
2.77039999999999
 21
247.5
 31
0.0
  0
LINE
  5
47
330
1E
100
AcDbEntity
  8
0
100
AcDbLine
 10
3.43439999999999
 20
49.4
 30
0.0
 11
7.75439999999999
 21
49.4
 31
0.0
  0
LINE
  5
48
330
1E
100
AcDbEntity
  8
0
100
AcDbLine
 10
3.43439999999999
 20
-0.0000000000000084
 30
0.0
 11
7.75439999999999
 21
-0.000000000000008
 31
0.0
  0
LINE
  5
49
330
1E
100
AcDbEntity
  8
0
100
AcDbLine
 10
4.08239999999999
 20
50.0
 30
0.0
 11
8.29439999999999
 21
50.0
 31
0.0
  0
LINE
  5
4A
330
1E
100
AcDbEntity
  8
0
100
AcDbLine
 10
3.43439999999999
 20
-0.00000000000001
 30
0.0
 11
7.75439999999999
 21
-0.0000000000000104
 31
0.0
  0
LINE
  5
4B
330
1E
100
AcDbEntity
  8
0
100
AcDbLine
 10
4.92639999999999
 20
210.0
 30
0.0
 11
8.982399999999991
 21
210.0
 31
0.0
  0
LINE
  5
4C
330
1E
100
AcDbEntity
  8
0
100
AcDbLine
 10
4.30239999999999
 20
209.1
 30
0.0
 11
8.4624
 21
209.1
 31
0.0
  0
LINE
  5
4D
330
1E
100
AcDbEntity
  8
0
100
AcDbLine
 10
7.75439999999999
 20
49.4
 30
0.0
 11
13.4784
 21
49.4
 31
0.0
  0
LINE
  5
4E
330
1E
100
AcDbEntity
  8
0
100
AcDbLine
 10
7.75439999999999
 20
-0.000000000000008
 30
0.0
 11
13.4784
 21
-0.0000000000000078
 31
0.0
  0
LINE
  5
4F
330
1E
100
AcDbEntity
  8
0
100
AcDbLine
 10
8.29439999999999
 20
50.0
 30
0.0
 11
13.8024
 21
50.0
 31
0.0
  0
LINE
  5
50
330
1E
100
AcDbEntity
  8
0
100
AcDbLine
 10
7.75439999999999
 20
-0.0000000000000104
 30
0.0
 11
13.4784
 21
-0.0000000000000106
 31
0.0
  0
LINE
  5
51
330
1E
100
AcDbEntity
  8
0
100
AcDbLine
 10
8.4624
 20
209.1
 30
0.0
 11
10.8704
 21
209.1
 31
0.0
  0
LINE
  5
52
330
1E
100
AcDbEntity
  8
0
100
AcDbLine
 10
5.67039999999999
 20
212.0
 30
0.0
 11
9.57039999999999
 21
212.0
 31
0.0
  0
LINE
  5
53
330
1E
100
AcDbEntity
  8
0
100
AcDbLine
 10
4.77039999999999
 20
213.0
 30
0.0
 11
8.870399999999991
 21
213.0
 31
0.0
  0
LINE
  5
54
330
1E
100
AcDbEntity
  8
0
100
AcDbLine
 10
8.982399999999991
 20
210.0
 30
0.0
 11
10.8704
 21
210.0
 31
0.0
  0
LINE
  5
55
330
1E
100
AcDbEntity
  8
0
100
AcDbLine
 10
8.870399999999991
 20
213.0
 30
0.0
 11
10.8704
 21
213.0
 31
0.0
  0
LINE
  5
56
330
1E
100
AcDbEntity
  8
0
100
AcDbLine
 10
5.27039999999999
 20
247.5
 30
0.0
 11
9.1704
 21
247.5
 31
0.0
  0
LINE
  5
57
330
1E
100
AcDbEntity
  8
0
100
AcDbLine
 10
13.4784
 20
-0.0000000000000078
 30
0.0
 11
19.9584
 21
-0.0000000000000076
 31
0.0
  0
LINE
  5
58
330
1E
100
AcDbEntity
  8
0
100
AcDbLine
 10
19.9584
 20
-0.0000000000000076
 30
0.0
 11
26.8704
 21
-0.0000000000000075
 31
0.0
  0
LINE
  5
59
330
1E
100
AcDbEntity
  8
0
100
AcDbLine
 10
13.4784
 20
-0.0000000000000106
 30
0.0
 11
19.9584
 21
-0.0000000000000108
 31
0.0
  0
LINE
  5
5A
330
1E
100
AcDbEntity
  8
0
100
AcDbLine
 10
19.9584
 20
-0.0000000000000108
 30
0.0
 11
26.8704
 21
-0.0000000000000109
 31
0.0
  0
LINE
  5
5B
330
1E
100
AcDbEntity
  8
0
100
AcDbLine
 10
33.7824
 20
-0.0000000000000108
 30
0.0
 11
40.2624
 21
-0.0000000000000106
 31
0.0
  0
LINE
  5
5C
330
1E
100
AcDbEntity
  8
0
100
AcDbLine
 10
26.8704
 20
-0.0000000000000109
 30
0.0
 11
33.7824
 21
-0.0000000000000108
 31
0.0
  0
LINE
  5
5D
330
1E
100
AcDbEntity
  8
0
100
AcDbLine
 10
45.9864
 20
-0.0000000000000104
 30
0.0
 11
50.3064
 21
-0.00000000000001
 31
0.0
  0
LINE
  5
5E
330
1E
100
AcDbEntity
  8
0
100
AcDbLine
 10
40.2624
 20
-0.0000000000000106
 30
0.0
 11
45.9864
 21
-0.0000000000000104
 31
0.0
  0
LINE
  5
5F
330
1E
100
AcDbEntity
  8
0
100
AcDbLine
 10
50.3064
 20
-0.00000000000001
 30
0.0
 11
52.8984
 21
-0.0000000000000096
 31
0.0
  0
LINE
  5
60
330
1E
100
AcDbEntity
  8
0
100
AcDbLine
 10
50.3064
 20
-0.0000000000000084
 30
0.0
 11
52.8984
 21
-0.0000000000000088
 31
0.0
  0
LINE
  5
61
330
1E
100
AcDbEntity
  8
0
100
AcDbLine
 10
45.9864
 20
-0.000000000000008
 30
0.0
 11
50.3064
 21
-0.0000000000000084
 31
0.0
  0
LINE
  5
62
330
1E
100
AcDbEntity
  8
0
100
AcDbLine
 10
40.2624
 20
-0.0000000000000078
 30
0.0
 11
45.9864
 21
-0.000000000000008
 31
0.0
  0
LINE
  5
63
330
1E
100
AcDbEntity
  8
0
100
AcDbLine
 10
33.7824
 20
-0.0000000000000076
 30
0.0
 11
40.2624
 21
-0.0000000000000078
 31
0.0
  0
LINE
  5
64
330
1E
100
AcDbEntity
  8
0
100
AcDbLine
 10
13.8024
 20
50.0
 30
0.0
 11
20.0664
 21
50.0
 31
0.0
  0
LINE
  5
65
330
1E
100
AcDbEntity
  8
0
100
AcDbLine
 10
13.4784
 20
49.4
 30
0.0
 11
19.9584
 21
49.4
 31
0.0
  0
LINE
  5
66
330
1E
100
AcDbEntity
  8
0
100
AcDbLine
 10
20.0664
 20
50.0
 30
0.0
 11
26.8704
 21
50.0
 31
0.0
  0
LINE
  5
67
330
1E
100
AcDbEntity
  8
0
100
AcDbLine
 10
19.9584
 20
49.4
 30
0.0
 11
26.8704
 21
49.4
 31
0.0
  0
LINE
  5
68
330
1E
100
AcDbEntity
  8
0
100
AcDbLine
 10
26.8704
 20
50.0
 30
0.0
 11
33.6744
 21
50.0
 31
0.0
  0
LINE
  5
69
330
1E
100
AcDbEntity
  8
0
100
AcDbLine
 10
50.3064
 20
49.4
 30
0.0
 11
52.8984
 21
49.4
 31
0.0
  0
LINE
  5
6A
330
1E
100
AcDbEntity
  8
0
100
AcDbLine
 10
45.9864
 20
49.4
 30
0.0
 11
50.3064
 21
49.4
 31
0.0
  0
LINE
  5
6B
330
1E
100
AcDbEntity
  8
0
100
AcDbLine
 10
40.2624
 20
49.4
 30
0.0
 11
45.9864
 21
49.4
 31
0.0
  0
LINE
  5
6C
330
1E
100
AcDbEntity
  8
0
100
AcDbLine
 10
52.25039999999999
 20
50.0
 30
0.0
 11
53.2224
 21
50.0
 31
0.0
  0
LINE
  5
6D
330
1E
100
AcDbEntity
  8
0
100
AcDbLine
 10
49.6584
 20
50.0
 30
0.0
 11
52.25039999999999
 21
50.0
 31
0.0
  0
LINE
  5
6E
330
1E
100
AcDbEntity
  8
0
100
AcDbLine
 10
45.4464
 20
50.0
 30
0.0
 11
49.6584
 21
50.0
 31
0.0
  0
LINE
  5
6F
330
1E
100
AcDbEntity
  8
0
100
AcDbLine
 10
39.9384
 20
50.0
 30
0.0
 11
45.4464
 21
50.0
 31
0.0
  0
LINE
  5
70
330
1E
100
AcDbEntity
  8
0
100
AcDbLine
 10
33.6744
 20
50.0
 30
0.0
 11
39.9384
 21
50.0
 31
0.0
  0
LINE
  5
71
330
1E
100
AcDbEntity
  8
0
100
AcDbLine
 10
33.7824
 20
49.4
 30
0.0
 11
40.2624
 21
49.4
 31
0.0
  0
LINE
  5
72
330
1E
100
AcDbEntity
  8
0
100
AcDbLine
 10
26.8704
 20
49.4
 30
0.0
 11
33.7824
 21
49.4
 31
0.0
  0
LINE
  5
73
330
1E
100
AcDbEntity
  8
0
100
AcDbLine
 10
26.8704
 20
-0.0000000000000075
 30
0.0
 11
33.7824
 21
-0.0000000000000076
 31
0.0
  0
LINE
  5
74
330
1E
100
AcDbEntity
  8
0
100
AcDbLine
 10
52.8984
 20
-0.0000000000000096
 30
0.0
 11
53.87039999999999
 21
-0.0000000000000092
 31
0.0
  0
LINE
  5
75
330
1E
100
AcDbEntity
  8
0
100
AcDbLine
 10
53.87039999999999
 20
-0.0000000000000092
 30
0.0
 11
53.87039999999999
 21
19.3535
 31
0.0
  0
LINE
  5
76
330
1E
100
AcDbEntity
  8
0
100
AcDbLine
 10
53.8301328340081
 20
47.35349999999999
 30
0.0
 11
65.12959999999999
 21
47.35349999999999
 31
0.0
  0
LINE
  5
77
330
1E
100
AcDbEntity
  8
0
100
AcDbLine
 10
53.87039999999999
 20
19.3535
 30
0.0
 11
53.87039999999999
 21
-0.0000000000000076
 31
0.0
  0
LINE
  5
78
330
1E
100
AcDbEntity
  8
0
100
AcDbLine
 10
53.87039999999999
 20
19.3535
 30
0.0
 11
65.12959999999999
 21
19.3535
 31
0.0
  0
LINE
  5
79
330
1E
100
AcDbEntity
  8
0
100
AcDbLine
 10
53.87039999999999
 20
49.4
 30
0.0
 11
53.87039999999999
 21
47.35349999999999
 31
0.0
  0
LINE
  5
7A
330
1E
100
AcDbEntity
  8
0
100
AcDbLine
 10
53.2224
 20
50.0
 30
0.0
 11
53.87039999999999
 21
49.4
 31
0.0
  0
LINE
  5
7B
330
1E
100
AcDbEntity
  8
0
100
AcDbLine
 10
52.8984
 20
49.4
 30
0.0
 11
53.87039999999999
 21
49.4
 31
0.0
  0
LINE
  5
7C
330
1E
100
AcDbEntity
  8
0
100
AcDbLine
 10
65.12959999999999
 20
21.3535
 30
0.0
 11
73.1296
 21
21.3535
 31
0.0
  0
LINE
  5
7D
330
1E
100
AcDbEntity
  8
0
100
AcDbLine
 10
65.12959999999999
 20
21.2015
 30
0.0
 11
65.12959999999999
 21
23.4415
 31
0.0
  0
LINE
  5
7E
330
1E
100
AcDbEntity
  8
0
100
AcDbLine
 10
65.12959999999999
 20
21.2015
 30
0.0
 11
65.12959999999999
 21
19.8575
 31
0.0
  0
LINE
  5
7F
330
1E
100
AcDbEntity
  8
0
100
AcDbLine
 10
65.12959999999999
 20
19.8575
 30
0.0
 11
65.12959999999999
 21
21.2015
 31
0.0
  0
LINE
  5
80
330
1E
100
AcDbEntity
  8
0
100
AcDbLine
 10
65.12959999999999
 20
19.8575
 30
0.0
 11
65.12959999999999
 21
19.3535
 31
0.0
  0
LINE
  5
81
330
1E
100
AcDbEntity
  8
0
100
AcDbLine
 10
65.12959999999999
 20
19.3535
 30
0.0
 11
65.12959999999999
 21
19.8575
 31
0.0
  0
LINE
  5
82
330
1E
100
AcDbEntity
  8
0
100
AcDbLine
 10
73.1296
 20
21.78549999999999
 30
0.0
 11
73.1296
 21
22.9375
 31
0.0
  0
LINE
  5
83
330
1E
100
AcDbEntity
  8
0
100
AcDbLine
 10
73.1296
 20
21.3535
 30
0.0
 11
73.1296
 21
21.8035
 31
0.0
  0
LINE
  5
84
330
1E
100
AcDbEntity
  8
0
100
AcDbLine
 10
73.1296
 20
21.3535
 30
0.0
 11
76.8796
 21
21.95349999999999
 31
0.0
  0
LINE
  5
85
330
1E
100
AcDbEntity
  8
0
100
AcDbLine
 10
73.1296
 20
21.3535
 30
0.0
 11
73.1296
 21
21.78549999999999
 31
0.0
  0
LINE
  5
86
330
1E
100
AcDbEntity
  8
0
100
AcDbLine
 10
73.1296
 20
21.8035
 30
0.0
 11
73.1296
 21
22.9375
 31
0.0
  0
LINE
  5
87
330
1E
100
AcDbEntity
  8
0
100
AcDbLine
 10
65.12959999999999
 20
26.4095
 30
0.0
 11
65.12959999999999
 21
29.7695
 31
0.0
  0
LINE
  5
88
330
1E
100
AcDbEntity
  8
0
100
AcDbLine
 10
65.12959999999999
 20
26.4095
 30
0.0
 11
65.12959999999999
 21
23.4415
 31
0.0
  0
LINE
  5
89
330
1E
100
AcDbEntity
  8
0
100
AcDbLine
 10
73.1296
 20
24.8575
 30
0.0
 11
73.1296
 21
27.40149999999999
 31
0.0
  0
LINE
  5
8A
330
1E
100
AcDbEntity
  8
0
100
AcDbLine
 10
73.1296
 20
22.9375
 30
0.0
 11
73.1296
 21
24.8575
 31
0.0
  0
LINE
  5
8B
330
1E
100
AcDbEntity
  8
0
100
AcDbLine
 10
65.12959999999999
 20
23.4415
 30
0.0
 11
65.12959999999999
 21
26.4095
 31
0.0
  0
LINE
  5
8C
330
1E
100
AcDbEntity
  8
0
100
AcDbLine
 10
65.12959999999999
 20
23.4415
 30
0.0
 11
65.12959999999999
 21
21.2015
 31
0.0
  0
LINE
  5
8D
330
1E
100
AcDbEntity
  8
0
100
AcDbLine
 10
65.12959999999999
 20
29.7695
 30
0.0
 11
65.12959999999999
 21
33.3535
 31
0.0
  0
LINE
  5
8E
330
1E
100
AcDbEntity
  8
0
100
AcDbLine
 10
65.12959999999999
 20
29.7695
 30
0.0
 11
65.12959999999999
 21
26.4095
 31
0.0
  0
LINE
  5
8F
330
1E
100
AcDbEntity
  8
0
100
AcDbLine
 10
73.1296
 20
30.2815
 30
0.0
 11
73.1296
 21
33.3535
 31
0.0
  0
LINE
  5
90
330
1E
100
AcDbEntity
  8
0
100
AcDbLine
 10
65.12959999999999
 20
33.3535
 30
0.0
 11
65.12959999999999
 21
36.9375
 31
0.0
  0
LINE
  5
91
330
1E
100
AcDbEntity
  8
0
100
AcDbLine
 10
65.12959999999999
 20
33.3535
 30
0.0
 11
65.12959999999999
 21
29.7695
 31
0.0
  0
LINE
  5
92
330
1E
100
AcDbEntity
  8
0
100
AcDbLine
 10
65.12959999999999
 20
36.9375
 30
0.0
 11
65.12959999999999
 21
40.29749999999999
 31
0.0
  0
LINE
  5
93
330
1E
100
AcDbEntity
  8
0
100
AcDbLine
 10
65.12959999999999
 20
36.9375
 30
0.0
 11
65.12959999999999
 21
33.3535
 31
0.0
  0
LINE
  5
94
330
1E
100
AcDbEntity
  8
0
100
AcDbLine
 10
65.12959999999999
 20
40.29749999999999
 30
0.0
 11
65.12959999999999
 21
43.2655
 31
0.0
  0
LINE
  5
95
330
1E
100
AcDbEntity
  8
0
100
AcDbLine
 10
65.12959999999999
 20
40.29749999999999
 30
0.0
 11
65.12959999999999
 21
36.9375
 31
0.0
  0
LINE
  5
96
330
1E
100
AcDbEntity
  8
0
100
AcDbLine
 10
73.1296
 20
36.42549999999999
 30
0.0
 11
73.1296
 21
39.3055
 31
0.0
  0
LINE
  5
97
330
1E
100
AcDbEntity
  8
0
100
AcDbLine
 10
73.1296
 20
39.3055
 30
0.0
 11
73.1296
 21
41.84949999999999
 31
0.0
  0
LINE
  5
98
330
1E
100
AcDbEntity
  8
0
100
AcDbLine
 10
73.1296
 20
41.84949999999999
 30
0.0
 11
73.1296
 21
43.76949999999999
 31
0.0
  0
LINE
  5
99
330
1E
100
AcDbEntity
  8
0
100
AcDbLine
 10
65.12959999999999
 20
43.2655
 30
0.0
 11
65.12959999999999
 21
45.5055
 31
0.0
  0
LINE
  5
9A
330
1E
100
AcDbEntity
  8
0
100
AcDbLine
 10
65.12959999999999
 20
43.2655
 30
0.0
 11
65.12959999999999
 21
40.29749999999999
 31
0.0
  0
LINE
  5
9B
330
1E
100
AcDbEntity
  8
0
100
AcDbLine
 10
65.12959999999999
 20
45.3535
 30
0.0
 11
73.1296
 21
45.3535
 31
0.0
  0
LINE
  5
9C
330
1E
100
AcDbEntity
  8
0
100
AcDbLine
 10
73.1296
 20
44.9215
 30
0.0
 11
73.1296
 21
45.3535
 31
0.0
  0
LINE
  5
9D
330
1E
100
AcDbEntity
  8
0
100
AcDbLine
 10
65.12959999999999
 20
45.5055
 30
0.0
 11
65.12959999999999
 21
46.84949999999999
 31
0.0
  0
LINE
  5
9E
330
1E
100
AcDbEntity
  8
0
100
AcDbLine
 10
65.12959999999999
 20
45.5055
 30
0.0
 11
65.12959999999999
 21
43.2655
 31
0.0
  0
LINE
  5
9F
330
1E
100
AcDbEntity
  8
0
100
AcDbLine
 10
65.12959999999999
 20
47.35349999999999
 30
0.0
 11
65.12959999999999
 21
46.84949999999999
 31
0.0
  0
LINE
  5
A0
330
1E
100
AcDbEntity
  8
0
100
AcDbLine
 10
65.12959999999999
 20
46.84949999999999
 30
0.0
 11
65.12959999999999
 21
47.35349999999999
 31
0.0
  0
LINE
  5
A1
330
1E
100
AcDbEntity
  8
0
100
AcDbLine
 10
65.12959999999999
 20
46.84949999999999
 30
0.0
 11
65.12959999999999
 21
45.5055
 31
0.0
  0
LINE
  5
A2
330
1E
100
AcDbEntity
  8
0
100
AcDbLine
 10
73.1296
 20
44.9035
 30
0.0
 11
73.1296
 21
45.3535
 31
0.0
  0
LINE
  5
A3
330
1E
100
AcDbEntity
  8
0
100
AcDbLine
 10
73.1296
 20
43.76949999999999
 30
0.0
 11
73.1296
 21
44.9035
 31
0.0
  0
LINE
  5
A4
330
1E
100
AcDbEntity
  8
0
100
AcDbLine
 10
73.1296
 20
43.76949999999999
 30
0.0
 11
73.1296
 21
44.9215
 31
0.0
  0
LINE
  5
A5
330
1E
100
AcDbEntity
  8
0
100
AcDbLine
 10
73.1296
 20
36.5035
 30
0.0
 11
73.1296
 21
39.3055
 31
0.0
  0
LINE
  5
A6
330
1E
100
AcDbEntity
  8
0
100
AcDbLine
 10
73.1296
 20
33.3535
 30
0.0
 11
73.1296
 21
36.5035
 31
0.0
  0
LINE
  5
A7
330
1E
100
AcDbEntity
  8
0
100
AcDbLine
 10
73.1296
 20
33.3535
 30
0.0
 11
73.1296
 21
36.42549999999999
 31
0.0
  0
LINE
  5
A8
330
1E
100
AcDbEntity
  8
0
100
AcDbLine
 10
73.1296
 20
45.3535
 30
0.0
 11
76.8796
 21
44.7535
 31
0.0
  0
LINE
  5
A9
330
1E
100
AcDbEntity
  8
0
100
AcDbLine
 10
73.1296
 20
27.40149999999999
 30
0.0
 11
73.1296
 21
30.2035
 31
0.0
  0
LINE
  5
AA
330
1E
100
AcDbEntity
  8
0
100
AcDbLine
 10
73.1296
 20
27.40149999999999
 30
0.0
 11
73.1296
 21
30.2815
 31
0.0
  0
LINE
  5
AB
330
1E
100
AcDbEntity
  8
0
100
AcDbLine
 10
79.1546
 20
23.3535
 30
0.0
 11
91.12959999999999
 21
23.3535
 31
0.0
  0
LINE
  5
AC
330
1E
100
AcDbEntity
  8
0
100
AcDbLine
 10
91.12959999999999
 20
43.3535
 30
0.0
 11
91.12959999999999
 21
23.3535
 31
0.0
  0
LINE
  5
AD
330
1E
100
AcDbEntity
  8
0
100
AcDbLine
 10
79.1546
 20
23.3535
 30
0.0
 11
91.12959999999999
 21
23.3535
 31
0.0
  0
LINE
  5
AE
330
1E
100
AcDbEntity
  8
0
100
AcDbLine
 10
79.1546
 20
43.3535
 30
0.0
 11
91.12959999999999
 21
43.3535
 31
0.0
  0
LINE
  5
AF
330
1E
100
AcDbEntity
  8
0
100
AcDbLine
 10
91.12959999999999
 20
23.3535
 30
0.0
 11
91.12959999999999
 21
43.3535
 31
0.0
  0
LINE
  5
B0
330
1E
100
AcDbEntity
  8
0
100
AcDbLine
 10
76.8796
 20
44.7535
 30
0.0
 11
79.1546
 21
43.3535
 31
0.0
  0
LINE
  5
B1
330
1E
100
AcDbEntity
  8
0
100
AcDbLine
 10
73.1296
 20
30.2035
 30
0.0
 11
73.1296
 21
33.3535
 31
0.0
  0
LINE
  5
B2
330
1E
100
AcDbEntity
  8
0
100
AcDbLine
 10
76.8796
 20
21.95349999999999
 30
0.0
 11
79.1546
 21
23.3535
 31
0.0
  0
LINE
  5
B3
330
1E
100
AcDbEntity
  8
0
100
AcDbLine
 10
53.87039999999999
 20
47.35349999999999
 30
0.0
 11
53.87039999999999
 21
49.4
 31
0.0
  0
LINE
  5
B4
330
1E
100
AcDbEntity
  8
0
100
AcDbLine
 10
52.8984
 20
-0.0000000000000088
 30
0.0
 11
53.87039999999999
 21
-0.0000000000000092
 31
0.0
  0
LINE
  5
B5
330
1E
100
AcDbEntity
  8
0
100
AcDbLine
 10
52.8704
 20
50.0
 30
0.0
 11
52.8704
 21
209.1
 31
0.0
  0
LINE
  5
B6
330
1E
100
AcDbEntity
  8
0
100
AcDbLine
 10
42.8704
 20
210.0
 30
0.0
 11
44.7584
 21
210.0
 31
0.0
  0
LINE
  5
B7
330
1E
100
AcDbEntity
  8
0
100
AcDbLine
 10
51.93439999999999
 20
209.1
 30
0.0
 11
52.8704
 21
209.1
 31
0.0
  0
LINE
  5
B8
330
1E
100
AcDbEntity
  8
0
100
AcDbLine
 10
49.4384
 20
209.1
 30
0.0
 11
51.93439999999999
 21
209.1
 31
0.0
  0
LINE
  5
B9
330
1E
100
AcDbEntity
  8
0
100
AcDbLine
 10
50.3704
 20
210.0
 30
0.0
 11
50.3704
 21
212.0
 31
0.0
  0
LINE
  5
BA
330
1E
100
AcDbEntity
  8
0
100
AcDbLine
 10
51.3104
 20
210.0
 30
0.0
 11
52.2464
 21
210.0
 31
0.0
  0
LINE
  5
BB
330
1E
100
AcDbEntity
  8
0
100
AcDbLine
 10
48.8144
 20
210.0
 30
0.0
 11
51.3104
 21
210.0
 31
0.0
  0
LINE
  5
BC
330
1E
100
AcDbEntity
  8
0
100
AcDbLine
 10
44.7584
 20
210.0
 30
0.0
 11
48.8144
 21
210.0
 31
0.0
  0
LINE
  5
BD
330
1E
100
AcDbEntity
  8
0
100
AcDbLine
 10
45.2784
 20
209.1
 30
0.0
 11
49.4384
 21
209.1
 31
0.0
  0
LINE
  5
BE
330
1E
100
AcDbEntity
  8
0
100
AcDbLine
 10
42.8704
 20
209.1
 30
0.0
 11
45.2784
 21
209.1
 31
0.0
  0
LINE
  5
BF
330
1E
100
AcDbEntity
  8
0
100
AcDbLine
 10
42.8704
 20
212.0
 30
0.0
 11
44.1704
 21
212.0
 31
0.0
  0
LINE
  5
C0
330
1E
100
AcDbEntity
  8
0
100
AcDbLine
 10
50.3704
 20
212.0
 30
0.0
 11
50.3704
 21
210.0
 31
0.0
  0
LINE
  5
C1
330
1E
100
AcDbEntity
  8
0
100
AcDbLine
 10
48.0704
 20
212.0
 30
0.0
 11
50.47039999999999
 21
212.0
 31
0.0
  0
LINE
  5
C2
330
1E
100
AcDbEntity
  8
0
100
AcDbLine
 10
51.37039999999999
 20
212.0
 30
0.0
 11
52.3704
 21
213.0
 31
0.0
  0
LINE
  5
C3
330
1E
100
AcDbEntity
  8
0
100
AcDbLine
 10
50.47039999999999
 20
212.0
 30
0.0
 11
51.37039999999999
 21
212.0
 31
0.0
  0
LINE
  5
C4
330
1E
100
AcDbEntity
  8
0
100
AcDbLine
 10
44.1704
 20
212.0
 30
0.0
 11
48.0704
 21
212.0
 31
0.0
  0
LINE
  5
C5
330
1E
100
AcDbEntity
  8
0
100
AcDbLine
 10
52.2464
 20
210.0
 30
0.0
 11
52.8704
 21
209.1
 31
0.0
  0
LINE
  5
C6
330
1E
100
AcDbEntity
  8
0
100
AcDbLine
 10
52.8704
 20
209.1
 30
0.0
 11
52.8704
 21
50.0
 31
0.0
  0
LINE
  5
C7
330
1E
100
AcDbEntity
  8
0
100
AcDbLine
 10
42.85020172503277
 20
143.5318321095054
 30
0.0
 11
42.8704
 21
243.34
 31
0.0
  0
LINE
  5
C8
330
1E
100
AcDbEntity
  8
0
100
AcDbLine
 10
10.69932061992335
 20
143.5318321095054
 30
0.0
 11
10.8704
 21
243.34
 31
0.0
  0
LINE
  5
C9
330
1E
100
AcDbEntity
  8
0
100
AcDbLine
 10
11.25439999999999
 20
243.5449999999999
 30
0.0
 11
11.83039999999999
 21
247.3339999999999
 31
0.0
  0
LINE
  5
CA
330
1E
100
AcDbEntity
  8
0
100
AcDbLine
 10
11.25439999999999
 20
243.5449999999999
 30
0.0
 11
11.83039999999999
 21
239.7559999999999
 31
0.0
  0
LINE
  5
CB
330
1E
100
AcDbEntity
  8
0
100
AcDbLine
 10
10.8704
 20
243.34
 30
0.0
 11
11.4464
 21
247.189
 31
0.0
  0
LINE
  5
CC
330
1E
100
AcDbEntity
  8
0
100
AcDbLine
 10
10.8704
 20
243.34
 30
0.0
 11
10.69932061992335
 21
143.5318321095054
 31
0.0
  0
LINE
  5
CD
330
1E
100
AcDbEntity
  8
0
100
AcDbLine
 10
14.8704
 20
220.009
 30
0.0
 11
15.3024
 21
218.9579999999999
 31
0.0
  0
LINE
  5
CE
330
1E
100
AcDbEntity
  8
0
100
AcDbLine
 10
14.8704
 20
220.009
 30
0.0
 11
14.8704
 21
228.842
 31
0.0
  0
LINE
  5
CF
330
1E
100
AcDbEntity
  8
0
100
AcDbLine
 10
15.3024
 20
218.9579999999999
 30
0.0
 11
15.5904
 21
218.4109999999999
 31
0.0
  0
LINE
  5
D0
330
1E
100
AcDbEntity
  8
0
100
AcDbLine
 10
15.1584
 20
219.4449999999999
 30
0.0
 11
15.5904
 21
220.479
 31
0.0
  0
LINE
  5
D1
330
1E
100
AcDbEntity
  8
0
100
AcDbLine
 10
15.1584
 20
219.4449999999999
 30
0.0
 11
15.5904
 21
218.4109999999999
 31
0.0
  0
LINE
  5
D2
330
1E
100
AcDbEntity
  8
0
100
AcDbLine
 10
14.8704
 20
228.842
 30
0.0
 11
14.8704
 21
220.009
 31
0.0
  0
LINE
  5
D3
330
1E
100
AcDbEntity
  8
0
100
AcDbLine
 10
11.83039999999999
 20
239.7559999999999
 30
0.0
 11
13.3664
 21
236.268
 31
0.0
  0
LINE
  5
D4
330
1E
100
AcDbEntity
  8
0
100
AcDbLine
 10
13.3664
 20
236.268
 30
0.0
 11
15.8624
 21
233.2009999999999
 31
0.0
  0
LINE
  5
D6
330
1E
100
AcDbEntity
  8
0
100
AcDbLine
 10
15.5904
 20
218.4109999999999
 30
0.0
 11
16.7424
 21
217.459
 31
0.0
  0
LINE
  5
D7
330
1E
100
AcDbEntity
  8
0
100
AcDbLine
 10
16.7424
 20
217.459
 30
0.0
 11
18.61439999999999
 21
216.6209999999999
 31
0.0
  0
LINE
  5
D8
330
1E
100
AcDbEntity
  8
0
100
AcDbLine
 10
15.5904
 20
220.479
 30
0.0
 11
16.7424
 21
221.432
 31
0.0
  0
LINE
  5
D9
330
1E
100
AcDbEntity
  8
0
100
AcDbLine
 10
18.61439999999999
 20
216.6209999999999
 30
0.0
 11
21.0624
 21
215.9809999999999
 31
0.0
  0
LINE
  5
DA
330
1E
100
AcDbEntity
  8
0
100
AcDbLine
 10
21.0624
 20
215.9809999999999
 30
0.0
 11
23.8464
 21
215.587
 31
0.0
  0
LINE
  5
DB
330
1E
100
AcDbEntity
  8
0
100
AcDbLine
 10
16.7424
 20
221.432
 30
0.0
 11
18.61439999999999
 21
222.269
 31
0.0
  0
LINE
  5
DC
330
1E
100
AcDbEntity
  8
0
100
AcDbLine
 10
18.61439999999999
 20
222.269
 30
0.0
 11
21.0624
 21
222.909
 31
0.0
  0
LINE
  5
DD
330
1E
100
AcDbEntity
  8
0
100
AcDbLine
 10
23.8464
 20
215.587
 30
0.0
 11
26.8704
 21
215.439
 31
0.0
  0
LINE
  5
DE
330
1E
100
AcDbEntity
  8
0
100
AcDbLine
 10
21.0624
 20
222.909
 30
0.0
 11
23.8464
 21
223.3029999999999
 31
0.0
  0
LINE
  5
DF
330
1E
100
AcDbEntity
  8
0
100
AcDbLine
 10
23.8464
 20
223.3029999999999
 30
0.0
 11
26.8704
 21
223.4509999999999
 31
0.0
  0
LINE
  5
E0
330
1E
100
AcDbEntity
  8
0
100
AcDbLine
 10
29.8944
 20
223.3029999999999
 30
0.0
 11
32.6784
 21
222.909
 31
0.0
  0
LINE
  5
E1
330
1E
100
AcDbEntity
  8
0
100
AcDbLine
 10
26.8704
 20
228.871
 30
0.0
 11
30.9024
 21
229.4119999999999
 31
0.0
  0
LINE
  5
E2
330
1E
100
AcDbEntity
  8
0
100
AcDbLine
 10
26.8704
 20
223.4509999999999
 30
0.0
 11
29.8944
 21
223.3029999999999
 31
0.0
  0
LINE
  5
E3
330
1E
100
AcDbEntity
  8
0
100
AcDbLine
 10
35.12639999999999
 20
222.269
 30
0.0
 11
36.9984
 21
221.432
 31
0.0
  0
LINE
  5
E4
330
1E
100
AcDbEntity
  8
0
100
AcDbLine
 10
30.9024
 20
229.4119999999999
 30
0.0
 11
34.6144
 21
230.8549999999999
 31
0.0
  0
LINE
  5
E5
330
1E
100
AcDbEntity
  8
0
100
AcDbLine
 10
32.6784
 20
222.909
 30
0.0
 11
35.12639999999999
 21
222.269
 31
0.0
  0
LINE
  5
E6
330
1E
100
AcDbEntity
  8
0
100
AcDbLine
 10
38.15039999999999
 20
220.479
 30
0.0
 11
38.5824
 21
219.4449999999999
 31
0.0
  0
LINE
  5
E7
330
1E
100
AcDbEntity
  8
0
100
AcDbLine
 10
36.9984
 20
221.432
 30
0.0
 11
38.15039999999999
 21
220.479
 31
0.0
  0
LINE
  5
E8
330
1E
100
AcDbEntity
  8
0
100
AcDbLine
 10
38.15039999999999
 20
218.4109999999999
 30
0.0
 11
38.4384
 21
218.9579999999999
 31
0.0
  0
LINE
  5
E9
330
1E
100
AcDbEntity
  8
0
100
AcDbLine
 10
38.15039999999999
 20
218.4109999999999
 30
0.0
 11
38.5824
 21
219.4449999999999
 31
0.0
  0
LINE
  5
EA
330
1E
100
AcDbEntity
  8
0
100
AcDbLine
 10
36.9984
 20
217.459
 30
0.0
 11
38.15039999999999
 21
218.4109999999999
 31
0.0
  0
LINE
  5
EB
330
1E
100
AcDbEntity
  8
0
100
AcDbLine
 10
35.12639999999999
 20
216.6209999999999
 30
0.0
 11
36.9984
 21
217.459
 31
0.0
  0
LINE
  5
EC
330
1E
100
AcDbEntity
  8
0
100
AcDbLine
 10
32.6784
 20
215.9809999999999
 30
0.0
 11
35.12639999999999
 21
216.6209999999999
 31
0.0
  0
LINE
  5
ED
330
1E
100
AcDbEntity
  8
0
100
AcDbLine
 10
29.8944
 20
215.587
 30
0.0
 11
32.6784
 21
215.9809999999999
 31
0.0
  0
LINE
  5
EE
330
1E
100
AcDbEntity
  8
0
100
AcDbLine
 10
26.8704
 20
215.439
 30
0.0
 11
29.8944
 21
215.587
 31
0.0
  0
LINE
  5
EF
330
1E
100
AcDbEntity
  8
0
100
AcDbLine
 10
48.9704
 20
213.0
 30
0.0
 11
51.4704
 21
213.0
 31
0.0
  0
LINE
  5
F0
330
1E
100
AcDbEntity
  8
0
100
AcDbLine
 10
52.3704
 20
213.0
 30
0.0
 11
52.3704
 21
246.0
 31
0.0
  0
LINE
  5
F1
330
1E
100
AcDbEntity
  8
0
100
AcDbLine
 10
51.4704
 20
213.0
 30
0.0
 11
52.3704
 21
213.0
 31
0.0
  0
LINE
  5
F2
330
1E
100
AcDbEntity
  8
0
100
AcDbLine
 10
42.8704
 20
213.0
 30
0.0
 11
44.87039999999999
 21
213.0
 31
0.0
  0
LINE
  5
F3
330
1E
100
AcDbEntity
  8
0
100
AcDbLine
 10
44.87039999999999
 20
213.0
 30
0.0
 11
48.9704
 21
213.0
 31
0.0
  0
LINE
  5
F4
330
1E
100
AcDbEntity
  8
0
100
AcDbLine
 10
38.87039999999999
 20
220.009
 30
0.0
 11
38.87039999999999
 21
228.842
 31
0.0
  0
LINE
  5
F5
330
1E
100
AcDbEntity
  8
0
100
AcDbLine
 10
38.87039999999999
 20
228.842
 30
0.0
 11
38.87039999999999
 21
220.009
 31
0.0
  0
LINE
  5
F6
330
1E
100
AcDbEntity
  8
0
100
AcDbLine
 10
38.4384
 20
218.9579999999999
 30
0.0
 11
38.87039999999999
 21
220.009
 31
0.0
  0
LINE
  5
F7
330
1E
100
AcDbEntity
  8
0
100
AcDbLine
 10
15.8624
 20
233.2009999999999
 30
0.0
 11
19.1264
 21
230.8549999999999
 31
0.0
  0
LINE
  5
F8
330
1E
100
AcDbEntity
  8
0
100
AcDbLine
 10
34.6144
 20
230.8549999999999
 30
0.0
 11
37.8784
 21
233.2009999999999
 31
0.0
  0
LINE
  5
F9
330
1E
100
AcDbEntity
  8
0
100
AcDbLine
 10
41.9104
 20
239.7559999999999
 30
0.0
 11
42.4864
 21
243.5449999999999
 31
0.0
  0
LINE
  5
FA
330
1E
100
AcDbEntity
  8
0
100
AcDbLine
 10
40.3744
 20
236.268
 30
0.0
 11
41.9104
 21
239.7559999999999
 31
0.0
  0
LINE
  5
FB
330
1E
100
AcDbEntity
  8
0
100
AcDbLine
 10
37.8784
 20
233.2009999999999
 30
0.0
 11
40.3744
 21
236.268
 31
0.0
  0
LINE
  5
FE
330
1E
100
AcDbEntity
  8
0
100
AcDbLine
 10
41.9104
 20
247.3339999999999
 30
0.0
 11
42.4864
 21
243.5449999999999
 31
0.0
  0
LINE
  5
FF
330
1E
100
AcDbEntity
  8
0
100
AcDbLine
 10
52.3704
 20
246.0
 30
0.0
 11
52.3704
 21
213.0
 31
0.0
  0
LINE
  5
100
330
1E
100
AcDbEntity
  8
0
100
AcDbLine
 10
42.2944
 20
247.189
 30
0.0
 11
42.8704
 21
243.34
 31
0.0
  0
LINE
  5
101
330
1E
100
AcDbEntity
  8
0
100
AcDbLine
 10
42.8704
 20
243.34
 30
0.0
 11
42.85020172503277
 21
143.5318321095054
 31
0.0
  0
LINE
  5
102
330
1E
100
AcDbEntity
  8
0
100
AcDbLine
 10
19.1264
 20
230.8549999999999
 30
0.0
 11
22.8384
 21
229.4119999999999
 31
0.0
  0
LINE
  5
103
330
1E
100
AcDbEntity
  8
0
100
AcDbLine
 10
22.8384
 20
229.4119999999999
 30
0.0
 11
26.8704
 21
228.871
 31
0.0
  0
LINE
  5
105
330
1E
100
AcDbEntity
  8
0
100
AcDbLine
 10
41.9491405764967
 20
248.0
 30
0.0
 11
43.47039999999999
 21
248.0
 31
0.0
  0
LINE
  5
106
330
1E
100
AcDbEntity
  8
0
100
AcDbLine
 10
42.162000886918
 20
247.5
 30
0.0
 11
44.5704
 21
247.5
 31
0.0
  0
LINE
  5
107
330
1E
100
AcDbEntity
  8
0
100
AcDbLine
 10
44.5704
 20
247.5
 30
0.0
 11
48.47039999999999
 21
247.5
 31
0.0
  0
LINE
  5
108
330
1E
100
AcDbEntity
  8
0
100
AcDbLine
 10
41.9491405764967
 20
248.0
 30
0.0
 11
43.47039999999999
 21
248.0
 31
0.0
  0
LINE
  5
109
330
1E
100
AcDbEntity
  8
0
100
AcDbLine
 10
48.47039999999999
 20
247.5
 30
0.0
 11
50.97039999999999
 21
247.5
 31
0.0
  0
LINE
  5
10A
330
1E
100
AcDbEntity
  8
0
100
AcDbLine
 10
51.87039999999999
 20
247.5
 30
0.0
 11
52.3704
 21
246.0
 31
0.0
  0
LINE
  5
10B
330
1E
100
AcDbEntity
  8
0
100
AcDbLine
 10
50.3704
 20
248.0
 30
0.0
 11
51.87039999999999
 21
247.5
 31
0.0
  0
LINE
  5
10C
330
1E
100
AcDbEntity
  8
0
100
AcDbLine
 10
50.97039999999999
 20
247.5
 30
0.0
 11
51.87039999999999
 21
247.5
 31
0.0
  0
LINE
  5
10D
330
1E
100
AcDbEntity
  8
0
100
AcDbLine
 10
43.47039999999999
 20
248.0
 30
0.0
 11
50.3704
 21
248.0
 31
0.0
  0
LINE
  5
10E
330
1E
100
AcDbEntity
  8
0
100
AcDbLine
 10
11.83039999999999
 20
247.3339999999999
 30
0.0
 11
13.3664
 21
250.822
 31
0.0
  0
LINE
  5
10F
330
1E
100
AcDbEntity
  8
0
100
AcDbLine
 10
11.4464
 20
247.189
 30
0.0
 11
12.9824
 21
250.7969999999999
 31
0.0
  0
LINE
  5
110
330
1E
100
AcDbEntity
  8
0
100
AcDbLine
 10
9.57039999999999
 20
212.0
 30
0.0
 11
10.8704
 21
212.0
 31
0.0
  0
LINE
  5
111
330
1E
100
AcDbEntity
  8
0
100
AcDbLine
 10
9.1704
 20
247.5
 30
0.0
 11
11.57879911308199
 21
247.5
 31
0.0
  0
LINE
  5
112
330
1E
100
AcDbEntity
  8
0
100
AcDbLine
 10
13.3664
 20
250.822
 30
0.0
 11
15.8624
 21
253.889
 31
0.0
  0
LINE
  5
113
330
1E
100
AcDbEntity
  8
0
100
AcDbLine
 10
12.9824
 20
250.7969999999999
 30
0.0
 11
15.5424
 21
253.984
 31
0.0
  0
LINE
  5
114
330
1E
100
AcDbEntity
  8
0
100
AcDbLine
 10
15.8624
 20
253.889
 30
0.0
 11
19.1264
 21
256.234
 31
0.0
  0
LINE
  5
115
330
1E
100
AcDbEntity
  8
0
100
AcDbLine
 10
19.1264
 20
256.234
 30
0.0
 11
22.8384
 21
257.6779999999999
 31
0.0
  0
LINE
  5
116
330
1E
100
AcDbEntity
  8
0
100
AcDbLine
 10
15.5424
 20
253.984
 30
0.0
 11
18.9344
 21
256.3899999999999
 31
0.0
  0
LINE
  5
117
330
1E
100
AcDbEntity
  8
0
100
AcDbLine
 10
18.9344
 20
256.3899999999999
 30
0.0
 11
22.77439999999999
 21
257.8329999999999
 31
0.0
  0
LINE
  5
118
330
1E
100
AcDbEntity
  8
0
100
AcDbLine
 10
22.8384
 20
257.6779999999999
 30
0.0
 11
26.8704
 21
258.219
 31
0.0
  0
LINE
  5
119
330
1E
100
AcDbEntity
  8
0
100
AcDbLine
 10
22.77439999999999
 20
257.8329999999999
 30
0.0
 11
26.8704
 21
258.375
 31
0.0
  0
LINE
  5
11A
330
1E
100
AcDbEntity
  8
0
100
AcDbLine
 10
22.37039999999999
 20
257.6811843749999
 30
0.0
 11
22.37039999999999
 21
269.7709999999999
 31
0.0
  0
LINE
  5
11B
330
1E
100
AcDbEntity
  8
0
100
AcDbLine
 10
24.6704
 20
266.107
 30
0.0
 11
25.6704
 21
265.7309999999999
 31
0.0
  0
LINE
  5
11C
330
1E
100
AcDbEntity
  8
0
100
AcDbLine
 10
25.6704
 20
265.7309999999999
 30
0.0
 11
26.8704
 21
265.5429999999999
 31
0.0
  0
LINE
  5
11D
330
1E
100
AcDbEntity
  8
0
100
AcDbLine
 10
22.9704
 20
267.704
 30
0.0
 11
23.6704
 21
266.764
 31
0.0
  0
LINE
  5
11E
330
1E
100
AcDbEntity
  8
0
100
AcDbLine
 10
23.6704
 20
266.764
 30
0.0
 11
24.6704
 21
266.107
 31
0.0
  0
LINE
  5
11F
330
1E
100
AcDbEntity
  8
0
100
AcDbLine
 10
22.37039999999999
 20
269.7709999999999
 30
0.0
 11
22.57039999999999
 21
268.644
 31
0.0
  0
LINE
  5
120
330
1E
100
AcDbEntity
  8
0
100
AcDbLine
 10
22.37039999999999
 20
269.7709999999999
 30
0.0
 11
22.37039999999999
 21
257.6811843749999
 31
0.0
  0
LINE
  5
121
330
1E
100
AcDbEntity
  8
0
100
AcDbLine
 10
22.37039999999999
 20
269.7709999999999
 30
0.0
 11
22.57039999999999
 21
270.899
 31
0.0
  0
LINE
  5
122
330
1E
100
AcDbEntity
  8
0
100
AcDbLine
 10
22.57039999999999
 20
268.644
 30
0.0
 11
22.9704
 21
267.704
 31
0.0
  0
LINE
  5
123
330
1E
100
AcDbEntity
  8
0
100
AcDbLine
 10
22.57039999999999
 20
270.899
 30
0.0
 11
22.9704
 21
271.8389999999999
 31
0.0
  0
LINE
  5
124
330
1E
100
AcDbEntity
  8
0
100
AcDbLine
 10
22.9704
 20
271.8389999999999
 30
0.0
 11
23.6704
 21
272.778
 31
0.0
  0
LINE
  5
125
330
1E
100
AcDbEntity
  8
0
100
AcDbLine
 10
22.9704
 20
270.882
 30
0.0
 11
23.3704
 21
271.822
 31
0.0
  0
LINE
  5
126
330
1E
100
AcDbEntity
  8
0
100
AcDbLine
 10
22.8704
 20
269.9419999999999
 30
0.0
 11
22.9704
 21
269.0029999999999
 31
0.0
  0
LINE
  5
127
330
1E
100
AcDbEntity
  8
0
100
AcDbLine
 10
22.8704
 20
269.9419999999999
 30
0.0
 11
22.9704
 21
270.882
 31
0.0
  0
LINE
  5
128
330
1E
100
AcDbEntity
  8
0
100
AcDbLine
 10
23.3704
 20
271.822
 30
0.0
 11
23.9704
 21
272.667
 31
0.0
  0
LINE
  5
129
330
1E
100
AcDbEntity
  8
0
100
AcDbLine
 10
23.6704
 20
272.778
 30
0.0
 11
24.6704
 21
273.4359999999999
 31
0.0
  0
LINE
  5
12A
330
1E
100
AcDbEntity
  8
0
100
AcDbLine
 10
23.9704
 20
272.667
 30
0.0
 11
24.8704
 21
273.231
 31
0.0
  0
LINE
  5
12B
330
1E
100
AcDbEntity
  8
0
100
AcDbLine
 10
22.9704
 20
269.0029999999999
 30
0.0
 11
23.3704
 21
268.0629999999999
 31
0.0
  0
LINE
  5
12C
330
1E
100
AcDbEntity
  8
0
100
AcDbLine
 10
23.3704
 20
268.0629999999999
 30
0.0
 11
23.9704
 21
267.2169999999999
 31
0.0
  0
LINE
  5
12D
330
1E
100
AcDbEntity
  8
0
100
AcDbLine
 10
24.6704
 20
273.4359999999999
 30
0.0
 11
25.6704
 21
273.812
 31
0.0
  0
LINE
  5
12E
330
1E
100
AcDbEntity
  8
0
100
AcDbLine
 10
24.8704
 20
273.231
 30
0.0
 11
25.8704
 21
273.607
 31
0.0
  0
LINE
  5
12F
330
1E
100
AcDbEntity
  8
0
100
AcDbLine
 10
25.6704
 20
273.812
 30
0.0
 11
26.8704
 21
274.0
 31
0.0
  0
LINE
  5
130
330
1E
100
AcDbEntity
  8
0
100
AcDbLine
 10
25.8704
 20
273.607
 30
0.0
 11
26.8704
 21
273.7009999999999
 31
0.0
  0
LINE
  5
131
330
1E
100
AcDbEntity
  8
0
100
AcDbLine
 10
23.9704
 20
267.2169999999999
 30
0.0
 11
24.8704
 21
266.653
 31
0.0
  0
LINE
  5
132
330
1E
100
AcDbEntity
  8
0
100
AcDbLine
 10
24.8704
 20
266.653
 30
0.0
 11
25.8704
 21
266.278
 31
0.0
  0
LINE
  5
133
330
1E
100
AcDbEntity
  8
0
100
AcDbLine
 10
30.9024
 20
257.6779999999999
 30
0.0
 11
34.6144
 21
256.234
 31
0.0
  0
LINE
  5
134
330
1E
100
AcDbEntity
  8
0
100
AcDbLine
 10
26.8704
 20
258.219
 30
0.0
 11
30.9024
 21
257.6779999999999
 31
0.0
  0
LINE
  5
135
330
1E
100
AcDbEntity
  8
0
100
AcDbLine
 10
30.9664
 20
257.8329999999999
 30
0.0
 11
34.80639999999999
 21
256.3899999999999
 31
0.0
  0
LINE
  5
136
330
1E
100
AcDbEntity
  8
0
100
AcDbLine
 10
26.8704
 20
258.375
 30
0.0
 11
30.9664
 21
257.8329999999999
 31
0.0
  0
LINE
  5
137
330
1E
100
AcDbEntity
  8
0
100
AcDbLine
 10
37.8784
 20
253.889
 30
0.0
 11
40.3744
 21
250.822
 31
0.0
  0
LINE
  5
138
330
1E
100
AcDbEntity
  8
0
100
AcDbLine
 10
34.6144
 20
256.234
 30
0.0
 11
37.8784
 21
253.889
 31
0.0
  0
LINE
  5
139
330
1E
100
AcDbEntity
  8
0
100
AcDbLine
 10
40.3744
 20
250.822
 30
0.0
 11
41.9104
 21
247.3339999999999
 31
0.0
  0
LINE
  5
13A
330
1E
100
AcDbEntity
  8
0
100
AcDbLine
 10
40.7584
 20
250.7969999999999
 30
0.0
 11
42.2944
 21
247.189
 31
0.0
  0
LINE
  5
13B
330
1E
100
AcDbEntity
  8
0
100
AcDbLine
 10
38.1984
 20
253.984
 30
0.0
 11
40.7584
 21
250.7969999999999
 31
0.0
  0
LINE
  5
13C
330
1E
100
AcDbEntity
  8
0
100
AcDbLine
 10
34.80639999999999
 20
256.3899999999999
 30
0.0
 11
38.1984
 21
253.984
 31
0.0
  0
LINE
  5
13D
330
1E
100
AcDbEntity
  8
0
100
AcDbLine
 10
31.3704
 20
257.6811843749999
 30
0.0
 11
31.3704
 21
269.7709999999999
 31
0.0
  0
LINE
  5
13E
330
1E
100
AcDbEntity
  8
0
100
AcDbLine
 10
26.8704
 20
266.184
 30
0.0
 11
27.8704
 21
266.278
 31
0.0
  0
LINE
  5
13F
330
1E
100
AcDbEntity
  8
0
100
AcDbLine
 10
27.8704
 20
266.278
 30
0.0
 11
28.8704
 21
266.653
 31
0.0
  0
LINE
  5
140
330
1E
100
AcDbEntity
  8
0
100
AcDbLine
 10
27.8704
 20
273.607
 30
0.0
 11
28.8704
 21
273.231
 31
0.0
  0
LINE
  5
141
330
1E
100
AcDbEntity
  8
0
100
AcDbLine
 10
26.8704
 20
273.7009999999999
 30
0.0
 11
27.8704
 21
273.607
 31
0.0
  0
LINE
  5
142
330
1E
100
AcDbEntity
  8
0
100
AcDbLine
 10
26.8704
 20
274.0
 30
0.0
 11
28.0704
 21
273.812
 31
0.0
  0
LINE
  5
143
330
1E
100
AcDbEntity
  8
0
100
AcDbLine
 10
28.0704
 20
273.812
 30
0.0
 11
29.0704
 21
273.4359999999999
 31
0.0
  0
LINE
  5
144
330
1E
100
AcDbEntity
  8
0
100
AcDbLine
 10
28.8704
 20
266.653
 30
0.0
 11
29.7704
 21
267.2169999999999
 31
0.0
  0
LINE
  5
145
330
1E
100
AcDbEntity
  8
0
100
AcDbLine
 10
29.7704
 20
267.2169999999999
 30
0.0
 11
30.3704
 21
268.0629999999999
 31
0.0
  0
LINE
  5
146
330
1E
100
AcDbEntity
  8
0
100
AcDbLine
 10
29.7704
 20
272.667
 30
0.0
 11
30.3704
 21
271.822
 31
0.0
  0
LINE
  5
147
330
1E
100
AcDbEntity
  8
0
100
AcDbLine
 10
28.8704
 20
273.231
 30
0.0
 11
29.7704
 21
272.667
 31
0.0
  0
LINE
  5
148
330
1E
100
AcDbEntity
  8
0
100
AcDbLine
 10
29.0704
 20
273.4359999999999
 30
0.0
 11
30.07039999999999
 21
272.778
 31
0.0
  0
LINE
  5
149
330
1E
100
AcDbEntity
  8
0
100
AcDbLine
 10
30.07039999999999
 20
272.778
 30
0.0
 11
30.7704
 21
271.8389999999999
 31
0.0
  0
LINE
  5
14A
330
1E
100
AcDbEntity
  8
0
100
AcDbLine
 10
30.3704
 20
268.0629999999999
 30
0.0
 11
30.7704
 21
269.0029999999999
 31
0.0
  0
LINE
  5
14B
330
1E
100
AcDbEntity
  8
0
100
AcDbLine
 10
30.7704
 20
270.882
 30
0.0
 11
30.8704
 21
269.9419999999999
 31
0.0
  0
LINE
  5
14C
330
1E
100
AcDbEntity
  8
0
100
AcDbLine
 10
30.7704
 20
269.0029999999999
 30
0.0
 11
30.8704
 21
269.9419999999999
 31
0.0
  0
LINE
  5
14D
330
1E
100
AcDbEntity
  8
0
100
AcDbLine
 10
30.3704
 20
271.822
 30
0.0
 11
30.7704
 21
270.882
 31
0.0
  0
LINE
  5
14E
330
1E
100
AcDbEntity
  8
0
100
AcDbLine
 10
30.7704
 20
271.8389999999999
 30
0.0
 11
31.1704
 21
270.899
 31
0.0
  0
LINE
  5
14F
330
1E
100
AcDbEntity
  8
0
100
AcDbLine
 10
31.1704
 20
270.899
 30
0.0
 11
31.3704
 21
269.7709999999999
 31
0.0
  0
LINE
  5
150
330
1E
100
AcDbEntity
  8
0
100
AcDbLine
 10
31.3704
 20
269.7709999999999
 30
0.0
 11
31.3704
 21
257.6811843749999
 31
0.0
  0
LINE
  5
151
330
1E
100
AcDbEntity
  8
0
100
AcDbLine
 10
31.1704
 20
268.644
 30
0.0
 11
31.3704
 21
269.7709999999999
 31
0.0
  0
LINE
  5
152
330
1E
100
AcDbEntity
  8
0
100
AcDbLine
 10
30.7704
 20
267.704
 30
0.0
 11
31.1704
 21
268.644
 31
0.0
  0
LINE
  5
153
330
1E
100
AcDbEntity
  8
0
100
AcDbLine
 10
30.07039999999999
 20
266.764
 30
0.0
 11
30.7704
 21
267.704
 31
0.0
  0
LINE
  5
154
330
1E
100
AcDbEntity
  8
0
100
AcDbLine
 10
29.0704
 20
266.107
 30
0.0
 11
30.07039999999999
 21
266.764
 31
0.0
  0
LINE
  5
155
330
1E
100
AcDbEntity
  8
0
100
AcDbLine
 10
28.0704
 20
265.7309999999999
 30
0.0
 11
29.0704
 21
266.107
 31
0.0
  0
LINE
  5
156
330
1E
100
AcDbEntity
  8
0
100
AcDbLine
 10
26.8704
 20
265.5429999999999
 30
0.0
 11
28.0704
 21
265.7309999999999
 31
0.0
  0
LINE
  5
157
330
1E
100
AcDbEntity
  8
0
100
AcDbLine
 10
25.8704
 20
266.278
 30
0.0
 11
26.8704
 21
266.184
 31
0.0
  0
LINE
  5
158
330
1E
100
AcDbEntity
  8
0
100
AcDbLine
 10
3.37039999999999
 20
248.0
 30
0.0
 11
11.79165942350332
 21
248.0
 31
0.0
  0
LINE
  5
159
330
1E
100
AcDbEntity
  8
0
100
AcDbLine
 10
3.37039999999999
 20
210.0
 30
0.0
 11
3.37039999999999
 21
212.0
 31
0.0
  0
LINE
  5
15E
330
1E
100
AcDbEntity
  8
0
100
AcDbLine
 10
53.87039999999999
 20
19.3535
 30
0.0
 11
53.8301328340081
 21
47.35349999999999
 31
0.0
  0
ENDSEC
  0
SECTION
  2
OBJECTS
  0
DICTIONARY
  5
C
330
0
100
AcDbDictionary
281
     1
  3
ACAD_GROUP
350
D
  3
ACAD_LAYOUT
350
19
  3
ACAD_MLINESTYLE
350
16
  3
ACAD_PLOTSETTINGS
350
18
  3
ACAD_PLOTSTYLENAME
350
E
  3
AcDbVariableDictionary
350
15F
  0
DICTIONARY
  5
D
102
{ACAD_REACTORS
330
C
102
}
330
C
100
AcDbDictionary
281
     1
  0
DICTIONARY
  5
19
102
{ACAD_REACTORS
330
C
102
}
330
C
100
AcDbDictionary
281
     1
  3
Layout1
350
1D
  3
Model
350
21
  0
DICTIONARY
  5
16
102
{ACAD_REACTORS
330
C
102
}
330
C
100
AcDbDictionary
281
     1
  3
Standard
350
17
  0
DICTIONARY
  5
18
102
{ACAD_REACTORS
330
C
102
}
330
C
100
AcDbDictionary
281
     1
  0
ACDBDICTIONARYWDFLT
  5
E
102
{ACAD_REACTORS
330
C
102
}
330
C
100
AcDbDictionary
281
     1
  3
Normal
350
F
100
AcDbDictionaryWithDefault
340
F
  0
DICTIONARY
  5
15F
102
{ACAD_REACTORS
330
C
102
}
330
C
100
AcDbDictionary
281
     1
  3
DIMASSOC
350
160
  0
LAYOUT
  5
1D
102
{ACAD_REACTORS
330
19
102
}
330
19
100
AcDbPlotSettings
  1

  2
hp deskjet 980c series
  4

  6

 40
0.0
 41
0.0
 42
0.0
 43
0.0
 44
0.0
 45
0.0
 46
0.0
 47
0.0
 48
0.0
 49
0.0
140
0.0
141
0.0
142
1.0
143
1.0
 70
   688
 72
     0
 73
     0
 74
     5
  7

 75
    16
147
1.0
148
0.0
149
0.0
100
AcDbLayout
  1
Layout1
 70
     1
 71
     1
 10
0.0
 20
0.0
 11
12.0
 21
9.0
 12
0.0
 22
0.0
 32
0.0
 14
1.000000000000000E+20
 24
1.000000000000000E+20
 34
1.000000000000000E+20
 15
-1.000000000000000E+20
 25
-1.000000000000000E+20
 35
-1.000000000000000E+20
146
0.0
 13
0.0
 23
0.0
 33
0.0
 16
1.0
 26
0.0
 36
0.0
 17
0.0
 27
1.0
 37
0.0
 76
     0
330
1A
  0
LAYOUT
  5
21
102
{ACAD_REACTORS
330
19
102
}
330
19
100
AcDbPlotSettings
  1

  2
hp deskjet 980c series
  4

  6

 40
0.0
 41
0.0
 42
0.0
 43
0.0
 44
0.0
 45
0.0
 46
0.0
 47
0.0
 48
0.0
 49
0.0
140
0.0
141
0.0
142
1.0
143
1.0
 70
  1712
 72
     0
 73
     0
 74
     0
  7

 75
     0
147
1.0
148
0.0
149
0.0
100
AcDbLayout
  1
Model
 70
     1
 71
     0
 10
0.0
 20
0.0
 11
12.0
 21
9.0
 12
0.0
 22
0.0
 32
0.0
 14
0.0
 24
0.0
 34
0.0
 15
0.0
 25
0.0
 35
0.0
146
0.0
 13
0.0
 23
0.0
 33
0.0
 16
1.0
 26
0.0
 36
0.0
 17
0.0
 27
1.0
 37
0.0
 76
     0
330
1E
  0
MLINESTYLE
  5
17
102
{ACAD_REACTORS
330
16
102
}
330
16
100
AcDbMlineStyle
  2
STANDARD
 70
     0
  3

 62
   256
 51
90.0
 52
90.0
 71
     2
 49
0.5
 62
   256
  6
BYLAYER
 49
-0.5
 62
   256
  6
BYLAYER
  0
ACDBPLACEHOLDER
  5
F
102
{ACAD_REACTORS
330
E
102
}
330
E
  0
DICTIONARYVAR
  5
160
102
{ACAD_REACTORS
330
15F
102
}
330
15F
100
DictionaryVariables
280
     0
  1
1
  0
ENDSEC
  0
EOF
