  0
SECTION
  2
HEADER
  9
$ACADVER
  1
AC1014
  9
$ACADMAINTVER
 70
     9
  9
$DWGCODEPAGE
  3
ANSI_1252
  9
$INSBASE
 10
0.0
 20
0.0
 30
0.0
  9
$EXTMIN
 10
0.249999999999993
 20
67.98149999999999
 30
0.0
  9
$EXTMAX
 10
80.75000000000001
 20
1026.9815
 30
0.0
  9
$LIMMIN
 10
0.0
 20
0.0
  9
$LIMMAX
 10
12.0
 20
9.0
  9
$ORTHOMODE
 70
     0
  9
$REGENMODE
 70
     1
  9
$FILLMODE
 70
     1
  9
$QTEXTMODE
 70
     0
  9
$MIRRTEXT
 70
     1
  9
$DRAGMODE
 70
     2
  9
$LTSCALE
 40
1.0
  9
$OSMODE
 70
    37
  9
$ATTMODE
 70
     1
  9
$TEXTSIZE
 40
0.2
  9
$TRACEWID
 40
0.05
  9
$TEXTSTYLE
  7
STANDARD
  9
$CLAYER
  8
0
  9
$CELTYPE
  6
CONTINUOUS
  9
$CECOLOR
 62
   256
  9
$CELTSCALE
 40
1.0
  9
$DELOBJ
 70
     1
  9
$DISPSILH
 70
     0
  9
$DIMSCALE
 40
1.0
  9
$DIMASZ
 40
0.18
  9
$DIMEXO
 40
0.0625
  9
$DIMDLI
 40
0.38
  9
$DIMRND
 40
0.0
  9
$DIMDLE
 40
0.0
  9
$DIMEXE
 40
0.18
  9
$DIMTP
 40
0.0
  9
$DIMTM
 40
0.0
  9
$DIMTXT
 40
0.18
  9
$DIMCEN
 40
0.09
  9
$DIMTSZ
 40
0.0
  9
$DIMTOL
 70
     0
  9
$DIMLIM
 70
     0
  9
$DIMTIH
 70
     1
  9
$DIMTOH
 70
     1
  9
$DIMSE1
 70
     0
  9
$DIMSE2
 70
     0
  9
$DIMTAD
 70
     0
  9
$DIMZIN
 70
     0
  9
$DIMBLK
  1

  9
$DIMASO
 70
     1
  9
$DIMSHO
 70
     1
  9
$DIMPOST
  1

  9
$DIMAPOST
  1

  9
$DIMALT
 70
     0
  9
$DIMALTD
 70
     2
  9
$DIMALTF
 40
25.4
  9
$DIMLFAC
 40
1.0
  9
$DIMTOFL
 70
     0
  9
$DIMTVP
 40
0.0
  9
$DIMTIX
 70
     0
  9
$DIMSOXD
 70
     0
  9
$DIMSAH
 70
     0
  9
$DIMBLK1
  1

  9
$DIMBLK2
  1

  9
$DIMSTYLE
  2
STANDARD
  9
$DIMCLRD
 70
     0
  9
$DIMCLRE
 70
     0
  9
$DIMCLRT
 70
     0
  9
$DIMTFAC
 40
1.0
  9
$DIMGAP
 40
0.09
  9
$DIMJUST
 70
     0
  9
$DIMSD1
 70
     0
  9
$DIMSD2
 70
     0
  9
$DIMTOLJ
 70
     1
  9
$DIMTZIN
 70
     0
  9
$DIMALTZ
 70
     0
  9
$DIMALTTZ
 70
     0
  9
$DIMFIT
 70
     3
  9
$DIMUPT
 70
     0
  9
$DIMUNIT
 70
     2
  9
$DIMDEC
 70
     4
  9
$DIMTDEC
 70
     4
  9
$DIMALTU
 70
     2
  9
$DIMALTTD
 70
     2
  9
$DIMTXSTY
  7
STANDARD
  9
$DIMAUNIT
 70
     0
  9
$LUNITS
 70
     2
  9
$LUPREC
 70
     4
  9
$SKETCHINC
 40
0.1
  9
$FILLETRAD
 40
0.0
  9
$AUNITS
 70
     0
  9
$AUPREC
 70
     0
  9
$MENU
  1
.
  9
$ELEVATION
 40
0.0
  9
$PELEVATION
 40
0.0
  9
$THICKNESS
 40
0.0
  9
$LIMCHECK
 70
     0
  9
$BLIPMODE
 70
     0
  9
$CHAMFERA
 40
0.0
  9
$CHAMFERB
 40
0.0
  9
$CHAMFERC
 40
0.0
  9
$CHAMFERD
 40
0.0
  9
$SKPOLY
 70
     0
  9
$TDCREATE
 40
2454761.857061088
  9
$TDUPDATE
 40
2455235.757632014
  9
$TDINDWG
 40
0.0023316204
  9
$TDUSRTIMER
 40
0.0023316204
  9
$USRTIMER
 70
     1
  9
$ANGBASE
 50
0.0
  9
$ANGDIR
 70
     0
  9
$PDMODE
 70
     0
  9
$PDSIZE
 40
0.0
  9
$PLINEWID
 40
0.0
  9
$COORDS
 70
     1
  9
$SPLFRAME
 70
     0
  9
$SPLINETYPE
 70
     6
  9
$SPLINESEGS
 70
     8
  9
$ATTDIA
 70
     0
  9
$ATTREQ
 70
     1
  9
$HANDLING
 70
 22529
  9
$HANDSEED
  5
180
  9
$SURFTAB1
 70
     6
  9
$SURFTAB2
 70
     6
  9
$SURFTYPE
 70
     6
  9
$SURFU
 70
     6
  9
$SURFV
 70
     6
  9
$UCSNAME
  2

  9
$UCSORG
 10
0.0
 20
0.0
 30
0.0
  9
$UCSXDIR
 10
1.0
 20
0.0
 30
0.0
  9
$UCSYDIR
 10
0.0
 20
1.0
 30
0.0
  9
$PUCSNAME
  2

  9
$PUCSORG
 10
0.0
 20
0.0
 30
0.0
  9
$PUCSXDIR
 10
1.0
 20
0.0
 30
0.0
  9
$PUCSYDIR
 10
0.0
 20
1.0
 30
0.0
  9
$USERI1
 70
     0
  9
$USERI2
 70
     0
  9
$USERI3
 70
     0
  9
$USERI4
 70
     0
  9
$USERI5
 70
     0
  9
$USERR1
 40
0.0
  9
$USERR2
 40
0.0
  9
$USERR3
 40
0.0
  9
$USERR4
 40
0.0
  9
$USERR5
 40
0.0
  9
$WORLDVIEW
 70
     1
  9
$SHADEDGE
 70
     3
  9
$SHADEDIF
 70
    70
  9
$TILEMODE
 70
     1
  9
$MAXACTVP
 70
    64
  9
$PINSBASE
 10
0.0
 20
0.0
 30
0.0
  9
$PLIMCHECK
 70
     0
  9
$PEXTMIN
 10
1.000000000000000E+20
 20
1.000000000000000E+20
 30
1.000000000000000E+20
  9
$PEXTMAX
 10
-1.000000000000000E+20
 20
-1.000000000000000E+20
 30
-1.000000000000000E+20
  9
$PLIMMIN
 10
0.0
 20
0.0
  9
$PLIMMAX
 10
12.0
 20
9.0
  9
$UNITMODE
 70
     0
  9
$VISRETAIN
 70
     1
  9
$PLINEGEN
 70
     0
  9
$PSLTSCALE
 70
     1
  9
$TREEDEPTH
 70
  3020
  9
$PICKSTYLE
 70
     1
  9
$CMLSTYLE
  2
STANDARD
  9
$CMLJUST
 70
     0
  9
$CMLSCALE
 40
1.0
  9
$PROXYGRAPHICS
 70
     1
  9
$MEASUREMENT
 70
     0
  0
ENDSEC
  0
SECTION
  2
CLASSES
  0
CLASS
  1
ACDBDICTIONARYWDFLT
  2
AcDbDictionaryWithDefault
  3
AutoCAD 2000
 90
        0
280
     0
281
     0
  0
CLASS
  1
ACDBPLACEHOLDER
  2
AcDbPlaceHolder
  3
AutoCAD 2000
 90
        0
280
     0
281
     0
  0
CLASS
  1
LAYOUT
  2
AcDbLayout
  3
AutoCAD 2000
 90
        0
280
     0
281
     0
  0
CLASS
  1
DICTIONARYVAR
  2
AcDbDictionaryVar
  3
AutoCAD 2000
 90
        0
280
     0
281
     0
  0
CLASS
  1
LONG_TRANSACTION
  2
AcDbLongTransaction
  3
AutoCAD 2000
 90
        0
280
     0
281
     0
  0
CLASS
  1
LWPOLYLINE
  2
AcDbPolyline
  3
AutoCAD 2000
 90
        0
280
     0
281
     1
  0
CLASS
  1
HATCH
  2
AcDbHatch
  3
AutoCAD 2000
 90
        0
280
     0
281
     1
  0
CLASS
  1
XRECORD
  2
AcDbXrecord
  3
AutoCAD 2000
 90
        0
280
     0
281
     0
  0
ENDSEC
  0
SECTION
  2
TABLES
  0
TABLE
  2
VPORT
  5
8
330
0
100
AcDbSymbolTable
 70
     3
  0
VPORT
  5
15B
330
8
100
AcDbSymbolTableRecord
100
AcDbViewportTableRecord
  2
*ACTIVE
 70
     0
 10
0.0
 20
0.0
 11
1.0
 21
1.0
 12
40.49999999999999
 22
547.4815000000001
 13
0.0
 23
0.0
 14
1.0
 24
1.0
 15
0.0
 25
0.0
 16
0.0
 26
0.0
 36
1.0
 17
0.0
 27
0.0
 37
0.0
 40
965.2954048140045
 41
2.041621029572836
 42
50.0
 43
0.0
 44
0.0
 50
0.0
 51
0.0
 71
     0
 72
   100
 73
     1
 74
     3
 75
     0
 76
     0
 77
     0
 78
     0
  0
ENDTAB
  0
TABLE
  2
LTYPE
  5
5
330
0
100
AcDbSymbolTable
 70
     1
  0
LTYPE
  5
13
330
5
100
AcDbSymbolTableRecord
100
AcDbLinetypeTableRecord
  2
BYBLOCK
 70
     0
  3

 72
    65
 73
     0
 40
0.0
  0
LTYPE
  5
14
330
5
100
AcDbSymbolTableRecord
100
AcDbLinetypeTableRecord
  2
BYLAYER
 70
     0
  3

 72
    65
 73
     0
 40
0.0
  0
LTYPE
  5
15
330
5
100
AcDbSymbolTableRecord
100
AcDbLinetypeTableRecord
  2
CONTINUOUS
 70
     0
  3
Solid line
 72
    65
 73
     0
 40
0.0
  0
ENDTAB
  0
TABLE
  2
LAYER
  5
2
330
0
100
AcDbSymbolTable
 70
     1
  0
LAYER
  5
10
330
2
100
AcDbSymbolTableRecord
100
AcDbLayerTableRecord
  2
0
 70
     0
 62
     7
  6
CONTINUOUS
  0
ENDTAB
  0
TABLE
  2
STYLE
  5
3
330
0
100
AcDbSymbolTable
 70
     1
  0
STYLE
  5
11
330
3
100
AcDbSymbolTableRecord
100
AcDbTextStyleTableRecord
  2
STANDARD
 70
     0
 40
0.0
 41
1.0
 50
0.0
 71
     0
 42
0.2
  3
txt
  4

  0
ENDTAB
  0
TABLE
  2
VIEW
  5
6
330
0
100
AcDbSymbolTable
 70
     0
  0
ENDTAB
  0
TABLE
  2
UCS
  5
7
330
0
100
AcDbSymbolTable
 70
     0
  0
ENDTAB
  0
TABLE
  2
APPID
  5
9
330
0
100
AcDbSymbolTable
 70
     1
  0
APPID
  5
12
330
9
100
AcDbSymbolTableRecord
100
AcDbRegAppTableRecord
  2
ACAD
 70
     0
  0
ENDTAB
  0
TABLE
  2
DIMSTYLE
  5
A
330
0
100
AcDbSymbolTable
 70
     1
  0
DIMSTYLE
105
14F
330
A
100
AcDbSymbolTableRecord
100
AcDbDimStyleTableRecord
  2
STANDARD
 70
     0
  3

  4

  5

  6

  7

 40
1.0
 41
0.18
 42
0.0625
 43
0.38
 44
0.18
 45
0.0
 46
0.0
 47
0.0
 48
0.0
140
0.18
141
0.09
142
0.0
143
25.4
144
1.0
145
0.0
146
1.0
147
0.09
 71
     0
 72
     0
 73
     1
 74
     1
 75
     0
 76
     0
 77
     0
 78
     0
170
     0
171
     2
172
     0
173
     0
174
     0
175
     0
176
     0
177
     0
178
     0
270
     2
271
     4
272
     4
273
     2
274
     2
340
11
275
     0
280
     0
281
     0
282
     0
283
     1
284
     0
285
     0
286
     0
287
     3
288
     0
  0
ENDTAB
  0
TABLE
  2
BLOCK_RECORD
  5
1
330
0
100
AcDbSymbolTable
 70
     0
  0
BLOCK_RECORD
  5
1E
102
{ACAD_XDICTIONARY
360
17E
102
}
330
1
100
AcDbSymbolTableRecord
100
AcDbBlockTableRecord
  2
*MODEL_SPACE
  0
BLOCK_RECORD
  5
1A
102
{ACAD_XDICTIONARY
360
17C
102
}
330
1
100
AcDbSymbolTableRecord
100
AcDbBlockTableRecord
  2
*PAPER_SPACE
  0
ENDTAB
  0
ENDSEC
  0
SECTION
  2
BLOCKS
  0
BLOCK
  5
1F
330
1E
100
AcDbEntity
  8
0
100
AcDbBlockBegin
  2
*MODEL_SPACE
 70
     0
 10
0.0
 20
0.0
 30
0.0
  3
*MODEL_SPACE
  1

  0
ENDBLK
  5
20
330
1E
100
AcDbEntity
  8
0
100
AcDbBlockEnd
  0
BLOCK
  5
1B
330
1A
100
AcDbEntity
 67
     1
  8
0
100
AcDbBlockBegin
  2
*PAPER_SPACE
 70
     0
 10
0.0
 20
0.0
 30
0.0
  3
*PAPER_SPACE
  1

  0
ENDBLK
  5
1C
330
1A
100
AcDbEntity
 67
     1
  8
0
100
AcDbBlockEnd
  0
ENDSEC
  0
SECTION
  2
ENTITIES
  0
LINE
  5
22
330
1E
100
AcDbEntity
  8
0
100
AcDbLine
 10
0.6939999999999929
 20
686.4815
 30
0.0
 11
1.359999999999988
 21
681.8194999999998
 31
0.0
  0
LINE
  5
23
330
1E
100
AcDbEntity
  8
0
100
AcDbLine
 10
0.6939999999999929
 20
686.4815
 30
0.0
 11
1.359999999999988
 21
691.1434999999999
 31
0.0
  0
LINE
  5
24
330
1E
100
AcDbEntity
  8
0
100
AcDbLine
 10
0.249999999999993
 20
686.4815
 30
0.0
 11
0.9159999999999929
 21
681.7454999999998
 31
0.0
  0
LINE
  5
25
330
1E
100
AcDbEntity
  8
0
100
AcDbLine
 10
0.249999999999993
 20
686.4815
 30
0.0
 11
0.9159999999999929
 21
691.2174999999998
 31
0.0
  0
LINE
  5
26
330
1E
100
AcDbEntity
  8
0
100
AcDbLine
 10
0.249999999999993
 20
686.4815
 30
0.0
 11
0.9159999999999929
 21
681.7454999999998
 31
0.0
  0
LINE
  5
27
330
1E
100
AcDbEntity
  8
0
100
AcDbLine
 10
0.249999999999993
 20
686.4815
 30
0.0
 11
0.9159999999999929
 21
691.2174999999998
 31
0.0
  0
LINE
  5
28
330
1E
100
AcDbEntity
  8
0
100
AcDbLine
 10
1.04448599999999
 20
696.7835
 30
0.0
 11
2.34013198762291
 21
694.777829969057
 31
0.0
  0
LINE
  5
29
330
1E
100
AcDbEntity
  8
0
100
AcDbLine
 10
1.04448599999999
 20
696.7835
 30
0.0
 11
1.390899999999988
 21
696.9835
 31
0.0
  0
LINE
  5
2A
330
1E
100
AcDbEntity
  8
0
100
AcDbLine
 10
1.04448599999999
 20
696.7835
 30
0.0
 11
2.34013198762291
 21
694.777829969057
 31
0.0
  0
LINE
  5
2B
330
1E
100
AcDbEntity
  8
0
100
AcDbLine
 10
1.359999999999988
 20
691.1434999999999
 30
0.0
 11
3.13599999999999
 21
695.4355
 31
0.0
  0
LINE
  5
2C
330
1E
100
AcDbEntity
  8
0
100
AcDbLine
 10
3.13599999999999
 20
695.4355
 30
0.0
 11
6.02199999999999
 21
699.2095
 31
0.0
  0
LINE
  5
2D
330
1E
100
AcDbEntity
  8
0
100
AcDbLine
 10
1.390899999999988
 20
696.9835
 30
0.0
 11
2.34351999999999
 21
697.5335
 31
0.0
  0
LINE
  5
2E
330
1E
100
AcDbEntity
  8
0
100
AcDbLine
 10
2.34351999999999
 20
697.5335
 30
0.0
 11
3.98896999999999
 21
698.4835
 31
0.0
  0
LINE
  5
2F
330
1E
100
AcDbEntity
  8
0
100
AcDbLine
 10
3.98896999999999
 20
698.4835
 30
0.0
 11
5.470298893890047
 21
699.338746034404
 31
0.0
  0
LINE
  5
30
330
1E
100
AcDbEntity
  8
0
100
AcDbLine
 10
2.69199999999999
 20
695.6575
 30
0.0
 11
5.65199999999999
 21
699.5795000000001
 31
0.0
  0
LINE
  5
31
330
1E
100
AcDbEntity
  8
0
100
AcDbLine
 10
1.359999999999988
 20
681.8194999999998
 30
0.0
 11
3.13599999999999
 21
677.5275
 31
0.0
  0
LINE
  5
32
330
1E
100
AcDbEntity
  8
0
100
AcDbLine
 10
3.13599999999999
 20
677.5275
 30
0.0
 11
6.02199999999999
 21
673.7535
 31
0.0
  0
LINE
  5
33
330
1E
100
AcDbEntity
  8
0
100
AcDbLine
 10
0.9159999999999929
 20
691.2174999999998
 30
0.0
 11
2.34013198762291
 21
694.777829969057
 31
0.0
  0
LINE
  5
34
330
1E
100
AcDbEntity
  8
0
100
AcDbLine
 10
0.9159999999999929
 20
691.2174999999998
 30
0.0
 11
2.69199999999999
 21
695.6575
 31
0.0
  0
LINE
  5
35
330
1E
100
AcDbEntity
  8
0
100
AcDbLine
 10
5.470298893890047
 20
699.338746034404
 30
0.0
 11
5.65199999999999
 21
699.5795000000001
 31
0.0
  0
LINE
  5
36
330
1E
100
AcDbEntity
  8
0
100
AcDbLine
 10
0.9159999999999929
 20
681.7454999999998
 30
0.0
 11
2.69199999999999
 21
677.3055
 31
0.0
  0
LINE
  5
37
330
1E
100
AcDbEntity
  8
0
100
AcDbLine
 10
2.69199999999999
 20
677.3055
 30
0.0
 11
5.65199999999999
 21
673.3835
 31
0.0
  0
LINE
  5
38
330
1E
100
AcDbEntity
  8
0
100
AcDbLine
 10
7.749999999999959
 20
120.4825
 30
0.0
 11
7.74999999999999
 21
671.800103773585
 31
0.0
  0
LINE
  5
39
330
1E
100
AcDbEntity
  8
0
100
AcDbLine
 10
7.749999999999959
 20
120.4825
 30
0.0
 11
8.249999999999959
 21
119.9815
 31
0.0
  0
LINE
  5
3A
330
1E
100
AcDbEntity
  8
0
100
AcDbLine
 10
7.749999999999959
 20
120.4825
 30
0.0
 11
7.74999999999999
 21
671.800103773585
 31
0.0
  0
LINE
  5
3B
330
1E
100
AcDbEntity
  8
0
100
AcDbLine
 10
7.749999999999959
 20
120.4825
 30
0.0
 11
8.149999999999959
 21
120.4825
 31
0.0
  0
LINE
  5
3C
330
1E
100
AcDbEntity
  8
0
100
AcDbLine
 10
6.02199999999999
 20
699.2095
 30
0.0
 11
9.79599999999999
 21
702.0955
 31
0.0
  0
LINE
  5
3D
330
1E
100
AcDbEntity
  8
0
100
AcDbLine
 10
6.02199999999999
 20
673.7535
 30
0.0
 11
9.79599999999999
 21
670.8674999999998
 31
0.0
  0
LINE
  5
3E
330
1E
100
AcDbEntity
  8
0
100
AcDbLine
 10
5.65199999999999
 20
699.5795000000001
 30
0.0
 11
7.74999999999999
 21
701.162896226415
 31
0.0
  0
LINE
  5
3F
330
1E
100
AcDbEntity
  8
0
100
AcDbLine
 10
5.65199999999999
 20
699.5795000000001
 30
0.0
 11
9.57399999999999
 21
702.5394999999998
 31
0.0
  0
LINE
  5
40
330
1E
100
AcDbEntity
  8
0
100
AcDbLine
 10
5.65199999999999
 20
673.3835
 30
0.0
 11
7.74999999999999
 21
671.800103773585
 31
0.0
  0
LINE
  5
41
330
1E
100
AcDbEntity
  8
0
100
AcDbLine
 10
5.65199999999999
 20
673.3835
 30
0.0
 11
9.57399999999999
 21
670.4234999999998
 31
0.0
  0
LINE
  5
42
330
1E
100
AcDbEntity
  8
0
100
AcDbLine
 10
7.74999999999995
 20
68.4815
 30
0.0
 11
7.749999999999959
 21
119.4814999999999
 31
0.0
  0
LINE
  5
43
330
1E
100
AcDbEntity
  8
0
100
AcDbLine
 10
7.74999999999995
 20
68.4815
 30
0.0
 11
8.24999999999995
 21
67.98149999999999
 31
0.0
  0
LINE
  5
44
330
1E
100
AcDbEntity
  8
0
100
AcDbLine
 10
7.74999999999995
 20
68.4815
 30
0.0
 11
8.14999999999995
 21
68.4815
 31
0.0
  0
LINE
  5
45
330
1E
100
AcDbEntity
  8
0
100
AcDbLine
 10
8.24999999999995
 20
67.98149999999999
 30
0.0
 11
8.64999999999995
 21
67.98149999999999
 31
0.0
  0
LINE
  5
46
330
1E
100
AcDbEntity
  8
0
100
AcDbLine
 10
8.64999999999995
 20
67.98149999999999
 30
0.0
 11
9.649999999999947
 21
67.98149999999999
 31
0.0
  0
LINE
  5
47
330
1E
100
AcDbEntity
  8
0
100
AcDbLine
 10
9.649999999999947
 20
67.98149999999999
 30
0.0
 11
11.35
 21
67.98149999999999
 31
0.0
  0
LINE
  5
48
330
1E
100
AcDbEntity
  8
0
100
AcDbLine
 10
11.35
 20
67.98149999999999
 30
0.0
 11
13.55
 21
67.98149999999999
 31
0.0
  0
LINE
  5
49
330
1E
100
AcDbEntity
  8
0
100
AcDbLine
 10
18.75
 20
67.98149999999999
 30
0.0
 11
67.69750660918429
 21
67.98149999999999
 31
0.0
  0
LINE
  5
4A
330
1E
100
AcDbEntity
  8
0
100
AcDbLine
 10
13.55
 20
67.98149999999999
 30
0.0
 11
16.05
 21
67.98149999999999
 31
0.0
  0
LINE
  5
4B
330
1E
100
AcDbEntity
  8
0
100
AcDbLine
 10
16.05
 20
67.98149999999999
 30
0.0
 11
18.75
 21
67.98149999999999
 31
0.0
  0
LINE
  5
76
330
1E
100
AcDbEntity
  8
0
100
AcDbLine
 10
67.69750660918429
 20
67.98149999999999
 30
0.0
 11
80.25
 21
67.98149999999999
 31
0.0
  0
LINE
  5
77
330
1E
100
AcDbEntity
  8
0
100
AcDbLine
 10
67.69750660918429
 20
67.98149999999999
 30
0.0
 11
80.25
 21
67.98149999999999
 31
0.0
  0
LINE
  5
78
330
1E
100
AcDbEntity
  8
0
100
AcDbLine
 10
18.75
 20
67.98149999999999
 30
0.0
 11
67.69750660918429
 21
67.98149999999999
 31
0.0
  0
LINE
  5
79
330
1E
100
AcDbEntity
  8
0
100
AcDbLine
 10
8.14999999999995
 20
68.4815
 30
0.0
 11
9.249999999999946
 21
68.4815
 31
0.0
  0
LINE
  5
7A
330
1E
100
AcDbEntity
  8
0
100
AcDbLine
 10
8.149999999999959
 20
119.4814999999999
 30
0.0
 11
9.24999999999996
 21
119.4814999999999
 31
0.0
  0
LINE
  5
7B
330
1E
100
AcDbEntity
  8
0
100
AcDbLine
 10
8.249999999999959
 20
119.9815
 30
0.0
 11
8.649999999999959
 21
119.9815
 31
0.0
  0
LINE
  5
7C
330
1E
100
AcDbEntity
  8
0
100
AcDbLine
 10
9.249999999999946
 20
68.4815
 30
0.0
 11
10.94999999999999
 21
68.4815
 31
0.0
  0
LINE
  5
7D
330
1E
100
AcDbEntity
  8
0
100
AcDbLine
 10
10.94999999999999
 20
68.4815
 30
0.0
 11
13.25
 21
68.4815
 31
0.0
  0
LINE
  5
7E
330
1E
100
AcDbEntity
  8
0
100
AcDbLine
 10
9.24999999999996
 20
119.4814999999999
 30
0.0
 11
10.94999999999999
 21
119.4814999999999
 31
0.0
  0
LINE
  5
7F
330
1E
100
AcDbEntity
  8
0
100
AcDbLine
 10
10.94999999999999
 20
119.4814999999999
 30
0.0
 11
13.25
 21
119.4814999999999
 31
0.0
  0
LINE
  5
80
330
1E
100
AcDbEntity
  8
0
100
AcDbLine
 10
8.649999999999959
 20
119.9815
 30
0.0
 11
9.649999999999961
 21
119.9815
 31
0.0
  0
LINE
  5
81
330
1E
100
AcDbEntity
  8
0
100
AcDbLine
 10
9.649999999999961
 20
119.9815
 30
0.0
 11
11.35
 21
119.9815
 31
0.0
  0
LINE
  5
82
330
1E
100
AcDbEntity
  8
0
100
AcDbLine
 10
13.25
 20
68.4815
 30
0.0
 11
15.94999999999999
 21
68.4815
 31
0.0
  0
LINE
  5
83
330
1E
100
AcDbEntity
  8
0
100
AcDbLine
 10
15.94999999999999
 20
68.4815
 30
0.0
 11
18.75
 21
68.4815
 31
0.0
  0
LINE
  5
84
330
1E
100
AcDbEntity
  8
0
100
AcDbLine
 10
13.25
 20
119.4814999999999
 30
0.0
 11
15.94999999999999
 21
119.4814999999999
 31
0.0
  0
LINE
  5
85
330
1E
100
AcDbEntity
  8
0
100
AcDbLine
 10
15.94999999999999
 20
119.4814999999999
 30
0.0
 11
18.75
 21
119.4814999999999
 31
0.0
  0
LINE
  5
86
330
1E
100
AcDbEntity
  8
0
100
AcDbLine
 10
11.35
 20
119.9815
 30
0.0
 11
13.55
 21
119.9815
 31
0.0
  0
LINE
  5
87
330
1E
100
AcDbEntity
  8
0
100
AcDbLine
 10
13.55
 20
119.9815
 30
0.0
 11
16.05
 21
119.9815
 31
0.0
  0
LINE
  5
88
330
1E
100
AcDbEntity
  8
0
100
AcDbLine
 10
18.75
 20
68.4815
 30
0.0
 11
51.7790141606231
 21
68.4815
 31
0.0
  0
LINE
  5
89
330
1E
100
AcDbEntity
  8
0
100
AcDbLine
 10
18.74999999999989
 20
68.4815
 30
0.0
 11
51.7790141606231
 21
68.4815
 31
0.0
  0
LINE
  5
8A
330
1E
100
AcDbEntity
  8
0
100
AcDbLine
 10
28.85
 20
119.9815
 30
0.0
 11
29.25
 21
119.9815
 31
0.0
  0
LINE
  5
8B
330
1E
100
AcDbEntity
  8
0
100
AcDbLine
 10
29.25
 20
119.9815
 30
0.0
 11
29.75
 21
120.4825
 31
0.0
  0
LINE
  5
8C
330
1E
100
AcDbEntity
  8
0
100
AcDbLine
 10
27.85
 20
119.9815
 30
0.0
 11
28.85
 21
119.9815
 31
0.0
  0
LINE
  5
8D
330
1E
100
AcDbEntity
  8
0
100
AcDbLine
 10
26.15
 20
119.9815
 30
0.0
 11
27.85
 21
119.9815
 31
0.0
  0
LINE
  5
8E
330
1E
100
AcDbEntity
  8
0
100
AcDbLine
 10
23.95
 20
119.9815
 30
0.0
 11
26.15
 21
119.9815
 31
0.0
  0
LINE
  5
8F
330
1E
100
AcDbEntity
  8
0
100
AcDbLine
 10
21.45
 20
119.9815
 30
0.0
 11
23.95
 21
119.9815
 31
0.0
  0
LINE
  5
90
330
1E
100
AcDbEntity
  8
0
100
AcDbLine
 10
18.75
 20
119.4814999999999
 30
0.0
 11
67.667059675376
 21
119.4814999999999
 31
0.0
  0
LINE
  5
91
330
1E
100
AcDbEntity
  8
0
100
AcDbLine
 10
16.05
 20
119.9815
 30
0.0
 11
18.75
 21
119.9815
 31
0.0
  0
LINE
  5
92
330
1E
100
AcDbEntity
  8
0
100
AcDbLine
 10
7.750000000000007
 20
974.4815
 30
0.0
 11
8.250000000000008
 21
974.9814999999999
 31
0.0
  0
LINE
  5
93
330
1E
100
AcDbEntity
  8
0
100
AcDbLine
 10
7.750000000000007
 20
974.4815
 30
0.0
 11
8.150000000000007
 21
974.4815
 31
0.0
  0
LINE
  5
94
330
1E
100
AcDbEntity
  8
0
100
AcDbLine
 10
7.74999999999999
 20
701.162896226415
 30
0.0
 11
7.750000000000007
 21
974.4815
 31
0.0
  0
LINE
  5
95
330
1E
100
AcDbEntity
  8
0
100
AcDbLine
 10
7.74999999999999
 20
701.162896226415
 30
0.0
 11
7.750000000000007
 21
974.4815
 31
0.0
  0
LINE
  5
96
330
1E
100
AcDbEntity
  8
0
100
AcDbLine
 10
7.750000000000007
 20
975.4815
 30
0.0
 11
7.750000000000007
 21
1026.4815
 31
0.0
  0
LINE
  5
97
330
1E
100
AcDbEntity
  8
0
100
AcDbLine
 10
7.750000000000007
 20
975.4815
 30
0.0
 11
8.250000000000008
 21
974.9814999999999
 31
0.0
  0
LINE
  5
98
330
1E
100
AcDbEntity
  8
0
100
AcDbLine
 10
7.750000000000007
 20
975.4815
 30
0.0
 11
8.150000000000007
 21
975.4815
 31
0.0
  0
LINE
  5
99
330
1E
100
AcDbEntity
  8
0
100
AcDbLine
 10
8.150000000000007
 20
974.4815
 30
0.0
 11
9.250000000000008
 21
974.4815
 31
0.0
  0
LINE
  5
9A
330
1E
100
AcDbEntity
  8
0
100
AcDbLine
 10
8.149999999999959
 20
120.4825
 30
0.0
 11
9.24999999999996
 21
120.4825
 31
0.0
  0
LINE
  5
9B
330
1E
100
AcDbEntity
  8
0
100
AcDbLine
 10
9.24999999999996
 20
120.4825
 30
0.0
 11
10.94999999999999
 21
120.4825
 31
0.0
  0
LINE
  5
9C
330
1E
100
AcDbEntity
  8
0
100
AcDbLine
 10
9.250000000000008
 20
974.4815
 30
0.0
 11
10.94999999999999
 21
974.4815
 31
0.0
  0
LINE
  5
9D
330
1E
100
AcDbEntity
  8
0
100
AcDbLine
 10
9.57399999999999
 20
702.5394999999998
 30
0.0
 11
14.014
 21
704.3155
 31
0.0
  0
LINE
  5
9E
330
1E
100
AcDbEntity
  8
0
100
AcDbLine
 10
9.57399999999999
 20
670.4234999999998
 30
0.0
 11
14.014
 21
668.6475
 31
0.0
  0
LINE
  5
9F
330
1E
100
AcDbEntity
  8
0
100
AcDbLine
 10
8.250000000000008
 20
974.9814999999999
 30
0.0
 11
8.650000000000007
 21
974.9814999999999
 31
0.0
  0
LINE
  5
A0
330
1E
100
AcDbEntity
  8
0
100
AcDbLine
 10
8.650000000000007
 20
974.9814999999999
 30
0.0
 11
9.650000000000007
 21
974.9814999999999
 31
0.0
  0
LINE
  5
A1
330
1E
100
AcDbEntity
  8
0
100
AcDbLine
 10
10.94999999999999
 20
120.4825
 30
0.0
 11
13.25
 21
120.4825
 31
0.0
  0
LINE
  5
A2
330
1E
100
AcDbEntity
  8
0
100
AcDbLine
 10
13.25
 20
120.4825
 30
0.0
 11
15.94999999999999
 21
120.4825
 31
0.0
  0
LINE
  5
A3
330
1E
100
AcDbEntity
  8
0
100
AcDbLine
 10
10.94999999999999
 20
974.4815
 30
0.0
 11
13.25
 21
974.4815
 31
0.0
  0
LINE
  5
A4
330
1E
100
AcDbEntity
  8
0
100
AcDbLine
 10
13.25
 20
974.4815
 30
0.0
 11
15.94999999999999
 21
974.4815
 31
0.0
  0
LINE
  5
A5
330
1E
100
AcDbEntity
  8
0
100
AcDbLine
 10
9.79599999999999
 20
702.0955
 30
0.0
 11
14.088
 21
703.8714999999998
 31
0.0
  0
LINE
  5
A6
330
1E
100
AcDbEntity
  8
0
100
AcDbLine
 10
9.79599999999999
 20
670.8674999999998
 30
0.0
 11
14.088
 21
669.0915
 31
0.0
  0
LINE
  5
A7
330
1E
100
AcDbEntity
  8
0
100
AcDbLine
 10
9.650000000000007
 20
974.9814999999999
 30
0.0
 11
11.35
 21
974.9814999999999
 31
0.0
  0
LINE
  5
A8
330
1E
100
AcDbEntity
  8
0
100
AcDbLine
 10
11.35
 20
974.9814999999999
 30
0.0
 11
13.55
 21
974.9814999999999
 31
0.0
  0
LINE
  5
A9
330
1E
100
AcDbEntity
  8
0
100
AcDbLine
 10
18.75
 20
120.4825
 30
0.0
 11
21.55
 21
120.4825
 31
0.0
  0
LINE
  5
AA
330
1E
100
AcDbEntity
  8
0
100
AcDbLine
 10
15.94999999999999
 20
120.4825
 30
0.0
 11
18.75
 21
120.4825
 31
0.0
  0
LINE
  5
AB
330
1E
100
AcDbEntity
  8
0
100
AcDbLine
 10
18.75
 20
667.9814999999998
 30
0.0
 11
23.486
 21
668.6475
 31
0.0
  0
LINE
  5
AC
330
1E
100
AcDbEntity
  8
0
100
AcDbLine
 10
18.75
 20
668.4255
 30
0.0
 11
23.412
 21
669.0915
 31
0.0
  0
LINE
  5
AD
330
1E
100
AcDbEntity
  8
0
100
AcDbLine
 10
14.014
 20
668.6475
 30
0.0
 11
18.75
 21
667.9814999999998
 31
0.0
  0
LINE
  5
AE
330
1E
100
AcDbEntity
  8
0
100
AcDbLine
 10
14.11489928117009
 20
704.329688961414
 30
0.0
 11
15.94009999999999
 21
705.3835
 31
0.0
  0
LINE
  5
AF
330
1E
100
AcDbEntity
  8
0
100
AcDbLine
 10
18.75
 20
704.5374999999998
 30
0.0
 11
23.412
 21
703.8714999999998
 31
0.0
  0
LINE
  5
B0
330
1E
100
AcDbEntity
  8
0
100
AcDbLine
 10
14.088
 20
703.8714999999998
 30
0.0
 11
18.75
 21
704.5374999999998
 31
0.0
  0
LINE
  5
B1
330
1E
100
AcDbEntity
  8
0
100
AcDbLine
 10
15.94009999999999
 20
705.3835
 30
0.0
 11
18.01859999999998
 21
706.5834999999998
 31
0.0
  0
LINE
  5
B2
330
1E
100
AcDbEntity
  8
0
100
AcDbLine
 10
18.01859999999998
 20
706.5834999999998
 30
0.0
 11
19.664
 21
707.5334999999999
 31
0.0
  0
LINE
  5
B3
330
1E
100
AcDbEntity
  8
0
100
AcDbLine
 10
18.75
 20
974.4815
 30
0.0
 11
21.55
 21
974.4815
 31
0.0
  0
LINE
  5
B4
330
1E
100
AcDbEntity
  8
0
100
AcDbLine
 10
15.94999999999999
 20
974.4815
 30
0.0
 11
18.75
 21
974.4815
 31
0.0
  0
LINE
  5
B5
330
1E
100
AcDbEntity
  8
0
100
AcDbLine
 10
18.75
 20
704.9814999999998
 30
0.0
 11
23.486
 21
704.3155
 31
0.0
  0
LINE
  5
B6
330
1E
100
AcDbEntity
  8
0
100
AcDbLine
 10
14.014
 20
704.3155
 30
0.0
 11
18.75
 21
704.9814999999998
 31
0.0
  0
LINE
  5
B7
330
1E
100
AcDbEntity
  8
0
100
AcDbLine
 10
14.088
 20
669.0915
 30
0.0
 11
18.75
 21
668.4255
 31
0.0
  0
LINE
  5
B8
330
1E
100
AcDbEntity
  8
0
100
AcDbLine
 10
13.55
 20
974.9814999999999
 30
0.0
 11
16.05
 21
974.9814999999999
 31
0.0
  0
LINE
  5
B9
330
1E
100
AcDbEntity
  8
0
100
AcDbLine
 10
16.05
 20
974.9814999999999
 30
0.0
 11
18.75
 21
974.9814999999999
 31
0.0
  0
LINE
  5
BF
330
1E
100
AcDbEntity
  8
0
100
AcDbLine
 10
21.55
 20
120.4825
 30
0.0
 11
24.25
 21
120.4825
 31
0.0
  0
LINE
  5
C0
330
1E
100
AcDbEntity
  8
0
100
AcDbLine
 10
29.75
 20
120.4825
 30
0.0
 11
29.75
 21
671.8001037735848
 31
0.0
  0
LINE
  5
C1
330
1E
100
AcDbEntity
  8
0
100
AcDbLine
 10
29.35
 20
120.4825
 30
0.0
 11
29.75
 21
120.4825
 31
0.0
  0
LINE
  5
C2
330
1E
100
AcDbEntity
  8
0
100
AcDbLine
 10
28.25
 20
120.4825
 30
0.0
 11
29.35
 21
120.4825
 31
0.0
  0
LINE
  5
C3
330
1E
100
AcDbEntity
  8
0
100
AcDbLine
 10
26.55
 20
120.4825
 30
0.0
 11
28.25
 21
120.4825
 31
0.0
  0
LINE
  5
C7
330
1E
100
AcDbEntity
  8
0
100
AcDbLine
 10
29.75
 20
120.4825
 30
0.0
 11
29.75
 21
671.8001037735848
 31
0.0
  0
LINE
  5
C8
330
1E
100
AcDbEntity
  8
0
100
AcDbLine
 10
24.25
 20
120.4825
 30
0.0
 11
26.55
 21
120.4825
 31
0.0
  0
LINE
  5
C9
330
1E
100
AcDbEntity
  8
0
100
AcDbLine
 10
23.486
 20
668.6475
 30
0.0
 11
27.926
 21
670.4234999999998
 31
0.0
  0
LINE
  5
CD
330
1E
100
AcDbEntity
  8
0
100
AcDbLine
 10
31.478
 20
699.2095
 30
0.0
 11
34.364
 21
695.4355
 31
0.0
  0
LINE
  5
CE
330
1E
100
AcDbEntity
  8
0
100
AcDbLine
 10
31.848
 20
673.3835
 30
0.0
 11
34.808
 21
677.3055
 31
0.0
  0
LINE
  5
CF
330
1E
100
AcDbEntity
  8
0
100
AcDbLine
 10
31.478
 20
673.7535
 30
0.0
 11
34.364
 21
677.5275
 31
0.0
  0
LINE
  5
D0
330
1E
100
AcDbEntity
  8
0
100
AcDbLine
 10
27.926
 20
670.4234999999998
 30
0.0
 11
31.848
 21
673.3835
 31
0.0
  0
LINE
  5
D1
330
1E
100
AcDbEntity
  8
0
100
AcDbLine
 10
27.704
 20
670.8674999999998
 30
0.0
 11
31.478
 21
673.7535
 31
0.0
  0
LINE
  5
D2
330
1E
100
AcDbEntity
  8
0
100
AcDbLine
 10
23.412
 20
669.0915
 30
0.0
 11
27.704
 21
670.8674999999998
 31
0.0
  0
LINE
  5
106
330
1E
100
AcDbEntity
  8
0
100
AcDbLine
 10
34.808
 20
677.3055
 30
0.0
 11
36.584
 21
681.7454999999998
 31
0.0
  0
LINE
  5
107
330
1E
100
AcDbEntity
  8
0
100
AcDbLine
 10
34.364
 20
695.4355
 30
0.0
 11
36.14
 21
691.1434999999999
 31
0.0
  0
LINE
  5
108
330
1E
100
AcDbEntity
  8
0
100
AcDbLine
 10
34.808
 20
695.6575
 30
0.0
 11
36.584
 21
691.2174999999998
 31
0.0
  0
LINE
  5
109
330
1E
100
AcDbEntity
  8
0
100
AcDbLine
 10
36.14
 20
691.1434999999999
 30
0.0
 11
36.806
 21
686.4815
 31
0.0
  0
LINE
  5
10A
330
1E
100
AcDbEntity
  8
0
100
AcDbLine
 10
36.584
 20
691.2174999999998
 30
0.0
 11
37.25
 21
686.4815
 31
0.0
  0
LINE
  5
10B
330
1E
100
AcDbEntity
  8
0
100
AcDbLine
 10
36.584
 20
681.7454999999998
 30
0.0
 11
37.25
 21
686.4815
 31
0.0
  0
LINE
  5
10C
330
1E
100
AcDbEntity
  8
0
100
AcDbLine
 10
36.14
 20
681.8194999999998
 30
0.0
 11
36.806
 21
686.4815
 31
0.0
  0
LINE
  5
10D
330
1E
100
AcDbEntity
  8
0
100
AcDbLine
 10
34.364
 20
677.5275
 30
0.0
 11
36.14
 21
681.8194999999998
 31
0.0
  0
LINE
  5
10E
330
1E
100
AcDbEntity
  8
0
100
AcDbLine
 10
31.848
 20
699.5795000000001
 30
0.0
 11
34.808
 21
695.6575
 31
0.0
  0
LINE
  5
10F
330
1E
100
AcDbEntity
  8
0
100
AcDbLine
 10
20.6167
 20
708.0834999999998
 30
0.0
 11
20.9631
 21
708.2835
 31
0.0
  0
LINE
  5
110
330
1E
100
AcDbEntity
  8
0
100
AcDbLine
 10
20.9631
 20
708.2835
 30
0.0
 11
22.958895307072
 21
704.3896240974429
 31
0.0
  0
LINE
  5
111
330
1E
100
AcDbEntity
  8
0
100
AcDbLine
 10
19.664
 20
707.5334999999999
 30
0.0
 11
20.6167
 21
708.0834999999998
 31
0.0
  0
LINE
  5
112
330
1E
100
AcDbEntity
  8
0
100
AcDbLine
 10
21.45
 20
974.9814999999999
 30
0.0
 11
23.95
 21
974.9814999999999
 31
0.0
  0
LINE
  5
113
330
1E
100
AcDbEntity
  8
0
100
AcDbLine
 10
21.55
 20
974.4815
 30
0.0
 11
24.25
 21
974.4815
 31
0.0
  0
LINE
  5
114
330
1E
100
AcDbEntity
  8
0
100
AcDbLine
 10
23.412
 20
703.8714999999998
 30
0.0
 11
27.704
 21
702.0955
 31
0.0
  0
LINE
  5
115
330
1E
100
AcDbEntity
  8
0
100
AcDbLine
 10
27.704
 20
702.0955
 30
0.0
 11
31.478
 21
699.2095
 31
0.0
  0
LINE
  5
116
330
1E
100
AcDbEntity
  8
0
100
AcDbLine
 10
23.95
 20
974.9814999999999
 30
0.0
 11
26.15
 21
974.9814999999999
 31
0.0
  0
LINE
  5
117
330
1E
100
AcDbEntity
  8
0
100
AcDbLine
 10
29.35
 20
974.4815
 30
0.0
 11
29.75
 21
974.4815
 31
0.0
  0
LINE
  5
118
330
1E
100
AcDbEntity
  8
0
100
AcDbLine
 10
28.25
 20
974.4815
 30
0.0
 11
29.35
 21
974.4815
 31
0.0
  0
LINE
  5
119
330
1E
100
AcDbEntity
  8
0
100
AcDbLine
 10
29.25
 20
974.9814999999999
 30
0.0
 11
29.75
 21
974.4815
 31
0.0
  0
LINE
  5
11A
330
1E
100
AcDbEntity
  8
0
100
AcDbLine
 10
28.85
 20
974.9814999999999
 30
0.0
 11
29.25
 21
974.9814999999999
 31
0.0
  0
LINE
  5
11B
330
1E
100
AcDbEntity
  8
0
100
AcDbLine
 10
27.85
 20
974.9814999999999
 30
0.0
 11
28.85
 21
974.9814999999999
 31
0.0
  0
LINE
  5
11C
330
1E
100
AcDbEntity
  8
0
100
AcDbLine
 10
26.15
 20
974.9814999999999
 30
0.0
 11
27.85
 21
974.9814999999999
 31
0.0
  0
LINE
  5
11D
330
1E
100
AcDbEntity
  8
0
100
AcDbLine
 10
26.55
 20
974.4815
 30
0.0
 11
28.25
 21
974.4815
 31
0.0
  0
LINE
  5
11E
330
1E
100
AcDbEntity
  8
0
100
AcDbLine
 10
24.25
 20
974.4815
 30
0.0
 11
26.55
 21
974.4815
 31
0.0
  0
LINE
  5
11F
330
1E
100
AcDbEntity
  8
0
100
AcDbLine
 10
27.926
 20
702.5394999999998
 30
0.0
 11
31.848
 21
699.5795000000001
 31
0.0
  0
LINE
  5
120
330
1E
100
AcDbEntity
  8
0
100
AcDbLine
 10
23.486
 20
704.3155
 30
0.0
 11
27.926
 21
702.5394999999998
 31
0.0
  0
LINE
  5
121
330
1E
100
AcDbEntity
  8
0
100
AcDbLine
 10
29.75
 20
701.162896226415
 30
0.0
 11
31.848
 21
699.5795000000001
 31
0.0
  0
LINE
  5
122
330
1E
100
AcDbEntity
  8
0
100
AcDbLine
 10
29.75
 20
701.162896226415
 30
0.0
 11
29.75
 21
974.4815
 31
0.0
  0
LINE
  5
123
330
1E
100
AcDbEntity
  8
0
100
AcDbLine
 10
29.75
 20
701.162896226415
 30
0.0
 11
29.75
 21
974.4815
 31
0.0
  0
LINE
  5
124
330
1E
100
AcDbEntity
  8
0
100
AcDbLine
 10
18.75
 20
974.9814999999999
 30
0.0
 11
80.25
 21
974.9814999999999
 31
0.0
  0
LINE
  5
125
330
1E
100
AcDbEntity
  8
0
100
AcDbLine
 10
18.75
 20
974.9814999999999
 30
0.0
 11
21.45
 21
974.9814999999999
 31
0.0
  0
LINE
  5
126
330
1E
100
AcDbEntity
  8
0
100
AcDbLine
 10
8.150000000000007
 20
975.4815
 30
0.0
 11
9.250000000000008
 21
975.4815
 31
0.0
  0
LINE
  5
127
330
1E
100
AcDbEntity
  8
0
100
AcDbLine
 10
8.150000000000007
 20
1026.4815
 30
0.0
 11
9.250000000000008
 21
1026.4815
 31
0.0
  0
LINE
  5
128
330
1E
100
AcDbEntity
  8
0
100
AcDbLine
 10
9.250000000000008
 20
975.4815
 30
0.0
 11
10.94999999999999
 21
975.4815
 31
0.0
  0
LINE
  5
129
330
1E
100
AcDbEntity
  8
0
100
AcDbLine
 10
9.250000000000008
 20
1026.4815
 30
0.0
 11
10.94999999999999
 21
1026.4815
 31
0.0
  0
LINE
  5
12A
330
1E
100
AcDbEntity
  8
0
100
AcDbLine
 10
8.250000000000008
 20
1026.9815
 30
0.0
 11
8.650000000000007
 21
1026.9815
 31
0.0
  0
LINE
  5
12B
330
1E
100
AcDbEntity
  8
0
100
AcDbLine
 10
8.650000000000007
 20
1026.9815
 30
0.0
 11
9.650000000000007
 21
1026.9815
 31
0.0
  0
LINE
  5
12C
330
1E
100
AcDbEntity
  8
0
100
AcDbLine
 10
10.94999999999999
 20
975.4815
 30
0.0
 11
13.25
 21
975.4815
 31
0.0
  0
LINE
  5
12D
330
1E
100
AcDbEntity
  8
0
100
AcDbLine
 10
13.25
 20
975.4815
 30
0.0
 11
15.94999999999999
 21
975.4815
 31
0.0
  0
LINE
  5
12E
330
1E
100
AcDbEntity
  8
0
100
AcDbLine
 10
10.94999999999999
 20
1026.4815
 30
0.0
 11
13.25
 21
1026.4815
 31
0.0
  0
LINE
  5
12F
330
1E
100
AcDbEntity
  8
0
100
AcDbLine
 10
13.25
 20
1026.4815
 30
0.0
 11
15.94999999999999
 21
1026.4815
 31
0.0
  0
LINE
  5
130
330
1E
100
AcDbEntity
  8
0
100
AcDbLine
 10
9.650000000000007
 20
1026.9815
 30
0.0
 11
11.35
 21
1026.9815
 31
0.0
  0
LINE
  5
131
330
1E
100
AcDbEntity
  8
0
100
AcDbLine
 10
11.35
 20
1026.9815
 30
0.0
 11
13.55
 21
1026.9815
 31
0.0
  0
LINE
  5
132
330
1E
100
AcDbEntity
  8
0
100
AcDbLine
 10
15.94999999999999
 20
975.4815
 30
0.0
 11
18.75
 21
975.4815
 31
0.0
  0
LINE
  5
133
330
1E
100
AcDbEntity
  8
0
100
AcDbLine
 10
18.75
 20
975.4815
 30
0.0
 11
80.75000000000001
 21
975.4815
 31
0.0
  0
LINE
  5
134
330
1E
100
AcDbEntity
  8
0
100
AcDbLine
 10
18.75
 20
1026.4815
 30
0.0
 11
80.75000000000001
 21
1026.4815
 31
0.0
  0
LINE
  5
135
330
1E
100
AcDbEntity
  8
0
100
AcDbLine
 10
18.75
 20
975.4815
 30
0.0
 11
80.75000000000001
 21
975.4815
 31
0.0
  0
LINE
  5
136
330
1E
100
AcDbEntity
  8
0
100
AcDbLine
 10
15.94999999999999
 20
1026.4815
 30
0.0
 11
18.75
 21
1026.4815
 31
0.0
  0
LINE
  5
137
330
1E
100
AcDbEntity
  8
0
100
AcDbLine
 10
18.75
 20
1026.9815
 30
0.0
 11
80.25
 21
1026.9815
 31
0.0
  0
LINE
  5
138
330
1E
100
AcDbEntity
  8
0
100
AcDbLine
 10
18.75
 20
1026.4815
 30
0.0
 11
80.75000000000001
 21
1026.4815
 31
0.0
  0
LINE
  5
139
330
1E
100
AcDbEntity
  8
0
100
AcDbLine
 10
13.55
 20
1026.9815
 30
0.0
 11
16.05
 21
1026.9815
 31
0.0
  0
LINE
  5
13A
330
1E
100
AcDbEntity
  8
0
100
AcDbLine
 10
16.05
 20
1026.9815
 30
0.0
 11
18.75
 21
1026.9815
 31
0.0
  0
LINE
  5
13B
330
1E
100
AcDbEntity
  8
0
100
AcDbLine
 10
18.75
 20
1026.9815
 30
0.0
 11
80.25
 21
1026.9815
 31
0.0
  0
LINE
  5
13C
330
1E
100
AcDbEntity
  8
0
100
AcDbLine
 10
29.25
 20
974.9814999999999
 30
0.0
 11
80.25
 21
974.9814999999999
 31
0.0
  0
LINE
  5
13D
330
1E
100
AcDbEntity
  8
0
100
AcDbLine
 10
7.750000000000007
 20
1026.4815
 30
0.0
 11
8.250000000000008
 21
1026.9815
 31
0.0
  0
LINE
  5
13E
330
1E
100
AcDbEntity
  8
0
100
AcDbLine
 10
7.750000000000007
 20
1026.4815
 30
0.0
 11
8.150000000000007
 21
1026.4815
 31
0.0
  0
LINE
  5
13F
330
1E
100
AcDbEntity
  8
0
100
AcDbLine
 10
18.75
 20
119.9815
 30
0.0
 11
67.6667640740769
 21
119.9815
 31
0.0
  0
LINE
  5
140
330
1E
100
AcDbEntity
  8
0
100
AcDbLine
 10
18.75
 20
119.9815
 30
0.0
 11
21.45
 21
119.9815
 31
0.0
  0
LINE
  5
141
330
1E
100
AcDbEntity
  8
0
100
AcDbLine
 10
51.7790141606231
 20
68.4815
 30
0.0
 11
80.75000000000001
 21
68.4815
 31
0.0
  0
LINE
  5
142
330
1E
100
AcDbEntity
  8
0
100
AcDbLine
 10
51.7790141606231
 20
68.4815
 30
0.0
 11
80.75000000000001
 21
68.4815
 31
0.0
  0
LINE
  5
143
330
1E
100
AcDbEntity
  8
0
100
AcDbLine
 10
80.75000000000001
 20
119.4814999999999
 30
0.0
 11
80.75000000000001
 21
68.4815
 31
0.0
  0
LINE
  5
144
330
1E
100
AcDbEntity
  8
0
100
AcDbLine
 10
80.75000000000001
 20
68.4815
 30
0.0
 11
80.75000000000001
 21
119.4814999999999
 31
0.0
  0
LINE
  5
145
330
1E
100
AcDbEntity
  8
0
100
AcDbLine
 10
67.667059675376
 20
119.4814999999999
 30
0.0
 11
80.75000000000001
 21
119.4814999999999
 31
0.0
  0
LINE
  5
146
330
1E
100
AcDbEntity
  8
0
100
AcDbLine
 10
80.25
 20
1026.9815
 30
0.0
 11
80.75000000000001
 21
1026.4815
 31
0.0
  0
LINE
  5
147
330
1E
100
AcDbEntity
  8
0
100
AcDbLine
 10
80.75000000000001
 20
975.4815
 30
0.0
 11
80.75000000000001
 21
1026.4815
 31
0.0
  0
LINE
  5
148
330
1E
100
AcDbEntity
  8
0
100
AcDbLine
 10
80.75000000000001
 20
1026.4815
 30
0.0
 11
80.75000000000001
 21
975.4815
 31
0.0
  0
LINE
  5
149
330
1E
100
AcDbEntity
  8
0
100
AcDbLine
 10
80.25
 20
974.9814999999999
 30
0.0
 11
80.75000000000001
 21
975.4815
 31
0.0
  0
LINE
  5
14A
330
1E
100
AcDbEntity
  8
0
100
AcDbLine
 10
80.25
 20
119.9815
 30
0.0
 11
80.75000000000001
 21
119.4814999999999
 31
0.0
  0
LINE
  5
14B
330
1E
100
AcDbEntity
  8
0
100
AcDbLine
 10
67.6667640740769
 20
119.9815
 30
0.0
 11
80.25
 21
119.9815
 31
0.0
  0
LINE
  5
14C
330
1E
100
AcDbEntity
  8
0
100
AcDbLine
 10
80.25
 20
67.98149999999999
 30
0.0
 11
80.75000000000001
 21
68.4815
 31
0.0
  0
LINE
  5
14D
330
1E
100
AcDbEntity
  8
0
100
AcDbLine
 10
7.749999999999959
 20
119.4814999999999
 30
0.0
 11
8.249999999999959
 21
119.9815
 31
0.0
  0
LINE
  5
14E
330
1E
100
AcDbEntity
  8
0
100
AcDbLine
 10
7.749999999999959
 20
119.4814999999999
 30
0.0
 11
8.149999999999959
 21
119.4814999999999
 31
0.0
  0
ENDSEC
  0
SECTION
  2
OBJECTS
  0
DICTIONARY
  5
C
330
0
100
AcDbDictionary
  3
ACAD_GROUP
350
D
  3
ACAD_LAYOUT
350
19
  3
ACAD_MLINESTYLE
350
16
  3
ACAD_PLOTSETTINGS
350
18
  3
ACAD_PLOTSTYLENAME
350
E
  3
ACDBHEADERROUNDTRIPXREC
350
15C
  3
ACDBVARIABLEDICTIONARY
350
153
  0
DICTIONARY
  5
17E
330
1E
100
AcDbDictionary
280
     1
  3
ACAD_LAYOUTSELFREF
360
17F
  0
DICTIONARY
  5
17C
330
1A
100
AcDbDictionary
280
     1
  3
ACAD_LAYOUTSELFREF
360
17D
  0
DICTIONARY
  5
D
102
{ACAD_REACTORS
330
C
102
}
330
C
100
AcDbDictionary
  0
DICTIONARY
  5
19
102
{ACAD_REACTORS
330
C
102
}
330
C
100
AcDbDictionary
  0
DICTIONARY
  5
16
102
{ACAD_REACTORS
330
C
102
}
330
C
100
AcDbDictionary
  3
STANDARD
350
17
  0
DICTIONARY
  5
18
102
{ACAD_REACTORS
330
C
102
}
330
C
100
AcDbDictionary
  0
ACDBDICTIONARYWDFLT
  5
E
102
{ACAD_REACTORS
330
C
102
}
330
C
100
AcDbDictionary
281
     1
  3
Normal
350
F
100
AcDbDictionaryWithDefault
340
F
  0
DICTIONARY
  5
15C
102
{ACAD_REACTORS
330
C
102
}
330
C
100
AcDbDictionary
  3
CEPSNTYPE
350
166
  3
FINGERPRINTGUID
350
167
  3
HYPERLINKBASE
350
15F
  3
INSUNITS
350
165
  3
LAYOUTDICT
350
161
  3
LWETCUNION
350
164
  3
PLOTSETDICT
350
162
  3
PLOTSTYLNAMDICT
350
163
  3
PSVPSCALE
350
169
  3
PUCSBASE
350
16C
  3
PUCSORGBACK
350
172
  3
PUCSORGBOTTOM
350
16E
  3
PUCSORGFRONT
350
171
  3
PUCSORGLEFT
350
16F
  3
PUCSORGRIGHT
350
170
  3
PUCSORGTOP
350
16D
  3
PUCSORTHOREF
350
16A
  3
PUCSORTHOVIEW
350
16B
  3
STYLESHEET
350
160
  3
TSTACKALIGN
350
15D
  3
TSTACKSIZE
350
15E
  3
UCSBASE
350
175
  3
UCSORGBACK
350
17B
  3
UCSORGBOTTOM
350
177
  3
UCSORGFRONT
350
17A
  3
UCSORGLEFT
350
178
  3
UCSORGRIGHT
350
179
  3
UCSORGTOP
350
176
  3
UCSORTHOREF
350
173
  3
UCSORTHOVIEW
350
174
  3
VERSIONGUID
350
168
  0
DICTIONARY
  5
153
102
{ACAD_REACTORS
330
C
102
}
330
C
100
AcDbDictionary
  3
DIMASSOC
350
154
  0
XRECORD
  5
17F
102
{ACAD_REACTORS
330
17E
102
}
330
17E
100
AcDbXrecord
340
1E
  0
XRECORD
  5
17D
102
{ACAD_REACTORS
330
17C
102
}
330
17C
100
AcDbXrecord
340
1A
  0
MLINESTYLE
  5
17
102
{ACAD_REACTORS
330
16
102
}
330
16
100
AcDbMlineStyle
  2
STANDARD
 70
     0
  3

 62
   256
 51
90.0
 52
90.0
 71
     2
 49
0.5
 62
   256
  6
BYLAYER
 49
-0.5
 62
   256
  6
BYLAYER
  0
ACDBPLACEHOLDER
  5
F
102
{ACAD_REACTORS
330
E
102
}
330
E
100
AcDbPlaceHolder
280
     0
  0
XRECORD
  5
166
102
{ACAD_REACTORS
330
15C
102
}
330
15C
100
AcDbXrecord
 90
        0
  0
XRECORD
  5
167
102
{ACAD_REACTORS
330
15C
102
}
330
15C
100
AcDbXrecord
  1
{59502076-F185-452A-AC83-45404BA86903}
  0
XRECORD
  5
15F
102
{ACAD_REACTORS
330
15C
102
}
330
15C
100
AcDbXrecord
  1

  0
XRECORD
  5
165
102
{ACAD_REACTORS
330
15C
102
}
330
15C
100
AcDbXrecord
 90
        0
  0
XRECORD
  5
161
102
{ACAD_REACTORS
330
15C
102
}
330
15C
100
AcDbXrecord
340
19
  0
XRECORD
  5
164
102
{ACAD_REACTORS
330
15C
102
}
330
15C
100
AcDbXrecord
 90
    10781
  0
XRECORD
  5
162
102
{ACAD_REACTORS
330
15C
102
}
330
15C
100
AcDbXrecord
340
18
  0
XRECORD
  5
163
102
{ACAD_REACTORS
330
15C
102
}
330
15C
100
AcDbXrecord
340
E
  0
XRECORD
  5
169
102
{ACAD_REACTORS
330
15C
102
}
330
15C
100
AcDbXrecord
 40
0.0
  0
XRECORD
  5
16C
102
{ACAD_REACTORS
330
15C
102
}
330
15C
100
AcDbXrecord
340
0
  0
XRECORD
  5
172
102
{ACAD_REACTORS
330
15C
102
}
330
15C
100
AcDbXrecord
 10
0.0
 20
0.0
 30
0.0
  0
XRECORD
  5
16E
102
{ACAD_REACTORS
330
15C
102
}
330
15C
100
AcDbXrecord
 10
0.0
 20
0.0
 30
0.0
  0
XRECORD
  5
171
102
{ACAD_REACTORS
330
15C
102
}
330
15C
100
AcDbXrecord
 10
0.0
 20
0.0
 30
0.0
  0
XRECORD
  5
16F
102
{ACAD_REACTORS
330
15C
102
}
330
15C
100
AcDbXrecord
 10
0.0
 20
0.0
 30
0.0
  0
XRECORD
  5
170
102
{ACAD_REACTORS
330
15C
102
}
330
15C
100
AcDbXrecord
 10
0.0
 20
0.0
 30
0.0
  0
XRECORD
  5
16D
102
{ACAD_REACTORS
330
15C
102
}
330
15C
100
AcDbXrecord
 10
0.0
 20
0.0
 30
0.0
  0
XRECORD
  5
16A
102
{ACAD_REACTORS
330
15C
102
}
330
15C
100
AcDbXrecord
340
0
  0
XRECORD
  5
16B
102
{ACAD_REACTORS
330
15C
102
}
330
15C
100
AcDbXrecord
 70
     0
  0
XRECORD
  5
160
102
{ACAD_REACTORS
330
15C
102
}
330
15C
100
AcDbXrecord
  1

  0
XRECORD
  5
15D
102
{ACAD_REACTORS
330
15C
102
}
330
15C
100
AcDbXrecord
 90
        1
  0
XRECORD
  5
15E
102
{ACAD_REACTORS
330
15C
102
}
330
15C
100
AcDbXrecord
 90
       70
  0
XRECORD
  5
175
102
{ACAD_REACTORS
330
15C
102
}
330
15C
100
AcDbXrecord
340
0
  0
XRECORD
  5
17B
102
{ACAD_REACTORS
330
15C
102
}
330
15C
100
AcDbXrecord
 10
0.0
 20
0.0
 30
0.0
  0
XRECORD
  5
177
102
{ACAD_REACTORS
330
15C
102
}
330
15C
100
AcDbXrecord
 10
0.0
 20
0.0
 30
0.0
  0
XRECORD
  5
17A
102
{ACAD_REACTORS
330
15C
102
}
330
15C
100
AcDbXrecord
 10
0.0
 20
0.0
 30
0.0
  0
XRECORD
  5
178
102
{ACAD_REACTORS
330
15C
102
}
330
15C
100
AcDbXrecord
 10
0.0
 20
0.0
 30
0.0
  0
XRECORD
  5
179
102
{ACAD_REACTORS
330
15C
102
}
330
15C
100
AcDbXrecord
 10
0.0
 20
0.0
 30
0.0
  0
XRECORD
  5
176
102
{ACAD_REACTORS
330
15C
102
}
330
15C
100
AcDbXrecord
 10
0.0
 20
0.0
 30
0.0
  0
XRECORD
  5
173
102
{ACAD_REACTORS
330
15C
102
}
330
15C
100
AcDbXrecord
340
0
  0
XRECORD
  5
174
102
{ACAD_REACTORS
330
15C
102
}
330
15C
100
AcDbXrecord
 70
     1
  0
XRECORD
  5
168
102
{ACAD_REACTORS
330
15C
102
}
330
15C
100
AcDbXrecord
  1
{435D9482-95E6-438F-8B4C-8975FA64BB52}
  0
DICTIONARYVAR
  5
154
102
{ACAD_REACTORS
330
153
102
}
330
153
100
DictionaryVariables
280
     0
  1
1
  0
ENDSEC
  0
EOF
