  0
SECTION
  2
HEADER
  9
$ACADVER
  1
AC1015
  9
$ACADMAINTVER
 70
     6
  9
$DWGCODEPAGE
  3
ANSI_1252
  9
$INSBASE
 10
0.0
 20
0.0
 30
0.0
  9
$EXTMIN
 10
-4.107544890171
 20
0.107
 30
0.0
  9
$EXTMAX
 10
217.94954
 20
957.893
 30
0.0
  9
$LIMMIN
 10
0.0
 20
0.0
  9
$LIMMAX
 10
12.0
 20
9.0
  9
$ORTHOMODE
 70
     0
  9
$REGENMODE
 70
     1
  9
$FILLMODE
 70
     1
  9
$QTEXTMODE
 70
     0
  9
$MIRRTEXT
 70
     1
  9
$LTSCALE
 40
1.0
  9
$ATTMODE
 70
     1
  9
$TEXTSIZE
 40
0.2
  9
$TRACEWID
 40
0.05
  9
$TEXTSTYLE
  7
Standard
  9
$CLAYER
  8
0
  9
$CELTYPE
  6
ByBlock
  9
$CECOLOR
 62
   256
  9
$CELTSCALE
 40
1.0
  9
$DISPSILH
 70
     0
  9
$DIMSCALE
 40
1.0
  9
$DIMASZ
 40
0.18
  9
$DIMEXO
 40
0.0625
  9
$DIMDLI
 40
0.38
  9
$DIMRND
 40
0.0
  9
$DIMDLE
 40
0.0
  9
$DIMEXE
 40
0.18
  9
$DIMTP
 40
0.0
  9
$DIMTM
 40
0.0
  9
$DIMTXT
 40
0.18
  9
$DIMCEN
 40
0.09
  9
$DIMTSZ
 40
0.0
  9
$DIMTOL
 70
     0
  9
$DIMLIM
 70
     0
  9
$DIMTIH
 70
     1
  9
$DIMTOH
 70
     1
  9
$DIMSE1
 70
     0
  9
$DIMSE2
 70
     0
  9
$DIMTAD
 70
     0
  9
$DIMZIN
 70
     0
  9
$DIMBLK
  1

  9
$DIMASO
 70
     1
  9
$DIMSHO
 70
     1
  9
$DIMPOST
  1

  9
$DIMAPOST
  1

  9
$DIMALT
 70
     0
  9
$DIMALTD
 70
     2
  9
$DIMALTF
 40
25.4
  9
$DIMLFAC
 40
1.0
  9
$DIMTOFL
 70
     0
  9
$DIMTVP
 40
0.0
  9
$DIMTIX
 70
     0
  9
$DIMSOXD
 70
     0
  9
$DIMSAH
 70
     0
  9
$DIMBLK1
  1

  9
$DIMBLK2
  1

  9
$DIMSTYLE
  2
Standard
  9
$DIMCLRD
 70
     0
  9
$DIMCLRE
 70
     0
  9
$DIMCLRT
 70
     0
  9
$DIMTFAC
 40
1.0
  9
$DIMGAP
 40
0.09
  9
$DIMJUST
 70
     0
  9
$DIMSD1
 70
     0
  9
$DIMSD2
 70
     0
  9
$DIMTOLJ
 70
     1
  9
$DIMTZIN
 70
     0
  9
$DIMALTZ
 70
     0
  9
$DIMALTTZ
 70
     0
  9
$DIMUPT
 70
     0
  9
$DIMDEC
 70
     4
  9
$DIMTDEC
 70
     4
  9
$DIMALTU
 70
     2
  9
$DIMALTTD
 70
     2
  9
$DIMTXSTY
  7
Standard
  9
$DIMAUNIT
 70
     0
  9
$DIMADEC
 70
     0
  9
$DIMALTRND
 40
0.0
  9
$DIMAZIN
 70
     0
  9
$DIMDSEP
 70
    46
  9
$DIMATFIT
 70
     3
  9
$DIMFRAC
 70
     0
  9
$DIMLDRBLK
  1

  9
$DIMLUNIT
 70
     2
  9
$DIMLWD
 70
    -2
  9
$DIMLWE
 70
    -2
  9
$DIMTMOVE
 70
     2
  9
$LUNITS
 70
     2
  9
$LUPREC
 70
     4
  9
$SKETCHINC
 40
0.1
  9
$FILLETRAD
 40
0.5
  9
$AUNITS
 70
     0
  9
$AUPREC
 70
     0
  9
$MENU
  1
.
  9
$ELEVATION
 40
0.0
  9
$PELEVATION
 40
0.0
  9
$THICKNESS
 40
0.0
  9
$LIMCHECK
 70
     0
  9
$CHAMFERA
 40
0.5
  9
$CHAMFERB
 40
0.5
  9
$CHAMFERC
 40
1.0
  9
$CHAMFERD
 40
0.0
  9
$SKPOLY
 70
     0
  9
$TDCREATE
 40
2455825.006052153
  9
$TDUCREATE
 40
2455824.922718819
  9
$TDUPDATE
 40
2455825.007371956
  9
$TDUUPDATE
 40
2455824.924038623
  9
$TDINDWG
 40
0.0013181944
  9
$TDUSRTIMER
 40
0.0013181944
  9
$USRTIMER
 70
     1
  9
$ANGBASE
 50
0.0
  9
$ANGDIR
 70
     0
  9
$PDMODE
 70
     0
  9
$PDSIZE
 40
0.0
  9
$PLINEWID
 40
0.0
  9
$SPLFRAME
 70
     0
  9
$SPLINETYPE
 70
     6
  9
$SPLINESEGS
 70
     8
  9
$HANDSEED
  5
1D81
  9
$SURFTAB1
 70
     6
  9
$SURFTAB2
 70
     6
  9
$SURFTYPE
 70
     6
  9
$SURFU
 70
     6
  9
$SURFV
 70
     6
  9
$UCSBASE
  2

  9
$UCSNAME
  2

  9
$UCSORG
 10
0.0
 20
0.0
 30
0.0
  9
$UCSXDIR
 10
1.0
 20
0.0
 30
0.0
  9
$UCSYDIR
 10
0.0
 20
1.0
 30
0.0
  9
$UCSORTHOREF
  2

  9
$UCSORTHOVIEW
 70
     0
  9
$UCSORGTOP
 10
0.0
 20
0.0
 30
0.0
  9
$UCSORGBOTTOM
 10
0.0
 20
0.0
 30
0.0
  9
$UCSORGLEFT
 10
0.0
 20
0.0
 30
0.0
  9
$UCSORGRIGHT
 10
0.0
 20
0.0
 30
0.0
  9
$UCSORGFRONT
 10
0.0
 20
0.0
 30
0.0
  9
$UCSORGBACK
 10
0.0
 20
0.0
 30
0.0
  9
$PUCSBASE
  2

  9
$PUCSNAME
  2

  9
$PUCSORG
 10
0.0
 20
0.0
 30
0.0
  9
$PUCSXDIR
 10
1.0
 20
0.0
 30
0.0
  9
$PUCSYDIR
 10
0.0
 20
1.0
 30
0.0
  9
$PUCSORTHOREF
  2

  9
$PUCSORTHOVIEW
 70
     0
  9
$PUCSORGTOP
 10
0.0
 20
0.0
 30
0.0
  9
$PUCSORGBOTTOM
 10
0.0
 20
0.0
 30
0.0
  9
$PUCSORGLEFT
 10
0.0
 20
0.0
 30
0.0
  9
$PUCSORGRIGHT
 10
0.0
 20
0.0
 30
0.0
  9
$PUCSORGFRONT
 10
0.0
 20
0.0
 30
0.0
  9
$PUCSORGBACK
 10
0.0
 20
0.0
 30
0.0
  9
$USERI1
 70
     0
  9
$USERI2
 70
     0
  9
$USERI3
 70
     0
  9
$USERI4
 70
     0
  9
$USERI5
 70
     0
  9
$USERR1
 40
0.0
  9
$USERR2
 40
0.0
  9
$USERR3
 40
0.0
  9
$USERR4
 40
0.0
  9
$USERR5
 40
0.0
  9
$WORLDVIEW
 70
     1
  9
$SHADEDGE
 70
     3
  9
$SHADEDIF
 70
    70
  9
$TILEMODE
 70
     1
  9
$MAXACTVP
 70
    64
  9
$PINSBASE
 10
0.0
 20
0.0
 30
0.0
  9
$PLIMCHECK
 70
     0
  9
$PEXTMIN
 10
1.000000000000E+20
 20
1.000000000000E+20
 30
1.000000000000E+20
  9
$PEXTMAX
 10
-1.000000000000E+20
 20
-1.000000000000E+20
 30
-1.000000000000E+20
  9
$PLIMMIN
 10
0.0
 20
0.0
  9
$PLIMMAX
 10
12.0
 20
9.0
  9
$UNITMODE
 70
     0
  9
$VISRETAIN
 70
     1
  9
$PLINEGEN
 70
     0
  9
$PSLTSCALE
 70
     1
  9
$TREEDEPTH
 70
  3020
  9
$CMLSTYLE
  2
Standard
  9
$CMLJUST
 70
     0
  9
$CMLSCALE
 40
1.0
  9
$PROXYGRAPHICS
 70
     1
  9
$MEASUREMENT
 70
     0
  9
$CELWEIGHT
370
    -1
  9
$ENDCAPS
280
     0
  9
$JOINSTYLE
280
     0
  9
$LWDISPLAY
290
     0
  9
$INSUNITS
 70
     0
  9
$HYPERLINKBASE
  1

  9
$STYLESHEET
  1

  9
$XEDIT
290
     1
  9
$CEPSNTYPE
380
     0
  9
$PSTYLEMODE
290
     1
  9
$FINGERPRINTGUID
  2
{534D5D80-99B9-41DC-B5AC-AA02AB329471}
  9
$VERSIONGUID
  2
{FAEB1C32-E019-11D5-929B-00C0DF256EC4}
  9
$EXTNAMES
290
     1
  9
$PSVPSCALE
 40
0.0
  9
$OLESTARTUP
290
     0
  0
ENDSEC
  0
SECTION
  2
CLASSES
  0
CLASS
  1
ACDBDICTIONARYWDFLT
  2
AcDbDictionaryWithDefault
  3
ObjectDBX Classes
 90
        0
280
     0
281
     0
  0
CLASS
  1
SCALE
  2
AcDbScale
  3
ObjectDBX Classes
 90
     1153
280
     0
281
     0
  0
CLASS
  1
DICTIONARYVAR
  2
AcDbDictionaryVar
  3
ObjectDBX Classes
 90
        0
280
     0
281
     0
  0
CLASS
  1
ACDBPLACEHOLDER
  2
AcDbPlaceHolder
  3
ObjectDBX Classes
 90
        0
280
     0
281
     0
  0
CLASS
  1
LAYOUT
  2
AcDbLayout
  3
ObjectDBX Classes
 90
        0
280
     0
281
     0
  0
ENDSEC
  0
SECTION
  2
TABLES
  0
TABLE
  2
VPORT
  5
8
330
0
100
AcDbSymbolTable
 70
     1
  0
VPORT
  5
12E1
330
8
100
AcDbSymbolTableRecord
100
AcDbViewportTableRecord
  2
*Active
 70
     0
 10
0.0
 20
0.0
 11
1.0
 21
1.0
 12
106.920997554914
 22
479.0
 13
0.0
 23
0.0
 14
0.5
 24
0.5
 15
0.5
 25
0.5
 16
0.0
 26
0.0
 36
1.0
 17
0.0
 27
0.0
 37
0.0
 40
976.94172
 41
1.790857142857
 42
50.0
 43
0.0
 44
0.0
 50
0.0
 51
0.0
 71
    16
 72
   100
 73
     1
 74
     3
 75
     0
 76
     0
 77
     0
 78
     0
281
     0
 65
     1
110
0.0
120
0.0
130
0.0
111
1.0
121
0.0
131
0.0
112
0.0
122
1.0
132
0.0
 79
     0
146
0.0
  0
ENDTAB
  0
TABLE
  2
LTYPE
  5
5
330
0
100
AcDbSymbolTable
 70
     1
  0
LTYPE
  5
14
330
5
100
AcDbSymbolTableRecord
100
AcDbLinetypeTableRecord
  2
ByBlock
 70
     0
  3

 72
    65
 73
     0
 40
0.0
  0
LTYPE
  5
15
330
5
100
AcDbSymbolTableRecord
100
AcDbLinetypeTableRecord
  2
ByLayer
 70
     0
  3

 72
    65
 73
     0
 40
0.0
  0
LTYPE
  5
16
330
5
100
AcDbSymbolTableRecord
100
AcDbLinetypeTableRecord
  2
Continuous
 70
     0
  3
Solid line
 72
    65
 73
     0
 40
0.0
  0
ENDTAB
  0
TABLE
  2
LAYER
  5
2
330
0
100
AcDbSymbolTable
 70
     1
  0
LAYER
  5
10
330
2
100
AcDbSymbolTableRecord
100
AcDbLayerTableRecord
  2
0
 70
     0
 62
     7
  6
Continuous
370
    -3
390
F
  0
ENDTAB
  0
TABLE
  2
STYLE
  5
3
330
0
100
AcDbSymbolTable
 70
     1
  0
STYLE
  5
11
330
3
100
AcDbSymbolTableRecord
100
AcDbTextStyleTableRecord
  2
Standard
 70
     0
 40
0.0
 41
1.0
 50
0.0
 71
     0
 42
0.2
  3
txt
  4

  0
ENDTAB
  0
TABLE
  2
VIEW
  5
6
330
0
100
AcDbSymbolTable
 70
     0
  0
ENDTAB
  0
TABLE
  2
UCS
  5
7
330
0
100
AcDbSymbolTable
 70
     0
  0
ENDTAB
  0
TABLE
  2
APPID
  5
9
330
0
100
AcDbSymbolTable
 70
     1
  0
APPID
  5
12
330
9
100
AcDbSymbolTableRecord
100
AcDbRegAppTableRecord
  2
ACAD
 70
     0
  0
ENDTAB
  0
TABLE
  2
DIMSTYLE
  5
A
330
0
100
AcDbSymbolTable
 70
     1
100
AcDbDimStyleTable
  0
DIMSTYLE
105
20
330
A
100
AcDbSymbolTableRecord
100
AcDbDimStyleTableRecord
  2
Standard
 70
     0
340
11
  0
ENDTAB
  0
TABLE
  2
BLOCK_RECORD
  5
1
330
0
100
AcDbSymbolTable
 70
     1
  0
BLOCK_RECORD
  5
1D
330
1
100
AcDbSymbolTableRecord
100
AcDbBlockTableRecord
  2
*Model_Space
340
1E
  0
BLOCK_RECORD
  5
1B
330
1
100
AcDbSymbolTableRecord
100
AcDbBlockTableRecord
  2
*Paper_Space
340
1C
  0
ENDTAB
  0
ENDSEC
  0
SECTION
  2
BLOCKS
  0
BLOCK
  5
12E4
330
1D
100
AcDbEntity
  8
0
100
AcDbBlockBegin
  2
*Model_Space
 70
     0
 10
0.0
 20
0.0
 30
0.0
  3
*Model_Space
  1
*Model_Space
  0
ENDBLK
  5
12E5
330
1D
100
AcDbEntity
  8
0
100
AcDbBlockEnd
  0
BLOCK
  5
12E2
330
1B
100
AcDbEntity
 67
     1
  8
0
100
AcDbBlockBegin
  2
*Paper_Space
 70
     0
 10
0.0
 20
0.0
 30
0.0
  3
*Paper_Space
  1
*Paper_Space
  0
ENDBLK
  5
12E3
330
1B
100
AcDbEntity
 67
     1
  8
0
100
AcDbBlockEnd
  0
ENDSEC
  0
SECTION
  2
ENTITIES
  0
LINE
  5
21
330
1D
100
AcDbEntity
  8
0
100
AcDbLine
 10
66.19054
 20
337.893
 30
0.0
 11
66.19054
 21
314.893
 31
0.0
  0
LINE
  5
22
330
1D
100
AcDbEntity
  8
0
100
AcDbLine
 10
66.19054
 20
337.893
 30
0.0
 11
66.89054
 21
337.893
 31
0.0
  0
LINE
  5
23
330
1D
100
AcDbEntity
  8
0
100
AcDbLine
 10
66.89054
 20
337.893
 30
0.0
 11
68.49054
 21
337.893
 31
0.0
  0
LINE
  5
24
330
1D
100
AcDbEntity
  8
0
100
AcDbLine
 10
66.19054
 20
314.893
 30
0.0
 11
66.69054
 21
313.393
 31
0.0
  0
LINE
  5
25
330
1D
100
AcDbEntity
  8
0
100
AcDbLine
 10
66.19054
 20
314.893
 30
0.0
 11
66.19054
 21
337.893
 31
0.0
  0
LINE
  5
26
330
1D
100
AcDbEntity
  8
0
100
AcDbLine
 10
66.69054
 20
313.393
 30
0.0
 11
67.69054
 21
312.393
 31
0.0
  0
LINE
  5
27
330
1D
100
AcDbEntity
  8
0
100
AcDbLine
 10
131.19054
 20
311.893
 30
0.0
 11
139.29054
 21
311.893
 31
0.0
  0
LINE
  5
28
330
1D
100
AcDbEntity
  8
0
100
AcDbLine
 10
139.29054
 20
311.893
 30
0.0
 11
147.19054
 21
311.893
 31
0.0
  0
LINE
  5
29
330
1D
100
AcDbEntity
  8
0
100
AcDbLine
 10
147.19054
 20
311.893
 30
0.0
 11
154.89054
 21
311.893
 31
0.0
  0
LINE
  5
2A
330
1D
100
AcDbEntity
  8
0
100
AcDbLine
 10
123.09054
 20
311.893
 30
0.0
 11
131.19054
 21
311.893
 31
0.0
  0
LINE
  5
2B
330
1D
100
AcDbEntity
  8
0
100
AcDbLine
 10
115.19054
 20
311.893
 30
0.0
 11
123.09054
 21
311.893
 31
0.0
  0
LINE
  5
2C
330
1D
100
AcDbEntity
  8
0
100
AcDbLine
 10
107.49054
 20
311.893
 30
0.0
 11
115.19054
 21
311.893
 31
0.0
  0
LINE
  5
2D
330
1D
100
AcDbEntity
  8
0
100
AcDbLine
 10
100.29054
 20
311.893
 30
0.0
 11
107.49054
 21
311.893
 31
0.0
  0
LINE
  5
2E
330
1D
100
AcDbEntity
  8
0
100
AcDbLine
 10
93.49054
 20
311.893
 30
0.0
 11
100.29054
 21
311.893
 31
0.0
  0
LINE
  5
2F
330
1D
100
AcDbEntity
  8
0
100
AcDbLine
 10
87.39054
 20
311.893
 30
0.0
 11
93.49054
 21
311.893
 31
0.0
  0
LINE
  5
30
330
1D
100
AcDbEntity
  8
0
100
AcDbLine
 10
82.09054
 20
311.893
 30
0.0
 11
87.39054
 21
311.893
 31
0.0
  0
LINE
  5
31
330
1D
100
AcDbEntity
  8
0
100
AcDbLine
 10
77.49054
 20
311.893
 30
0.0
 11
82.09054
 21
311.893
 31
0.0
  0
LINE
  5
32
330
1D
100
AcDbEntity
  8
0
100
AcDbLine
 10
73.99054
 20
311.893
 30
0.0
 11
77.49054
 21
311.893
 31
0.0
  0
LINE
  5
33
330
1D
100
AcDbEntity
  8
0
100
AcDbLine
 10
71.39054
 20
311.893
 30
0.0
 11
73.99054
 21
311.893
 31
0.0
  0
LINE
  5
34
330
1D
100
AcDbEntity
  8
0
100
AcDbLine
 10
69.79054
 20
311.893
 30
0.0
 11
71.39054
 21
311.893
 31
0.0
  0
LINE
  5
35
330
1D
100
AcDbEntity
  8
0
100
AcDbLine
 10
80.89054
 20
312.393
 30
0.0
 11
86.39054
 21
312.393
 31
0.0
  0
LINE
  5
36
330
1D
100
AcDbEntity
  8
0
100
AcDbLine
 10
76.19054
 20
312.393
 30
0.0
 11
80.89054
 21
312.393
 31
0.0
  0
LINE
  5
37
330
1D
100
AcDbEntity
  8
0
100
AcDbLine
 10
72.69054
 20
312.393
 30
0.0
 11
76.19054
 21
312.393
 31
0.0
  0
LINE
  5
38
330
1D
100
AcDbEntity
  8
0
100
AcDbLine
 10
69.99054
 20
312.393
 30
0.0
 11
72.69054
 21
312.393
 31
0.0
  0
LINE
  5
39
330
1D
100
AcDbEntity
  8
0
100
AcDbLine
 10
68.29054
 20
312.393
 30
0.0
 11
69.99054
 21
312.393
 31
0.0
  0
LINE
  5
3A
330
1D
100
AcDbEntity
  8
0
100
AcDbLine
 10
86.39054
 20
312.393
 30
0.0
 11
92.59054
 21
312.393
 31
0.0
  0
LINE
  5
3B
330
1D
100
AcDbEntity
  8
0
100
AcDbLine
 10
92.59054
 20
312.393
 30
0.0
 11
99.29054
 21
312.393
 31
0.0
  0
LINE
  5
3C
330
1D
100
AcDbEntity
  8
0
100
AcDbLine
 10
99.29054
 20
312.393
 30
0.0
 11
106.89054
 21
312.393
 31
0.0
  0
LINE
  5
3D
330
1D
100
AcDbEntity
  8
0
100
AcDbLine
 10
106.89054
 20
312.393
 30
0.0
 11
114.79054
 21
312.393
 31
0.0
  0
LINE
  5
3E
330
1D
100
AcDbEntity
  8
0
100
AcDbLine
 10
79.69054
 20
337.893
 30
0.0
 11
85.29054
 21
337.893
 31
0.0
  0
LINE
  5
3F
330
1D
100
AcDbEntity
  8
0
100
AcDbLine
 10
74.89054
 20
337.893
 30
0.0
 11
79.69054
 21
337.893
 31
0.0
  0
LINE
  5
40
330
1D
100
AcDbEntity
  8
0
100
AcDbLine
 10
71.29054
 20
337.893
 30
0.0
 11
74.89054
 21
337.893
 31
0.0
  0
LINE
  5
41
330
1D
100
AcDbEntity
  8
0
100
AcDbLine
 10
68.49054
 20
337.893
 30
0.0
 11
71.29054
 21
337.893
 31
0.0
  0
LINE
  5
42
330
1D
100
AcDbEntity
  8
0
100
AcDbLine
 10
85.29054
 20
337.893
 30
0.0
 11
91.69054
 21
337.893
 31
0.0
  0
LINE
  5
43
330
1D
100
AcDbEntity
  8
0
100
AcDbLine
 10
91.69054
 20
337.893
 30
0.0
 11
98.79054
 21
337.893
 31
0.0
  0
LINE
  5
44
330
1D
100
AcDbEntity
  8
0
100
AcDbLine
 10
98.79054
 20
337.893
 30
0.0
 11
106.39054
 21
337.893
 31
0.0
  0
LINE
  5
45
330
1D
100
AcDbEntity
  8
0
100
AcDbLine
 10
106.39054
 20
337.893
 30
0.0
 11
114.39054
 21
337.893
 31
0.0
  0
LINE
  5
46
330
1D
100
AcDbEntity
  8
0
100
AcDbLine
 10
114.39054
 20
337.893
 30
0.0
 11
122.69054
 21
337.893
 31
0.0
  0
LINE
  5
47
330
1D
100
AcDbEntity
  8
0
100
AcDbLine
 10
122.69054
 20
337.893
 30
0.0
 11
131.19054
 21
337.893
 31
0.0
  0
LINE
  5
48
330
1D
100
AcDbEntity
  8
0
100
AcDbLine
 10
114.79054
 20
312.393
 30
0.0
 11
122.89054
 21
312.393
 31
0.0
  0
LINE
  5
49
330
1D
100
AcDbEntity
  8
0
100
AcDbLine
 10
147.59054
 20
312.393
 30
0.0
 11
155.49054
 21
312.393
 31
0.0
  0
LINE
  5
4A
330
1D
100
AcDbEntity
  8
0
100
AcDbLine
 10
139.49054
 20
312.393
 30
0.0
 11
147.59054
 21
312.393
 31
0.0
  0
LINE
  5
4B
330
1D
100
AcDbEntity
  8
0
100
AcDbLine
 10
147.99054
 20
337.893
 30
0.0
 11
155.99054
 21
337.893
 31
0.0
  0
LINE
  5
4D
330
1D
100
AcDbEntity
  8
0
100
AcDbLine
 10
139.69054
 20
337.893
 30
0.0
 11
147.99054
 21
337.893
 31
0.0
  0
LINE
  5
4E
330
1D
100
AcDbEntity
  8
0
100
AcDbLine
 10
131.19054
 20
337.893
 30
0.0
 11
139.69054
 21
337.893
 31
0.0
  0
LINE
  5
4F
330
1D
100
AcDbEntity
  8
0
100
AcDbLine
 10
131.19054
 20
312.393
 30
0.0
 11
139.49054
 21
312.393
 31
0.0
  0
LINE
  5
50
330
1D
100
AcDbEntity
  8
0
100
AcDbLine
 10
122.89054
 20
312.393
 30
0.0
 11
131.19054
 21
312.393
 31
0.0
  0
LINE
  5
51
330
1D
100
AcDbEntity
  8
0
100
AcDbLine
 10
69.19054
 20
311.893
 30
0.0
 11
69.79054
 21
311.893
 31
0.0
  0
LINE
  5
52
330
1D
100
AcDbEntity
  8
0
100
AcDbLine
 10
67.69054
 20
312.393
 30
0.0
 11
69.19054
 21
311.893
 31
0.0
  0
LINE
  5
53
330
1D
100
AcDbEntity
  8
0
100
AcDbLine
 10
67.69054
 20
312.393
 30
0.0
 11
68.29054
 21
312.393
 31
0.0
  0
LINE
  5
1168
330
1D
100
AcDbEntity
  8
0
100
AcDbLine
 10
151.25854
 20
696.871
 30
0.0
 11
167.55754
 21
671.64
 31
0.0
  0
LINE
  5
1169
330
1D
100
AcDbEntity
  8
0
100
AcDbLine
 10
161.76654
 20
299.893
 30
0.0
 11
163.30254
 21
299.893
 31
0.0
  0
LINE
  5
116A
330
1D
100
AcDbEntity
  8
0
100
AcDbLine
 10
155.99054
 20
337.893
 30
0.0
 11
163.59054
 21
337.893
 31
0.0
  0
LINE
  5
116B
330
1D
100
AcDbEntity
  8
0
100
AcDbLine
 10
155.49054
 20
312.393
 30
0.0
 11
163.09054
 21
312.393
 31
0.0
  0
LINE
  5
116C
330
1D
100
AcDbEntity
  8
0
100
AcDbLine
 10
154.89054
 20
311.893
 30
0.0
 11
162.09054
 21
311.893
 31
0.0
  0
LINE
  5
116D
330
1D
100
AcDbEntity
  8
0
100
AcDbLine
 10
162.09054
 20
311.893
 30
0.0
 11
168.89054
 21
311.893
 31
0.0
  0
LINE
  5
116E
330
1D
100
AcDbEntity
  8
0
100
AcDbLine
 10
163.09054
 20
312.393
 30
0.0
 11
169.79054
 21
312.393
 31
0.0
  0
LINE
  5
116F
330
1D
100
AcDbEntity
  8
0
100
AcDbLine
 10
161.76654
 20
311.893
 30
0.0
 11
163.30254
 21
311.893
 31
0.0
  0
LINE
  5
1170
330
1D
100
AcDbEntity
  8
0
100
AcDbLine
 10
161.19054
 20
311.893
 30
0.0
 11
161.19054
 21
299.893
 31
0.0
  0
LINE
  5
1171
330
1D
100
AcDbEntity
  8
0
100
AcDbLine
 10
161.19054
 20
311.893
 30
0.0
 11
161.76654
 21
311.893
 31
0.0
  0
LINE
  5
1172
330
1D
100
AcDbEntity
  8
0
100
AcDbLine
 10
161.19054
 20
299.893
 30
0.0
 11
161.76654
 21
299.893
 31
0.0
  0
LINE
  5
1173
330
1D
100
AcDbEntity
  8
0
100
AcDbLine
 10
161.19054
 20
299.893
 30
0.0
 11
161.19054
 21
311.893
 31
0.0
  0
LINE
  5
1174
330
1D
100
AcDbEntity
  8
0
100
AcDbLine
 10
163.30254
 20
299.893
 30
0.0
 11
165.86254
 21
299.893
 31
0.0
  0
LINE
  5
1175
330
1D
100
AcDbEntity
  8
0
100
AcDbLine
 10
165.62254
 20
299.893
 30
0.0
 11
166.77454
 21
299.893
 31
0.0
  0
LINE
  5
1176
330
1D
100
AcDbEntity
  8
0
100
AcDbLine
 10
165.62254
 20
299.893
 30
0.0
 11
166.19054
 21
299.893
 31
0.0
  0
LINE
  5
1177
330
1D
100
AcDbEntity
  8
0
100
AcDbLine
 10
165.19054
 20
299.893
 30
0.0
 11
165.62254
 21
299.893
 31
0.0
  0
LINE
  5
1178
330
1D
100
AcDbEntity
  8
0
100
AcDbLine
 10
165.86254
 20
299.893
 30
0.0
 11
166.19054
 21
299.893
 31
0.0
  0
LINE
  5
1179
330
1D
100
AcDbEntity
  8
0
100
AcDbLine
 10
165.86254
 20
299.893
 30
0.0
 11
169.25454
 21
299.893
 31
0.0
  0
LINE
  5
117A
330
1D
100
AcDbEntity
  8
0
100
AcDbLine
 10
165.03854
 20
299.893
 30
0.0
 11
166.19054
 21
299.893
 31
0.0
  0
LINE
  5
117B
330
1D
100
AcDbEntity
  8
0
100
AcDbLine
 10
165.03854
 20
299.893
 30
0.0
 11
167.27854
 21
299.893
 31
0.0
  0
LINE
  5
117C
330
1D
100
AcDbEntity
  8
0
100
AcDbLine
 10
163.59054
 20
337.893
 30
0.0
 11
170.69054
 21
337.893
 31
0.0
  0
LINE
  5
117D
330
1D
100
AcDbEntity
  8
0
100
AcDbLine
 10
165.86254
 20
311.893
 30
0.0
 11
169.25454
 21
311.893
 31
0.0
  0
LINE
  5
117E
330
1D
100
AcDbEntity
  8
0
100
AcDbLine
 10
163.30254
 20
311.893
 30
0.0
 11
165.86254
 21
311.893
 31
0.0
  0
LINE
  5
117F
330
1D
100
AcDbEntity
  8
0
100
AcDbLine
 10
163.69454
 20
299.893
 30
0.0
 11
165.03854
 21
299.893
 31
0.0
  0
LINE
  5
1180
330
1D
100
AcDbEntity
  8
0
100
AcDbLine
 10
163.19054
 20
299.893
 30
0.0
 11
163.69454
 21
299.893
 31
0.0
  0
LINE
  5
1181
330
1D
100
AcDbEntity
  8
0
100
AcDbLine
 10
163.19054
 20
299.893
 30
0.0
 11
165.19054
 21
299.893
 31
0.0
  0
LINE
  5
1182
330
1D
100
AcDbEntity
  8
0
100
AcDbLine
 10
165.86254
 20
649.565
 30
0.0
 11
166.19054
 21
649.317452830189
 31
0.0
  0
LINE
  5
1183
330
1D
100
AcDbEntity
  8
0
100
AcDbLine
 10
166.45454
 20
199.893
 30
0.0
 11
166.85054
 21
199.893
 31
0.0
  0
LINE
  5
1184
330
1D
100
AcDbEntity
  8
0
100
AcDbLine
 10
166.19054
 20
200.277615
 30
0.0
 11
166.58654
 21
200.277615
 31
0.0
  0
LINE
  5
1185
330
1D
100
AcDbEntity
  8
0
100
AcDbLine
 10
166.19054
 20
200.277615
 30
0.0
 11
166.45454
 21
199.893
 31
0.0
  0
LINE
  5
1186
330
1D
100
AcDbEntity
  8
0
100
AcDbLine
 10
166.19054
 20
200.277615
 30
0.0
 11
166.19054
 21
269.5084
 31
0.0
  0
LINE
  5
1187
330
1D
100
AcDbEntity
  8
0
100
AcDbLine
 10
166.58654
 20
200.277615
 30
0.0
 11
167.64254
 21
200.277615
 31
0.0
  0
LINE
  5
1188
330
1D
100
AcDbEntity
  8
0
100
AcDbLine
 10
166.19054
 20
270.493
 30
0.0
 11
166.45454
 21
269.893
 31
0.0
  0
LINE
  5
1189
330
1D
100
AcDbEntity
  8
0
100
AcDbLine
 10
166.19054
 20
270.493
 30
0.0
 11
166.19054
 21
299.893
 31
0.0
  0
LINE
  5
118A
330
1D
100
AcDbEntity
  8
0
100
AcDbLine
 10
166.19054
 20
299.893
 30
0.0
 11
166.19054
 21
270.493
 31
0.0
  0
LINE
  5
118B
330
1D
100
AcDbEntity
  8
0
100
AcDbLine
 10
166.19054
 20
578.893
 30
0.0
 11
166.19054
 21
673.756128412786
 31
0.0
  0
LINE
  5
118C
330
1D
100
AcDbEntity
  8
0
100
AcDbLine
 10
166.19054
 20
337.893
 30
0.0
 11
166.19054
 21
578.893
 31
0.0
  0
LINE
  5
118D
330
1D
100
AcDbEntity
  8
0
100
AcDbLine
 10
166.45454
 20
269.893
 30
0.0
 11
166.85054
 21
269.893
 31
0.0
  0
LINE
  5
118E
330
1D
100
AcDbEntity
  8
0
100
AcDbLine
 10
166.19054
 20
269.5084
 30
0.0
 11
166.58654
 21
269.5084
 31
0.0
  0
LINE
  5
118F
330
1D
100
AcDbEntity
  8
0
100
AcDbLine
 10
166.19054
 20
269.5084
 30
0.0
 11
166.45454
 21
269.893
 31
0.0
  0
LINE
  5
1190
330
1D
100
AcDbEntity
  8
0
100
AcDbLine
 10
166.19054
 20
269.5084
 30
0.0
 11
166.19054
 21
200.277615
 31
0.0
  0
LINE
  5
1191
330
1D
100
AcDbEntity
  8
0
100
AcDbLine
 10
166.85054
 20
199.893
 30
0.0
 11
167.90654
 21
199.893
 31
0.0
  0
LINE
  5
1192
330
1D
100
AcDbEntity
  8
0
100
AcDbLine
 10
166.77454
 20
299.893
 30
0.0
 11
168.69454
 21
299.893
 31
0.0
  0
LINE
  5
1193
330
1D
100
AcDbEntity
  8
0
100
AcDbLine
 10
167.27854
 20
299.893
 30
0.0
 11
170.24654
 21
299.893
 31
0.0
  0
LINE
  5
1194
330
1D
100
AcDbEntity
  8
0
100
AcDbLine
 10
166.85054
 20
269.893
 30
0.0
 11
167.90654
 21
269.893
 31
0.0
  0
LINE
  5
1195
330
1D
100
AcDbEntity
  8
0
100
AcDbLine
 10
166.58654
 20
269.5084
 30
0.0
 11
167.64254
 21
269.5084
 31
0.0
  0
LINE
  5
1196
330
1D
100
AcDbEntity
  8
0
100
AcDbLine
 10
165.88154
 20
649.68
 30
0.0
 11
166.19054
 21
649.430156048015
 31
0.0
  0
LINE
  5
1197
330
1D
100
AcDbEntity
  8
0
100
AcDbLine
 10
165.88154
 20
649.68
 30
0.0
 11
169.13054
 21
647.053
 31
0.0
  0
LINE
  5
1198
330
1D
100
AcDbEntity
  8
0
100
AcDbLine
 10
161.57454
 20
660.893
 30
0.0
 11
162.15054
 21
656.861
 31
0.0
  0
LINE
  5
1199
330
1D
100
AcDbEntity
  8
0
100
AcDbLine
 10
161.57454
 20
660.893
 30
0.0
 11
162.15054
 21
664.925
 31
0.0
  0
LINE
  5
11A1
330
1D
100
AcDbEntity
  8
0
100
AcDbLine
 10
162.15054
 20
664.925
 30
0.0
 11
163.68654
 21
668.637
 31
0.0
  0
LINE
  5
11A2
330
1D
100
AcDbEntity
  8
0
100
AcDbLine
 10
163.68654
 20
668.637
 30
0.0
 11
166.18254
 21
671.901
 31
0.0
  0
LINE
  5
11A4
330
1D
100
AcDbEntity
  8
0
100
AcDbLine
 10
162.15054
 20
656.861
 30
0.0
 11
163.68654
 21
653.149
 31
0.0
  0
LINE
  5
11A6
330
1D
100
AcDbEntity
  8
0
100
AcDbLine
 10
163.68654
 20
653.149
 30
0.0
 11
166.18254
 21
649.885
 31
0.0
  0
LINE
  5
11AA
330
1D
100
AcDbEntity
  8
0
100
AcDbLine
 10
167.90654
 20
199.893
 30
0.0
 11
169.62254
 21
199.893
 31
0.0
  0
LINE
  5
11AB
330
1D
100
AcDbEntity
  8
0
100
AcDbLine
 10
167.64254
 20
200.277615
 30
0.0
 11
169.40254
 21
200.277615
 31
0.0
  0
LINE
  5
11AC
330
1D
100
AcDbEntity
  8
0
100
AcDbLine
 10
169.40254
 20
200.277615
 30
0.0
 11
171.73454
 21
200.277615
 31
0.0
  0
LINE
  5
11AD
330
1D
100
AcDbEntity
  8
0
100
AcDbLine
 10
167.64254
 20
269.5084
 30
0.0
 11
169.40254
 21
269.5084
 31
0.0
  0
LINE
  5
11AE
330
1D
100
AcDbEntity
  8
0
100
AcDbLine
 10
169.62254
 20
199.893
 30
0.0
 11
171.86654
 21
199.893
 31
0.0
  0
LINE
  5
11AF
330
1D
100
AcDbEntity
  8
0
100
AcDbLine
 10
171.86654
 20
199.893
 30
0.0
 11
174.41854
 21
199.893
 31
0.0
  0
LINE
  5
11B0
330
1D
100
AcDbEntity
  8
0
100
AcDbLine
 10
171.73454
 20
200.277615
 30
0.0
 11
174.37454
 21
200.277615
 31
0.0
  0
LINE
  5
11B1
330
1D
100
AcDbEntity
  8
0
100
AcDbLine
 10
169.40254
 20
269.5084
 30
0.0
 11
171.73454
 21
269.5084
 31
0.0
  0
LINE
  5
11B2
330
1D
100
AcDbEntity
  8
0
100
AcDbLine
 10
167.90654
 20
269.893
 30
0.0
 11
169.62254
 21
269.893
 31
0.0
  0
LINE
  5
11B3
330
1D
100
AcDbEntity
  8
0
100
AcDbLine
 10
168.69454
 20
299.893
 30
0.0
 11
171.23854
 21
299.893
 31
0.0
  0
LINE
  5
11B4
330
1D
100
AcDbEntity
  8
0
100
AcDbLine
 10
169.25454
 20
299.893
 30
0.0
 11
173.09454
 21
299.893
 31
0.0
  0
LINE
  5
11B5
330
1D
100
AcDbEntity
  8
0
100
AcDbLine
 10
168.89054
 20
311.893
 30
0.0
 11
174.99054
 21
311.893
 31
0.0
  0
LINE
  5
11B6
330
1D
100
AcDbEntity
  8
0
100
AcDbLine
 10
171.23854
 20
299.893
 30
0.0
 11
174.11854
 21
299.893
 31
0.0
  0
LINE
  5
11B7
330
1D
100
AcDbEntity
  8
0
100
AcDbLine
 10
170.24654
 20
299.893
 30
0.0
 11
173.60654
 21
299.893
 31
0.0
  0
LINE
  5
11B8
330
1D
100
AcDbEntity
  8
0
100
AcDbLine
 10
170.69054
 20
337.893
 30
0.0
 11
177.09054
 21
337.893
 31
0.0
  0
LINE
  5
11B9
330
1D
100
AcDbEntity
  8
0
100
AcDbLine
 10
169.79054
 20
312.393
 30
0.0
 11
175.99054
 21
312.393
 31
0.0
  0
LINE
  5
11BA
330
1D
100
AcDbEntity
  8
0
100
AcDbLine
 10
169.25454
 20
311.893
 30
0.0
 11
173.09454
 21
311.893
 31
0.0
  0
LINE
  5
11BB
330
1D
100
AcDbEntity
  8
0
100
AcDbLine
 10
169.62254
 20
269.893
 30
0.0
 11
171.86654
 21
269.893
 31
0.0
  0
LINE
  5
11BC
330
1D
100
AcDbEntity
  8
0
100
AcDbLine
 10
171.86654
 20
269.893
 30
0.0
 11
174.41854
 21
269.893
 31
0.0
  0
LINE
  5
11BD
330
1D
100
AcDbEntity
  8
0
100
AcDbLine
 10
171.73454
 20
269.5084
 30
0.0
 11
174.37454
 21
269.5084
 31
0.0
  0
LINE
  5
11BE
330
1D
100
AcDbEntity
  8
0
100
AcDbLine
 10
173.09454
 20
299.893
 30
0.0
 11
177.19054
 21
299.893
 31
0.0
  0
LINE
  5
11BF
330
1D
100
AcDbEntity
  8
0
100
AcDbLine
 10
174.11854
 20
299.893
 30
0.0
 11
177.19054
 21
299.893
 31
0.0
  0
LINE
  5
11C0
330
1D
100
AcDbEntity
  8
0
100
AcDbLine
 10
173.60654
 20
299.893
 30
0.0
 11
177.19054
 21
299.893
 31
0.0
  0
LINE
  5
11C1
330
1D
100
AcDbEntity
  8
0
100
AcDbLine
 10
173.09454
 20
311.893
 30
0.0
 11
177.19054
 21
311.893
 31
0.0
  0
LINE
  5
11C2
330
1D
100
AcDbEntity
  8
0
100
AcDbLine
 10
174.37454
 20
200.277615
 30
0.0
 11
177.19054
 21
200.277615
 31
0.0
  0
LINE
  5
11C3
330
1D
100
AcDbEntity
  8
0
100
AcDbLine
 10
177.19054
 20
199.893
 30
0.0
 11
179.96254
 21
199.893
 31
0.0
  0
LINE
  5
11C4
330
1D
100
AcDbEntity
  8
0
100
AcDbLine
 10
177.19054
 20
200.277615
 30
0.0
 11
180.00654
 21
200.277615
 31
0.0
  0
LINE
  5
11C5
330
1D
100
AcDbEntity
  8
0
100
AcDbLine
 10
174.41854
 20
199.893
 30
0.0
 11
177.19054
 21
199.893
 31
0.0
  0
LINE
  5
11C6
330
1D
100
AcDbEntity
  8
0
100
AcDbLine
 10
177.19054
 20
269.893
 30
0.0
 11
179.96254
 21
269.893
 31
0.0
  0
LINE
  5
11C7
330
1D
100
AcDbEntity
  8
0
100
AcDbLine
 10
177.19054
 20
269.5084
 30
0.0
 11
180.00654
 21
269.5084
 31
0.0
  0
LINE
  5
11C8
330
1D
100
AcDbEntity
  8
0
100
AcDbLine
 10
174.99054
 20
311.893
 30
0.0
 11
180.29054
 21
311.893
 31
0.0
  0
LINE
  5
11C9
330
1D
100
AcDbEntity
  8
0
100
AcDbLine
 10
177.19054
 20
299.893
 30
0.0
 11
181.28654
 21
299.893
 31
0.0
  0
LINE
  5
11CA
330
1D
100
AcDbEntity
  8
0
100
AcDbLine
 10
177.19054
 20
299.893
 30
0.0
 11
180.77454
 21
299.893
 31
0.0
  0
LINE
  5
11CB
330
1D
100
AcDbEntity
  8
0
100
AcDbLine
 10
177.19054
 20
299.893
 30
0.0
 11
180.26254
 21
299.893
 31
0.0
  0
LINE
  5
11CC
330
1D
100
AcDbEntity
  8
0
100
AcDbLine
 10
177.19054
 20
311.893
 30
0.0
 11
181.28654
 21
311.893
 31
0.0
  0
LINE
  5
11CD
330
1D
100
AcDbEntity
  8
0
100
AcDbLine
 10
177.09054
 20
337.893
 30
0.0
 11
182.69054
 21
337.893
 31
0.0
  0
LINE
  5
11CE
330
1D
100
AcDbEntity
  8
0
100
AcDbLine
 10
175.99054
 20
312.393
 30
0.0
 11
181.49054
 21
312.393
 31
0.0
  0
LINE
  5
11CF
330
1D
100
AcDbEntity
  8
0
100
AcDbLine
 10
174.41854
 20
269.893
 30
0.0
 11
177.19054
 21
269.893
 31
0.0
  0
LINE
  5
11D0
330
1D
100
AcDbEntity
  8
0
100
AcDbLine
 10
174.37454
 20
269.5084
 30
0.0
 11
177.19054
 21
269.5084
 31
0.0
  0
LINE
  5
11D1
330
1D
100
AcDbEntity
  8
0
100
AcDbLine
 10
177.19054
 20
644.893
 30
0.0
 11
179.913708140755
 21
645.322453115221
 31
0.0
  0
LINE
  5
11D2
330
1D
100
AcDbEntity
  8
0
100
AcDbLine
 10
173.03254
 20
645.495
 30
0.0
 11
177.19054
 21
644.893
 31
0.0
  0
LINE
  5
11D3
330
1D
100
AcDbEntity
  8
0
100
AcDbLine
 10
169.13054
 20
647.053
 30
0.0
 11
173.03254
 21
645.495
 31
0.0
  0
LINE
  5
11D4
330
1D
100
AcDbEntity
  8
0
100
AcDbLine
 10
179.96254
 20
199.893
 30
0.0
 11
182.51454
 21
199.893
 31
0.0
  0
LINE
  5
11D5
330
1D
100
AcDbEntity
  8
0
100
AcDbLine
 10
180.00654
 20
200.277615
 30
0.0
 11
182.64654
 21
200.277615
 31
0.0
  0
LINE
  5
11D6
330
1D
100
AcDbEntity
  8
0
100
AcDbLine
 10
184.75854
 20
199.893
 30
0.0
 11
186.47454
 21
199.893
 31
0.0
  0
LINE
  5
11D7
330
1D
100
AcDbEntity
  8
0
100
AcDbLine
 10
182.51454
 20
199.893
 30
0.0
 11
184.75854
 21
199.893
 31
0.0
  0
LINE
  5
11D8
330
1D
100
AcDbEntity
  8
0
100
AcDbLine
 10
187.53054
 20
199.893
 30
0.0
 11
187.92654
 21
199.893
 31
0.0
  0
LINE
  5
11D9
330
1D
100
AcDbEntity
  8
0
100
AcDbLine
 10
187.92654
 20
199.893
 30
0.0
 11
188.19054
 21
200.277615
 31
0.0
  0
LINE
  5
11DA
330
1D
100
AcDbEntity
  8
0
100
AcDbLine
 10
186.47454
 20
199.893
 30
0.0
 11
187.53054
 21
199.893
 31
0.0
  0
LINE
  5
11DB
330
1D
100
AcDbEntity
  8
0
100
AcDbLine
 10
187.79454
 20
200.277615
 30
0.0
 11
188.19054
 21
200.277615
 31
0.0
  0
LINE
  5
11DC
330
1D
100
AcDbEntity
  8
0
100
AcDbLine
 10
188.19054
 20
200.277615
 30
0.0
 11
188.19054
 21
224.893
 31
0.0
  0
LINE
  5
11DD
330
1D
100
AcDbEntity
  8
0
100
AcDbLine
 10
186.73854
 20
200.277615
 30
0.0
 11
187.79454
 21
200.277615
 31
0.0
  0
LINE
  5
11DE
330
1D
100
AcDbEntity
  8
0
100
AcDbLine
 10
184.97854
 20
200.277615
 30
0.0
 11
186.73854
 21
200.277615
 31
0.0
  0
LINE
  5
11DF
330
1D
100
AcDbEntity
  8
0
100
AcDbLine
 10
182.64654
 20
200.277615
 30
0.0
 11
184.97854
 21
200.277615
 31
0.0
  0
LINE
  5
11E0
330
1D
100
AcDbEntity
  8
0
100
AcDbLine
 10
181.707873532474
 20
224.893
 30
0.0
 11
201.873045242343
 21
224.893
 31
0.0
  0
LINE
  5
11E1
330
1D
100
AcDbEntity
  8
0
100
AcDbLine
 10
188.19054
 20
270.493
 30
0.0
 11
188.19054
 21
299.893
 31
0.0
  0
LINE
  5
11E2
330
1D
100
AcDbEntity
  8
0
100
AcDbLine
 10
187.92654
 20
269.893
 30
0.0
 11
188.19054
 21
270.493
 31
0.0
  0
LINE
  5
11E3
330
1D
100
AcDbEntity
  8
0
100
AcDbLine
 10
180.26254
 20
299.893
 30
0.0
 11
183.14254
 21
299.893
 31
0.0
  0
LINE
  5
11E4
330
1D
100
AcDbEntity
  8
0
100
AcDbLine
 10
183.14254
 20
299.893
 30
0.0
 11
185.68654
 21
299.893
 31
0.0
  0
LINE
  5
11E5
330
1D
100
AcDbEntity
  8
0
100
AcDbLine
 10
180.77454
 20
299.893
 30
0.0
 11
184.13454
 21
299.893
 31
0.0
  0
LINE
  5
11E6
330
1D
100
AcDbEntity
  8
0
100
AcDbLine
 10
181.28654
 20
299.893
 30
0.0
 11
185.12654
 21
299.893
 31
0.0
  0
LINE
  5
11E7
330
1D
100
AcDbEntity
  8
0
100
AcDbLine
 10
184.13454
 20
299.893
 30
0.0
 11
187.10254
 21
299.893
 31
0.0
  0
LINE
  5
11E8
330
1D
100
AcDbEntity
  8
0
100
AcDbLine
 10
181.28654
 20
311.893
 30
0.0
 11
185.12654
 21
311.893
 31
0.0
  0
LINE
  5
11E9
330
1D
100
AcDbEntity
  8
0
100
AcDbLine
 10
180.29054
 20
311.893
 30
0.0
 11
184.89054
 21
311.893
 31
0.0
  0
LINE
  5
11EA
330
1D
100
AcDbEntity
  8
0
100
AcDbLine
 10
181.49054
 20
312.393
 30
0.0
 11
186.19054
 21
312.393
 31
0.0
  0
LINE
  5
11EB
330
1D
100
AcDbEntity
  8
0
100
AcDbLine
 10
185.68654
 20
299.893
 30
0.0
 11
187.60654
 21
299.893
 31
0.0
  0
LINE
  5
11EC
330
1D
100
AcDbEntity
  8
0
100
AcDbLine
 10
185.12654
 20
299.893
 30
0.0
 11
188.51854
 21
299.893
 31
0.0
  0
LINE
  5
11ED
330
1D
100
AcDbEntity
  8
0
100
AcDbLine
 10
187.60654
 20
299.893
 30
0.0
 11
188.75854
 21
299.893
 31
0.0
  0
LINE
  5
11EE
330
1D
100
AcDbEntity
  8
0
100
AcDbLine
 10
187.10254
 20
299.893
 30
0.0
 11
189.34254
 21
299.893
 31
0.0
  0
LINE
  5
11EF
330
1D
100
AcDbEntity
  8
0
100
AcDbLine
 10
185.12654
 20
311.893
 30
0.0
 11
188.51854
 21
311.893
 31
0.0
  0
LINE
  5
11F0
330
1D
100
AcDbEntity
  8
0
100
AcDbLine
 10
184.89054
 20
311.893
 30
0.0
 11
188.39054
 21
311.893
 31
0.0
  0
LINE
  5
11F1
330
1D
100
AcDbEntity
  8
0
100
AcDbLine
 10
182.69054
 20
337.893
 30
0.0
 11
187.49054
 21
337.893
 31
0.0
  0
LINE
  5
11F2
330
1D
100
AcDbEntity
  8
0
100
AcDbLine
 10
187.49054
 20
337.893
 30
0.0
 11
191.09054
 21
337.893
 31
0.0
  0
LINE
  5
11F3
330
1D
100
AcDbEntity
  8
0
100
AcDbLine
 10
186.19054
 20
312.393
 30
0.0
 11
189.69054
 21
312.393
 31
0.0
  0
LINE
  5
11F4
330
1D
100
AcDbEntity
  8
0
100
AcDbLine
 10
188.19054
 20
299.893
 30
0.0
 11
188.51854
 21
299.893
 31
0.0
  0
LINE
  5
11F5
330
1D
100
AcDbEntity
  8
0
100
AcDbLine
 10
188.19054
 20
299.893
 30
0.0
 11
189.34254
 21
299.893
 31
0.0
  0
LINE
  5
11F6
330
1D
100
AcDbEntity
  8
0
100
AcDbLine
 10
188.19054
 20
299.893
 30
0.0
 11
188.75854
 21
299.893
 31
0.0
  0
LINE
  5
11F7
330
1D
100
AcDbEntity
  8
0
100
AcDbLine
 10
188.19054
 20
619.29212
 30
0.0
 11
188.19054
 21
578.893
 31
0.0
  0
LINE
  5
11F8
330
1D
100
AcDbEntity
  8
0
100
AcDbLine
 10
188.19054
 20
337.893
 30
0.0
 11
188.19054
 21
578.893
 31
0.0
  0
LINE
  5
11F9
330
1D
100
AcDbEntity
  8
0
100
AcDbLine
 10
188.19054
 20
299.893
 30
0.0
 11
188.19054
 21
270.493
 31
0.0
  0
LINE
  5
11FA
330
1D
100
AcDbEntity
  8
0
100
AcDbLine
 10
189.19054
 20
299.893
 30
0.0
 11
191.19054
 21
299.893
 31
0.0
  0
LINE
  5
11FB
330
1D
100
AcDbEntity
  8
0
100
AcDbLine
 10
188.75854
 20
299.893
 30
0.0
 11
189.19054
 21
299.893
 31
0.0
  0
LINE
  5
11FC
330
1D
100
AcDbEntity
  8
0
100
AcDbLine
 10
189.34254
 20
299.893
 30
0.0
 11
190.68654
 21
299.893
 31
0.0
  0
LINE
  5
11FD
330
1D
100
AcDbEntity
  8
0
100
AcDbLine
 10
190.68654
 20
299.893
 30
0.0
 11
191.19054
 21
299.893
 31
0.0
  0
LINE
  5
11FE
330
1D
100
AcDbEntity
  8
0
100
AcDbLine
 10
188.51854
 20
299.893
 30
0.0
 11
191.07854
 21
299.893
 31
0.0
  0
LINE
  5
11FF
330
1D
100
AcDbEntity
  8
0
100
AcDbLine
 10
188.51854
 20
311.893
 30
0.0
 11
191.07854
 21
311.893
 31
0.0
  0
LINE
  5
1200
330
1D
100
AcDbEntity
  8
0
100
AcDbLine
 10
188.39054
 20
311.893
 30
0.0
 11
190.99054
 21
311.893
 31
0.0
  0
LINE
  5
1201
330
1D
100
AcDbEntity
  8
0
100
AcDbLine
 10
189.69054
 20
312.393
 30
0.0
 11
192.39054
 21
312.393
 31
0.0
  0
LINE
  5
1202
330
1D
100
AcDbEntity
  8
0
100
AcDbLine
 10
191.07854
 20
311.893
 30
0.0
 11
192.61454
 21
311.893
 31
0.0
  0
LINE
  5
1203
330
1D
100
AcDbEntity
  8
0
100
AcDbLine
 10
191.09054
 20
337.893
 30
0.0
 11
193.89054
 21
337.893
 31
0.0
  0
LINE
  5
1204
330
1D
100
AcDbEntity
  8
0
100
AcDbLine
 10
190.99054
 20
311.893
 30
0.0
 11
192.59054
 21
311.893
 31
0.0
  0
LINE
  5
1205
330
1D
100
AcDbEntity
  8
0
100
AcDbLine
 10
191.07854
 20
299.893
 30
0.0
 11
192.61454
 21
299.893
 31
0.0
  0
LINE
  5
1206
330
1D
100
AcDbEntity
  8
0
100
AcDbLine
 10
188.19054
 20
578.893
 30
0.0
 11
188.19054
 21
337.893
 31
0.0
  0
LINE
  5
1207
330
1D
100
AcDbEntity
  8
0
100
AcDbLine
 10
188.19054
 20
578.893
 30
0.0
 11
188.19054
 21
619.29212
 31
0.0
  0
LINE
  5
1208
330
1D
100
AcDbEntity
  8
0
100
AcDbLine
 10
180.00654
 20
269.5084
 30
0.0
 11
182.64654
 21
269.5084
 31
0.0
  0
LINE
  5
1209
330
1D
100
AcDbEntity
  8
0
100
AcDbLine
 10
179.96254
 20
269.893
 30
0.0
 11
201.838383695392
 21
269.893
 31
0.0
  0
LINE
  5
120A
330
1D
100
AcDbEntity
  8
0
100
AcDbLine
 10
179.96254
 20
269.893
 30
0.0
 11
201.838383695392
 21
269.893
 31
0.0
  0
LINE
  5
120B
330
1D
100
AcDbEntity
  8
0
100
AcDbLine
 10
188.19054
 20
224.893
 30
0.0
 11
201.873045242343
 21
224.893
 31
0.0
  0
LINE
  5
120C
330
1D
100
AcDbEntity
  8
0
100
AcDbLine
 10
188.19054
 20
224.893
 30
0.0
 11
188.19054
 21
200.277615
 31
0.0
  0
LINE
  5
120D
330
1D
100
AcDbEntity
  8
0
100
AcDbLine
 10
192.61454
 20
311.893
 30
0.0
 11
193.19054
 21
311.893
 31
0.0
  0
LINE
  5
120E
330
1D
100
AcDbEntity
  8
0
100
AcDbLine
 10
192.59054
 20
311.893
 30
0.0
 11
193.19054
 21
311.893
 31
0.0
  0
LINE
  5
120F
330
1D
100
AcDbEntity
  8
0
100
AcDbLine
 10
192.61454
 20
299.893
 30
0.0
 11
193.19054
 21
299.893
 31
0.0
  0
LINE
  5
1210
330
1D
100
AcDbEntity
  8
0
100
AcDbLine
 10
193.19054
 20
299.893
 30
0.0
 11
193.19054
 21
312.035857142857
 31
0.0
  0
LINE
  5
1211
330
1D
100
AcDbEntity
  8
0
100
AcDbLine
 10
193.19054
 20
312.035857142857
 30
0.0
 11
193.19054
 21
311.893
 31
0.0
  0
LINE
  5
1212
330
1D
100
AcDbEntity
  8
0
100
AcDbLine
 10
193.19054
 20
312.035857142857
 30
0.0
 11
193.19054
 21
299.893
 31
0.0
  0
LINE
  5
1213
330
1D
100
AcDbEntity
  8
0
100
AcDbLine
 10
192.39054
 20
312.393
 30
0.0
 11
194.09054
 21
312.393
 31
0.0
  0
LINE
  5
1214
330
1D
100
AcDbEntity
  8
0
100
AcDbLine
 10
193.89054
 20
337.893
 30
0.0
 11
195.49054
 21
337.893
 31
0.0
  0
LINE
  5
1215
330
1D
100
AcDbEntity
  8
0
100
AcDbLine
 10
194.09054
 20
312.393
 30
0.0
 11
194.69054
 21
312.393
 31
0.0
  0
LINE
  5
1216
330
1D
100
AcDbEntity
  8
0
100
AcDbLine
 10
195.49054
 20
337.893
 30
0.0
 11
196.19054
 21
337.893
 31
0.0
  0
LINE
  5
1217
330
1D
100
AcDbEntity
  8
0
100
AcDbLine
 10
196.19054
 20
314.893
 30
0.0
 11
196.19054
 21
337.893
 31
0.0
  0
LINE
  5
1218
330
1D
100
AcDbEntity
  8
0
100
AcDbLine
 10
196.19054
 20
337.893
 30
0.0
 11
196.19054
 21
314.893
 31
0.0
  0
LINE
  5
1219
330
1D
100
AcDbEntity
  8
0
100
AcDbLine
 10
195.69054
 20
313.393
 30
0.0
 11
196.19054
 21
314.893
 31
0.0
  0
LINE
  5
121A
330
1D
100
AcDbEntity
  8
0
100
AcDbLine
 10
194.69054
 20
312.393
 30
0.0
 11
195.69054
 21
313.393
 31
0.0
  0
LINE
  5
121B
330
1D
100
AcDbEntity
  8
0
100
AcDbLine
 10
193.19054
 20
311.893
 30
0.0
 11
194.69054
 21
312.393
 31
0.0
  0
LINE
  5
121C
330
1D
100
AcDbEntity
  8
0
100
AcDbLine
 10
193.19054
 20
311.893
 30
0.0
 11
193.19054
 21
312.035857142857
 31
0.0
  0
LINE
  5
121D
330
1D
100
AcDbEntity
  8
0
100
AcDbLine
 10
201.64154
 20
525.449
 30
0.0
 11
202.04354
 21
3.545
 31
0.0
  0
LINE
  5
121E
330
1D
100
AcDbEntity
  8
0
100
AcDbLine
 10
201.64154
 20
525.449
 30
0.0
 11
202.04354
 21
3.545
 31
0.0
  0
LINE
  5
121F
330
1D
100
AcDbEntity
  8
0
100
AcDbLine
 10
210.95954
 20
0.107
 30
0.0
 11
213.86554
 21
0.615
 31
0.0
  0
LINE
  5
1220
330
1D
100
AcDbEntity
  8
0
100
AcDbLine
 10
216.25754
 20
1.566
 30
0.0
 11
217.68654
 21
2.94
 31
0.0
  0
LINE
  5
1221
330
1D
100
AcDbEntity
  8
0
100
AcDbLine
 10
213.86554
 20
0.615
 30
0.0
 11
216.25754
 21
1.566
 31
0.0
  0
LINE
  5
1222
330
1D
100
AcDbEntity
  8
0
100
AcDbLine
 10
207.81654
 20
0.236
 30
0.0
 11
210.95954
 21
0.107
 31
0.0
  0
LINE
  5
1223
330
1D
100
AcDbEntity
  8
0
100
AcDbLine
 10
205.01754
 20
0.939
 30
0.0
 11
207.81654
 21
0.236
 31
0.0
  0
LINE
  5
1224
330
1D
100
AcDbEntity
  8
0
100
AcDbLine
 10
216.91954
 20
5.91
 30
0.0
 11
217.94954
 21
4.482
 31
0.0
  0
LINE
  5
1225
330
1D
100
AcDbEntity
  8
0
100
AcDbLine
 10
214.98354
 20
7.086
 30
0.0
 11
216.91954
 21
5.91
 31
0.0
  0
LINE
  5
1226
330
1D
100
AcDbEntity
  8
0
100
AcDbLine
 10
212.18954
 20
7.789
 30
0.0
 11
214.98354
 21
7.086
 31
0.0
  0
LINE
  5
1227
330
1D
100
AcDbEntity
  8
0
100
AcDbLine
 10
209.04654
 20
7.921
 30
0.0
 11
212.18954
 21
7.789
 31
0.0
  0
LINE
  5
1228
330
1D
100
AcDbEntity
  8
0
100
AcDbLine
 10
206.13654
 20
7.415
 30
0.0
 11
209.04654
 21
7.921
 31
0.0
  0
LINE
  5
1229
330
1D
100
AcDbEntity
  8
0
100
AcDbLine
 10
203.74154
 20
6.463
 30
0.0
 11
206.13654
 21
7.415
 31
0.0
  0
LINE
  5
122A
330
1D
100
AcDbEntity
  8
0
100
AcDbLine
 10
202.30854
 20
5.09
 30
0.0
 11
203.74154
 21
6.463
 31
0.0
  0
LINE
  5
122B
330
1D
100
AcDbEntity
  8
0
100
AcDbLine
 10
217.64154
 20
525.453
 30
0.0
 11
217.94954
 21
4.482
 31
0.0
  0
LINE
  5
122C
330
1D
100
AcDbEntity
  8
0
100
AcDbLine
 10
217.64154
 20
525.453
 30
0.0
 11
217.94954
 21
4.482
 31
0.0
  0
LINE
  5
122D
330
1D
100
AcDbEntity
  8
0
100
AcDbLine
 10
217.68654
 20
2.94
 30
0.0
 11
217.94954
 21
4.482
 31
0.0
  0
LINE
  5
122E
330
1D
100
AcDbEntity
  8
0
100
AcDbLine
 10
203.07754
 20
2.115
 30
0.0
 11
205.01754
 21
0.939
 31
0.0
  0
LINE
  5
122F
330
1D
100
AcDbEntity
  8
0
100
AcDbLine
 10
202.04354
 20
3.545
 30
0.0
 11
203.07754
 21
2.115
 31
0.0
  0
LINE
  5
1230
330
1D
100
AcDbEntity
  8
0
100
AcDbLine
 10
202.04354
 20
3.545
 30
0.0
 11
202.30854
 21
5.09
 31
0.0
  0
LINE
  5
1231
330
1D
100
AcDbEntity
  8
0
100
AcDbLine
 10
215.64154
 20
559.854
 30
0.0
 11
217.64154
 21
525.453
 31
0.0
  0
LINE
  5
1232
330
1D
100
AcDbEntity
  8
0
100
AcDbLine
 10
199.84054
 20
557.051
 30
0.0
 11
201.64154
 21
525.449
 31
0.0
  0
LINE
  5
1233
330
1D
100
AcDbEntity
  8
0
100
AcDbLine
 10
211.94154
 20
584.252
 30
0.0
 11
215.64154
 21
559.854
 31
0.0
  0
LINE
  5
1234
330
1D
100
AcDbEntity
  8
0
100
AcDbLine
 10
196.94154
 20
578.747
 30
0.0
 11
199.84054
 21
557.051
 31
0.0
  0
LINE
  5
1235
330
1D
100
AcDbEntity
  8
0
100
AcDbLine
 10
206.84154
 20
609.65
 30
0.0
 11
211.94154
 21
584.252
 31
0.0
  0
LINE
  5
1236
330
1D
100
AcDbEntity
  8
0
100
AcDbLine
 10
192.34254
 20
602.954
 30
0.0
 11
196.94154
 21
578.747
 31
0.0
  0
LINE
  5
1237
330
1D
100
AcDbEntity
  8
0
100
AcDbLine
 10
200.04154
 20
635.357
 30
0.0
 11
206.84154
 21
609.65
 31
0.0
  0
LINE
  5
1238
330
1D
100
AcDbEntity
  8
0
100
AcDbLine
 10
186.14254
 20
627.351
 30
0.0
 11
192.34254
 21
602.954
 31
0.0
  0
LINE
  5
1239
330
1D
100
AcDbEntity
  8
0
100
AcDbLine
 10
178.24154
 20
650.147
 30
0.0
 11
186.14254
 21
627.351
 31
0.0
  0
LINE
  5
123A
330
1D
100
AcDbEntity
  8
0
100
AcDbLine
 10
170.76354
 20
667.625
 30
0.0
 11
173.10154
 21
668.975
 31
0.0
  0
LINE
  5
123B
330
1D
100
AcDbEntity
  8
0
100
AcDbLine
 10
188.19054
 20
666.330818551991
 30
0.0
 11
188.19054
 21
677.686242440902
 31
0.0
  0
LINE
  5
123D
330
1D
100
AcDbEntity
  8
0
100
AcDbLine
 10
173.10154
 20
668.975
 30
0.0
 11
175.78654
 21
670.525
 31
0.0
  0
LINE
  5
123E
330
1D
100
AcDbEntity
  8
0
100
AcDbLine
 10
190.69454
 20
668.637
 30
0.0
 11
192.23054
 21
664.925
 31
0.0
  0
LINE
  5
1241
330
1D
100
AcDbEntity
  8
0
100
AcDbLine
 10
175.78654
 20
670.525
 30
0.0
 11
178.73054
 21
672.225
 31
0.0
  0
LINE
  5
1244
330
1D
100
AcDbEntity
  8
0
100
AcDbLine
 10
192.23054
 20
664.925
 30
0.0
 11
192.80654
 21
660.893
 31
0.0
  0
LINE
  5
1245
330
1D
100
AcDbEntity
  8
0
100
AcDbLine
 10
192.265115364609
 20
657.103027552261
 30
0.0
 11
192.80654
 21
660.893
 31
0.0
  0
LINE
  5
124B
330
1D
100
AcDbEntity
  8
0
100
AcDbLine
 10
191.64254
 20
658.844
 30
0.0
 11
200.04154
 21
635.357
 31
0.0
  0
LINE
  5
124C
330
1D
100
AcDbEntity
  8
0
100
AcDbLine
 10
170.696252050104
 20
667.741546574245
 30
0.0
 11
178.24154
 21
650.147
 31
0.0
  0
LINE
  5
124D
330
1D
100
AcDbEntity
  8
0
100
AcDbLine
 10
167.55754
 20
671.64
 30
0.0
 11
167.90454
 21
671.84
 31
0.0
  0
LINE
  5
1266
330
1D
100
AcDbEntity
  8
0
100
AcDbLine
 10
166.19054
 20
673.756128412786
 30
0.0
 11
166.19054
 21
578.893
 31
0.0
  0
LINE
  5
126D
330
1D
100
AcDbEntity
  8
0
100
AcDbLine
 10
168.223605129815
 20
672.024312334296
 30
0.0
 11
170.696252050104
 21
667.741546574245
 31
0.0
  0
LINE
  5
127B
330
1D
100
AcDbEntity
  8
0
100
AcDbLine
 10
188.19854
 20
671.901
 30
0.0
 11
190.69454
 21
668.637
 31
0.0
  0
LINE
  5
1280
330
1D
100
AcDbEntity
  8
0
100
AcDbLine
 10
184.072706695237
 20
675.261719704977
 30
0.0
 11
185.20654
 21
674.809
 31
0.0
  0
LINE
  5
1282
330
1D
100
AcDbEntity
  8
0
100
AcDbLine
 10
181.67554
 20
673.925
 30
0.0
 11
184.35954
 21
675.475
 31
0.0
  0
LINE
  5
1283
330
1D
100
AcDbEntity
  8
0
100
AcDbLine
 10
178.73054
 20
672.225
 30
0.0
 11
181.67554
 21
673.925
 31
0.0
  0
LINE
  5
1284
330
1D
100
AcDbEntity
  8
0
100
AcDbLine
 10
184.091140000097
 20
675.320000000056
 30
0.0
 11
184.719386153392
 21
675.68269230743
 31
0.0
  0
LINE
  5
1285
330
1D
100
AcDbEntity
  8
0
100
AcDbLine
 10
184.091140000095
 20
675.320000000055
 30
0.0
 11
184.719386153393
 21
675.682692307431
 31
0.0
  0
LINE
  5
1286
330
1D
100
AcDbEntity
  8
0
100
AcDbLine
 10
186.406165000464
 20
676.656250000268
 30
0.0
 11
186.95854
 21
676.975
 31
0.0
  0
LINE
  5
1287
330
1D
100
AcDbEntity
  8
0
100
AcDbLine
 10
186.406165000462
 20
676.656250000266
 30
0.0
 11
186.95854
 21
676.975
 31
0.0
  0
LINE
  5
1288
330
1D
100
AcDbEntity
  8
0
100
AcDbLine
 10
188.19054
 20
677.686242440902
 30
0.0
 11
188.19054
 21
666.330818551991
 31
0.0
  0
LINE
  5
1289
330
1D
100
AcDbEntity
  8
0
100
AcDbLine
 10
186.95854
 20
676.975
 30
0.0
 11
187.60803999947
 21
677.349999999694
 31
0.0
  0
LINE
  5
128A
330
1D
100
AcDbEntity
  8
0
100
AcDbLine
 10
186.95854
 20
676.975
 30
0.0
 11
187.608039999471
 21
677.349999999695
 31
0.0
  0
LINE
  5
128B
330
1D
100
AcDbEntity
  8
0
100
AcDbLine
 10
186.69854
 20
676.825
 30
0.0
 11
188.51754
 21
677.875
 31
0.0
  0
LINE
  5
128C
330
1D
100
AcDbEntity
  8
0
100
AcDbLine
 10
184.35954
 20
675.475
 30
0.0
 11
186.69854
 21
676.825
 31
0.0
  0
LINE
  5
128D
330
1D
100
AcDbEntity
  8
0
100
AcDbLine
 10
188.19054
 20
681.8409708
 30
0.0
 11
188.19054
 21
887.293
 31
0.0
  0
LINE
  5
128E
330
1D
100
AcDbEntity
  8
0
100
AcDbLine
 10
188.51754
 20
677.875
 30
0.0
 11
189.55654
 21
678.475
 31
0.0
  0
LINE
  5
128F
330
1D
100
AcDbEntity
  8
0
100
AcDbLine
 10
189.55654
 20
678.475
 30
0.0
 11
189.98954
 21
678.725
 31
0.0
  0
LINE
  5
1290
330
1D
100
AcDbEntity
  8
0
100
AcDbLine
 10
184.05536169029
 20
675.299338159445
 30
0.0
 11
191.64254
 21
658.844
 31
0.0
  0
LINE
  5
1291
330
1D
100
AcDbEntity
  8
0
100
AcDbLine
 10
166.19054
 20
722.95055375371
 30
0.0
 11
166.19054
 21
887.293
 31
0.0
  0
LINE
  5
1292
330
1D
100
AcDbEntity
  8
0
100
AcDbLine
 10
166.19054
 20
887.293
 30
0.0
 11
166.19054
 21
722.95055375371
 31
0.0
  0
LINE
  5
1293
330
1D
100
AcDbEntity
  8
0
100
AcDbLine
 10
166.19054
 20
887.293
 30
0.0
 11
166.45454
 21
887.893
 31
0.0
  0
LINE
  5
1294
330
1D
100
AcDbEntity
  8
0
100
AcDbLine
 10
166.45454
 20
887.893
 30
0.0
 11
166.85054
 21
887.893
 31
0.0
  0
LINE
  5
1295
330
1D
100
AcDbEntity
  8
0
100
AcDbLine
 10
166.19054
 20
888.278
 30
0.0
 11
166.58654
 21
888.278
 31
0.0
  0
LINE
  5
1296
330
1D
100
AcDbEntity
  8
0
100
AcDbLine
 10
166.19054
 20
888.278
 30
0.0
 11
166.45454
 21
887.893
 31
0.0
  0
LINE
  5
1297
330
1D
100
AcDbEntity
  8
0
100
AcDbLine
 10
166.19054
 20
888.278
 30
0.0
 11
166.19054
 21
957.508
 31
0.0
  0
LINE
  5
1298
330
1D
100
AcDbEntity
  8
0
100
AcDbLine
 10
166.85054
 20
887.893
 30
0.0
 11
167.90654
 21
887.893
 31
0.0
  0
LINE
  5
1299
330
1D
100
AcDbEntity
  8
0
100
AcDbLine
 10
166.58654
 20
888.278
 30
0.0
 11
167.64254
 21
888.278
 31
0.0
  0
LINE
  5
129B
330
1D
100
AcDbEntity
  8
0
100
AcDbLine
 10
167.90654
 20
887.893
 30
0.0
 11
169.62254
 21
887.893
 31
0.0
  0
LINE
  5
129C
330
1D
100
AcDbEntity
  8
0
100
AcDbLine
 10
167.64254
 20
888.278
 30
0.0
 11
169.40254
 21
888.278
 31
0.0
  0
LINE
  5
129D
330
1D
100
AcDbEntity
  8
0
100
AcDbLine
 10
169.62254
 20
887.893
 30
0.0
 11
171.86654
 21
887.893
 31
0.0
  0
LINE
  5
129E
330
1D
100
AcDbEntity
  8
0
100
AcDbLine
 10
166.19054
 20
957.508
 30
0.0
 11
166.19054
 21
888.278
 31
0.0
  0
LINE
  5
129F
330
1D
100
AcDbEntity
  8
0
100
AcDbLine
 10
166.19054
 20
957.508
 30
0.0
 11
166.58654
 21
957.508
 31
0.0
  0
LINE
  5
12A0
330
1D
100
AcDbEntity
  8
0
100
AcDbLine
 10
166.19054
 20
957.508
 30
0.0
 11
166.45454
 21
957.893
 31
0.0
  0
LINE
  5
12A1
330
1D
100
AcDbEntity
  8
0
100
AcDbLine
 10
166.58654
 20
957.508
 30
0.0
 11
167.64254
 21
957.508
 31
0.0
  0
LINE
  5
12A2
330
1D
100
AcDbEntity
  8
0
100
AcDbLine
 10
166.45454
 20
957.893
 30
0.0
 11
166.85054
 21
957.893
 31
0.0
  0
LINE
  5
12A3
330
1D
100
AcDbEntity
  8
0
100
AcDbLine
 10
166.85054
 20
957.893
 30
0.0
 11
167.90654
 21
957.893
 31
0.0
  0
LINE
  5
12A4
330
1D
100
AcDbEntity
  8
0
100
AcDbLine
 10
167.90654
 20
957.893
 30
0.0
 11
169.62254
 21
957.893
 31
0.0
  0
LINE
  5
12A5
330
1D
100
AcDbEntity
  8
0
100
AcDbLine
 10
167.64254
 20
957.508
 30
0.0
 11
169.40254
 21
957.508
 31
0.0
  0
LINE
  5
12A6
330
1D
100
AcDbEntity
  8
0
100
AcDbLine
 10
169.62254
 20
957.893
 30
0.0
 11
171.86654
 21
957.893
 31
0.0
  0
LINE
  5
12A7
330
1D
100
AcDbEntity
  8
0
100
AcDbLine
 10
169.40254
 20
957.508
 30
0.0
 11
171.73454
 21
957.508
 31
0.0
  0
LINE
  5
12A8
330
1D
100
AcDbEntity
  8
0
100
AcDbLine
 10
169.40254
 20
888.278
 30
0.0
 11
171.73454
 21
888.278
 31
0.0
  0
LINE
  5
12B0
330
1D
100
AcDbEntity
  8
0
100
AcDbLine
 10
171.73454
 20
957.508
 30
0.0
 11
174.37454
 21
957.508
 31
0.0
  0
LINE
  5
12B4
330
1D
100
AcDbEntity
  8
0
100
AcDbLine
 10
171.86654
 20
957.893
 30
0.0
 11
174.41854
 21
957.893
 31
0.0
  0
LINE
  5
12B5
330
1D
100
AcDbEntity
  8
0
100
AcDbLine
 10
171.86654
 20
887.893
 30
0.0
 11
174.41854
 21
887.893
 31
0.0
  0
LINE
  5
12B6
330
1D
100
AcDbEntity
  8
0
100
AcDbLine
 10
171.73454
 20
888.278
 30
0.0
 11
174.37454
 21
888.278
 31
0.0
  0
LINE
  5
12B8
330
1D
100
AcDbEntity
  8
0
100
AcDbLine
 10
212.19054
 20
887.893
 30
0.0
 11
212.19054
 21
932.893
 31
0.0
  0
LINE
  5
12B9
330
1D
100
AcDbEntity
  8
0
100
AcDbLine
 10
187.92654
 20
887.893
 30
0.0
 11
188.19054
 21
887.293
 31
0.0
  0
LINE
  5
12BA
330
1D
100
AcDbEntity
  8
0
100
AcDbLine
 10
187.92654
 20
887.893
 30
0.0
 11
212.19054
 21
887.893
 31
0.0
  0
LINE
  5
12BB
330
1D
100
AcDbEntity
  8
0
100
AcDbLine
 10
187.53054
 20
887.893
 30
0.0
 11
187.92654
 21
887.893
 31
0.0
  0
LINE
  5
12BC
330
1D
100
AcDbEntity
  8
0
100
AcDbLine
 10
186.47454
 20
887.893
 30
0.0
 11
187.53054
 21
887.893
 31
0.0
  0
LINE
  5
12BD
330
1D
100
AcDbEntity
  8
0
100
AcDbLine
 10
184.75854
 20
887.893
 30
0.0
 11
186.47454
 21
887.893
 31
0.0
  0
LINE
  5
12BE
330
1D
100
AcDbEntity
  8
0
100
AcDbLine
 10
182.51454
 20
887.893
 30
0.0
 11
184.75854
 21
887.893
 31
0.0
  0
LINE
  5
12BF
330
1D
100
AcDbEntity
  8
0
100
AcDbLine
 10
179.96254
 20
887.893
 30
0.0
 11
182.51454
 21
887.893
 31
0.0
  0
LINE
  5
12C0
330
1D
100
AcDbEntity
  8
0
100
AcDbLine
 10
179.96254
 20
887.893
 30
0.0
 11
212.19054
 21
887.893
 31
0.0
  0
LINE
  5
12C1
330
1D
100
AcDbEntity
  8
0
100
AcDbLine
 10
180.00654
 20
888.278
 30
0.0
 11
182.64654
 21
888.278
 31
0.0
  0
LINE
  5
12C2
330
1D
100
AcDbEntity
  8
0
100
AcDbLine
 10
177.19054
 20
887.893
 30
0.0
 11
179.96254
 21
887.893
 31
0.0
  0
LINE
  5
12C3
330
1D
100
AcDbEntity
  8
0
100
AcDbLine
 10
177.19054
 20
888.278
 30
0.0
 11
180.00654
 21
888.278
 31
0.0
  0
LINE
  5
12C4
330
1D
100
AcDbEntity
  8
0
100
AcDbLine
 10
174.41854
 20
887.893
 30
0.0
 11
177.19054
 21
887.893
 31
0.0
  0
LINE
  5
12C5
330
1D
100
AcDbEntity
  8
0
100
AcDbLine
 10
177.19054
 20
957.893
 30
0.0
 11
179.96254
 21
957.893
 31
0.0
  0
LINE
  5
12C6
330
1D
100
AcDbEntity
  8
0
100
AcDbLine
 10
180.945202429583
 20
932.893
 30
0.0
 11
212.19054
 21
932.893
 31
0.0
  0
LINE
  5
12C7
330
1D
100
AcDbEntity
  8
0
100
AcDbLine
 10
212.19054
 20
932.893
 30
0.0
 11
212.19054
 21
887.893
 31
0.0
  0
LINE
  5
12C8
330
1D
100
AcDbEntity
  8
0
100
AcDbLine
 10
188.19054
 20
957.508
 30
0.0
 11
188.19054
 21
932.893
 31
0.0
  0
LINE
  5
12C9
330
1D
100
AcDbEntity
  8
0
100
AcDbLine
 10
187.79454
 20
957.508
 30
0.0
 11
188.19054
 21
957.508
 31
0.0
  0
LINE
  5
12CA
330
1D
100
AcDbEntity
  8
0
100
AcDbLine
 10
188.19054
 20
932.893
 30
0.0
 11
188.19054
 21
957.508
 31
0.0
  0
LINE
  5
12CB
330
1D
100
AcDbEntity
  8
0
100
AcDbLine
 10
186.73854
 20
957.508
 30
0.0
 11
187.79454
 21
957.508
 31
0.0
  0
LINE
  5
12CC
330
1D
100
AcDbEntity
  8
0
100
AcDbLine
 10
184.97854
 20
957.508
 30
0.0
 11
186.73854
 21
957.508
 31
0.0
  0
LINE
  5
12CD
330
1D
100
AcDbEntity
  8
0
100
AcDbLine
 10
182.64654
 20
957.508
 30
0.0
 11
184.97854
 21
957.508
 31
0.0
  0
LINE
  5
12CE
330
1D
100
AcDbEntity
  8
0
100
AcDbLine
 10
187.92654
 20
957.893
 30
0.0
 11
188.19054
 21
957.508
 31
0.0
  0
LINE
  5
12CF
330
1D
100
AcDbEntity
  8
0
100
AcDbLine
 10
187.53054
 20
957.893
 30
0.0
 11
187.92654
 21
957.893
 31
0.0
  0
LINE
  5
12D0
330
1D
100
AcDbEntity
  8
0
100
AcDbLine
 10
186.47454
 20
957.893
 30
0.0
 11
187.53054
 21
957.893
 31
0.0
  0
LINE
  5
12D1
330
1D
100
AcDbEntity
  8
0
100
AcDbLine
 10
184.75854
 20
957.893
 30
0.0
 11
186.47454
 21
957.893
 31
0.0
  0
LINE
  5
12D2
330
1D
100
AcDbEntity
  8
0
100
AcDbLine
 10
182.51454
 20
957.893
 30
0.0
 11
184.75854
 21
957.893
 31
0.0
  0
LINE
  5
12D3
330
1D
100
AcDbEntity
  8
0
100
AcDbLine
 10
179.96254
 20
957.893
 30
0.0
 11
182.51454
 21
957.893
 31
0.0
  0
LINE
  5
12D4
330
1D
100
AcDbEntity
  8
0
100
AcDbLine
 10
180.00654
 20
957.508
 30
0.0
 11
182.64654
 21
957.508
 31
0.0
  0
LINE
  5
12D5
330
1D
100
AcDbEntity
  8
0
100
AcDbLine
 10
177.19054
 20
957.508
 30
0.0
 11
180.00654
 21
957.508
 31
0.0
  0
LINE
  5
12D6
330
1D
100
AcDbEntity
  8
0
100
AcDbLine
 10
174.41854
 20
957.893
 30
0.0
 11
177.19054
 21
957.893
 31
0.0
  0
LINE
  5
12D7
330
1D
100
AcDbEntity
  8
0
100
AcDbLine
 10
174.37454
 20
957.508
 30
0.0
 11
177.19054
 21
957.508
 31
0.0
  0
LINE
  5
12D8
330
1D
100
AcDbEntity
  8
0
100
AcDbLine
 10
174.37454
 20
888.278
 30
0.0
 11
177.19054
 21
888.278
 31
0.0
  0
LINE
  5
12D9
330
1D
100
AcDbEntity
  8
0
100
AcDbLine
 10
172.48954
 20
709.036
 30
0.0
 11
189.98954
 21
678.725
 31
0.0
  0
LINE
  5
12DE
330
1D
100
AcDbEntity
  8
0
100
AcDbLine
 10
167.90454
 20
671.84
 30
0.0
 11
168.223605129815
 21
672.024312334296
 31
0.0
  0
LINE
  5
1843
330
1D
100
AcDbEntity
  8
0
100
AcDbLine
 10
148.693129938692
 20
697.217976103873
 30
0.0
 11
149.581674450176
 21
696.710288323966
 31
0.0
  0
LINE
  5
1844
330
1D
100
AcDbEntity
  8
0
100
AcDbLine
 10
149.581674450176
 20
696.710288323966
 30
0.0
 11
150.590750537252
 21
696.522041274726
 31
0.0
  0
LINE
  5
1845
330
1D
100
AcDbEntity
  8
0
100
AcDbLine
 10
148.217072514161
 20
697.680522131288
 30
0.0
 11
148.693129938692
 21
697.217976103873
 31
0.0
  0
LINE
  5
1846
330
1D
100
AcDbEntity
  8
0
100
AcDbLine
 10
148.217072514161
 20
697.680522131288
 30
0.0
 11
148.693129938692
 21
697.217976103873
 31
0.0
  0
LINE
  5
1847
330
1D
100
AcDbEntity
  8
0
100
AcDbLine
 10
148.693129938692
 20
697.217976103873
 30
0.0
 11
149.581674450176
 21
696.710288323966
 31
0.0
  0
LINE
  5
1848
330
1D
100
AcDbEntity
  8
0
100
AcDbLine
 10
147.4704020118
 20
698.778889928344
 30
0.0
 11
148.217072514161
 21
697.680522131288
 31
0.0
  0
LINE
  5
1849
330
1D
100
AcDbEntity
  8
0
100
AcDbLine
 10
147.4704020118
 20
698.778889928344
 30
0.0
 11
148.217072514161
 21
697.680522131288
 31
0.0
  0
LINE
  5
184A
330
1D
100
AcDbEntity
  8
0
100
AcDbLine
 10
145.119191921846
 20
702.930912362763
 30
0.0
 11
145.124607638386
 21
702.781794179719
 31
0.0
  0
LINE
  5
184B
330
1D
100
AcDbEntity
  8
0
100
AcDbLine
 10
151.678876256609
 20
696.689363511664
 30
0.0
 11
151.813024874495
 21
696.762115074666
 31
0.0
  0
LINE
  5
184C
330
1D
100
AcDbEntity
  8
0
100
AcDbLine
 10
145.153047122794
 20
702.714564988689
 30
0.0
 11
147.4704020118
 21
698.778889928344
 31
0.0
  0
LINE
  5
184D
330
1D
100
AcDbEntity
  8
0
100
AcDbLine
 10
145.153047122794
 20
702.714564988689
 30
0.0
 11
147.4704020118
 21
698.778889928344
 31
0.0
  0
LINE
  5
184E
330
1D
100
AcDbEntity
  8
0
100
AcDbLine
 10
145.124607638386
 20
702.781794179719
 30
0.0
 11
145.167401697306
 21
702.730116380607
 31
0.0
  0
LINE
  5
184F
330
1D
100
AcDbEntity
  8
0
100
AcDbLine
 10
150.590750537252
 20
696.522041274726
 30
0.0
 11
151.678876256609
 21
696.689363511664
 31
0.0
  0
LINE
  5
1850
330
1D
100
AcDbEntity
  8
0
100
AcDbLine
 10
151.813024874495
 20
696.762115074666
 30
0.0
 11
152.137655103002
 21
696.940527322955
 31
0.0
  0
LINE
  5
1851
330
1D
100
AcDbEntity
  8
0
100
AcDbLine
 10
145.186986973919
 20
703.064601969744
 30
0.0
 11
145.463515666043
 21
703.38326596525
 31
0.0
  0
LINE
  5
1852
330
1D
100
AcDbEntity
  8
0
100
AcDbLine
 10
145.186986973919
 20
703.064601969744
 30
0.0
 11
145.119191921846
 21
702.930912362763
 31
0.0
  0
LINE
  5
1853
330
1D
100
AcDbEntity
  8
0
100
AcDbLine
 10
152.137655103002
 20
696.940527322955
 30
0.0
 11
152.640574845051
 21
697.225627519303
 31
0.0
  0
LINE
  5
1854
330
1D
100
AcDbEntity
  8
0
100
AcDbLine
 10
152.640574845051
 20
697.225627519303
 30
0.0
 11
153.296938561841
 21
697.608030313332
 31
0.0
  0
LINE
  5
1855
330
1D
100
AcDbEntity
  8
0
100
AcDbLine
 10
152.137655103002
 20
696.940527322955
 30
0.0
 11
152.640574845051
 21
697.225627519303
 31
0.0
  0
LINE
  5
1856
330
1D
100
AcDbEntity
  8
0
100
AcDbLine
 10
-0.348243214986
 20
897.054877694811
 30
0.0
 11
-1.717093055533
 21
895.017502060806
 31
0.0
  0
LINE
  5
1857
330
1D
100
AcDbEntity
  8
0
100
AcDbLine
 10
0.24468266025
 20
897.691491664557
 30
0.0
 11
0.623223699392
 21
897.898370667081
 31
0.0
  0
LINE
  5
1858
330
1D
100
AcDbEntity
  8
0
100
AcDbLine
 10
0.24468266025
 20
897.691491664557
 30
0.0
 11
0.623223699392
 21
897.898370667081
 31
0.0
  0
LINE
  5
1859
330
1D
100
AcDbEntity
  8
0
100
AcDbLine
 10
-0.348243214986
 20
897.054877694811
 30
0.0
 11
0.24468266025
 21
897.691491664557
 31
0.0
  0
LINE
  5
185A
330
1D
100
AcDbEntity
  8
0
100
AcDbLine
 10
-0.348243214986
 20
897.054877694811
 30
0.0
 11
-1.717093055533
 21
895.017502060806
 31
0.0
  0
LINE
  5
185B
330
1D
100
AcDbEntity
  8
0
100
AcDbLine
 10
-4.021820340297
 20
888.695610555492
 30
0.0
 11
-4.027191500216
 21
888.563180269148
 31
0.0
  0
LINE
  5
185C
330
1D
100
AcDbEntity
  8
0
100
AcDbLine
 10
-3.822351402636
 20
888.899102454369
 30
0.0
 11
-3.674558476479
 21
888.905630193473
 31
0.0
  0
LINE
  5
185D
330
1D
100
AcDbEntity
  8
0
100
AcDbLine
 10
-3.948219559053
 20
888.823788927694
 30
0.0
 11
-3.822351402636
 21
888.899102454369
 31
0.0
  0
LINE
  5
185E
330
1D
100
AcDbEntity
  8
0
100
AcDbLine
 10
-3.948219559053
 20
888.823788927694
 30
0.0
 11
-4.021820340297
 21
888.695610555492
 31
0.0
  0
LINE
  5
185F
330
1D
100
AcDbEntity
  8
0
100
AcDbLine
 10
-4.027191500216
 20
888.563180269148
 30
0.0
 11
-3.757593207707
 21
887.253080769005
 31
0.0
  0
LINE
  5
1860
330
1D
100
AcDbEntity
  8
0
100
AcDbLine
 10
-3.757593207707
 20
887.253080769005
 30
0.0
 11
-1.652978327704
 21
883.237490817719
 31
0.0
  0
LINE
  5
1861
330
1D
100
AcDbEntity
  8
0
100
AcDbLine
 10
-3.757593207707
 20
887.253080769005
 30
0.0
 11
-1.652978327704
 21
883.237490817719
 31
0.0
  0
LINE
  5
1862
330
1D
100
AcDbEntity
  8
0
100
AcDbLine
 10
-1.81244439969
 20
882.814803612464
 30
0.0
 11
4.776814107351
 21
872.237227078712
 31
0.0
  0
LINE
  5
1863
330
1D
100
AcDbEntity
  8
0
100
AcDbLine
 10
-1.683257401769
 20
883.170866763701
 30
0.0
 11
-1.81244439969
 21
882.814803612464
 31
0.0
  0
LINE
  5
1864
330
1D
100
AcDbEntity
  8
0
100
AcDbLine
 10
-1.652978327704
 20
883.237490817719
 30
0.0
 11
-1.561803718084
 21
883.160986236414
 31
0.0
  0
LINE
  5
1865
330
1D
100
AcDbEntity
  8
0
100
AcDbLine
 10
4.430761593165
 20
873.633129008894
 30
0.0
 11
4.547408798513
 21
873.279912716115
 31
0.0
  0
LINE
  5
1866
330
1D
100
AcDbEntity
  8
0
100
AcDbLine
 10
4.547408798513
 20
873.279912716115
 30
0.0
 11
5.350065469029
 21
871.797573443453
 31
0.0
  0
LINE
  5
1867
330
1D
100
AcDbEntity
  8
0
100
AcDbLine
 10
4.503758092521
 20
873.528146529014
 30
0.0
 11
5.039473373752
 21
872.465869852505
 31
0.0
  0
LINE
  5
1868
330
1D
100
AcDbEntity
  8
0
100
AcDbLine
 10
4.52027834245
 20
873.993238327848
 30
0.0
 11
5.119248684761
 21
873.66426170401
 31
0.0
  0
LINE
  5
1869
330
1D
100
AcDbEntity
  8
0
100
AcDbLine
 10
4.88518168163
 20
873.792819943046
 30
0.0
 11
4.943699398378
 21
873.804776927563
 31
0.0
  0
LINE
  5
186A
330
1D
100
AcDbEntity
  8
0
100
AcDbLine
 10
4.419367264949
 20
873.674933545544
 30
0.0
 11
4.503758092521
 21
873.528146529014
 31
0.0
  0
LINE
  5
186B
330
1D
100
AcDbEntity
  8
0
100
AcDbLine
 10
4.435788588242
 20
873.643009257904
 30
0.0
 11
4.690816359351
 21
873.157226301493
 31
0.0
  0
LINE
  5
186C
330
1D
100
AcDbEntity
  8
0
100
AcDbLine
 10
5.401944117784
 20
873.147694910508
 30
0.0
 11
5.548448055064
 21
872.254442669335
 31
0.0
  0
LINE
  5
186D
330
1D
100
AcDbEntity
  8
0
100
AcDbLine
 10
5.187199252719
 20
873.540096249226
 30
0.0
 11
5.562794547936
 21
873.210886200414
 31
0.0
  0
LINE
  5
186E
330
1D
100
AcDbEntity
  8
0
100
AcDbLine
 10
5.662842372844
 20
871.463716680095
 30
0.0
 11
5.99457199639
 21
871.402451707543
 31
0.0
  0
LINE
  5
186F
330
1D
100
AcDbEntity
  8
0
100
AcDbLine
 10
5.662842372844
 20
871.463716680095
 30
0.0
 11
5.712333658132
 21
871.474241279898
 31
0.0
  0
LINE
  5
1870
330
1D
100
AcDbEntity
  8
0
100
AcDbLine
 10
5.537142717951
 20
871.518802492786
 30
0.0
 11
5.662842372844
 21
871.463716680095
 31
0.0
  0
LINE
  5
1871
330
1D
100
AcDbEntity
  8
0
100
AcDbLine
 10
5.537142717951
 20
871.518802492786
 30
0.0
 11
5.99457199639
 21
871.402451707543
 31
0.0
  0
LINE
  5
1872
330
1D
100
AcDbEntity
  8
0
100
AcDbLine
 10
5.551120178422
 20
872.44080428177
 30
0.0
 11
5.602207579683
 21
872.438301510604
 31
0.0
  0
LINE
  5
1873
330
1D
100
AcDbEntity
  8
0
100
AcDbLine
 10
5.550919196899
 20
872.427546843228
 30
0.0
 11
5.602207579683
 21
872.438301510604
 31
0.0
  0
LINE
  5
1874
330
1D
100
AcDbEntity
  8
0
100
AcDbLine
 10
5.602207579683
 20
872.438301510604
 30
0.0
 11
5.548762314977
 21
872.285271428089
 31
0.0
  0
LINE
  5
1875
330
1D
100
AcDbEntity
  8
0
100
AcDbLine
 10
5.039473373752
 20
872.465869852505
 30
0.0
 11
5.537142717951
 21
871.518802492786
 31
0.0
  0
LINE
  5
1876
330
1D
100
AcDbEntity
  8
0
100
AcDbLine
 10
5.548448055064
 20
872.254442669335
 30
0.0
 11
5.537142717951
 21
871.518802492786
 31
0.0
  0
LINE
  5
1877
330
1D
100
AcDbEntity
  8
0
100
AcDbLine
 10
5.548448055064
 20
872.254442669335
 30
0.0
 11
5.99457199639
 21
871.402451707543
 31
0.0
  0
LINE
  5
1878
330
1D
100
AcDbEntity
  8
0
100
AcDbLine
 10
5.715215642912
 20
872.359817986119
 30
0.0
 11
6.00087431813
 21
871.83343054779
 31
0.0
  0
LINE
  5
1879
330
1D
100
AcDbEntity
  8
0
100
AcDbLine
 10
5.350065469029
 20
871.797573443453
 30
0.0
 11
5.40382005275
 21
871.772516220573
 31
0.0
  0
LINE
  5
187A
330
1D
100
AcDbEntity
  8
0
100
AcDbLine
 10
5.932468722287
 20
871.521054237765
 30
0.0
 11
6.160179278741
 21
871.569478166621
 31
0.0
  0
LINE
  5
187B
330
1D
100
AcDbEntity
  8
0
100
AcDbLine
 10
5.99457199639
 20
871.402451707543
 30
0.0
 11
6.160179278741
 21
871.569478166621
 31
0.0
  0
LINE
  5
187C
330
1D
100
AcDbEntity
  8
0
100
AcDbLine
 10
5.966532180264
 20
871.795869705412
 30
0.0
 11
6.061805218373
 21
871.742227448086
 31
0.0
  0
LINE
  5
187D
330
1D
100
AcDbEntity
  8
0
100
AcDbLine
 10
6.061805218373
 20
871.742227448086
 30
0.0
 11
6.05996395665
 21
871.548166815479
 31
0.0
  0
LINE
  5
187E
330
1D
100
AcDbEntity
  8
0
100
AcDbLine
 10
5.853374196535
 20
871.672106030384
 30
0.0
 11
6.00087431813
 21
871.83343054779
 31
0.0
  0
LINE
  5
187F
330
1D
100
AcDbEntity
  8
0
100
AcDbLine
 10
5.630034294387
 20
872.253762904112
 30
0.0
 11
5.637031274283
 21
872.085269721754
 31
0.0
  0
LINE
  5
1880
330
1D
100
AcDbEntity
  8
0
100
AcDbLine
 10
6.191904879576
 20
869.898764423574
 30
0.0
 11
6.073724885623
 21
869.755989604547
 31
0.0
  0
LINE
  5
1881
330
1D
100
AcDbEntity
  8
0
100
AcDbLine
 10
6.030586461525
 20
869.909934777795
 30
0.0
 11
6.071544925715
 21
869.818563500166
 31
0.0
  0
LINE
  5
1882
330
1D
100
AcDbEntity
  8
0
100
AcDbLine
 10
6.030586461525
 20
869.909934777795
 30
0.0
 11
6.072510402151
 21
869.790850319986
 31
0.0
  0
LINE
  5
1883
330
1D
100
AcDbEntity
  8
0
100
AcDbLine
 10
6.412450322062
 20
868.998163451191
 30
0.0
 11
7.194696714768
 21
867.764529688238
 31
0.0
  0
LINE
  5
1884
330
1D
100
AcDbEntity
  8
0
100
AcDbLine
 10
6.412450322062
 20
868.998163451191
 30
0.0
 11
6.549223666237
 21
869.029807356144
 31
0.0
  0
LINE
  5
1885
330
1D
100
AcDbEntity
  8
0
100
AcDbLine
 10
6.412450322062
 20
868.998163451191
 30
0.0
 11
6.510863770258
 21
869.105001695915
 31
0.0
  0
LINE
  5
1886
330
1D
100
AcDbEntity
  8
0
100
AcDbLine
 10
6.826450403988
 20
868.704819996918
 30
0.0
 11
7.269582370339
 21
869.185941250239
 31
0.0
  0
LINE
  5
1887
330
1D
100
AcDbEntity
  8
0
100
AcDbLine
 10
6.826450403988
 20
868.704819996918
 30
0.0
 11
7.194696714768
 21
867.764529688238
 31
0.0
  0
LINE
  5
1888
330
1D
100
AcDbEntity
  8
0
100
AcDbLine
 10
6.366147803694
 20
869.388678731075
 30
0.0
 11
6.412450322062
 21
868.998163451191
 31
0.0
  0
LINE
  5
1889
330
1D
100
AcDbEntity
  8
0
100
AcDbLine
 10
6.421011615706
 20
869.281132867972
 30
0.0
 11
6.412450322062
 21
868.998163451191
 31
0.0
  0
LINE
  5
188A
330
1D
100
AcDbEntity
  8
0
100
AcDbLine
 10
6.339587937619
 20
869.440742261047
 30
0.0
 11
6.826450403988
 21
868.704819996918
 31
0.0
  0
LINE
  5
188B
330
1D
100
AcDbEntity
  8
0
100
AcDbLine
 10
6.339587937619
 20
869.440742261047
 30
0.0
 11
7.194696714768
 21
867.764529688238
 31
0.0
  0
LINE
  5
188C
330
1D
100
AcDbEntity
  8
0
100
AcDbLine
 10
6.152046430677
 20
869.386501748751
 30
0.0
 11
6.412450322062
 21
868.998163451191
 31
0.0
  0
LINE
  5
188D
330
1D
100
AcDbEntity
  8
0
100
AcDbLine
 10
6.152046430677
 20
869.386501748751
 30
0.0
 11
6.215099704405
 21
869.439693502827
 31
0.0
  0
LINE
  5
188E
330
1D
100
AcDbEntity
  8
0
100
AcDbLine
 10
6.073724885623
 20
869.755989604547
 30
0.0
 11
6.152046430677
 21
869.386501748751
 31
0.0
  0
LINE
  5
188F
330
1D
100
AcDbEntity
  8
0
100
AcDbLine
 10
6.073724885623
 20
869.755989604547
 30
0.0
 11
6.225370891046
 21
869.79497340551
 31
0.0
  0
LINE
  5
1890
330
1D
100
AcDbEntity
  8
0
100
AcDbLine
 10
6.073724885623
 20
869.755989604547
 30
0.0
 11
6.412450322062
 21
868.998163451191
 31
0.0
  0
LINE
  5
1891
330
1D
100
AcDbEntity
  8
0
100
AcDbLine
 10
6.034060331383
 20
872.783856398934
 30
0.0
 11
6.004703106722
 21
872.720244502561
 31
0.0
  0
LINE
  5
1892
330
1D
100
AcDbEntity
  8
0
100
AcDbLine
 10
6.02427326642
 20
872.841577014491
 30
0.0
 11
6.034060331383
 21
872.783856398934
 31
0.0
  0
LINE
  5
1893
330
1D
100
AcDbEntity
  8
0
100
AcDbLine
 10
6.004703106722
 20
872.720244502561
 30
0.0
 11
5.580861621394
 21
872.192540442187
 31
0.0
  0
LINE
  5
1894
330
1D
100
AcDbEntity
  8
0
100
AcDbLine
 10
6.009644091434
 20
870.336733677278
 30
0.0
 11
6.030586461525
 21
869.909934777795
 31
0.0
  0
LINE
  5
1895
330
1D
100
AcDbEntity
  8
0
100
AcDbLine
 10
7.269582370339
 20
869.185941250239
 30
0.0
 11
7.791836599895
 21
868.152582735632
 31
0.0
  0
LINE
  5
1896
330
1D
100
AcDbEntity
  8
0
100
AcDbLine
 10
6.174961252153
 20
869.951313151749
 30
0.0
 11
6.073724885623
 21
869.755989604547
 31
0.0
  0
LINE
  5
1897
330
1D
100
AcDbEntity
  8
0
100
AcDbLine
 10
6.174961252153
 20
869.951313151749
 30
0.0
 11
6.339587937619
 21
869.440742261047
 31
0.0
  0
LINE
  5
1898
330
1D
100
AcDbEntity
  8
0
100
AcDbLine
 10
5.562794547936
 20
873.210886200414
 30
0.0
 11
5.782615200293
 21
873.125776266814
 31
0.0
  0
LINE
  5
1899
330
1D
100
AcDbEntity
  8
0
100
AcDbLine
 10
5.562794547936
 20
873.210886200414
 30
0.0
 11
5.54830790794
 21
872.255297163317
 31
0.0
  0
LINE
  5
189A
330
1D
100
AcDbEntity
  8
0
100
AcDbLine
 10
5.562794547936
 20
873.210886200414
 30
0.0
 11
5.423989838002
 21
873.013279485514
 31
0.0
  0
LINE
  5
189B
330
1D
100
AcDbEntity
  8
0
100
AcDbLine
 10
4.943699398378
 20
873.804776927563
 30
0.0
 11
5.011345625125
 21
873.756891773216
 31
0.0
  0
LINE
  5
189C
330
1D
100
AcDbEntity
  8
0
100
AcDbLine
 10
5.121106863869
 20
873.660866270227
 30
0.0
 11
5.18669121831
 21
873.590308782035
 31
0.0
  0
LINE
  5
189D
330
1D
100
AcDbEntity
  8
0
100
AcDbLine
 10
5.113350142549
 20
873.669211168604
 30
0.0
 11
5.644244902344
 21
873.261594382857
 31
0.0
  0
LINE
  5
189E
330
1D
100
AcDbEntity
  8
0
100
AcDbLine
 10
4.966292536531
 20
873.795609588342
 30
0.0
 11
5.045668248098
 21
873.755635766744
 31
0.0
  0
LINE
  5
189F
330
1D
100
AcDbEntity
  8
0
100
AcDbLine
 10
5.294304005558
 20
873.527206137395
 30
0.0
 11
5.644244902344
 21
873.261594382857
 31
0.0
  0
LINE
  5
18A0
330
1D
100
AcDbEntity
  8
0
100
AcDbLine
 10
4.969546900242
 20
873.792487230765
 30
0.0
 11
5.045668248098
 21
873.755635766744
 31
0.0
  0
LINE
  5
18A1
330
1D
100
AcDbEntity
  8
0
100
AcDbLine
 10
5.045668248098
 20
873.755635766744
 30
0.0
 11
5.194204265619
 21
873.630999249225
 31
0.0
  0
LINE
  5
18A2
330
1D
100
AcDbEntity
  8
0
100
AcDbLine
 10
5.658657011482
 20
873.241277121472
 30
0.0
 11
5.801830717901
 21
873.121140117222
 31
0.0
  0
LINE
  5
18A3
330
1D
100
AcDbEntity
  8
0
100
AcDbLine
 10
5.093163003572
 20
873.715782934943
 30
0.0
 11
5.585289368976
 21
873.463274439098
 31
0.0
  0
LINE
  5
18A4
330
1D
100
AcDbEntity
  8
0
100
AcDbLine
 10
5.093163003572
 20
873.715782934943
 30
0.0
 11
5.528912592457
 21
873.350145615623
 31
0.0
  0
LINE
  5
18A5
330
1D
100
AcDbEntity
  8
0
100
AcDbLine
 10
5.093163003572
 20
873.715782934943
 30
0.0
 11
5.531717221118
 21
873.347992243983
 31
0.0
  0
LINE
  5
18A6
330
1D
100
AcDbEntity
  8
0
100
AcDbLine
 10
5.700032868104
 20
873.206835402644
 30
0.0
 11
5.951938451702
 21
872.995576395339
 31
0.0
  0
LINE
  5
18A7
330
1D
100
AcDbEntity
  8
0
100
AcDbLine
 10
5.644244902344
 20
873.261594382857
 30
0.0
 11
5.951938451702
 21
872.995576395339
 31
0.0
  0
LINE
  5
18A8
330
1D
100
AcDbEntity
  8
0
100
AcDbLine
 10
5.644244902344
 20
873.261594382857
 30
0.0
 11
5.801830717901
 21
873.121140117222
 31
0.0
  0
LINE
  5
18A9
330
1D
100
AcDbEntity
  8
0
100
AcDbLine
 10
5.194204265619
 20
873.630999249225
 30
0.0
 11
5.264629818651
 21
873.553059833178
 31
0.0
  0
LINE
  5
18AA
330
1D
100
AcDbEntity
  8
0
100
AcDbLine
 10
5.194204265619
 20
873.630999249225
 30
0.0
 11
5.412406992994
 21
873.43959769082
 31
0.0
  0
LINE
  5
18AB
330
1D
100
AcDbEntity
  8
0
100
AcDbLine
 10
5.194204265619
 20
873.630999249225
 30
0.0
 11
5.528912592457
 21
873.350145615623
 31
0.0
  0
LINE
  5
18AC
330
1D
100
AcDbEntity
  8
0
100
AcDbLine
 10
5.206705012998
 20
873.617164768572
 30
0.0
 11
5.280660154728
 21
873.553270153243
 31
0.0
  0
LINE
  5
18AD
330
1D
100
AcDbEntity
  8
0
100
AcDbLine
 10
6.036916505773
 20
872.919963497456
 30
0.0
 11
6.034060331383
 21
872.783856398934
 31
0.0
  0
LINE
  5
18AE
330
1D
100
AcDbEntity
  8
0
100
AcDbLine
 10
5.951938451702
 20
872.995576395339
 30
0.0
 11
6.036916505773
 21
872.919963497456
 31
0.0
  0
LINE
  5
18AF
330
1D
100
AcDbEntity
  8
0
100
AcDbLine
 10
5.782615200293
 20
873.125776266814
 30
0.0
 11
5.602207579683
 21
872.438301510604
 31
0.0
  0
LINE
  5
18B0
330
1D
100
AcDbEntity
  8
0
100
AcDbLine
 10
5.782615200293
 20
873.125776266814
 30
0.0
 11
6.036916505773
 21
872.919963497456
 31
0.0
  0
LINE
  5
18B1
330
1D
100
AcDbEntity
  8
0
100
AcDbLine
 10
5.782615200293
 20
873.125776266814
 30
0.0
 11
5.951938451702
 21
872.995576395339
 31
0.0
  0
LINE
  5
18B2
330
1D
100
AcDbEntity
  8
0
100
AcDbLine
 10
4.778102422186
 20
873.966646283867
 30
0.0
 11
4.965667958061
 21
873.795529164617
 31
0.0
  0
LINE
  5
18B3
330
1D
100
AcDbEntity
  8
0
100
AcDbLine
 10
5.119248684761
 20
873.66426170401
 30
0.0
 11
5.401944117784
 21
873.147694910508
 31
0.0
  0
LINE
  5
18B4
330
1D
100
AcDbEntity
  8
0
100
AcDbLine
 10
4.240566395296
 20
874.457043498819
 30
0.0
 11
4.418471736946
 21
873.671377138706
 31
0.0
  0
LINE
  5
18B5
330
1D
100
AcDbEntity
  8
0
100
AcDbLine
 10
4.276286174914
 20
874.437617194308
 30
0.0
 11
4.411232859
 21
874.364226053439
 31
0.0
  0
LINE
  5
18B6
330
1D
100
AcDbEntity
  8
0
100
AcDbLine
 10
4.438603850552
 20
874.309724702776
 30
0.0
 11
4.980358708116
 21
873.788525826541
 31
0.0
  0
LINE
  5
18B7
330
1D
100
AcDbEntity
  8
0
100
AcDbLine
 10
4.776814107351
 20
872.237227078712
 30
0.0
 11
6.055981392204
 21
870.265301496449
 31
0.0
  0
LINE
  5
18B8
330
1D
100
AcDbEntity
  8
0
100
AcDbLine
 10
5.585289368976
 20
873.463274439098
 30
0.0
 11
5.871250933412
 21
873.065335190342
 31
0.0
  0
LINE
  5
18B9
330
1D
100
AcDbEntity
  8
0
100
AcDbLine
 10
5.585289368976
 20
873.463274439098
 30
0.0
 11
5.836024032417
 21
873.095790782697
 31
0.0
  0
LINE
  5
18BA
330
1D
100
AcDbEntity
  8
0
100
AcDbLine
 10
4.411232859
 20
874.364226053439
 30
0.0
 11
4.439750308415
 21
874.307441866151
 31
0.0
  0
LINE
  5
18BB
330
1D
100
AcDbEntity
  8
0
100
AcDbLine
 10
4.374771538313
 20
874.372889891719
 30
0.0
 11
4.441990785593
 21
874.133271535961
 31
0.0
  0
LINE
  5
18BC
330
1D
100
AcDbEntity
  8
0
100
AcDbLine
 10
4.374771538313
 20
874.372889891719
 30
0.0
 11
4.939635598896
 21
873.803946567287
 31
0.0
  0
LINE
  5
18BD
330
1D
100
AcDbEntity
  8
0
100
AcDbLine
 10
4.269260587283
 20
874.44223460466
 30
0.0
 11
4.419367264949
 21
873.674933545544
 31
0.0
  0
LINE
  5
18BE
330
1D
100
AcDbEntity
  8
0
100
AcDbLine
 10
4.269260587283
 20
874.44223460466
 30
0.0
 11
4.374771538313
 21
874.372889891719
 31
0.0
  0
LINE
  5
18BF
330
1D
100
AcDbEntity
  8
0
100
AcDbLine
 10
4.269260587283
 20
874.44223460466
 30
0.0
 11
4.52027834245
 21
873.993238327848
 31
0.0
  0
LINE
  5
18C0
330
1D
100
AcDbEntity
  8
0
100
AcDbLine
 10
6.95440239759
 20
869.745180948512
 30
0.0
 11
6.999222232697
 21
869.711608070548
 31
0.0
  0
LINE
  5
18C1
330
1D
100
AcDbEntity
  8
0
100
AcDbLine
 10
6.953099588881
 20
869.747492587616
 30
0.0
 11
6.999222232697
 21
869.711608070548
 31
0.0
  0
LINE
  5
18C2
330
1D
100
AcDbEntity
  8
0
100
AcDbLine
 10
6.151956708101
 20
870.959853900035
 30
0.0
 11
6.196757071879
 21
870.839367255569
 31
0.0
  0
LINE
  5
18C3
330
1D
100
AcDbEntity
  8
0
100
AcDbLine
 10
6.567642981024
 20
870.431427658727
 30
0.0
 11
7.269582370339
 21
869.185941250239
 31
0.0
  0
LINE
  5
18C4
330
1D
100
AcDbEntity
  8
0
100
AcDbLine
 10
6.02957582345
 20
871.0232508958
 30
0.0
 11
6.073724885623
 21
869.755989604547
 31
0.0
  0
LINE
  5
18C5
330
1D
100
AcDbEntity
  8
0
100
AcDbLine
 10
6.02957582345
 20
871.0232508958
 30
0.0
 11
6.339587937619
 21
869.440742261047
 31
0.0
  0
LINE
  5
18C6
330
1D
100
AcDbEntity
  8
0
100
AcDbLine
 10
6.02957582345
 20
871.0232508958
 30
0.0
 11
6.567642981024
 21
870.431427658727
 31
0.0
  0
LINE
  5
18C7
330
1D
100
AcDbEntity
  8
0
100
AcDbLine
 10
6.02957582345
 20
871.0232508958
 30
0.0
 11
6.151956708101
 21
870.959853900035
 31
0.0
  0
LINE
  5
18C8
330
1D
100
AcDbEntity
  8
0
100
AcDbLine
 10
5.18669121831
 20
873.590308782035
 30
0.0
 11
5.782615200293
 21
873.125776266814
 31
0.0
  0
LINE
  5
18C9
330
1D
100
AcDbEntity
  8
0
100
AcDbLine
 10
7.641350602702
 20
867.885473270985
 30
0.0
 11
8.314421865779
 21
866.880970699718
 31
0.0
  0
LINE
  5
18CA
330
1D
100
AcDbEntity
  8
0
100
AcDbLine
 10
7.194696714768
 20
867.764529688238
 30
0.0
 11
7.791836599895
 21
868.152582735632
 31
0.0
  0
LINE
  5
18CB
330
1D
100
AcDbEntity
  8
0
100
AcDbLine
 10
7.194696714768
 20
867.764529688238
 30
0.0
 11
7.767845996519
 21
867.919725309404
 31
0.0
  0
LINE
  5
18CC
330
1D
100
AcDbEntity
  8
0
100
AcDbLine
 10
7.791836599895
 20
868.152582735632
 30
0.0
 11
7.767845996519
 21
867.919725309404
 31
0.0
  0
LINE
  5
18CD
330
1D
100
AcDbEntity
  8
0
100
AcDbLine
 10
8.072340956689
 20
864.866083175945
 30
0.0
 11
8.23500709305
 21
864.622938305382
 31
0.0
  0
LINE
  5
18CE
330
1D
100
AcDbEntity
  8
0
100
AcDbLine
 10
8.23500709305
 20
864.622938305382
 30
0.0
 11
8.93270757044
 21
863.610933710229
 31
0.0
  0
LINE
  5
18CF
330
1D
100
AcDbEntity
  8
0
100
AcDbLine
 10
8.314421865779
 20
866.880970699718
 30
0.0
 11
8.501648233128
 21
866.634876226406
 31
0.0
  0
LINE
  5
18D0
330
1D
100
AcDbEntity
  8
0
100
AcDbLine
 10
8.314421865779
 20
866.880970699718
 30
0.0
 11
8.674232460338
 21
866.408027705558
 31
0.0
  0
LINE
  5
18D1
330
1D
100
AcDbEntity
  8
0
100
AcDbLine
 10
8.501648233128
 20
866.634876226406
 30
0.0
 11
7.781193106895
 21
865.58960024524
 31
0.0
  0
LINE
  5
18D2
330
1D
100
AcDbEntity
  8
0
100
AcDbLine
 10
9.2245293093
 20
865.601832701919
 30
0.0
 11
8.437396386579
 21
864.562637195402
 31
0.0
  0
LINE
  5
18D3
330
1D
100
AcDbEntity
  8
0
100
AcDbLine
 10
10.978230592169
 20
867.552259109576
 30
0.0
 11
10.806381656476
 21
866.398621561079
 31
0.0
  0
LINE
  5
18D4
330
1D
100
AcDbEntity
  8
0
100
AcDbLine
 10
10.978230592169
 20
867.552259109576
 30
0.0
 11
11.357014917924
 21
867.234682402996
 31
0.0
  0
LINE
  5
18D5
330
1D
100
AcDbEntity
  8
0
100
AcDbLine
 10
7.781193106895
 20
865.58960024524
 30
0.0
 11
8.437396386579
 21
864.562637195402
 31
0.0
  0
LINE
  5
18D6
330
1D
100
AcDbEntity
  8
0
100
AcDbLine
 10
7.781193106895
 20
865.58960024524
 30
0.0
 11
8.072340956689
 21
864.866083175945
 31
0.0
  0
LINE
  5
18D7
330
1D
100
AcDbEntity
  8
0
100
AcDbLine
 10
8.437396386579
 20
864.562637195402
 30
0.0
 11
9.043592258997
 21
863.45009705039
 31
0.0
  0
LINE
  5
18D8
330
1D
100
AcDbEntity
  8
0
100
AcDbLine
 10
8.437396386579
 20
864.562637195402
 30
0.0
 11
9.196523978585
 21
863.104030165028
 31
0.0
  0
LINE
  5
18D9
330
1D
100
AcDbEntity
  8
0
100
AcDbLine
 10
9.587457214051
 20
862.899098138717
 30
0.0
 11
9.717486736856
 21
863.015471548547
 31
0.0
  0
LINE
  5
18DA
330
1D
100
AcDbEntity
  8
0
100
AcDbLine
 10
10.427993714974
 20
862.033630796401
 30
0.0
 11
10.709847457962
 21
861.759531694681
 31
0.0
  0
LINE
  5
18DB
330
1D
100
AcDbEntity
  8
0
100
AcDbLine
 10
11.248220331164
 20
861.261571797299
 30
0.0
 11
11.973600885945
 21
861.936118422984
 31
0.0
  0
LINE
  5
18DC
330
1D
100
AcDbEntity
  8
0
100
AcDbLine
 10
11.060852214873
 20
861.435762609335
 30
0.0
 11
12.065784798686
 21
862.290855461329
 31
0.0
  0
LINE
  5
18DD
330
1D
100
AcDbEntity
  8
0
100
AcDbLine
 10
11.087029267678
 20
861.458036551985
 30
0.0
 11
11.248220331164
 21
861.261571797299
 31
0.0
  0
LINE
  5
18DE
330
1D
100
AcDbEntity
  8
0
100
AcDbLine
 10
10.709847457962
 20
861.759531694681
 30
0.0
 11
11.248220331164
 21
861.261571797299
 31
0.0
  0
LINE
  5
18DF
330
1D
100
AcDbEntity
  8
0
100
AcDbLine
 10
10.151519718387
 20
862.444199742148
 30
0.0
 11
11.060852214873
 21
861.435762609335
 31
0.0
  0
LINE
  5
18E0
330
1D
100
AcDbEntity
  8
0
100
AcDbLine
 10
10.151519718387
 20
862.444199742148
 30
0.0
 11
10.2283723007
 21
862.454435722136
 31
0.0
  0
LINE
  5
18E1
330
1D
100
AcDbEntity
  8
0
100
AcDbLine
 10
10.151519718387
 20
862.444199742148
 30
0.0
 11
10.211490923428
 21
862.475092803275
 31
0.0
  0
LINE
  5
18E2
330
1D
100
AcDbEntity
  8
0
100
AcDbLine
 10
9.196523978585
 20
863.104030165028
 30
0.0
 11
9.587457214051
 21
862.899098138717
 31
0.0
  0
LINE
  5
18E3
330
1D
100
AcDbEntity
  8
0
100
AcDbLine
 10
9.89658404966
 20
862.779744657365
 30
0.0
 11
9.957609729545
 21
862.652598797393
 31
0.0
  0
LINE
  5
18E4
330
1D
100
AcDbEntity
  8
0
100
AcDbLine
 10
9.043592258997
 20
863.45009705039
 30
0.0
 11
9.196523978585
 21
863.104030165028
 31
0.0
  0
LINE
  5
18E5
330
1D
100
AcDbEntity
  8
0
100
AcDbLine
 10
9.957609729545
 20
862.652598797393
 30
0.0
 11
10.427993714974
 21
862.033630796401
 31
0.0
  0
LINE
  5
18E6
330
1D
100
AcDbEntity
  8
0
100
AcDbLine
 10
8.814596198821
 20
863.782252570817
 30
0.0
 11
8.954838647827
 21
863.568410496205
 31
0.0
  0
LINE
  5
18E7
330
1D
100
AcDbEntity
  8
0
100
AcDbLine
 10
9.498945809136
 20
863.303113907222
 30
0.0
 11
9.722386412126
 21
863.073590864946
 31
0.0
  0
LINE
  5
18E8
330
1D
100
AcDbEntity
  8
0
100
AcDbLine
 10
9.498945809136
 20
863.303113907222
 30
0.0
 11
10.151519718387
 21
862.444199742148
 31
0.0
  0
LINE
  5
18E9
330
1D
100
AcDbEntity
  8
0
100
AcDbLine
 10
9.722386412126
 20
863.073590864946
 30
0.0
 11
11.060852214873
 21
861.435762609335
 31
0.0
  0
LINE
  5
18EA
330
1D
100
AcDbEntity
  8
0
100
AcDbLine
 10
9.722386412126
 20
863.073590864946
 30
0.0
 11
10.546588891696
 21
862.329917117479
 31
0.0
  0
LINE
  5
18EB
330
1D
100
AcDbEntity
  8
0
100
AcDbLine
 10
10.546588891696
 20
862.329917117479
 30
0.0
 11
11.060852214873
 21
861.435762609335
 31
0.0
  0
LINE
  5
18EC
330
1D
100
AcDbEntity
  8
0
100
AcDbLine
 10
10.546588891696
 20
862.329917117479
 30
0.0
 11
11.360835990939
 21
863.28099921278
 31
0.0
  0
LINE
  5
18ED
330
1D
100
AcDbEntity
  8
0
100
AcDbLine
 10
14.541443916381
 20
856.645203454352
 30
0.0
 11
15.112773848746
 21
856.313311742518
 31
0.0
  0
LINE
  5
18EE
330
1D
100
AcDbEntity
  8
0
100
AcDbLine
 10
14.66938862654
 20
856.570878994055
 30
0.0
 11
14.828683536379
 21
856.426372719071
 31
0.0
  0
LINE
  5
18EF
330
1D
100
AcDbEntity
  8
0
100
AcDbLine
 10
14.401350800878
 20
856.812883175811
 30
0.0
 11
14.541443916381
 21
856.645203454352
 31
0.0
  0
LINE
  5
18F0
330
1D
100
AcDbEntity
  8
0
100
AcDbLine
 10
13.985247338448
 20
857.278738849334
 30
0.0
 11
14.067955186767
 21
857.195155326613
 31
0.0
  0
LINE
  5
18F1
330
1D
100
AcDbEntity
  8
0
100
AcDbLine
 10
13.985247338448
 20
857.278738849334
 30
0.0
 11
14.067955186767
 21
857.195155326613
 31
0.0
  0
LINE
  5
18F2
330
1D
100
AcDbEntity
  8
0
100
AcDbLine
 10
14.707731818109
 20
856.548605021056
 30
0.0
 11
14.828683536379
 21
856.426372719071
 31
0.0
  0
LINE
  5
18F3
330
1D
100
AcDbEntity
  8
0
100
AcDbLine
 10
15.112773848746
 20
856.313311742518
 30
0.0
 11
15.395216424824
 21
856.594417119767
 31
0.0
  0
LINE
  5
18F4
330
1D
100
AcDbEntity
  8
0
100
AcDbLine
 10
15.6817657965
 20
855.884823582365
 30
0.0
 11
15.822438474659
 21
855.733236222669
 31
0.0
  0
LINE
  5
18F5
330
1D
100
AcDbEntity
  8
0
100
AcDbLine
 10
14.766043058676
 20
856.514731393306
 30
0.0
 11
14.828683536379
 21
856.426372719071
 31
0.0
  0
LINE
  5
18F6
330
1D
100
AcDbEntity
  8
0
100
AcDbLine
 10
12.919648391421
 20
860.023819528312
 30
0.0
 11
13.097871168313
 21
859.98304498343
 31
0.0
  0
LINE
  5
18F7
330
1D
100
AcDbEntity
  8
0
100
AcDbLine
 10
12.919648391421
 20
860.023819528312
 30
0.0
 11
13.265477474869
 21
859.795305319336
 31
0.0
  0
LINE
  5
18F8
330
1D
100
AcDbEntity
  8
0
100
AcDbLine
 10
12.630879927194
 20
860.601705051719
 30
0.0
 11
12.919648391421
 21
860.023819528312
 31
0.0
  0
LINE
  5
18F9
330
1D
100
AcDbEntity
  8
0
100
AcDbLine
 10
12.376773164699
 20
860.968351501413
 30
0.0
 11
12.612715493137
 21
860.959593529339
 31
0.0
  0
LINE
  5
18FA
330
1D
100
AcDbEntity
  8
0
100
AcDbLine
 10
12.376773164699
 20
860.968351501413
 30
0.0
 11
12.612715493137
 21
860.959593529339
 31
0.0
  0
LINE
  5
18FB
330
1D
100
AcDbEntity
  8
0
100
AcDbLine
 10
12.982933531162
 20
860.456589583986
 30
0.0
 11
13.764278713033
 21
859.49693377237
 31
0.0
  0
LINE
  5
18FC
330
1D
100
AcDbEntity
  8
0
100
AcDbLine
 10
13.404998344472
 20
858.039237142044
 30
0.0
 11
13.416585694385
 21
857.951713718532
 31
0.0
  0
LINE
  5
18FD
330
1D
100
AcDbEntity
  8
0
100
AcDbLine
 10
13.416585694385
 20
857.951713718532
 30
0.0
 11
14.541443916381
 21
856.645203454352
 31
0.0
  0
LINE
  5
18FE
330
1D
100
AcDbEntity
  8
0
100
AcDbLine
 10
13.773914452889
 20
857.559717534435
 30
0.0
 11
14.401350800878
 21
856.812883175811
 31
0.0
  0
LINE
  5
18FF
330
1D
100
AcDbEntity
  8
0
100
AcDbLine
 10
13.478126237109
 20
857.889240191328
 30
0.0
 11
13.773914452889
 21
857.559717534435
 31
0.0
  0
LINE
  5
1900
330
1D
100
AcDbEntity
  8
0
100
AcDbLine
 10
14.070147894852
 20
857.436858884505
 30
0.0
 11
15.112773848746
 21
856.313311742518
 31
0.0
  0
LINE
  5
1901
330
1D
100
AcDbEntity
  8
0
100
AcDbLine
 10
15.449591456938
 20
856.20443792192
 30
0.0
 11
15.6817657965
 21
855.884823582365
 31
0.0
  0
LINE
  5
1902
330
1D
100
AcDbEntity
  8
0
100
AcDbLine
 10
15.449591456938
 20
856.20443792192
 30
0.0
 11
15.687514973413
 21
855.957583669565
 31
0.0
  0
LINE
  5
1903
330
1D
100
AcDbEntity
  8
0
100
AcDbLine
 10
15.449591456938
 20
856.20443792192
 30
0.0
 11
15.548866249163
 21
856.320782610854
 31
0.0
  0
LINE
  5
1904
330
1D
100
AcDbEntity
  8
0
100
AcDbLine
 10
13.466628289928
 20
857.877871057209
 30
0.0
 11
13.985247338448
 21
857.278738849334
 31
0.0
  0
LINE
  5
1905
330
1D
100
AcDbEntity
  8
0
100
AcDbLine
 10
13.487198602704
 20
859.551767467783
 30
0.0
 11
12.964773673502
 21
858.810305115988
 31
0.0
  0
LINE
  5
1906
330
1D
100
AcDbEntity
  8
0
100
AcDbLine
 10
13.093223762131
 20
858.566207712641
 30
0.0
 11
13.00619866703
 21
858.426871132216
 31
0.0
  0
LINE
  5
1907
330
1D
100
AcDbEntity
  8
0
100
AcDbLine
 10
15.533961233557
 20
856.347326908207
 30
0.0
 11
15.449591456938
 21
856.20443792192
 31
0.0
  0
LINE
  5
1908
330
1D
100
AcDbEntity
  8
0
100
AcDbLine
 10
15.391044044934
 20
856.601847698533
 30
0.0
 11
15.65043908236
 21
856.233153794924
 31
0.0
  0
LINE
  5
1909
330
1D
100
AcDbEntity
  8
0
100
AcDbLine
 10
15.391044044934
 20
856.601847698533
 30
0.0
 11
15.666940657131
 21
856.110504253693
 31
0.0
  0
LINE
  5
190A
330
1D
100
AcDbEntity
  8
0
100
AcDbLine
 10
15.391044044934
 20
856.601847698533
 30
0.0
 11
15.666940657131
 21
856.110504253693
 31
0.0
  0
LINE
  5
190B
330
1D
100
AcDbEntity
  8
0
100
AcDbLine
 10
13.700750461075
 20
859.342134793653
 30
0.0
 11
13.146728483303
 21
858.568989747248
 31
0.0
  0
LINE
  5
190C
330
1D
100
AcDbEntity
  8
0
100
AcDbLine
 10
15.825999521608
 20
857.24611171718
 30
0.0
 11
15.112773848746
 21
856.313311742518
 31
0.0
  0
LINE
  5
190D
330
1D
100
AcDbEntity
  8
0
100
AcDbLine
 10
13.909379823428
 20
859.137334276038
 30
0.0
 11
15.0046918892
 21
860.118476372375
 31
0.0
  0
LINE
  5
190E
330
1D
100
AcDbEntity
  8
0
100
AcDbLine
 10
13.146728483303
 20
858.568989747248
 30
0.0
 11
13.478126237109
 21
857.889240191328
 31
0.0
  0
LINE
  5
190F
330
1D
100
AcDbEntity
  8
0
100
AcDbLine
 10
13.146728483303
 20
858.568989747248
 30
0.0
 11
14.070147894852
 21
857.436858884505
 31
0.0
  0
LINE
  5
1910
330
1D
100
AcDbEntity
  8
0
100
AcDbLine
 10
12.964773673502
 20
858.810305115988
 30
0.0
 11
13.146728483303
 21
858.568989747248
 31
0.0
  0
LINE
  5
1911
330
1D
100
AcDbEntity
  8
0
100
AcDbLine
 10
12.964773673502
 20
858.810305115988
 30
0.0
 11
13.416585694385
 21
857.951713718532
 31
0.0
  0
LINE
  5
1912
330
1D
100
AcDbEntity
  8
0
100
AcDbLine
 10
13.00619866703
 20
858.426871132216
 30
0.0
 11
13.466628289928
 21
857.877871057209
 31
0.0
  0
LINE
  5
1913
330
1D
100
AcDbEntity
  8
0
100
AcDbLine
 10
13.00619866703
 20
858.426871132216
 30
0.0
 11
13.325517987336
 21
858.124772305386
 31
0.0
  0
LINE
  5
1914
330
1D
100
AcDbEntity
  8
0
100
AcDbLine
 10
15.65043908236
 20
856.233153794924
 30
0.0
 11
15.692451302387
 21
855.920893929798
 31
0.0
  0
LINE
  5
1915
330
1D
100
AcDbEntity
  8
0
100
AcDbLine
 10
15.65043908236
 20
856.233153794924
 30
0.0
 11
17.031598404191
 21
854.732859511218
 31
0.0
  0
LINE
  5
1916
330
1D
100
AcDbEntity
  8
0
100
AcDbLine
 10
16.0506416325
 20
857.578855726355
 30
0.0
 11
15.391044044934
 21
856.601847698533
 31
0.0
  0
LINE
  5
1917
330
1D
100
AcDbEntity
  8
0
100
AcDbLine
 10
16.264009144257
 20
857.362532779628
 30
0.0
 11
15.65043908236
 21
856.233153794924
 31
0.0
  0
LINE
  5
1918
330
1D
100
AcDbEntity
  8
0
100
AcDbLine
 10
13.764278713033
 20
859.49693377237
 30
0.0
 11
13.909379823428
 21
859.137334276038
 31
0.0
  0
LINE
  5
1919
330
1D
100
AcDbEntity
  8
0
100
AcDbLine
 10
13.452412152664
 20
859.585915503774
 30
0.0
 11
13.909379823428
 21
859.137334276038
 31
0.0
  0
LINE
  5
191A
330
1D
100
AcDbEntity
  8
0
100
AcDbLine
 10
13.452412152664
 20
859.585915503774
 30
0.0
 11
13.764278713033
 21
859.49693377237
 31
0.0
  0
LINE
  5
191B
330
1D
100
AcDbEntity
  8
0
100
AcDbLine
 10
13.452412152664
 20
859.585915503774
 30
0.0
 11
13.601421813412
 21
859.696956212911
 31
0.0
  0
LINE
  5
191C
330
1D
100
AcDbEntity
  8
0
100
AcDbLine
 10
13.045493272518
 20
860.041714664568
 30
0.0
 11
13.452412152664
 21
859.585915503774
 31
0.0
  0
LINE
  5
191D
330
1D
100
AcDbEntity
  8
0
100
AcDbLine
 10
13.045493272518
 20
860.041714664568
 30
0.0
 11
13.291393510506
 21
860.077736013634
 31
0.0
  0
LINE
  5
191E
330
1D
100
AcDbEntity
  8
0
100
AcDbLine
 10
13.045493272518
 20
860.041714664568
 30
0.0
 11
13.324839268655
 21
860.036657605619
 31
0.0
  0
LINE
  5
191F
330
1D
100
AcDbEntity
  8
0
100
AcDbLine
 10
15.692451302387
 20
855.920893929798
 30
0.0
 11
16.108606271284
 21
855.572090071071
 31
0.0
  0
LINE
  5
1920
330
1D
100
AcDbEntity
  8
0
100
AcDbLine
 10
15.692451302387
 20
855.920893929798
 30
0.0
 11
16.569294255269
 21
855.212418343782
 31
0.0
  0
LINE
  5
1921
330
1D
100
AcDbEntity
  8
0
100
AcDbLine
 10
12.187527553198
 20
861.200511313886
 30
0.0
 11
12.477925646251
 21
861.142728379112
 31
0.0
  0
LINE
  5
1922
330
1D
100
AcDbEntity
  8
0
100
AcDbLine
 10
12.187527553198
 20
861.200511313886
 30
0.0
 11
12.376773164699
 21
860.968351501413
 31
0.0
  0
LINE
  5
1923
330
1D
100
AcDbEntity
  8
0
100
AcDbLine
 10
12.187527553198
 20
861.200511313886
 30
0.0
 11
13.045493272518
 21
860.041714664568
 31
0.0
  0
LINE
  5
1924
330
1D
100
AcDbEntity
  8
0
100
AcDbLine
 10
12.187527553198
 20
861.200511313886
 30
0.0
 11
12.437935923751
 21
861.371833752454
 31
0.0
  0
LINE
  5
1925
330
1D
100
AcDbEntity
  8
0
100
AcDbLine
 10
10.0776130337
 20
864.987649305122
 30
0.0
 11
9.286573161038
 21
863.9870305018
 31
0.0
  0
LINE
  5
1926
330
1D
100
AcDbEntity
  8
0
100
AcDbLine
 10
10.041026559931
 20
865.034287860823
 30
0.0
 11
9.286573161038
 21
863.9870305018
 31
0.0
  0
LINE
  5
1927
330
1D
100
AcDbEntity
  8
0
100
AcDbLine
 10
10.187283581694
 20
864.858468903795
 30
0.0
 11
10.248678590565
 21
864.769583728408
 31
0.0
  0
LINE
  5
1928
330
1D
100
AcDbEntity
  8
0
100
AcDbLine
 10
10.248678590565
 20
864.769583728408
 30
0.0
 11
10.633514347416
 21
864.26195305533
 31
0.0
  0
LINE
  5
1929
330
1D
100
AcDbEntity
  8
0
100
AcDbLine
 10
10.7725988645
 20
864.136631600234
 30
0.0
 11
11.398404453669
 21
863.229947810501
 31
0.0
  0
LINE
  5
192A
330
1D
100
AcDbEntity
  8
0
100
AcDbLine
 10
11.062879830164
 20
863.68588881219
 30
0.0
 11
11.398404453669
 21
863.229947810501
 31
0.0
  0
LINE
  5
192B
330
1D
100
AcDbEntity
  8
0
100
AcDbLine
 10
10.731743128105
 20
864.173444470864
 30
0.0
 11
10.956725556795
 21
863.869863948985
 31
0.0
  0
LINE
  5
192C
330
1D
100
AcDbEntity
  8
0
100
AcDbLine
 10
10.633514347416
 20
864.26195305533
 30
0.0
 11
11.062879830164
 21
863.68588881219
 31
0.0
  0
LINE
  5
192D
330
1D
100
AcDbEntity
  8
0
100
AcDbLine
 10
10.633514347416
 20
864.26195305533
 30
0.0
 11
10.7725988645
 21
864.136631600234
 31
0.0
  0
LINE
  5
192E
330
1D
100
AcDbEntity
  8
0
100
AcDbLine
 10
9.286573161038
 20
863.9870305018
 30
0.0
 11
9.498945809136
 21
863.303113907222
 31
0.0
  0
LINE
  5
192F
330
1D
100
AcDbEntity
  8
0
100
AcDbLine
 10
9.286573161038
 20
863.9870305018
 30
0.0
 11
9.722386412126
 21
863.073590864946
 31
0.0
  0
LINE
  5
1930
330
1D
100
AcDbEntity
  8
0
100
AcDbLine
 10
10.806381656476
 20
866.398621561079
 30
0.0
 11
11.130948396997
 21
866.271569560119
 31
0.0
  0
LINE
  5
1931
330
1D
100
AcDbEntity
  8
0
100
AcDbLine
 10
10.806381656476
 20
866.398621561079
 30
0.0
 11
11.156749694744
 21
866.222485019487
 31
0.0
  0
LINE
  5
1932
330
1D
100
AcDbEntity
  8
0
100
AcDbLine
 10
10.806381656476
 20
866.398621561079
 30
0.0
 11
12.148992591814
 21
864.416473282995
 31
0.0
  0
LINE
  5
1933
330
1D
100
AcDbEntity
  8
0
100
AcDbLine
 10
11.357014917924
 20
867.234682402996
 30
0.0
 11
11.941277876262
 21
866.586212206677
 31
0.0
  0
LINE
  5
1934
330
1D
100
AcDbEntity
  8
0
100
AcDbLine
 10
11.941277876262
 20
866.586212206677
 30
0.0
 11
12.73273037285
 21
865.220578831409
 31
0.0
  0
LINE
  5
1935
330
1D
100
AcDbEntity
  8
0
100
AcDbLine
 10
11.130948396997
 20
866.271569560119
 30
0.0
 11
11.859948952443
 21
864.88471461451
 31
0.0
  0
LINE
  5
1936
330
1D
100
AcDbEntity
  8
0
100
AcDbLine
 10
11.859948952443
 20
864.88471461451
 30
0.0
 11
12.148992591814
 21
864.416473282995
 31
0.0
  0
LINE
  5
1937
330
1D
100
AcDbEntity
  8
0
100
AcDbLine
 10
12.164663604785
 20
861.696419571682
 30
0.0
 11
12.346247769726
 21
861.462415947005
 31
0.0
  0
LINE
  5
1938
330
1D
100
AcDbEntity
  8
0
100
AcDbLine
 10
12.164663604785
 20
861.696419571682
 30
0.0
 11
12.346247769726
 21
861.462415947005
 31
0.0
  0
LINE
  5
1939
330
1D
100
AcDbEntity
  8
0
100
AcDbLine
 10
11.842371014973
 20
862.100753625078
 30
0.0
 11
12.164663604785
 21
861.696419571682
 31
0.0
  0
LINE
  5
193A
330
1D
100
AcDbEntity
  8
0
100
AcDbLine
 10
11.842371014973
 20
862.100753625078
 30
0.0
 11
12.164663604785
 21
861.696419571682
 31
0.0
  0
LINE
  5
193B
330
1D
100
AcDbEntity
  8
0
100
AcDbLine
 10
11.398404453669
 20
863.229947810501
 30
0.0
 11
11.843556295363
 21
862.612179360484
 31
0.0
  0
LINE
  5
193C
330
1D
100
AcDbEntity
  8
0
100
AcDbLine
 10
12.164956948269
 20
861.696041546217
 30
0.0
 11
12.094130962449
 21
861.598705144623
 31
0.0
  0
LINE
  5
193D
330
1D
100
AcDbEntity
  8
0
100
AcDbLine
 10
13.074682562968
 20
862.664408052657
 30
0.0
 11
12.187527553198
 21
861.200511313886
 31
0.0
  0
LINE
  5
193E
330
1D
100
AcDbEntity
  8
0
100
AcDbLine
 10
12.094130962449
 20
861.598705144623
 30
0.0
 11
12.254089469011
 21
861.310345300521
 31
0.0
  0
LINE
  5
193F
330
1D
100
AcDbEntity
  8
0
100
AcDbLine
 10
12.094130962449
 20
861.598705144623
 30
0.0
 11
12.268227114954
 21
861.33367386606
 31
0.0
  0
LINE
  5
1940
330
1D
100
AcDbEntity
  8
0
100
AcDbLine
 10
12.437935923751
 20
861.371833752454
 30
0.0
 11
13.290504878658
 21
860.520550558019
 31
0.0
  0
LINE
  5
1941
330
1D
100
AcDbEntity
  8
0
100
AcDbLine
 10
13.290504878658
 20
860.520550558019
 30
0.0
 11
13.764278713033
 21
859.49693377237
 31
0.0
  0
LINE
  5
1942
330
1D
100
AcDbEntity
  8
0
100
AcDbLine
 10
12.73273037285
 20
865.220578831409
 30
0.0
 11
12.148992591814
 21
864.416473282995
 31
0.0
  0
LINE
  5
1943
330
1D
100
AcDbEntity
  8
0
100
AcDbLine
 10
12.477925646251
 20
861.142728379112
 30
0.0
 11
12.376773164699
 21
860.968351501413
 31
0.0
  0
LINE
  5
1944
330
1D
100
AcDbEntity
  8
0
100
AcDbLine
 10
12.477925646251
 20
861.142728379112
 30
0.0
 11
12.982933531162
 21
860.456589583986
 31
0.0
  0
LINE
  5
1945
330
1D
100
AcDbEntity
  8
0
100
AcDbLine
 10
16.743014361141
 20
854.739633160722
 30
0.0
 11
16.899405380048
 21
854.515733777212
 31
0.0
  0
LINE
  5
1946
330
1D
100
AcDbEntity
  8
0
100
AcDbLine
 10
17.520473342255
 20
854.118348490216
 30
0.0
 11
18.386447978519
 21
854.951755697857
 31
0.0
  0
LINE
  5
1947
330
1D
100
AcDbEntity
  8
0
100
AcDbLine
 10
16.661685185133
 20
854.804625104408
 30
0.0
 11
17.124692729089
 21
854.547439618349
 31
0.0
  0
LINE
  5
1948
330
1D
100
AcDbEntity
  8
0
100
AcDbLine
 10
16.661685185133
 20
854.804625104408
 30
0.0
 11
17.520473342255
 21
854.118348490216
 31
0.0
  0
LINE
  5
1949
330
1D
100
AcDbEntity
  8
0
100
AcDbLine
 10
16.661685185133
 20
854.804625104408
 30
0.0
 11
16.826004175133
 21
854.905059495381
 31
0.0
  0
LINE
  5
194A
330
1D
100
AcDbEntity
  8
0
100
AcDbLine
 10
16.899405380048
 20
854.515733777212
 30
0.0
 11
17.360246714708
 21
854.246389132771
 31
0.0
  0
LINE
  5
194B
330
1D
100
AcDbEntity
  8
0
100
AcDbLine
 10
17.61148271129
 20
854.099551023686
 30
0.0
 11
18.163444978724
 21
854.642861091842
 31
0.0
  0
LINE
  5
194C
330
1D
100
AcDbEntity
  8
0
100
AcDbLine
 10
17.552245499474
 20
854.148925765484
 30
0.0
 11
17.61148271129
 21
854.099551023686
 31
0.0
  0
LINE
  5
194D
330
1D
100
AcDbEntity
  8
0
100
AcDbLine
 10
18.881658634615
 20
851.727556341187
 30
0.0
 11
19.745380767353
 21
851.253851411403
 31
0.0
  0
LINE
  5
194E
330
1D
100
AcDbEntity
  8
0
100
AcDbLine
 10
18.881658634615
 20
851.727556341187
 30
0.0
 11
19.63291656907
 21
851.402249768984
 31
0.0
  0
LINE
  5
194F
330
1D
100
AcDbEntity
  8
0
100
AcDbLine
 10
18.881658634615
 20
851.727556341187
 30
0.0
 11
19.745492885955
 21
852.405144568085
 31
0.0
  0
LINE
  5
1950
330
1D
100
AcDbEntity
  8
0
100
AcDbLine
 10
17.542708218153
 20
854.139747160636
 30
0.0
 11
17.61148271129
 21
854.099551023686
 31
0.0
  0
LINE
  5
1951
330
1D
100
AcDbEntity
  8
0
100
AcDbLine
 10
15.847901169164
 20
855.790602289849
 30
0.0
 11
16.661685185133
 21
854.804625104408
 31
0.0
  0
LINE
  5
1952
330
1D
100
AcDbEntity
  8
0
100
AcDbLine
 10
15.885623292861
 20
855.676658779284
 30
0.0
 11
16.243898859041
 21
855.310813205714
 31
0.0
  0
LINE
  5
1953
330
1D
100
AcDbEntity
  8
0
100
AcDbLine
 10
16.033685703976
 20
855.54407957876
 30
0.0
 11
16.243335017919
 21
855.311496353173
 31
0.0
  0
LINE
  5
1954
330
1D
100
AcDbEntity
  8
0
100
AcDbLine
 10
16.055477686894
 20
855.524566431221
 30
0.0
 11
16.158396974806
 21
855.414406917944
 31
0.0
  0
LINE
  5
1955
330
1D
100
AcDbEntity
  8
0
100
AcDbLine
 10
16.688264108616
 20
855.069975709939
 30
0.0
 11
16.661685185133
 21
854.804625104408
 31
0.0
  0
LINE
  5
1956
330
1D
100
AcDbEntity
  8
0
100
AcDbLine
 10
16.619202011782
 20
855.145140074505
 30
0.0
 11
16.661685185133
 21
854.804625104408
 31
0.0
  0
LINE
  5
1957
330
1D
100
AcDbEntity
  8
0
100
AcDbLine
 10
16.108606271284
 20
855.572090071071
 30
0.0
 11
16.661685185133
 21
854.804625104408
 31
0.0
  0
LINE
  5
1958
330
1D
100
AcDbEntity
  8
0
100
AcDbLine
 10
16.108606271284
 20
855.572090071071
 30
0.0
 11
16.640036353687
 21
855.127718812439
 31
0.0
  0
LINE
  5
1959
330
1D
100
AcDbEntity
  8
0
100
AcDbLine
 10
15.822438474659
 20
855.733236222669
 30
0.0
 11
16.030808869959
 21
855.568992112595
 31
0.0
  0
LINE
  5
195A
330
1D
100
AcDbEntity
  8
0
100
AcDbLine
 10
15.822438474659
 20
855.733236222669
 30
0.0
 11
16.101456585542
 21
855.4833956467
 31
0.0
  0
LINE
  5
195B
330
1D
100
AcDbEntity
  8
0
100
AcDbLine
 10
16.569294255269
 20
855.212418343782
 30
0.0
 11
17.124692729089
 21
854.547439618349
 31
0.0
  0
LINE
  5
195C
330
1D
100
AcDbEntity
  8
0
100
AcDbLine
 10
19.612451730875
 20
852.601391127598
 30
0.0
 11
18.881658634615
 21
851.727556341187
 31
0.0
  0
LINE
  5
195D
330
1D
100
AcDbEntity
  8
0
100
AcDbLine
 10
19.503506035824
 20
852.762094917448
 30
0.0
 11
18.881658634615
 21
851.727556341187
 31
0.0
  0
LINE
  5
195E
330
1D
100
AcDbEntity
  8
0
100
AcDbLine
 10
19.458017355486
 20
852.817210816182
 30
0.0
 11
19.498899693675
 21
852.754431560426
 31
0.0
  0
LINE
  5
195F
330
1D
100
AcDbEntity
  8
0
100
AcDbLine
 10
19.458017355486
 20
852.817210816182
 30
0.0
 11
19.491885576354
 21
852.779236043361
 31
0.0
  0
LINE
  5
1960
330
1D
100
AcDbEntity
  8
0
100
AcDbLine
 10
17.031598404191
 20
854.732859511218
 30
0.0
 11
17.520473342255
 21
854.118348490216
 31
0.0
  0
LINE
  5
1961
330
1D
100
AcDbEntity
  8
0
100
AcDbLine
 10
17.031598404191
 20
854.732859511218
 30
0.0
 11
18.024178040384
 21
855.385724387328
 31
0.0
  0
LINE
  5
1962
330
1D
100
AcDbEntity
  8
0
100
AcDbLine
 10
19.792342428017
 20
852.336037670757
 30
0.0
 11
19.963834425314
 21
852.286519746094
 31
0.0
  0
LINE
  5
1963
330
1D
100
AcDbEntity
  8
0
100
AcDbLine
 10
19.792342428017
 20
852.336037670757
 30
0.0
 11
21.259484634883
 21
850.852493416334
 31
0.0
  0
LINE
  5
1964
330
1D
100
AcDbEntity
  8
0
100
AcDbLine
 10
19.792342428017
 20
852.336037670757
 30
0.0
 11
20.030504324079
 21
852.212729467263
 31
0.0
  0
LINE
  5
1965
330
1D
100
AcDbEntity
  8
0
100
AcDbLine
 10
19.342544125997
 20
851.474785547133
 30
0.0
 11
19.414895242594
 21
851.368624314319
 31
0.0
  0
LINE
  5
1966
330
1D
100
AcDbEntity
  8
0
100
AcDbLine
 10
19.443215594032
 20
851.419572685393
 30
0.0
 11
19.414895242594
 21
851.368624314319
 31
0.0
  0
LINE
  5
1967
330
1D
100
AcDbEntity
  8
0
100
AcDbLine
 10
19.414895242594
 20
851.368624314319
 30
0.0
 11
20.206074500373
 21
850.645958460833
 31
0.0
  0
LINE
  5
1968
330
1D
100
AcDbEntity
  8
0
100
AcDbLine
 10
19.414895242594
 20
851.368624314319
 30
0.0
 11
19.46025658363
 21
851.410226623188
 31
0.0
  0
LINE
  5
1969
330
1D
100
AcDbEntity
  8
0
100
AcDbLine
 10
20.672803953063
 20
850.030101278982
 30
0.0
 11
21.061544818549
 21
849.97400852365
 31
0.0
  0
LINE
  5
196A
330
1D
100
AcDbEntity
  8
0
100
AcDbLine
 10
20.672803953063
 20
850.030101278982
 30
0.0
 11
20.847868777185
 21
850.190852682484
 31
0.0
  0
LINE
  5
196B
330
1D
100
AcDbEntity
  8
0
100
AcDbLine
 10
21.63008291347
 20
849.216797220243
 30
0.0
 11
21.924226979804
 21
849.069983774209
 31
0.0
  0
LINE
  5
196C
330
1D
100
AcDbEntity
  8
0
100
AcDbLine
 10
21.63008291347
 20
849.216797220243
 30
0.0
 11
21.712613088529
 21
849.257949875927
 31
0.0
  0
LINE
  5
196D
330
1D
100
AcDbEntity
  8
0
100
AcDbLine
 10
22.365743971603
 20
848.713596894779
 30
0.0
 11
23.271105263842
 21
849.566559978888
 31
0.0
  0
LINE
  5
196E
330
1D
100
AcDbEntity
  8
0
100
AcDbLine
 10
21.573817827684
 20
849.381234807556
 30
0.0
 11
21.980175123202
 21
849.020287819234
 31
0.0
  0
LINE
  5
196F
330
1D
100
AcDbEntity
  8
0
100
AcDbLine
 10
21.573817827684
 20
849.381234807556
 30
0.0
 11
21.966068769903
 21
849.087738567338
 31
0.0
  0
LINE
  5
1970
330
1D
100
AcDbEntity
  8
0
100
AcDbLine
 10
21.980175123202
 20
849.020287819234
 30
0.0
 11
22.171360164001
 21
848.895562357198
 31
0.0
  0
LINE
  5
1971
330
1D
100
AcDbEntity
  8
0
100
AcDbLine
 10
24.558065999459
 20
846.924539551881
 30
0.0
 11
24.686435906266
 21
846.806577726964
 31
0.0
  0
LINE
  5
1972
330
1D
100
AcDbEntity
  8
0
100
AcDbLine
 10
24.814300872339
 20
846.635777452706
 30
0.0
 11
25.477152263396
 21
846.017180626514
 31
0.0
  0
LINE
  5
1973
330
1D
100
AcDbEntity
  8
0
100
AcDbLine
 10
24.814300872339
 20
846.635777452706
 30
0.0
 11
24.860019574846
 21
846.679940799895
 31
0.0
  0
LINE
  5
1974
330
1D
100
AcDbEntity
  8
0
100
AcDbLine
 10
24.814300872339
 20
846.635777452706
 30
0.0
 11
24.911613023163
 21
846.637605591105
 31
0.0
  0
LINE
  5
1975
330
1D
100
AcDbEntity
  8
0
100
AcDbLine
 10
25.730968022762
 20
845.797891859994
 30
0.0
 11
25.885775632573
 21
845.622219157302
 31
0.0
  0
LINE
  5
1976
330
1D
100
AcDbEntity
  8
0
100
AcDbLine
 10
25.728944588384
 20
845.799640043125
 30
0.0
 11
25.885775632573
 21
845.622219157302
 31
0.0
  0
LINE
  5
1977
330
1D
100
AcDbEntity
  8
0
100
AcDbLine
 10
25.477152263396
 20
846.017180626514
 30
0.0
 11
25.954830148644
 21
845.604482082848
 31
0.0
  0
LINE
  5
1978
330
1D
100
AcDbEntity
  8
0
100
AcDbLine
 10
25.477152263396
 20
846.017180626514
 30
0.0
 11
25.660897201956
 21
846.022777484303
 31
0.0
  0
LINE
  5
1979
330
1D
100
AcDbEntity
  8
0
100
AcDbLine
 10
22.400333497778
 20
848.746184535953
 30
0.0
 11
22.573736661443
 21
848.633059630279
 31
0.0
  0
LINE
  5
197A
330
1D
100
AcDbEntity
  8
0
100
AcDbLine
 10
21.580408029804
 20
849.448761101953
 30
0.0
 11
21.573817827684
 21
849.381234807556
 31
0.0
  0
LINE
  5
197B
330
1D
100
AcDbEntity
  8
0
100
AcDbLine
 10
20.917788122454
 20
849.994751671329
 30
0.0
 11
21.63008291347
 21
849.216797220243
 31
0.0
  0
LINE
  5
197C
330
1D
100
AcDbEntity
  8
0
100
AcDbLine
 10
22.400333497778
 20
848.746184535953
 30
0.0
 11
22.573736661443
 21
848.633059630279
 31
0.0
  0
LINE
  5
197D
330
1D
100
AcDbEntity
  8
0
100
AcDbLine
 10
24.65577432091
 20
846.847535053658
 30
0.0
 11
24.814300872339
 21
846.635777452706
 31
0.0
  0
LINE
  5
197E
330
1D
100
AcDbEntity
  8
0
100
AcDbLine
 10
25.68226642733
 20
846.005242881609
 30
0.0
 11
25.954830148644
 21
845.604482082848
 31
0.0
  0
LINE
  5
197F
330
1D
100
AcDbEntity
  8
0
100
AcDbLine
 10
25.68226642733
 20
846.005242881609
 30
0.0
 11
26.576809510432
 21
845.603959101131
 31
0.0
  0
LINE
  5
1980
330
1D
100
AcDbEntity
  8
0
100
AcDbLine
 10
24.633473000411
 20
846.865834490707
 30
0.0
 11
25.68226642733
 21
846.005242881609
 31
0.0
  0
LINE
  5
1981
330
1D
100
AcDbEntity
  8
0
100
AcDbLine
 10
31.01499630929
 20
841.352434832039
 30
0.0
 11
31.61119461021
 21
840.7547099513
 31
0.0
  0
LINE
  5
1982
330
1D
100
AcDbEntity
  8
0
100
AcDbLine
 10
30.730980072437
 20
841.612872953004
 30
0.0
 11
30.96682835754
 21
841.493349064367
 31
0.0
  0
LINE
  5
1983
330
1D
100
AcDbEntity
  8
0
100
AcDbLine
 10
30.730980072437
 20
841.612872953004
 30
0.0
 11
31.9897317518
 21
840.458618795679
 31
0.0
  0
LINE
  5
1984
330
1D
100
AcDbEntity
  8
0
100
AcDbLine
 10
30.464369943369
 20
841.892848468144
 30
0.0
 11
30.701106137277
 21
841.669514560123
 31
0.0
  0
LINE
  5
1985
330
1D
100
AcDbEntity
  8
0
100
AcDbLine
 10
30.643239684462
 20
841.72147276153
 30
0.0
 11
30.707097077791
 21
841.658155611357
 31
0.0
  0
LINE
  5
1986
330
1D
100
AcDbEntity
  8
0
100
AcDbLine
 10
26.317315992981
 20
845.35880259112
 30
0.0
 11
26.576809510432
 21
845.603959101131
 31
0.0
  0
LINE
  5
1987
330
1D
100
AcDbEntity
  8
0
100
AcDbLine
 10
26.317315992981
 20
845.35880259112
 30
0.0
 11
27.013834862344
 21
846.000095277711
 31
0.0
  0
LINE
  5
1988
330
1D
100
AcDbEntity
  8
0
100
AcDbLine
 10
25.954830148644
 20
845.604482082848
 30
0.0
 11
26.317315992981
 21
845.35880259112
 31
0.0
  0
LINE
  5
1989
330
1D
100
AcDbEntity
  8
0
100
AcDbLine
 10
32.01388162719
 20
840.510690021792
 30
0.0
 11
31.9897317518
 21
840.458618795679
 31
0.0
  0
LINE
  5
198A
330
1D
100
AcDbEntity
  8
0
100
AcDbLine
 10
31.61119461021
 20
840.7547099513
 30
0.0
 11
31.988166134476
 21
840.453797090338
 31
0.0
  0
LINE
  5
198B
330
1D
100
AcDbEntity
  8
0
100
AcDbLine
 10
31.137809033115
 20
841.304138104381
 30
0.0
 11
31.78373821863
 21
840.807567336717
 31
0.0
  0
LINE
  5
198C
330
1D
100
AcDbEntity
  8
0
100
AcDbLine
 10
31.137809033115
 20
841.304138104381
 30
0.0
 11
32.435229385454
 21
840.444572144529
 31
0.0
  0
LINE
  5
198D
330
1D
100
AcDbEntity
  8
0
100
AcDbLine
 10
31.78373821863
 20
840.807567336717
 30
0.0
 11
32.121622859421
 21
840.371707428584
 31
0.0
  0
LINE
  5
198E
330
1D
100
AcDbEntity
  8
0
100
AcDbLine
 10
25.885775632573
 20
845.622219157302
 30
0.0
 11
25.986941013041
 21
845.582718527202
 31
0.0
  0
LINE
  5
198F
330
1D
100
AcDbEntity
  8
0
100
AcDbLine
 10
21.555059806204
 20
849.548601048843
 30
0.0
 11
21.563779963483
 21
849.464326872654
 31
0.0
  0
LINE
  5
1990
330
1D
100
AcDbEntity
  8
0
100
AcDbLine
 10
21.555034448263
 20
849.473202055288
 30
0.0
 11
21.573817827684
 21
849.381234807556
 31
0.0
  0
LINE
  5
1991
330
1D
100
AcDbEntity
  8
0
100
AcDbLine
 10
21.557923667358
 20
849.545868296457
 30
0.0
 11
22.365743971603
 21
848.713596894779
 31
0.0
  0
LINE
  5
1992
330
1D
100
AcDbEntity
  8
0
100
AcDbLine
 10
21.502553051746
 20
849.598704021989
 30
0.0
 11
21.563779963483
 21
849.464326872654
 31
0.0
  0
LINE
  5
1993
330
1D
100
AcDbEntity
  8
0
100
AcDbLine
 10
21.481888045521
 20
849.618422975535
 30
0.0
 11
21.563779963483
 21
849.464326872654
 31
0.0
  0
LINE
  5
1994
330
1D
100
AcDbEntity
  8
0
100
AcDbLine
 10
21.099957524739
 20
849.935026282546
 30
0.0
 11
21.573817827684
 21
849.381234807556
 31
0.0
  0
LINE
  5
1995
330
1D
100
AcDbEntity
  8
0
100
AcDbLine
 10
22.573736661443
 20
848.633059630279
 30
0.0
 11
23.266792504377
 21
849.376358390594
 31
0.0
  0
LINE
  5
1996
330
1D
100
AcDbEntity
  8
0
100
AcDbLine
 10
22.573736661443
 20
848.633059630279
 30
0.0
 11
23.240352529856
 21
849.402443934882
 31
0.0
  0
LINE
  5
1997
330
1D
100
AcDbEntity
  8
0
100
AcDbLine
 10
22.442519555726
 20
848.785929056072
 30
0.0
 11
22.573736661443
 21
848.633059630279
 31
0.0
  0
LINE
  5
1998
330
1D
100
AcDbEntity
  8
0
100
AcDbLine
 10
22.425874257783
 20
848.77024711253
 30
0.0
 11
22.573736661443
 21
848.633059630279
 31
0.0
  0
LINE
  5
1999
330
1D
100
AcDbEntity
  8
0
100
AcDbLine
 10
22.410166647957
 20
848.755448587967
 30
0.0
 11
22.573736661443
 21
848.633059630279
 31
0.0
  0
LINE
  5
199A
330
1D
100
AcDbEntity
  8
0
100
AcDbLine
 10
20.310574235593
 20
850.736113546426
 30
0.0
 11
21.557923667358
 21
849.545868296457
 31
0.0
  0
LINE
  5
199B
330
1D
100
AcDbEntity
  8
0
100
AcDbLine
 10
20.310574235593
 20
850.736113546426
 30
0.0
 11
20.594961003209
 21
850.676456053976
 31
0.0
  0
LINE
  5
199C
330
1D
100
AcDbEntity
  8
0
100
AcDbLine
 10
20.310574235593
 20
850.736113546426
 30
0.0
 11
21.563779963483
 21
849.464326872654
 31
0.0
  0
LINE
  5
199D
330
1D
100
AcDbEntity
  8
0
100
AcDbLine
 10
24.348052728634
 20
847.258585351252
 30
0.0
 11
24.82385334256
 21
847.002022248317
 31
0.0
  0
LINE
  5
199E
330
1D
100
AcDbEntity
  8
0
100
AcDbLine
 10
24.348052728634
 20
847.258585351252
 30
0.0
 11
24.633473000411
 21
846.865834490707
 31
0.0
  0
LINE
  5
199F
330
1D
100
AcDbEntity
  8
0
100
AcDbLine
 10
20.594961003209
 20
850.676456053976
 30
0.0
 11
21.557923667358
 21
849.545868296457
 31
0.0
  0
LINE
  5
19A0
330
1D
100
AcDbEntity
  8
0
100
AcDbLine
 10
20.594961003209
 20
850.676456053976
 30
0.0
 11
20.977592742692
 21
851.112418725708
 31
0.0
  0
LINE
  5
19A1
330
1D
100
AcDbEntity
  8
0
100
AcDbLine
 10
24.201428182537
 20
847.527693029481
 30
0.0
 11
24.354237636955
 21
847.269258423084
 31
0.0
  0
LINE
  5
19A2
330
1D
100
AcDbEntity
  8
0
100
AcDbLine
 10
24.201428182537
 20
847.527693029481
 30
0.0
 11
24.38480130346
 21
847.322001033188
 31
0.0
  0
LINE
  5
19A3
330
1D
100
AcDbEntity
  8
0
100
AcDbLine
 10
26.520666785929
 20
845.374322095216
 30
0.0
 11
26.633135586763
 21
845.476732182741
 31
0.0
  0
LINE
  5
19A4
330
1D
100
AcDbEntity
  8
0
100
AcDbLine
 10
26.540063917476
 20
845.563889088005
 30
0.0
 11
30.703430926157
 21
841.665106711686
 31
0.0
  0
LINE
  5
19A5
330
1D
100
AcDbEntity
  8
0
100
AcDbLine
 10
26.540063917476
 20
845.563889088005
 30
0.0
 11
30.703430926157
 21
841.665106711686
 31
0.0
  0
LINE
  5
19A6
330
1D
100
AcDbEntity
  8
0
100
AcDbLine
 10
26.576809510432
 20
845.603959101131
 30
0.0
 11
27.011188888318
 21
846.002975528775
 31
0.0
  0
LINE
  5
19A7
330
1D
100
AcDbEntity
  8
0
100
AcDbLine
 10
24.82385334256
 20
847.002022248317
 30
0.0
 11
25.68226642733
 21
846.005242881609
 31
0.0
  0
LINE
  5
19A8
330
1D
100
AcDbEntity
  8
0
100
AcDbLine
 10
26.389708778275
 20
845.425455435448
 30
0.0
 11
26.520666785929
 21
845.374322095216
 31
0.0
  0
LINE
  5
19A9
330
1D
100
AcDbEntity
  8
0
100
AcDbLine
 10
24.415104262893
 20
847.166319487944
 30
0.0
 11
24.558065999459
 21
846.924539551881
 31
0.0
  0
LINE
  5
19AA
330
1D
100
AcDbEntity
  8
0
100
AcDbLine
 10
21.563779963483
 20
849.464326872654
 30
0.0
 11
22.365743971603
 21
848.713596894779
 31
0.0
  0
LINE
  5
19AB
330
1D
100
AcDbEntity
  8
0
100
AcDbLine
 10
35.717255091428
 20
837.052281420649
 30
0.0
 11
43.775775426532
 21
830.018985804175
 31
0.0
  0
LINE
  5
19AC
330
1D
100
AcDbEntity
  8
0
100
AcDbLine
 10
38.226938124658
 20
835.174723047997
 30
0.0
 11
38.630494200866
 21
834.788190845773
 31
0.0
  0
LINE
  5
19AD
330
1D
100
AcDbEntity
  8
0
100
AcDbLine
 10
38.226938124658
 20
835.174723047997
 30
0.0
 11
38.359447209102
 21
835.152955123432
 31
0.0
  0
LINE
  5
19AE
330
1D
100
AcDbEntity
  8
0
100
AcDbLine
 10
32.030349096058
 20
840.431853466454
 30
0.0
 11
35.717255091428
 21
837.052281420649
 31
0.0
  0
LINE
  5
19AF
330
1D
100
AcDbEntity
  8
0
100
AcDbLine
 10
32.146291950674
 20
840.357530142969
 30
0.0
 11
32.393409073344
 21
840.126681421961
 31
0.0
  0
LINE
  5
19B0
330
1D
100
AcDbEntity
  8
0
100
AcDbLine
 10
32.393409073344
 20
840.126681421961
 30
0.0
 11
32.463910963403
 21
840.169475621312
 31
0.0
  0
LINE
  5
19B1
330
1D
100
AcDbEntity
  8
0
100
AcDbLine
 10
32.326210470832
 20
840.202120305999
 30
0.0
 11
32.401886475927
 21
840.131827151469
 31
0.0
  0
LINE
  5
19B2
330
1D
100
AcDbEntity
  8
0
100
AcDbLine
 10
32.231287387521
 20
840.308683407118
 30
0.0
 11
32.326210470832
 21
840.202120305999
 31
0.0
  0
LINE
  5
19B3
330
1D
100
AcDbEntity
  8
0
100
AcDbLine
 10
32.231287387521
 20
840.308683407118
 30
0.0
 11
32.393409073344
 21
840.126681421961
 31
0.0
  0
LINE
  5
19B4
330
1D
100
AcDbEntity
  8
0
100
AcDbLine
 10
32.401886475927
 20
840.131827151469
 30
0.0
 11
32.463910963403
 21
840.169475621312
 31
0.0
  0
LINE
  5
19B5
330
1D
100
AcDbEntity
  8
0
100
AcDbLine
 10
32.699277559996
 20
840.039730235235
 30
0.0
 11
33.537351165388
 21
840.829093155229
 31
0.0
  0
LINE
  5
19B6
330
1D
100
AcDbEntity
  8
0
100
AcDbLine
 10
32.121622859421
 20
840.371707428584
 30
0.0
 11
32.699277559996
 21
840.039730235235
 31
0.0
  0
LINE
  5
19B7
330
1D
100
AcDbEntity
  8
0
100
AcDbLine
 10
32.435229385454
 20
840.444572144529
 30
0.0
 11
32.699277559996
 21
840.039730235235
 31
0.0
  0
LINE
  5
19B8
330
1D
100
AcDbEntity
  8
0
100
AcDbLine
 10
38.075273364578
 20
835.667760014714
 30
0.0
 11
39.675821526053
 21
834.441835676592
 31
0.0
  0
LINE
  5
19B9
330
1D
100
AcDbEntity
  8
0
100
AcDbLine
 10
38.075273364578
 20
835.667760014714
 30
0.0
 11
38.226938124658
 21
835.174723047997
 31
0.0
  0
LINE
  5
19BA
330
1D
100
AcDbEntity
  8
0
100
AcDbLine
 10
38.075273364578
 20
835.667760014714
 30
0.0
 11
38.792426031976
 21
836.52046420068
 31
0.0
  0
LINE
  5
19BB
330
1D
100
AcDbEntity
  8
0
100
AcDbLine
 10
31.9897317518
 20
840.458618795679
 30
0.0
 11
32.121622859421
 21
840.371707428584
 31
0.0
  0
LINE
  5
19BC
330
1D
100
AcDbEntity
  8
0
100
AcDbLine
 10
31.981762239247
 20
840.464522766349
 30
0.0
 11
32.121622859421
 21
840.371707428584
 31
0.0
  0
LINE
  5
19BD
330
1D
100
AcDbEntity
  8
0
100
AcDbLine
 10
24.569532190275
 20
848.070312511921
 30
0.0
 11
24.201428182537
 21
847.527693029481
 31
0.0
  0
LINE
  5
19BE
330
1D
100
AcDbEntity
  8
0
100
AcDbLine
 10
21.304717978538
 20
850.791432425335
 30
0.0
 11
22.378570405967
 21
851.688386226982
 31
0.0
  0
LINE
  5
19BF
330
1D
100
AcDbEntity
  8
0
100
AcDbLine
 10
21.259484634883
 20
850.852493416334
 30
0.0
 11
22.345787098498
 21
851.728896465797
 31
0.0
  0
LINE
  5
19C0
330
1D
100
AcDbEntity
  8
0
100
AcDbLine
 10
21.259484634883
 20
850.852493416334
 30
0.0
 11
21.304717978538
 21
850.791432425335
 31
0.0
  0
LINE
  5
19C1
330
1D
100
AcDbEntity
  8
0
100
AcDbLine
 10
34.884320877345
 20
839.076985842514
 30
0.0
 11
34.822353387752
 21
838.99672699478
 31
0.0
  0
LINE
  5
19C2
330
1D
100
AcDbEntity
  8
0
100
AcDbLine
 10
34.836639993654
 20
839.119409716843
 30
0.0
 11
34.822353387752
 21
838.99672699478
 31
0.0
  0
LINE
  5
19C3
330
1D
100
AcDbEntity
  8
0
100
AcDbLine
 10
34.34597943906
 20
839.555972970186
 30
0.0
 11
35.443992578273
 21
838.579020199518
 31
0.0
  0
LINE
  5
19C4
330
1D
100
AcDbEntity
  8
0
100
AcDbLine
 10
34.34597943906
 20
839.555972970186
 30
0.0
 11
34.417030640517
 21
839.568762030758
 31
0.0
  0
LINE
  5
19C5
330
1D
100
AcDbEntity
  8
0
100
AcDbLine
 10
34.816018401953
 20
839.137757695049
 30
0.0
 11
34.822353387752
 21
838.99672699478
 31
0.0
  0
LINE
  5
19C6
330
1D
100
AcDbEntity
  8
0
100
AcDbLine
 10
36.17641163003
 20
838.003348780544
 30
0.0
 11
37.118727878388
 21
838.916226125686
 31
0.0
  0
LINE
  5
19C7
330
1D
100
AcDbEntity
  8
0
100
AcDbLine
 10
35.443992578273
 20
838.579020199518
 30
0.0
 11
35.908179524258
 21
838.356221615193
 31
0.0
  0
LINE
  5
19C8
330
1D
100
AcDbEntity
  8
0
100
AcDbLine
 10
35.443992578273
 20
838.579020199518
 30
0.0
 11
35.590092421441
 21
838.67964707707
 31
0.0
  0
LINE
  5
19C9
330
1D
100
AcDbEntity
  8
0
100
AcDbLine
 10
35.908179524258
 20
838.356221615193
 30
0.0
 11
36.17641163003
 21
838.003348780544
 31
0.0
  0
LINE
  5
19CA
330
1D
100
AcDbEntity
  8
0
100
AcDbLine
 10
34.103846170081
 20
839.774420172167
 30
0.0
 11
34.311945960313
 21
839.978241288112
 31
0.0
  0
LINE
  5
19CB
330
1D
100
AcDbEntity
  8
0
100
AcDbLine
 10
34.103846170081
 20
839.774420172167
 30
0.0
 11
35.260189108207
 21
839.015087057227
 31
0.0
  0
LINE
  5
19CC
330
1D
100
AcDbEntity
  8
0
100
AcDbLine
 10
34.103846170081
 20
839.774420172167
 30
0.0
 11
34.822353387752
 21
838.99672699478
 31
0.0
  0
LINE
  5
19CD
330
1D
100
AcDbEntity
  8
0
100
AcDbLine
 10
35.192610685539
 20
839.059463627962
 30
0.0
 11
35.443992578273
 21
838.579020199518
 31
0.0
  0
LINE
  5
19CE
330
1D
100
AcDbEntity
  8
0
100
AcDbLine
 10
35.303038242351
 20
838.971518799103
 30
0.0
 11
35.443992578273
 21
838.579020199518
 31
0.0
  0
LINE
  5
19CF
330
1D
100
AcDbEntity
  8
0
100
AcDbLine
 10
35.458032978255
 20
838.813922833707
 30
0.0
 11
35.443992578273
 21
838.579020199518
 31
0.0
  0
LINE
  5
19D0
330
1D
100
AcDbEntity
  8
0
100
AcDbLine
 10
35.260189108207
 20
839.015087057227
 30
0.0
 11
35.908179524258
 21
838.356221615193
 31
0.0
  0
LINE
  5
19D1
330
1D
100
AcDbEntity
  8
0
100
AcDbLine
 10
27.481549607323
 20
845.490968627738
 30
0.0
 11
28.023330693136
 21
845.359709704021
 31
0.0
  0
LINE
  5
19D2
330
1D
100
AcDbEntity
  8
0
100
AcDbLine
 10
34.822353387752
 20
838.99672699478
 30
0.0
 11
35.443992578273
 21
838.579020199518
 31
0.0
  0
LINE
  5
19D3
330
1D
100
AcDbEntity
  8
0
100
AcDbLine
 10
34.822353387752
 20
838.99672699478
 30
0.0
 11
36.17641163003
 21
838.003348780544
 31
0.0
  0
LINE
  5
19D4
330
1D
100
AcDbEntity
  8
0
100
AcDbLine
 10
19.63291656907
 20
851.402249768984
 30
0.0
 11
20.672803953063
 21
850.030101278982
 31
0.0
  0
LINE
  5
19D5
330
1D
100
AcDbEntity
  8
0
100
AcDbLine
 10
19.63291656907
 20
851.402249768984
 30
0.0
 11
20.120639202502
 21
851.942402451201
 31
0.0
  0
LINE
  5
19D6
330
1D
100
AcDbEntity
  8
0
100
AcDbLine
 10
20.705863745611
 20
851.377029580021
 30
0.0
 11
20.310574235593
 21
850.736113546426
 31
0.0
  0
LINE
  5
19D7
330
1D
100
AcDbEntity
  8
0
100
AcDbLine
 10
20.839072004545
 20
851.248339939942
 30
0.0
 11
21.304717978538
 21
850.791432425335
 31
0.0
  0
LINE
  5
19D8
330
1D
100
AcDbEntity
  8
0
100
AcDbLine
 10
23.170283687341
 20
849.47157349827
 30
0.0
 11
23.763195873952
 21
848.886609352774
 31
0.0
  0
LINE
  5
19D9
330
1D
100
AcDbEntity
  8
0
100
AcDbLine
 10
23.763195873952
 20
848.886609352774
 30
0.0
 11
24.726407829054
 21
847.911499017169
 31
0.0
  0
LINE
  5
19DA
330
1D
100
AcDbEntity
  8
0
100
AcDbLine
 10
26.448491385704
 20
846.615494799397
 30
0.0
 11
27.273413800058
 21
845.842497994554
 31
0.0
  0
LINE
  5
19DB
330
1D
100
AcDbEntity
  8
0
100
AcDbLine
 10
26.448491385704
 20
846.615494799397
 30
0.0
 11
28.023330693136
 21
845.359709704021
 31
0.0
  0
LINE
  5
19DC
330
1D
100
AcDbEntity
  8
0
100
AcDbLine
 10
26.448491385704
 20
846.615494799397
 30
0.0
 11
27.481549607323
 21
845.490968627738
 31
0.0
  0
LINE
  5
19DD
330
1D
100
AcDbEntity
  8
0
100
AcDbLine
 10
28.023330693136
 20
845.359709704021
 30
0.0
 11
28.799506665186
 21
846.055781282367
 31
0.0
  0
LINE
  5
19DE
330
1D
100
AcDbEntity
  8
0
100
AcDbLine
 10
34.311945960313
 20
839.978241288112
 30
0.0
 11
35.260189108207
 21
839.015087057227
 31
0.0
  0
LINE
  5
19DF
330
1D
100
AcDbEntity
  8
0
100
AcDbLine
 10
27.273413800058
 20
845.842497994554
 30
0.0
 11
27.481549607323
 21
845.490968627738
 31
0.0
  0
LINE
  5
19E0
330
1D
100
AcDbEntity
  8
0
100
AcDbLine
 10
26.063230711038
 20
846.843211075837
 30
0.0
 11
26.448491385704
 21
846.615494799397
 31
0.0
  0
LINE
  5
19E1
330
1D
100
AcDbEntity
  8
0
100
AcDbLine
 10
26.063230711038
 20
846.843211075837
 30
0.0
 11
27.005159876178
 21
846.009538355341
 31
0.0
  0
LINE
  5
19E2
330
1D
100
AcDbEntity
  8
0
100
AcDbLine
 10
19.959060776663
 20
852.098499900656
 30
0.0
 11
20.839072004545
 21
851.248339939942
 31
0.0
  0
LINE
  5
19E3
330
1D
100
AcDbEntity
  8
0
100
AcDbLine
 10
19.959060776663
 20
852.098499900656
 30
0.0
 11
20.051704343281
 21
852.073776195758
 31
0.0
  0
LINE
  5
19E4
330
1D
100
AcDbEntity
  8
0
100
AcDbLine
 10
19.963834425314
 20
852.286519746094
 30
0.0
 11
21.259484634883
 21
850.852493416334
 31
0.0
  0
LINE
  5
19E5
330
1D
100
AcDbEntity
  8
0
100
AcDbLine
 10
19.963834425314
 20
852.286519746094
 30
0.0
 11
20.931968385871
 21
851.547914408708
 31
0.0
  0
LINE
  5
19E6
330
1D
100
AcDbEntity
  8
0
100
AcDbLine
 10
20.931968385871
 20
851.547914408708
 30
0.0
 11
21.259484634883
 21
850.852493416334
 31
0.0
  0
LINE
  5
19E7
330
1D
100
AcDbEntity
  8
0
100
AcDbLine
 10
30.693182921928
 20
843.257810856213
 30
0.0
 11
31.073686341464
 21
842.85254236939
 31
0.0
  0
LINE
  5
19E8
330
1D
100
AcDbEntity
  8
0
100
AcDbLine
 10
30.492826728467
 20
843.551248764026
 30
0.0
 11
30.605486927492
 21
843.509715168522
 31
0.0
  0
LINE
  5
19E9
330
1D
100
AcDbEntity
  8
0
100
AcDbLine
 10
32.834056428071
 20
841.565967810687
 30
0.0
 11
33.334841585442
 21
841.057905259266
 31
0.0
  0
LINE
  5
19EA
330
1D
100
AcDbEntity
  8
0
100
AcDbLine
 10
30.847813575484
 20
843.261472956815
 30
0.0
 11
31.134205633506
 21
842.956887727157
 31
0.0
  0
LINE
  5
19EB
330
1D
100
AcDbEntity
  8
0
100
AcDbLine
 10
30.624239145935
 20
843.413828181379
 30
0.0
 11
30.78005539543
 21
843.219770570363
 31
0.0
  0
LINE
  5
19EC
330
1D
100
AcDbEntity
  8
0
100
AcDbLine
 10
30.52862939113
 20
843.461680190597
 30
0.0
 11
30.78005539543
 21
843.219770570363
 31
0.0
  0
LINE
  5
19ED
330
1D
100
AcDbEntity
  8
0
100
AcDbLine
 10
30.52862939113
 20
843.461680190597
 30
0.0
 11
30.693182921928
 21
843.257810856213
 31
0.0
  0
LINE
  5
19EE
330
1D
100
AcDbEntity
  8
0
100
AcDbLine
 10
33.382777768798
 20
841.124541507071
 30
0.0
 11
33.465108354462
 21
841.026449961713
 31
0.0
  0
LINE
  5
19EF
330
1D
100
AcDbEntity
  8
0
100
AcDbLine
 10
38.974649876164
 20
836.385201315733
 30
0.0
 11
39.84592401498
 21
835.718472086562
 31
0.0
  0
LINE
  5
19F0
330
1D
100
AcDbEntity
  8
0
100
AcDbLine
 10
38.659397071796
 20
836.61921022931
 30
0.0
 11
38.075273364578
 21
835.667760014714
 31
0.0
  0
LINE
  5
19F1
330
1D
100
AcDbEntity
  8
0
100
AcDbLine
 10
33.014387634909
 20
841.383016036461
 30
0.0
 11
32.435229385454
 21
840.444572144529
 31
0.0
  0
LINE
  5
19F2
330
1D
100
AcDbEntity
  8
0
100
AcDbLine
 10
32.54792567553
 20
841.868373283613
 30
0.0
 11
32.818712995457
 21
841.609911172821
 31
0.0
  0
LINE
  5
19F3
330
1D
100
AcDbEntity
  8
0
100
AcDbLine
 10
30.590793594673
 20
843.499982955482
 30
0.0
 11
30.624239145935
 21
843.413828181379
 31
0.0
  0
LINE
  5
19F4
330
1D
100
AcDbEntity
  8
0
100
AcDbLine
 10
30.590793594673
 20
843.499982955482
 30
0.0
 11
30.650127601318
 21
843.477996094731
 31
0.0
  0
LINE
  5
19F5
330
1D
100
AcDbEntity
  8
0
100
AcDbLine
 10
30.590793594673
 20
843.499982955482
 30
0.0
 11
30.642351047148
 21
843.483521663108
 31
0.0
  0
LINE
  5
19F6
330
1D
100
AcDbEntity
  8
0
100
AcDbLine
 10
25.824050274886
 20
847.414904043226
 30
0.0
 11
26.448491385704
 21
846.615494799397
 31
0.0
  0
LINE
  5
19F7
330
1D
100
AcDbEntity
  8
0
100
AcDbLine
 10
25.824050274886
 20
847.414904043226
 30
0.0
 11
26.063230711038
 21
846.843211075837
 31
0.0
  0
LINE
  5
19F8
330
1D
100
AcDbEntity
  8
0
100
AcDbLine
 10
19.807620803406
 20
852.320588489404
 30
0.0
 11
19.959060776663
 21
852.098499900656
 31
0.0
  0
LINE
  5
19F9
330
1D
100
AcDbEntity
  8
0
100
AcDbLine
 10
18.117608579146
 20
854.693026765446
 30
0.0
 11
19.358649546121
 21
853.334768772803
 31
0.0
  0
LINE
  5
19FA
330
1D
100
AcDbEntity
  8
0
100
AcDbLine
 10
18.405858201825
 20
854.953031675198
 30
0.0
 11
18.481913472072
 21
854.855770714439
 31
0.0
  0
LINE
  5
19FB
330
1D
100
AcDbEntity
  8
0
100
AcDbLine
 10
18.351599094229
 20
854.996055613581
 30
0.0
 11
18.531050736504
 21
854.767936613748
 31
0.0
  0
LINE
  5
19FC
330
1D
100
AcDbEntity
  8
0
100
AcDbLine
 10
18.097187081486
 20
855.301302772081
 30
0.0
 11
18.351599094229
 21
854.996055613581
 31
0.0
  0
LINE
  5
19FD
330
1D
100
AcDbEntity
  8
0
100
AcDbLine
 10
18.097187081486
 20
855.301302772081
 30
0.0
 11
19.717253982945
 21
853.473394556443
 31
0.0
  0
LINE
  5
19FE
330
1D
100
AcDbEntity
  8
0
100
AcDbLine
 10
18.310260092214
 20
854.878433072779
 30
0.0
 11
18.45566391615
 21
854.742034349041
 31
0.0
  0
LINE
  5
19FF
330
1D
100
AcDbEntity
  8
0
100
AcDbLine
 10
18.45566391615
 20
854.742034349041
 30
0.0
 11
18.609334411285
 21
854.632540061862
 31
0.0
  0
LINE
  5
1A00
330
1D
100
AcDbEntity
  8
0
100
AcDbLine
 10
18.409297663435
 20
854.831459516691
 30
0.0
 11
18.554445751079
 21
854.727473460817
 31
0.0
  0
LINE
  5
1A01
330
1D
100
AcDbEntity
  8
0
100
AcDbLine
 10
18.409297663435
 20
854.831459516691
 30
0.0
 11
18.609334411285
 21
854.632540061862
 31
0.0
  0
LINE
  5
1A02
330
1D
100
AcDbEntity
  8
0
100
AcDbLine
 10
18.481913472072
 20
854.855770714439
 30
0.0
 11
18.531050736504
 21
854.767936613748
 31
0.0
  0
LINE
  5
1A03
330
1D
100
AcDbEntity
  8
0
100
AcDbLine
 10
18.57411389796
 20
854.763190151358
 30
0.0
 11
19.492994986521
 21
853.726424145299
 31
0.0
  0
LINE
  5
1A04
330
1D
100
AcDbEntity
  8
0
100
AcDbLine
 10
18.476718797901
 20
854.862413764935
 30
0.0
 11
18.57411389796
 21
854.763190151358
 31
0.0
  0
LINE
  5
1A05
330
1D
100
AcDbEntity
  8
0
100
AcDbLine
 10
18.531050736504
 20
854.767936613748
 30
0.0
 11
18.609334411285
 21
854.632540061862
 31
0.0
  0
LINE
  5
1A06
330
1D
100
AcDbEntity
  8
0
100
AcDbLine
 10
18.531050736504
 20
854.767936613748
 30
0.0
 11
19.717253982945
 21
853.473394556443
 31
0.0
  0
LINE
  5
1A07
330
1D
100
AcDbEntity
  8
0
100
AcDbLine
 10
18.357627225444
 20
854.833999464742
 30
0.0
 11
18.42607833201
 21
854.901377576559
 31
0.0
  0
LINE
  5
1A08
330
1D
100
AcDbEntity
  8
0
100
AcDbLine
 10
21.719188534122
 20
851.137626121048
 30
0.0
 11
22.091581334236
 21
850.767431186603
 31
0.0
  0
LINE
  5
1A09
330
1D
100
AcDbEntity
  8
0
100
AcDbLine
 10
22.091581334236
 20
850.767431186603
 30
0.0
 11
22.483585785879
 21
850.372577327698
 31
0.0
  0
LINE
  5
1A0A
330
1D
100
AcDbEntity
  8
0
100
AcDbLine
 10
21.73753087402
 20
851.152946877497
 30
0.0
 11
22.483585785879
 21
850.372577327698
 31
0.0
  0
LINE
  5
1A0B
330
1D
100
AcDbEntity
  8
0
100
AcDbLine
 10
19.358649546121
 20
853.334768772803
 30
0.0
 11
19.571654412567
 21
853.107693959238
 31
0.0
  0
LINE
  5
1A0C
330
1D
100
AcDbEntity
  8
0
100
AcDbLine
 10
19.301969275779
 20
853.410330615202
 30
0.0
 11
19.358649546121
 21
853.334768772803
 31
0.0
  0
LINE
  5
1A0D
330
1D
100
AcDbEntity
  8
0
100
AcDbLine
 10
19.336401656035
 20
853.664515526216
 30
0.0
 11
19.693565876294
 21
853.290923613157
 31
0.0
  0
LINE
  5
1A0E
330
1D
100
AcDbEntity
  8
0
100
AcDbLine
 10
19.336401656035
 20
853.664515526216
 30
0.0
 11
19.690501614217
 21
853.2863181096
 31
0.0
  0
LINE
  5
1A0F
330
1D
100
AcDbEntity
  8
0
100
AcDbLine
 10
22.345709981842
 20
850.511455325244
 30
0.0
 11
21.557923667358
 21
849.545868296457
 31
0.0
  0
LINE
  5
1A10
330
1D
100
AcDbEntity
  8
0
100
AcDbLine
 10
25.150638519666
 20
848.241828300901
 30
0.0
 11
25.894546855617
 21
847.525626154035
 31
0.0
  0
LINE
  5
1A11
330
1D
100
AcDbEntity
  8
0
100
AcDbLine
 10
25.444062525287
 20
847.959332605381
 30
0.0
 11
24.82385334256
 21
847.002022248317
 31
0.0
  0
LINE
  5
1A12
330
1D
100
AcDbEntity
  8
0
100
AcDbLine
 10
24.996726483225
 20
848.377978108543
 30
0.0
 11
24.348052728634
 21
847.258585351252
 31
0.0
  0
LINE
  5
1A13
330
1D
100
AcDbEntity
  8
0
100
AcDbLine
 10
28.980693972793
 20
845.903172570035
 30
0.0
 11
29.097938282362
 21
845.812467716503
 31
0.0
  0
LINE
  5
1A14
330
1D
100
AcDbEntity
  8
0
100
AcDbLine
 10
26.253303969568
 20
848.250992666281
 30
0.0
 11
26.314463265121
 21
848.185147945603
 31
0.0
  0
LINE
  5
1A15
330
1D
100
AcDbEntity
  8
0
100
AcDbLine
 10
26.10429354159
 20
848.548993727275
 30
0.0
 11
26.253303969568
 21
848.250992666281
 31
0.0
  0
LINE
  5
1A16
330
1D
100
AcDbEntity
  8
0
100
AcDbLine
 10
29.06314344586
 20
845.874488160552
 30
0.0
 11
29.097193320521
 21
845.816493644732
 31
0.0
  0
LINE
  5
1A17
330
1D
100
AcDbEntity
  8
0
100
AcDbLine
 10
29.06314344586
 20
845.874488160552
 30
0.0
 11
29.110460641922
 21
845.79389644317
 31
0.0
  0
LINE
  5
1A18
330
1D
100
AcDbEntity
  8
0
100
AcDbLine
 10
22.381983090351
 20
851.691236730602
 30
0.0
 11
22.426119674417
 21
851.728102575348
 31
0.0
  0
LINE
  5
1A19
330
1D
100
AcDbEntity
  8
0
100
AcDbLine
 10
22.348504420972
 20
851.731088737088
 30
0.0
 11
22.391739179383
 21
851.765969514203
 31
0.0
  0
LINE
  5
1A1A
330
1D
100
AcDbEntity
  8
0
100
AcDbLine
 10
27.760501201015
 20
846.942442340341
 30
0.0
 11
28.595743597636
 21
846.195901498265
 31
0.0
  0
LINE
  5
1A1B
330
1D
100
AcDbEntity
  8
0
100
AcDbLine
 10
28.595743597636
 20
846.195901498265
 30
0.0
 11
29.100020947551
 21
845.849128886367
 31
0.0
  0
LINE
  5
1A1C
330
1D
100
AcDbEntity
  8
0
100
AcDbLine
 10
28.595743597636
 20
846.195901498265
 30
0.0
 11
29.145281050188
 21
845.818591972487
 31
0.0
  0
LINE
  5
1A1D
330
1D
100
AcDbEntity
  8
0
100
AcDbLine
 10
29.100020947551
 20
845.849128886367
 30
0.0
 11
29.145281050188
 21
845.818591972487
 31
0.0
  0
LINE
  5
1A1E
330
1D
100
AcDbEntity
  8
0
100
AcDbLine
 10
26.272746299672
 20
848.44902649117
 30
0.0
 11
26.39399275866
 21
848.310057172475
 31
0.0
  0
LINE
  5
1A1F
330
1D
100
AcDbEntity
  8
0
100
AcDbLine
 10
20.29431385881
 20
853.49059076727
 30
0.0
 11
21.451615700493
 21
854.542125128121
 31
0.0
  0
LINE
  5
1A20
330
1D
100
AcDbEntity
  8
0
100
AcDbLine
 10
19.98914417006
 20
853.735169845766
 30
0.0
 11
19.42185076574
 21
852.882543103652
 31
0.0
  0
LINE
  5
1A21
330
1D
100
AcDbEntity
  8
0
100
AcDbLine
 10
19.545333398824
 20
854.090863197554
 30
0.0
 11
20.29431385881
 21
853.49059076727
 31
0.0
  0
LINE
  5
1A22
330
1D
100
AcDbEntity
  8
0
100
AcDbLine
 10
19.349034494449
 20
854.293303806477
 30
0.0
 11
19.545333398824
 21
854.090863197554
 31
0.0
  0
LINE
  5
1A23
330
1D
100
AcDbEntity
  8
0
100
AcDbLine
 10
17.592254651094
 20
855.885164862594
 30
0.0
 11
18.097187081486
 21
855.301302772081
 31
0.0
  0
LINE
  5
1A24
330
1D
100
AcDbEntity
  8
0
100
AcDbLine
 10
17.632820479118
 20
855.838257894991
 30
0.0
 11
17.031598404191
 21
854.732859511218
 31
0.0
  0
LINE
  5
1A25
330
1D
100
AcDbEntity
  8
0
100
AcDbLine
 10
26.175169800688
 20
848.683243926144
 30
0.0
 11
26.571257566597
 21
848.397489868085
 31
0.0
  0
LINE
  5
1A26
330
1D
100
AcDbEntity
  8
0
100
AcDbLine
 10
27.155931456063
 20
847.881434780933
 30
0.0
 11
27.715583173527
 21
847.358405936203
 31
0.0
  0
LINE
  5
1A27
330
1D
100
AcDbEntity
  8
0
100
AcDbLine
 10
26.235711906928
 20
848.639566352559
 30
0.0
 11
26.272746299672
 21
848.44902649117
 31
0.0
  0
LINE
  5
1A28
330
1D
100
AcDbEntity
  8
0
100
AcDbLine
 10
26.055975041296
 20
848.704544145241
 30
0.0
 11
26.10429354159
 21
848.548993727275
 31
0.0
  0
LINE
  5
1A29
330
1D
100
AcDbEntity
  8
0
100
AcDbLine
 10
26.055975041296
 20
848.704544145241
 30
0.0
 11
26.175169800688
 21
848.683243926144
 31
0.0
  0
LINE
  5
1A2A
330
1D
100
AcDbEntity
  8
0
100
AcDbLine
 10
19.669526335381
 20
854.314576203938
 30
0.0
 11
19.545333398824
 21
854.090863197554
 31
0.0
  0
LINE
  5
1A2B
330
1D
100
AcDbEntity
  8
0
100
AcDbLine
 10
21.284925045687
 20
852.92749994295
 30
0.0
 11
21.789488759387
 21
852.36326727036
 31
0.0
  0
LINE
  5
1A2C
330
1D
100
AcDbEntity
  8
0
100
AcDbLine
 10
19.679275936624
 20
854.301718185594
 30
0.0
 11
19.545333398824
 21
854.090863197554
 31
0.0
  0
LINE
  5
1A2D
330
1D
100
AcDbEntity
  8
0
100
AcDbLine
 10
20.825743924841
 20
853.391645252372
 30
0.0
 11
21.284925045687
 21
852.92749994295
 31
0.0
  0
LINE
  5
1A2E
330
1D
100
AcDbEntity
  8
0
100
AcDbLine
 10
20.495224694301
 20
853.673140072367
 30
0.0
 11
20.825743924841
 21
853.391645252372
 31
0.0
  0
LINE
  5
1A2F
330
1D
100
AcDbEntity
  8
0
100
AcDbLine
 10
19.568255650582
 20
854.448134519856
 30
0.0
 11
19.545333398824
 21
854.090863197554
 31
0.0
  0
LINE
  5
1A30
330
1D
100
AcDbEntity
  8
0
100
AcDbLine
 10
19.58612508436
 20
854.424567862964
 30
0.0
 11
19.545333398824
 21
854.090863197554
 31
0.0
  0
LINE
  5
1A31
330
1D
100
AcDbEntity
  8
0
100
AcDbLine
 10
26.571257566597
 20
848.397489868085
 30
0.0
 11
27.155931456063
 21
847.881434780933
 31
0.0
  0
LINE
  5
1A32
330
1D
100
AcDbEntity
  8
0
100
AcDbLine
 10
26.487934610692
 20
848.457602486622
 30
0.0
 11
25.824050274886
 21
847.414904043226
 31
0.0
  0
LINE
  5
1A33
330
1D
100
AcDbEntity
  8
0
100
AcDbLine
 10
21.697085216342
 20
852.466598319806
 30
0.0
 11
20.931968385871
 21
851.547914408708
 31
0.0
  0
LINE
  5
1A34
330
1D
100
AcDbEntity
  8
0
100
AcDbLine
 10
21.697085216342
 20
852.466598319806
 30
0.0
 11
20.931968385871
 21
851.547914408708
 31
0.0
  0
LINE
  5
1A35
330
1D
100
AcDbEntity
  8
0
100
AcDbLine
 10
19.08522175277
 20
854.571323657077
 30
0.0
 11
19.349034494449
 21
854.293303806477
 31
0.0
  0
LINE
  5
1A36
330
1D
100
AcDbEntity
  8
0
100
AcDbLine
 10
19.08522175277
 20
854.571323657077
 30
0.0
 11
19.545333398824
 21
854.090863197554
 31
0.0
  0
LINE
  5
1A37
330
1D
100
AcDbEntity
  8
0
100
AcDbLine
 10
19.08522175277
 20
854.571323657077
 30
0.0
 11
19.39878687792
 21
854.671634182393
 31
0.0
  0
LINE
  5
1A38
330
1D
100
AcDbEntity
  8
0
100
AcDbLine
 10
19.271937778295
 20
854.817236519796
 30
0.0
 11
19.08522175277
 21
854.571323657077
 31
0.0
  0
LINE
  5
1A39
330
1D
100
AcDbEntity
  8
0
100
AcDbLine
 10
19.100741224934
 20
854.940872998623
 30
0.0
 11
19.08522175277
 21
854.571323657077
 31
0.0
  0
LINE
  5
1A3A
330
1D
100
AcDbEntity
  8
0
100
AcDbLine
 10
20.336949486445
 20
853.88272773729
 30
0.0
 11
20.29431385881
 21
853.49059076727
 31
0.0
  0
LINE
  5
1A3B
330
1D
100
AcDbEntity
  8
0
100
AcDbLine
 10
20.336949486445
 20
853.88272773729
 30
0.0
 11
21.237205258252
 21
854.778901137497
 31
0.0
  0
LINE
  5
1A3C
330
1D
100
AcDbEntity
  8
0
100
AcDbLine
 10
19.222722964019
 20
854.903831682401
 30
0.0
 11
20.29431385881
 21
853.49059076727
 31
0.0
  0
LINE
  5
1A3D
330
1D
100
AcDbEntity
  8
0
100
AcDbLine
 10
19.222722964019
 20
854.903831682401
 30
0.0
 11
20.336949486445
 21
853.88272773729
 31
0.0
  0
LINE
  5
1A3E
330
1D
100
AcDbEntity
  8
0
100
AcDbLine
 10
27.667386314538
 20
847.804733165942
 30
0.0
 11
29.261246355102
 21
846.449180632436
 31
0.0
  0
LINE
  5
1A3F
330
1D
100
AcDbEntity
  8
0
100
AcDbLine
 10
27.667386314538
 20
847.804733165942
 30
0.0
 11
27.760501201015
 21
846.942442340341
 31
0.0
  0
LINE
  5
1A40
330
1D
100
AcDbEntity
  8
0
100
AcDbLine
 10
18.757198330316
 20
855.188976321867
 30
0.0
 11
19.308290723386
 21
854.790982777896
 31
0.0
  0
LINE
  5
1A41
330
1D
100
AcDbEntity
  8
0
100
AcDbLine
 10
18.464081881939
 20
855.464432430332
 30
0.0
 11
18.586861340384
 21
855.609043994821
 31
0.0
  0
LINE
  5
1A42
330
1D
100
AcDbEntity
  8
0
100
AcDbLine
 10
18.464081881939
 20
855.464432430332
 30
0.0
 11
18.695735605265
 21
855.202692860398
 31
0.0
  0
LINE
  5
1A43
330
1D
100
AcDbEntity
  8
0
100
AcDbLine
 10
18.464081881939
 20
855.464432430332
 30
0.0
 11
19.08522175277
 21
854.571323657077
 31
0.0
  0
LINE
  5
1A44
330
1D
100
AcDbEntity
  8
0
100
AcDbLine
 10
18.464081881939
 20
855.464432430332
 30
0.0
 11
18.757198330316
 21
855.188976321867
 31
0.0
  0
LINE
  5
1A45
330
1D
100
AcDbEntity
  8
0
100
AcDbLine
 10
19.340187652046
 20
856.907159109387
 30
0.0
 11
18.464081881939
 21
855.464432430332
 31
0.0
  0
LINE
  5
1A46
330
1D
100
AcDbEntity
  8
0
100
AcDbLine
 10
20.727543012388
 20
857.214951270832
 30
0.0
 11
21.130664243394
 21
857.466214326438
 31
0.0
  0
LINE
  5
1A47
330
1D
100
AcDbEntity
  8
0
100
AcDbLine
 10
20.727543012388
 20
857.214951270832
 30
0.0
 11
21.945868715092
 21
855.863169823212
 31
0.0
  0
LINE
  5
1A48
330
1D
100
AcDbEntity
  8
0
100
AcDbLine
 10
20.727543012388
 20
857.214951270832
 30
0.0
 11
21.779510589377
 21
856.108759937036
 31
0.0
  0
LINE
  5
1A49
330
1D
100
AcDbEntity
  8
0
100
AcDbLine
 10
20.727543012388
 20
857.214951270832
 30
0.0
 11
21.292122523494
 21
857.269916277885
 31
0.0
  0
LINE
  5
1A4A
330
1D
100
AcDbEntity
  8
0
100
AcDbLine
 10
22.086083402921
 20
857.814064121044
 30
0.0
 11
22.668135337633
 21
857.083772586588
 31
0.0
  0
LINE
  5
1A4B
330
1D
100
AcDbEntity
  8
0
100
AcDbLine
 10
21.510047263252
 20
858.317388564912
 30
0.0
 11
22.086083402921
 21
857.814064121044
 31
0.0
  0
LINE
  5
1A4C
330
1D
100
AcDbEntity
  8
0
100
AcDbLine
 10
20.701828861148
 20
858.123030095839
 30
0.0
 11
20.727543012388
 21
857.214951270832
 31
0.0
  0
LINE
  5
1A4D
330
1D
100
AcDbEntity
  8
0
100
AcDbLine
 10
20.701828861148
 20
858.123030095839
 30
0.0
 11
21.510047263252
 21
858.317388564912
 31
0.0
  0
LINE
  5
1A4E
330
1D
100
AcDbEntity
  8
0
100
AcDbLine
 10
21.130664243394
 20
857.466214326438
 30
0.0
 11
21.923926317909
 21
856.501780683756
 31
0.0
  0
LINE
  5
1A4F
330
1D
100
AcDbEntity
  8
0
100
AcDbLine
 10
28.358945947467
 20
848.880488143479
 30
0.0
 11
27.667386314538
 21
847.804733165942
 31
0.0
  0
LINE
  5
1A50
330
1D
100
AcDbEntity
  8
0
100
AcDbLine
 10
21.945868715092
 20
855.863169823212
 30
0.0
 11
22.649910435759
 21
855.682437104646
 31
0.0
  0
LINE
  5
1A51
330
1D
100
AcDbEntity
  8
0
100
AcDbLine
 10
22.979294223271
 20
856.548543749652
 30
0.0
 11
22.649910435759
 21
855.682437104646
 31
0.0
  0
LINE
  5
1A52
330
1D
100
AcDbEntity
  8
0
100
AcDbLine
 10
22.668135337633
 20
857.083772586588
 30
0.0
 11
22.979294223271
 21
856.548543749652
 31
0.0
  0
LINE
  5
1A53
330
1D
100
AcDbEntity
  8
0
100
AcDbLine
 10
21.779510589377
 20
856.108759937036
 30
0.0
 11
22.018421970439
 21
856.197306659161
 31
0.0
  0
LINE
  5
1A54
330
1D
100
AcDbEntity
  8
0
100
AcDbLine
 10
21.779510589377
 20
856.108759937036
 30
0.0
 11
21.979307598126
 21
856.323336905407
 31
0.0
  0
LINE
  5
1A55
330
1D
100
AcDbEntity
  8
0
100
AcDbLine
 10
21.923926317909
 20
856.501780683756
 30
0.0
 11
22.018421970439
 21
856.197306659161
 31
0.0
  0
LINE
  5
1A56
330
1D
100
AcDbEntity
  8
0
100
AcDbLine
 10
21.923926317909
 20
856.501780683756
 30
0.0
 11
21.779510589377
 21
856.108759937036
 31
0.0
  0
LINE
  5
1A57
330
1D
100
AcDbEntity
  8
0
100
AcDbLine
 10
18.586861340384
 20
855.609043994821
 30
0.0
 11
19.222722964019
 21
854.903831682401
 31
0.0
  0
LINE
  5
1A58
330
1D
100
AcDbEntity
  8
0
100
AcDbLine
 10
29.261246355102
 20
846.449180632436
 30
0.0
 11
29.729542253732
 21
845.562006516872
 31
0.0
  0
LINE
  5
1A59
330
1D
100
AcDbEntity
  8
0
100
AcDbLine
 10
30.618868924942
 20
843.502568967334
 30
0.0
 11
30.69675828152
 21
843.509743337051
 31
0.0
  0
LINE
  5
1A5A
330
1D
100
AcDbEntity
  8
0
100
AcDbLine
 10
30.672655656101
 20
843.473845990546
 30
0.0
 11
30.753108869039
 21
843.448158843546
 31
0.0
  0
LINE
  5
1A5B
330
1D
100
AcDbEntity
  8
0
100
AcDbLine
 10
30.866451350861
 20
843.32428898446
 30
0.0
 11
31.256160287867
 21
843.007597076737
 31
0.0
  0
LINE
  5
1A5C
330
1D
100
AcDbEntity
  8
0
100
AcDbLine
 10
30.767844273568
 20
843.394353454658
 30
0.0
 11
30.847813575484
 21
843.261472956815
 31
0.0
  0
LINE
  5
1A5D
330
1D
100
AcDbEntity
  8
0
100
AcDbLine
 10
30.698337996264
 20
843.46013120914
 30
0.0
 11
30.866451350861
 21
843.32428898446
 31
0.0
  0
LINE
  5
1A5E
330
1D
100
AcDbEntity
  8
0
100
AcDbLine
 10
30.605486927492
 20
843.509715168522
 30
0.0
 11
30.698337996264
 21
843.46013120914
 31
0.0
  0
LINE
  5
1A5F
330
1D
100
AcDbEntity
  8
0
100
AcDbLine
 10
30.605486927492
 20
843.509715168522
 30
0.0
 11
30.866451350861
 21
843.32428898446
 31
0.0
  0
LINE
  5
1A60
330
1D
100
AcDbEntity
  8
0
100
AcDbLine
 10
32.295217957016
 20
842.081419226546
 30
0.0
 11
32.834056428071
 21
841.565967810687
 31
0.0
  0
LINE
  5
1A61
330
1D
100
AcDbEntity
  8
0
100
AcDbLine
 10
31.730949205254
 20
842.596278339106
 30
0.0
 11
32.295217957016
 21
842.081419226546
 31
0.0
  0
LINE
  5
1A62
330
1D
100
AcDbEntity
  8
0
100
AcDbLine
 10
31.980191483052
 20
842.368860716637
 30
0.0
 11
31.137809033115
 21
841.304138104381
 31
0.0
  0
LINE
  5
1A63
330
1D
100
AcDbEntity
  8
0
100
AcDbLine
 10
31.193261919794
 20
843.058710618887
 30
0.0
 11
30.551766546185
 21
841.952665554466
 31
0.0
  0
LINE
  5
1A64
330
1D
100
AcDbEntity
  8
0
100
AcDbLine
 10
30.250735642272
 20
843.997193060979
 30
0.0
 11
30.866451350861
 21
843.32428898446
 31
0.0
  0
LINE
  5
1A65
330
1D
100
AcDbEntity
  8
0
100
AcDbLine
 10
30.250735642272
 20
843.997193060979
 30
0.0
 11
30.492826728467
 21
843.551248764026
 31
0.0
  0
LINE
  5
1A66
330
1D
100
AcDbEntity
  8
0
100
AcDbLine
 10
31.256160287867
 20
843.007597076737
 30
0.0
 11
31.730949205254
 21
842.596278339106
 31
0.0
  0
LINE
  5
1A67
330
1D
100
AcDbEntity
  8
0
100
AcDbLine
 10
31.27150180651
 20
842.994306425143
 30
0.0
 11
30.551766546185
 21
841.952665554466
 31
0.0
  0
LINE
  5
1A68
330
1D
100
AcDbEntity
  8
0
100
AcDbLine
 10
38.495033317391
 20
837.679240571919
 30
0.0
 11
39.298949509787
 21
837.013290479492
 31
0.0
  0
LINE
  5
1A69
330
1D
100
AcDbEntity
  8
0
100
AcDbLine
 10
38.495033317391
 20
837.679240571919
 30
0.0
 11
39.016514053813
 21
837.797680923583
 31
0.0
  0
LINE
  5
1A6A
330
1D
100
AcDbEntity
  8
0
100
AcDbLine
 10
29.729542253732
 20
845.562006516872
 30
0.0
 11
30.700370833343
 21
846.489419050469
 31
0.0
  0
LINE
  5
1A6B
330
1D
100
AcDbEntity
  8
0
100
AcDbLine
 10
32.960114886237
 20
846.166968727349
 30
0.0
 11
33.411849285176
 21
846.470254949944
 31
0.0
  0
LINE
  5
1A6C
330
1D
100
AcDbEntity
  8
0
100
AcDbLine
 10
32.960114886237
 20
846.166968727349
 30
0.0
 11
32.947382996909
 21
845.969309047611
 31
0.0
  0
LINE
  5
1A6D
330
1D
100
AcDbEntity
  8
0
100
AcDbLine
 10
32.960114886237
 20
846.166968727349
 30
0.0
 11
33.117454346385
 21
845.652069286409
 31
0.0
  0
LINE
  5
1A6E
330
1D
100
AcDbEntity
  8
0
100
AcDbLine
 10
32.960114886237
 20
846.166968727349
 30
0.0
 11
33.834804770246
 21
844.971163669317
 31
0.0
  0
LINE
  5
1A6F
330
1D
100
AcDbEntity
  8
0
100
AcDbLine
 10
32.947382996909
 20
845.969309047611
 30
0.0
 11
33.117454346385
 21
845.652069286409
 31
0.0
  0
LINE
  5
1A70
330
1D
100
AcDbEntity
  8
0
100
AcDbLine
 10
34.861443189437
 20
841.046886779938
 30
0.0
 11
34.103846170081
 21
839.774420172167
 31
0.0
  0
LINE
  5
1A71
330
1D
100
AcDbEntity
  8
0
100
AcDbLine
 10
34.966787588483
 20
840.968235453832
 30
0.0
 11
34.311945960313
 21
839.978241288112
 31
0.0
  0
LINE
  5
1A72
330
1D
100
AcDbEntity
  8
0
100
AcDbLine
 10
38.911288120103
 20
839.740473451183
 30
0.0
 11
38.011076838059
 21
838.282966938838
 31
0.0
  0
LINE
  5
1A73
330
1D
100
AcDbEntity
  8
0
100
AcDbLine
 10
33.973349447472
 20
845.63900033707
 30
0.0
 11
33.834804770246
 21
844.971163669317
 31
0.0
  0
LINE
  5
1A74
330
1D
100
AcDbEntity
  8
0
100
AcDbLine
 10
33.473006957688
 20
845.314580435556
 30
0.0
 11
33.448451995491
 21
845.254362351234
 31
0.0
  0
LINE
  5
1A75
330
1D
100
AcDbEntity
  8
0
100
AcDbLine
 10
33.87438733464
 20
845.78550557129
 30
0.0
 11
33.834804770246
 21
844.971163669317
 31
0.0
  0
LINE
  5
1A76
330
1D
100
AcDbEntity
  8
0
100
AcDbLine
 10
33.834804770246
 20
844.971163669317
 30
0.0
 11
34.365891761455
 21
845.05787386346
 31
0.0
  0
LINE
  5
1A77
330
1D
100
AcDbEntity
  8
0
100
AcDbLine
 10
33.448451995491
 20
845.254362351234
 30
0.0
 11
34.348585477557
 21
844.538483978559
 31
0.0
  0
LINE
  5
1A78
330
1D
100
AcDbEntity
  8
0
100
AcDbLine
 10
33.448451995491
 20
845.254362351234
 30
0.0
 11
33.834804770246
 21
844.971163669317
 31
0.0
  0
LINE
  5
1A79
330
1D
100
AcDbEntity
  8
0
100
AcDbLine
 10
33.117454346385
 20
845.652069286409
 30
0.0
 11
33.448451995491
 21
845.254362351234
 31
0.0
  0
LINE
  5
1A7A
330
1D
100
AcDbEntity
  8
0
100
AcDbLine
 10
33.117454346385
 20
845.652069286409
 30
0.0
 11
33.834804770246
 21
844.971163669317
 31
0.0
  0
LINE
  5
1A7B
330
1D
100
AcDbEntity
  8
0
100
AcDbLine
 10
32.80360639047
 20
847.364421081621
 30
0.0
 11
33.411849285176
 21
846.470254949944
 31
0.0
  0
LINE
  5
1A7C
330
1D
100
AcDbEntity
  8
0
100
AcDbLine
 10
32.80360639047
 20
847.364421081621
 30
0.0
 11
33.479764061756
 21
847.28253839993
 31
0.0
  0
LINE
  5
1A7D
330
1D
100
AcDbEntity
  8
0
100
AcDbLine
 10
32.80360639047
 20
847.364421081621
 30
0.0
 11
32.947382996909
 21
845.969309047611
 31
0.0
  0
LINE
  5
1A7E
330
1D
100
AcDbEntity
  8
0
100
AcDbLine
 10
33.743841093047
 20
845.978768499432
 30
0.0
 11
33.512594317821
 21
845.411663663436
 31
0.0
  0
LINE
  5
1A7F
330
1D
100
AcDbEntity
  8
0
100
AcDbLine
 10
34.748073794563
 20
845.190683552751
 30
0.0
 11
34.348585477557
 21
844.538483978559
 31
0.0
  0
LINE
  5
1A80
330
1D
100
AcDbEntity
  8
0
100
AcDbLine
 10
33.411849285176
 20
846.470254949944
 30
0.0
 11
34.149212212484
 21
845.638491519976
 31
0.0
  0
LINE
  5
1A81
330
1D
100
AcDbEntity
  8
0
100
AcDbLine
 10
33.411849285176
 20
846.470254949944
 30
0.0
 11
34.365891761455
 21
845.05787386346
 31
0.0
  0
LINE
  5
1A82
330
1D
100
AcDbEntity
  8
0
100
AcDbLine
 10
34.149212212484
 20
845.638491519976
 30
0.0
 11
34.365891761455
 21
845.05787386346
 31
0.0
  0
LINE
  5
1A83
330
1D
100
AcDbEntity
  8
0
100
AcDbLine
 10
38.72545409188
 20
838.062876997389
 30
0.0
 11
38.495033317391
 21
837.679240571919
 31
0.0
  0
LINE
  5
1A84
330
1D
100
AcDbEntity
  8
0
100
AcDbLine
 10
39.410518030728
 20
837.438688546041
 30
0.0
 11
39.298949509787
 21
837.013290479492
 31
0.0
  0
LINE
  5
1A85
330
1D
100
AcDbEntity
  8
0
100
AcDbLine
 10
38.945361534621
 20
837.983184558151
 30
0.0
 11
40.017358379858
 21
836.885772655627
 31
0.0
  0
LINE
  5
1A86
330
1D
100
AcDbEntity
  8
0
100
AcDbLine
 10
38.33756427873
 20
838.416298522058
 30
0.0
 11
38.495033317391
 21
837.679240571919
 31
0.0
  0
LINE
  5
1A87
330
1D
100
AcDbEntity
  8
0
100
AcDbLine
 10
38.33756427873
 20
838.416298522058
 30
0.0
 11
38.945361534621
 21
837.983184558151
 31
0.0
  0
LINE
  5
1A88
330
1D
100
AcDbEntity
  8
0
100
AcDbLine
 10
38.33756427873
 20
838.416298522058
 30
0.0
 11
40.017358379858
 21
836.885772655627
 31
0.0
  0
LINE
  5
1A89
330
1D
100
AcDbEntity
  8
0
100
AcDbLine
 10
39.605776908817
 20
836.850473750608
 30
0.0
 11
39.710059506742
 21
836.856829045254
 31
0.0
  0
LINE
  5
1A8A
330
1D
100
AcDbEntity
  8
0
100
AcDbLine
 10
39.710059506742
 20
836.856829045254
 30
0.0
 11
40.017358379858
 21
836.885772655627
 31
0.0
  0
LINE
  5
1A8B
330
1D
100
AcDbEntity
  8
0
100
AcDbLine
 10
39.344074029907
 20
836.98430328087
 30
0.0
 11
39.605776908817
 21
836.850473750608
 31
0.0
  0
LINE
  5
1A8C
330
1D
100
AcDbEntity
  8
0
100
AcDbLine
 10
39.344074029907
 20
836.98430328087
 30
0.0
 11
39.710059506742
 21
836.856829045254
 31
0.0
  0
LINE
  5
1A8D
330
1D
100
AcDbEntity
  8
0
100
AcDbLine
 10
38.011076838059
 20
838.282966938838
 30
0.0
 11
38.495033317391
 21
837.679240571919
 31
0.0
  0
LINE
  5
1A8E
330
1D
100
AcDbEntity
  8
0
100
AcDbLine
 10
38.011076838059
 20
838.282966938838
 30
0.0
 11
38.33756427873
 21
838.416298522058
 31
0.0
  0
LINE
  5
1A8F
330
1D
100
AcDbEntity
  8
0
100
AcDbLine
 10
39.298949509787
 20
837.013290479492
 30
0.0
 11
39.813811811929
 21
836.608813805463
 31
0.0
  0
LINE
  5
1A90
330
1D
100
AcDbEntity
  8
0
100
AcDbLine
 10
39.298949509787
 20
837.013290479492
 30
0.0
 11
39.344074029907
 21
836.98430328087
 31
0.0
  0
LINE
  5
1A91
330
1D
100
AcDbEntity
  8
0
100
AcDbLine
 10
39.298949509787
 20
837.013290479492
 30
0.0
 11
39.710059506742
 21
836.856829045254
 31
0.0
  0
LINE
  5
1A92
330
1D
100
AcDbEntity
  8
0
100
AcDbLine
 10
29.145281050188
 20
845.818591972487
 30
0.0
 11
29.729542253732
 21
845.562006516872
 31
0.0
  0
LINE
  5
1A93
330
1D
100
AcDbEntity
  8
0
100
AcDbLine
 10
19.42185076574
 20
852.882543103652
 30
0.0
 11
19.792342428017
 21
852.336037670757
 31
0.0
  0
LINE
  5
1A94
330
1D
100
AcDbEntity
  8
0
100
AcDbLine
 10
19.42185076574
 20
852.882543103652
 30
0.0
 11
19.963834425314
 21
852.286519746094
 31
0.0
  0
LINE
  5
1A95
330
1D
100
AcDbEntity
  8
0
100
AcDbLine
 10
38.630494200866
 20
834.788190845773
 30
0.0
 11
39.539886647887
 21
834.147355417406
 31
0.0
  0
LINE
  5
1A96
330
1D
100
AcDbEntity
  8
0
100
AcDbLine
 10
38.630494200866
 20
834.788190845773
 30
0.0
 11
38.919832102068
 21
834.708210485498
 31
0.0
  0
LINE
  5
1A97
330
1D
100
AcDbEntity
  8
0
100
AcDbLine
 10
39.813811811929
 20
836.608813805463
 30
0.0
 11
41.273071999303
 21
837.762860700296
 31
0.0
  0
LINE
  5
1A98
330
1D
100
AcDbEntity
  8
0
100
AcDbLine
 10
40.017358379858
 20
836.885772655627
 30
0.0
 11
39.813811811929
 21
836.608813805463
 31
0.0
  0
LINE
  5
1A99
330
1D
100
AcDbEntity
  8
0
100
AcDbLine
 10
40.017358379858
 20
836.885772655627
 30
0.0
 11
41.095690009296
 21
838.000959831539
 31
0.0
  0
LINE
  5
1A9A
330
1D
100
AcDbEntity
  8
0
100
AcDbLine
 10
38.693278527385
 20
834.906279399006
 30
0.0
 11
38.630494200866
 21
834.788190845773
 31
0.0
  0
LINE
  5
1A9B
330
1D
100
AcDbEntity
  8
0
100
AcDbLine
 10
38.669026683529
 20
834.927482049946
 30
0.0
 11
38.630494200866
 21
834.788190845773
 31
0.0
  0
LINE
  5
1A9C
330
1D
100
AcDbEntity
  8
0
100
AcDbLine
 10
38.556616032424
 20
835.02575927008
 30
0.0
 11
39.162735302725
 21
834.539617819297
 31
0.0
  0
LINE
  5
1A9D
330
1D
100
AcDbEntity
  8
0
100
AcDbLine
 10
38.556616032424
 20
835.02575927008
 30
0.0
 11
39.573623276795
 21
834.136620706696
 31
0.0
  0
LINE
  5
1A9E
330
1D
100
AcDbEntity
  8
0
100
AcDbLine
 10
38.359447209102
 20
835.152955123432
 30
0.0
 11
38.556616032424
 21
835.02575927008
 31
0.0
  0
LINE
  5
1A9F
330
1D
100
AcDbEntity
  8
0
100
AcDbLine
 10
0.623223699392
 20
897.898370667081
 30
0.0
 11
1.577421146337
 21
897.972979528776
 31
0.0
  0
LINE
  5
1AA0
330
1D
100
AcDbEntity
  8
0
100
AcDbLine
 10
-3.152565965668
 20
892.401340795848
 30
0.0
 11
-3.806410546725
 21
890.904930483193
 31
0.0
  0
LINE
  5
1AA1
330
1D
100
AcDbEntity
  8
0
100
AcDbLine
 10
-3.806410546725
 20
890.904930483193
 30
0.0
 11
-4.107544890171
 21
889.625064042036
 31
0.0
  0
LINE
  5
1AA2
330
1D
100
AcDbEntity
  8
0
100
AcDbLine
 10
-1.717093055533
 20
895.017502060806
 30
0.0
 11
-3.152565965668
 21
892.401340795848
 31
0.0
  0
LINE
  5
1AA3
330
1D
100
AcDbEntity
  8
0
100
AcDbLine
 10
1.577421146337
 20
897.972979528776
 30
0.0
 11
2.461461469536
 21
897.578158877139
 31
0.0
  0
LINE
  5
1AA4
330
1D
100
AcDbEntity
  8
0
100
AcDbLine
 10
-4.107544890171
 20
889.625064042036
 30
0.0
 11
-4.079764459755
 21
889.473040334392
 31
0.0
  0
LINE
  5
1AA5
330
1D
100
AcDbEntity
  8
0
100
AcDbLine
 10
2.461461469536
 20
897.578158877139
 30
0.0
 11
9.777197147366
 21
893.065282006216
 31
0.0
  0
LINE
  5
1AA6
330
1D
100
AcDbEntity
  8
0
100
AcDbLine
 10
9.777197147366
 20
893.065282006216
 30
0.0
 11
17.011386291778
 21
888.405438598667
 31
0.0
  0
LINE
  5
1AA7
330
1D
100
AcDbEntity
  8
0
100
AcDbLine
 10
17.011386291778
 20
888.405438598667
 30
0.0
 11
24.014683381492
 21
883.696008710326
 31
0.0
  0
LINE
  5
1AA8
330
1D
100
AcDbEntity
  8
0
100
AcDbLine
 10
31.379148584536
 20
878.620471619223
 30
0.0
 11
44.443507744943
 21
869.256382810487
 31
0.0
  0
LINE
  5
1AA9
330
1D
100
AcDbEntity
  8
0
100
AcDbLine
 10
24.014683381492
 20
883.696008710326
 30
0.0
 11
31.379148584536
 21
878.620471619223
 31
0.0
  0
LINE
  5
1AAA
330
1D
100
AcDbEntity
  8
0
100
AcDbLine
 10
2.461461469536
 20
897.578158877139
 30
0.0
 11
9.777197147366
 21
893.065282006216
 31
0.0
  0
LINE
  5
1AAB
330
1D
100
AcDbEntity
  8
0
100
AcDbLine
 10
-4.079764459755
 20
889.473040334392
 30
0.0
 11
-4.002258771791
 21
889.372498261938
 31
0.0
  0
LINE
  5
1AAC
330
1D
100
AcDbEntity
  8
0
100
AcDbLine
 10
0.623223699392
 20
897.898370667081
 30
0.0
 11
1.577421146337
 21
897.972979528776
 31
0.0
  0
LINE
  5
1AAD
330
1D
100
AcDbEntity
  8
0
100
AcDbLine
 10
57.140640269136
 20
859.661561607721
 30
0.0
 11
63.435595761142
 21
854.714695368002
 31
0.0
  0
LINE
  5
1AAE
330
1D
100
AcDbEntity
  8
0
100
AcDbLine
 10
44.443507744943
 20
869.256382810487
 30
0.0
 11
57.140640269136
 21
859.661561607721
 31
0.0
  0
LINE
  5
1AAF
330
1D
100
AcDbEntity
  8
0
100
AcDbLine
 10
43.775775426532
 20
830.018985804175
 30
0.0
 11
49.662498010373
 21
825.110507748718
 31
0.0
  0
LINE
  5
1AB0
330
1D
100
AcDbEntity
  8
0
100
AcDbLine
 10
39.792812476721
 20
833.884295787919
 30
0.0
 11
40.435036837285
 21
833.658050609632
 31
0.0
  0
LINE
  5
1AB1
330
1D
100
AcDbEntity
  8
0
100
AcDbLine
 10
47.029616640028
 20
827.648198009504
 30
0.0
 11
47.339242128597
 21
827.389305161345
 31
0.0
  0
LINE
  5
1AB2
330
1D
100
AcDbEntity
  8
0
100
AcDbLine
 10
47.029616640028
 20
827.648198009504
 30
0.0
 11
47.279224989925
 21
827.617723074534
 31
0.0
  0
LINE
  5
1AB3
330
1D
100
AcDbEntity
  8
0
100
AcDbLine
 10
47.339242128597
 20
827.389305161345
 30
0.0
 11
47.530660062368
 21
827.242654301713
 31
0.0
  0
LINE
  5
1AB4
330
1D
100
AcDbEntity
  8
0
100
AcDbLine
 10
47.339242128597
 20
827.389305161345
 30
0.0
 11
47.755563143144
 21
827.085659606714
 31
0.0
  0
LINE
  5
1AB5
330
1D
100
AcDbEntity
  8
0
100
AcDbLine
 10
49.662498010373
 20
825.110507748718
 30
0.0
 11
52.028057556253
 21
823.144887634124
 31
0.0
  0
LINE
  5
1AB6
330
1D
100
AcDbEntity
  8
0
100
AcDbLine
 10
52.344102969887
 20
822.891312168984
 30
0.0
 11
52.740213279547
 21
822.574470500985
 31
0.0
  0
LINE
  5
1AB7
330
1D
100
AcDbEntity
  8
0
100
AcDbLine
 10
52.102883398012
 20
823.084712112481
 30
0.0
 11
52.344102969887
 21
822.891312168984
 31
0.0
  0
LINE
  5
1AB8
330
1D
100
AcDbEntity
  8
0
100
AcDbLine
 10
52.740213279547
 20
822.574470500985
 30
0.0
 11
53.271420428307
 21
822.149490754283
 31
0.0
  0
LINE
  5
1AB9
330
1D
100
AcDbEntity
  8
0
100
AcDbLine
 10
53.271420428307
 20
822.149490754283
 30
0.0
 11
53.912457275225
 21
821.637444036792
 31
0.0
  0
LINE
  5
1ABA
330
1D
100
AcDbEntity
  8
0
100
AcDbLine
 10
53.912457275225
 20
821.637444036792
 30
0.0
 11
54.993932029387
 21
820.7748849802
 31
0.0
  0
LINE
  5
1ABB
330
1D
100
AcDbEntity
  8
0
100
AcDbLine
 10
53.912457275225
 20
821.637444036792
 30
0.0
 11
54.200627993894
 21
821.4200147945
 31
0.0
  0
LINE
  5
1ABC
330
1D
100
AcDbEntity
  8
0
100
AcDbLine
 10
52.301245365072
 20
822.936180043391
 30
0.0
 11
52.344102969887
 21
822.891312168984
 31
0.0
  0
LINE
  5
1ABD
330
1D
100
AcDbEntity
  8
0
100
AcDbLine
 10
52.028057556253
 20
823.144887634124
 30
0.0
 11
52.102883398012
 21
823.084712112481
 31
0.0
  0
LINE
  5
1ABE
330
1D
100
AcDbEntity
  8
0
100
AcDbLine
 10
54.993932029387
 20
820.7748849802
 30
0.0
 11
56.16288640861
 21
819.83813855811
 31
0.0
  0
LINE
  5
1ABF
330
1D
100
AcDbEntity
  8
0
100
AcDbLine
 10
56.899309040417
 20
819.249969885567
 30
0.0
 11
57.899959879104
 21
818.449616895296
 31
0.0
  0
LINE
  5
1AC0
330
1D
100
AcDbEntity
  8
0
100
AcDbLine
 10
56.16288640861
 20
819.83813855811
 30
0.0
 11
56.899309040417
 21
819.249969885567
 31
0.0
  0
LINE
  5
1AC1
330
1D
100
AcDbEntity
  8
0
100
AcDbLine
 10
53.992715359192
 20
821.683931023766
 30
0.0
 11
54.729073584469
 21
821.084328810572
 31
0.0
  0
LINE
  5
1AC2
330
1D
100
AcDbEntity
  8
0
100
AcDbLine
 10
53.992715359192
 20
821.683931023766
 30
0.0
 11
54.061450417954
 21
821.686387780664
 31
0.0
  0
LINE
  5
1AC3
330
1D
100
AcDbEntity
  8
0
100
AcDbLine
 10
57.899959879104
 20
818.449616895296
 30
0.0
 11
58.576650395026
 21
817.909741848956
 31
0.0
  0
LINE
  5
1AC4
330
1D
100
AcDbEntity
  8
0
100
AcDbLine
 10
58.576650395026
 20
817.909741848956
 30
0.0
 11
58.894870685156
 21
817.65564685304
 31
0.0
  0
LINE
  5
1AC5
330
1D
100
AcDbEntity
  8
0
100
AcDbLine
 10
58.894870685156
 20
817.65564685304
 30
0.0
 11
59.003091689984
 21
817.569929736231
 31
0.0
  0
LINE
  5
1AC6
330
1D
100
AcDbEntity
  8
0
100
AcDbLine
 10
59.003091689984
 20
817.569929736231
 30
0.0
 11
59.503214491397
 21
817.229710350791
 31
0.0
  0
LINE
  5
1AC7
330
1D
100
AcDbEntity
  8
0
100
AcDbLine
 10
53.989908137042
 20
821.750904223658
 30
0.0
 11
54.550609817286
 21
821.384721692983
 31
0.0
  0
LINE
  5
1AC8
330
1D
100
AcDbEntity
  8
0
100
AcDbLine
 10
53.989908137042
 20
821.750904223658
 30
0.0
 11
53.992715359192
 21
821.683931023766
 31
0.0
  0
LINE
  5
1AC9
330
1D
100
AcDbEntity
  8
0
100
AcDbLine
 10
53.989908137042
 20
821.750904223658
 30
0.0
 11
54.729073584469
 21
821.084328810572
 31
0.0
  0
LINE
  5
1ACA
330
1D
100
AcDbEntity
  8
0
100
AcDbLine
 10
54.729073584469
 20
821.084328810572
 30
0.0
 11
55.304712801117
 21
820.762064506573
 31
0.0
  0
LINE
  5
1ACB
330
1D
100
AcDbEntity
  8
0
100
AcDbLine
 10
54.729073584469
 20
821.084328810572
 30
0.0
 11
54.822671422534
 21
821.175242289798
 31
0.0
  0
LINE
  5
1ACC
330
1D
100
AcDbEntity
  8
0
100
AcDbLine
 10
60.626836276433
 20
816.033435460948
 30
0.0
 11
61.363631712394
 21
815.475892121334
 31
0.0
  0
LINE
  5
1ACD
330
1D
100
AcDbEntity
  8
0
100
AcDbLine
 10
60.166702948198
 20
816.386767444
 30
0.0
 11
60.62236624245
 21
816.07394433483
 31
0.0
  0
LINE
  5
1ACE
330
1D
100
AcDbEntity
  8
0
100
AcDbLine
 10
60.166702948198
 20
816.386767444
 30
0.0
 11
60.260723042964
 21
816.391903698153
 31
0.0
  0
LINE
  5
1ACF
330
1D
100
AcDbEntity
  8
0
100
AcDbLine
 10
60.166702948198
 20
816.386767444
 30
0.0
 11
60.233076696879
 21
816.410157528839
 31
0.0
  0
LINE
  5
1AD0
330
1D
100
AcDbEntity
  8
0
100
AcDbLine
 10
60.166702948198
 20
816.386767444
 30
0.0
 11
60.216705898231
 21
816.420966544462
 31
0.0
  0
LINE
  5
1AD1
330
1D
100
AcDbEntity
  8
0
100
AcDbLine
 10
59.936122102052
 20
816.606225352016
 30
0.0
 11
60.612942346036
 21
816.159346690324
 31
0.0
  0
LINE
  5
1AD2
330
1D
100
AcDbEntity
  8
0
100
AcDbLine
 10
59.936122102052
 20
816.606225352016
 30
0.0
 11
60.166702948198
 21
816.386767444
 31
0.0
  0
LINE
  5
1AD3
330
1D
100
AcDbEntity
  8
0
100
AcDbLine
 10
54.550609817286
 20
821.384721692983
 30
0.0
 11
54.841417243767
 21
821.160808560935
 31
0.0
  0
LINE
  5
1AD4
330
1D
100
AcDbEntity
  8
0
100
AcDbLine
 10
54.550609817286
 20
821.384721692983
 30
0.0
 11
55.005802162586
 21
821.019327581966
 31
0.0
  0
LINE
  5
1AD5
330
1D
100
AcDbEntity
  8
0
100
AcDbLine
 10
54.841417243767
 20
821.160808560935
 30
0.0
 11
55.464791481408
 21
820.624289772964
 31
0.0
  0
LINE
  5
1AD6
330
1D
100
AcDbEntity
  8
0
100
AcDbLine
 10
47.688820664501
 20
827.210271117535
 30
0.0
 11
47.755563143144
 21
827.085659606714
 31
0.0
  0
LINE
  5
1AD7
330
1D
100
AcDbEntity
  8
0
100
AcDbLine
 10
54.853995348662
 20
821.150906981401
 30
0.0
 11
55.857175731712
 21
820.646978098459
 31
0.0
  0
LINE
  5
1AD8
330
1D
100
AcDbEntity
  8
0
100
AcDbLine
 10
59.503214491397
 20
817.229710350791
 30
0.0
 11
60.585720685065
 21
816.406038065679
 31
0.0
  0
LINE
  5
1AD9
330
1D
100
AcDbEntity
  8
0
100
AcDbLine
 10
60.05304382865
 20
816.811348599804
 30
0.0
 11
59.936122102052
 21
816.606225352016
 31
0.0
  0
LINE
  5
1ADA
330
1D
100
AcDbEntity
  8
0
100
AcDbLine
 10
55.464791481408
 20
820.624289772964
 30
0.0
 11
56.083127644333
 21
820.26705354913
 31
0.0
  0
LINE
  5
1ADB
330
1D
100
AcDbEntity
  8
0
100
AcDbLine
 10
55.089059548821
 20
821.032826881543
 30
0.0
 11
55.464791481408
 21
820.624289772964
 31
0.0
  0
LINE
  5
1ADC
330
1D
100
AcDbEntity
  8
0
100
AcDbLine
 10
47.755563143144
 20
827.085659606714
 30
0.0
 11
48.372456275079
 21
826.740860732339
 31
0.0
  0
LINE
  5
1ADD
330
1D
100
AcDbEntity
  8
0
100
AcDbLine
 10
47.755563143144
 20
827.085659606714
 30
0.0
 11
47.847790104485
 21
827.05213368239
 31
0.0
  0
LINE
  5
1ADE
330
1D
100
AcDbEntity
  8
0
100
AcDbLine
 10
47.530660062368
 20
827.242654301713
 30
0.0
 11
47.755563143144
 21
827.085659606714
 31
0.0
  0
LINE
  5
1ADF
330
1D
100
AcDbEntity
  8
0
100
AcDbLine
 10
47.307053382748
 20
827.590040328305
 30
0.0
 11
47.325926322864
 21
827.47234506913
 31
0.0
  0
LINE
  5
1AE0
330
1D
100
AcDbEntity
  8
0
100
AcDbLine
 10
47.279224989925
 20
827.617723074534
 30
0.0
 11
47.847790104485
 21
827.05213368239
 31
0.0
  0
LINE
  5
1AE1
330
1D
100
AcDbEntity
  8
0
100
AcDbLine
 10
47.279224989925
 20
827.617723074534
 30
0.0
 11
47.339242128597
 21
827.389305161345
 31
0.0
  0
LINE
  5
1AE2
330
1D
100
AcDbEntity
  8
0
100
AcDbLine
 10
46.967045977289
 20
827.874972902657
 30
0.0
 11
47.279224989925
 21
827.617723074534
 31
0.0
  0
LINE
  5
1AE3
330
1D
100
AcDbEntity
  8
0
100
AcDbLine
 10
46.967045977289
 20
827.874972902657
 30
0.0
 11
47.339242128597
 21
827.389305161345
 31
0.0
  0
LINE
  5
1AE4
330
1D
100
AcDbEntity
  8
0
100
AcDbLine
 10
46.967045977289
 20
827.874972902657
 30
0.0
 11
47.530660062368
 21
827.242654301713
 31
0.0
  0
LINE
  5
1AE5
330
1D
100
AcDbEntity
  8
0
100
AcDbLine
 10
46.904422243198
 20
827.923865314425
 30
0.0
 11
46.967045977289
 21
827.874972902657
 31
0.0
  0
LINE
  5
1AE6
330
1D
100
AcDbEntity
  8
0
100
AcDbLine
 10
46.904422243198
 20
827.923865314425
 30
0.0
 11
47.029616640028
 21
827.648198009504
 31
0.0
  0
LINE
  5
1AE7
330
1D
100
AcDbEntity
  8
0
100
AcDbLine
 10
39.162735302725
 20
834.539617819297
 30
0.0
 11
39.573623276795
 21
834.136620706696
 31
0.0
  0
LINE
  5
1AE8
330
1D
100
AcDbEntity
  8
0
100
AcDbLine
 10
39.162735302725
 20
834.539617819297
 30
0.0
 11
39.792812476721
 21
833.884295787919
 31
0.0
  0
LINE
  5
1AE9
330
1D
100
AcDbEntity
  8
0
100
AcDbLine
 10
48.372456275079
 20
826.740860732339
 30
0.0
 11
49.202371824067
 21
827.563581476984
 31
0.0
  0
LINE
  5
1AEA
330
1D
100
AcDbEntity
  8
0
100
AcDbLine
 10
56.083127644333
 20
820.26705354913
 30
0.0
 11
56.841956740344
 21
821.046581993997
 31
0.0
  0
LINE
  5
1AEB
330
1D
100
AcDbEntity
  8
0
100
AcDbLine
 10
40.435036837285
 20
833.658050609632
 30
0.0
 11
41.146780697945
 21
834.395653168525
 31
0.0
  0
LINE
  5
1AEC
330
1D
100
AcDbEntity
  8
0
100
AcDbLine
 10
48.273232764717
 20
827.014186444615
 30
0.0
 11
48.372456275079
 21
826.740860732339
 31
0.0
  0
LINE
  5
1AED
330
1D
100
AcDbEntity
  8
0
100
AcDbLine
 10
48.273232764717
 20
827.014186444615
 30
0.0
 11
49.065440618805
 21
827.707314380174
 31
0.0
  0
LINE
  5
1AEE
330
1D
100
AcDbEntity
  8
0
100
AcDbLine
 10
47.013143077631
 20
828.045810712699
 30
0.0
 11
48.273232764717
 21
827.014186444615
 31
0.0
  0
LINE
  5
1AEF
330
1D
100
AcDbEntity
  8
0
100
AcDbLine
 10
47.013143077631
 20
828.045810712699
 30
0.0
 11
47.790766704419
 21
828.847998458401
 31
0.0
  0
LINE
  5
1AF0
330
1D
100
AcDbEntity
  8
0
100
AcDbLine
 10
60.852885455851
 20
816.316054035151
 30
0.0
 11
62.233190059814
 21
815.152488781167
 31
0.0
  0
LINE
  5
1AF1
330
1D
100
AcDbEntity
  8
0
100
AcDbLine
 10
60.67782227723
 20
816.47957154652
 30
0.0
 11
60.852885455851
 21
816.316054035151
 31
0.0
  0
LINE
  5
1AF2
330
1D
100
AcDbEntity
  8
0
100
AcDbLine
 10
60.558305412578
 20
816.654484010338
 30
0.0
 11
61.363631712394
 21
815.475892121334
 31
0.0
  0
LINE
  5
1AF3
330
1D
100
AcDbEntity
  8
0
100
AcDbLine
 10
60.558305412578
 20
816.654484010338
 30
0.0
 11
60.626836276433
 21
816.033435460948
 31
0.0
  0
LINE
  5
1AF4
330
1D
100
AcDbEntity
  8
0
100
AcDbLine
 10
55.857175731712
 20
820.646978098459
 30
0.0
 11
56.083127644333
 21
820.26705354913
 31
0.0
  0
LINE
  5
1AF5
330
1D
100
AcDbEntity
  8
0
100
AcDbLine
 10
53.861593969678
 20
822.175003321103
 30
0.0
 11
55.857175731712
 21
820.646978098459
 31
0.0
  0
LINE
  5
1AF6
330
1D
100
AcDbEntity
  8
0
100
AcDbLine
 10
53.861593969678
 20
822.175003321103
 30
0.0
 11
53.992715359192
 21
821.683931023766
 31
0.0
  0
LINE
  5
1AF7
330
1D
100
AcDbEntity
  8
0
100
AcDbLine
 10
53.861593969678
 20
822.175003321103
 30
0.0
 11
54.513175750583
 21
822.933726653066
 31
0.0
  0
LINE
  5
1AF8
330
1D
100
AcDbEntity
  8
0
100
AcDbLine
 10
39.573623276795
 20
834.136620706696
 30
0.0
 11
39.792812476721
 21
833.884295787919
 31
0.0
  0
LINE
  5
1AF9
330
1D
100
AcDbEntity
  8
0
100
AcDbLine
 10
46.173461965075
 20
828.555881138441
 30
0.0
 11
46.904422243198
 21
827.923865314425
 31
0.0
  0
LINE
  5
1AFA
330
1D
100
AcDbEntity
  8
0
100
AcDbLine
 10
46.173461965075
 20
828.555881138441
 30
0.0
 11
47.013143077631
 21
828.045810712699
 31
0.0
  0
LINE
  5
1AFB
330
1D
100
AcDbEntity
  8
0
100
AcDbLine
 10
46.173461965075
 20
828.555881138441
 30
0.0
 11
47.029616640028
 21
827.648198009504
 31
0.0
  0
LINE
  5
1AFC
330
1D
100
AcDbEntity
  8
0
100
AcDbLine
 10
65.295112737519
 20
812.088188877448
 30
0.0
 11
65.615045917794
 21
811.718464728274
 31
0.0
  0
LINE
  5
1AFD
330
1D
100
AcDbEntity
  8
0
100
AcDbLine
 10
64.380550704989
 20
812.787747632636
 30
0.0
 11
64.443757632213
 21
812.839698749377
 31
0.0
  0
LINE
  5
1AFE
330
1D
100
AcDbEntity
  8
0
100
AcDbLine
 10
64.380550704989
 20
812.787747632636
 30
0.0
 11
64.523505208737
 21
812.779746446645
 31
0.0
  0
LINE
  5
1AFF
330
1D
100
AcDbEntity
  8
0
100
AcDbLine
 10
64.265691137521
 20
812.765986893651
 30
0.0
 11
64.380550704989
 21
812.787747632636
 31
0.0
  0
LINE
  5
1B00
330
1D
100
AcDbEntity
  8
0
100
AcDbLine
 10
64.265691137521
 20
812.765986893651
 30
0.0
 11
65.523602947274
 21
811.937744967107
 31
0.0
  0
LINE
  5
1B01
330
1D
100
AcDbEntity
  8
0
100
AcDbLine
 10
64.265691137521
 20
812.765986893651
 30
0.0
 11
64.550163160778
 21
812.759705641889
 31
0.0
  0
LINE
  5
1B02
330
1D
100
AcDbEntity
  8
0
100
AcDbLine
 10
61.017661007206
 20
815.732385963662
 30
0.0
 11
61.095420283738
 21
815.67885143454
 31
0.0
  0
LINE
  5
1B03
330
1D
100
AcDbEntity
  8
0
100
AcDbLine
 10
61.340013089239
 20
815.510457883916
 30
0.0
 11
61.674546991412
 21
815.28014304912
 31
0.0
  0
LINE
  5
1B04
330
1D
100
AcDbEntity
  8
0
100
AcDbLine
 10
61.6750612215
 20
815.280755884675
 30
0.0
 11
62.309829660752
 21
815.004242831583
 31
0.0
  0
LINE
  5
1B05
330
1D
100
AcDbEntity
  8
0
100
AcDbLine
 10
61.674546991412
 20
815.28014304912
 30
0.0
 11
62.309829660752
 21
815.004242831583
 31
0.0
  0
LINE
  5
1B06
330
1D
100
AcDbEntity
  8
0
100
AcDbLine
 10
65.420333721768
 20
812.134019362826
 30
0.0
 11
65.523602947274
 21
811.937744967107
 31
0.0
  0
LINE
  5
1B07
330
1D
100
AcDbEntity
  8
0
100
AcDbLine
 10
65.445972049123
 20
811.988859174117
 30
0.0
 11
65.485687068183
 21
811.951676087404
 31
0.0
  0
LINE
  5
1B08
330
1D
100
AcDbEntity
  8
0
100
AcDbLine
 10
65.205777973398
 20
812.266830253895
 30
0.0
 11
66.341582554456
 21
811.563762544747
 31
0.0
  0
LINE
  5
1B09
330
1D
100
AcDbEntity
  8
0
100
AcDbLine
 10
65.485687068183
 20
811.951676087404
 30
0.0
 11
65.606152905029
 21
811.738980924899
 31
0.0
  0
LINE
  5
1B0A
330
1D
100
AcDbEntity
  8
0
100
AcDbLine
 10
65.485687068183
 20
811.951676087404
 30
0.0
 11
66.637415665503
 21
810.998445659798
 31
0.0
  0
LINE
  5
1B0B
330
1D
100
AcDbEntity
  8
0
100
AcDbLine
 10
64.302855469934
 20
812.945625593257
 30
0.0
 11
64.265691137521
 21
812.765986893651
 31
0.0
  0
LINE
  5
1B0C
330
1D
100
AcDbEntity
  8
0
100
AcDbLine
 10
64.302855469934
 20
812.945625593257
 30
0.0
 11
65.205777973398
 21
812.266830253895
 31
0.0
  0
LINE
  5
1B0D
330
1D
100
AcDbEntity
  8
0
100
AcDbLine
 10
64.302855469934
 20
812.945625593257
 30
0.0
 11
64.358122498283
 21
812.931067494817
 31
0.0
  0
LINE
  5
1B0E
330
1D
100
AcDbEntity
  8
0
100
AcDbLine
 10
63.702325003225
 20
813.444961560871
 30
0.0
 11
64.265691137521
 21
812.765986893651
 31
0.0
  0
LINE
  5
1B0F
330
1D
100
AcDbEntity
  8
0
100
AcDbLine
 10
63.702325003225
 20
813.444961560871
 30
0.0
 11
64.302855469934
 21
812.945625593257
 31
0.0
  0
LINE
  5
1B10
330
1D
100
AcDbEntity
  8
0
100
AcDbLine
 10
63.702325003225
 20
813.444961560871
 30
0.0
 11
64.233273856527
 21
813.306082746155
 31
0.0
  0
LINE
  5
1B11
330
1D
100
AcDbEntity
  8
0
100
AcDbLine
 10
63.702325003225
 20
813.444961560871
 30
0.0
 11
64.315935779483
 21
812.964125724866
 31
0.0
  0
LINE
  5
1B12
330
1D
100
AcDbEntity
  8
0
100
AcDbLine
 10
65.615045917794
 20
811.718464728274
 30
0.0
 11
67.26581265134
 21
810.485648001661
 31
0.0
  0
LINE
  5
1B13
330
1D
100
AcDbEntity
  8
0
100
AcDbLine
 10
65.615045917794
 20
811.718464728274
 30
0.0
 11
66.928630510033
 21
810.751215495123
 31
0.0
  0
LINE
  5
1B14
330
1D
100
AcDbEntity
  8
0
100
AcDbLine
 10
65.606152905029
 20
811.738980924899
 30
0.0
 11
66.637415665503
 21
810.998445659798
 31
0.0
  0
LINE
  5
1B15
330
1D
100
AcDbEntity
  8
0
100
AcDbLine
 10
65.606152905029
 20
811.738980924899
 30
0.0
 11
67.26581265134
 21
810.485648001661
 31
0.0
  0
LINE
  5
1B16
330
1D
100
AcDbEntity
  8
0
100
AcDbLine
 10
65.606152905029
 20
811.738980924899
 30
0.0
 11
66.928630510033
 21
810.751215495123
 31
0.0
  0
LINE
  5
1B17
330
1D
100
AcDbEntity
  8
0
100
AcDbLine
 10
67.025628564636
 20
810.67857069212
 30
0.0
 11
67.26581265134
 21
810.485648001661
 31
0.0
  0
LINE
  5
1B18
330
1D
100
AcDbEntity
  8
0
100
AcDbLine
 10
67.26581265134
 20
810.485648001661
 30
0.0
 11
67.626139713483
 21
810.41879317171
 31
0.0
  0
LINE
  5
1B19
330
1D
100
AcDbEntity
  8
0
100
AcDbLine
 10
66.637415665503
 20
810.998445659798
 30
0.0
 11
67.626139713483
 21
810.41879317171
 31
0.0
  0
LINE
  5
1B1A
330
1D
100
AcDbEntity
  8
0
100
AcDbLine
 10
66.637415665503
 20
810.998445659798
 30
0.0
 11
66.928630510033
 21
810.751215495123
 31
0.0
  0
LINE
  5
1B1B
330
1D
100
AcDbEntity
  8
0
100
AcDbLine
 10
66.928630510033
 20
810.751215495123
 30
0.0
 11
67.025628564636
 21
810.67857069212
 31
0.0
  0
LINE
  5
1B1C
330
1D
100
AcDbEntity
  8
0
100
AcDbLine
 10
65.523602947274
 20
811.937744967107
 30
0.0
 11
66.341582554456
 21
811.563762544747
 31
0.0
  0
LINE
  5
1B1D
330
1D
100
AcDbEntity
  8
0
100
AcDbLine
 10
67.626139713483
 20
810.41879317171
 30
0.0
 11
68.291447523419
 21
811.086013915131
 31
0.0
  0
LINE
  5
1B1E
330
1D
100
AcDbEntity
  8
0
100
AcDbLine
 10
67.626139713483
 20
810.41879317171
 30
0.0
 11
68.314222981901
 21
811.068930335985
 31
0.0
  0
LINE
  5
1B1F
330
1D
100
AcDbEntity
  8
0
100
AcDbLine
 10
67.626139713483
 20
810.41879317171
 30
0.0
 11
68.291447523419
 21
811.086013915131
 31
0.0
  0
LINE
  5
1B20
330
1D
100
AcDbEntity
  8
0
100
AcDbLine
 10
61.142076271249
 20
815.800137642631
 30
0.0
 11
61.856408912559
 21
815.313302235433
 31
0.0
  0
LINE
  5
1B21
330
1D
100
AcDbEntity
  8
0
100
AcDbLine
 10
60.882223861329
 20
816.180430627896
 30
0.0
 11
62.233190059814
 21
815.152488781167
 31
0.0
  0
LINE
  5
1B22
330
1D
100
AcDbEntity
  8
0
100
AcDbLine
 10
62.233190059814
 20
815.152488781167
 30
0.0
 11
62.867666897895
 21
814.940968612061
 31
0.0
  0
LINE
  5
1B23
330
1D
100
AcDbEntity
  8
0
100
AcDbLine
 10
62.309829660752
 20
815.004242831583
 30
0.0
 11
62.397845388507
 21
815.097596433836
 31
0.0
  0
LINE
  5
1B24
330
1D
100
AcDbEntity
  8
0
100
AcDbLine
 10
66.341582554456
 20
811.563762544747
 30
0.0
 11
66.783138176474
 21
812.007393459319
 31
0.0
  0
LINE
  5
1B25
330
1D
100
AcDbEntity
  8
0
100
AcDbLine
 10
61.856408912559
 20
815.313302235433
 30
0.0
 11
62.309829660752
 21
815.004242831583
 31
0.0
  0
LINE
  5
1B26
330
1D
100
AcDbEntity
  8
0
100
AcDbLine
 10
64.233273856527
 20
813.306082746155
 30
0.0
 11
65.205777973398
 21
812.266830253895
 31
0.0
  0
LINE
  5
1B27
330
1D
100
AcDbEntity
  8
0
100
AcDbLine
 10
72.50648675485
 20
806.740381776036
 30
0.0
 11
73.430613266749
 21
806.159975409767
 31
0.0
  0
LINE
  5
1B28
330
1D
100
AcDbEntity
  8
0
100
AcDbLine
 10
72.50648675485
 20
806.740381776036
 30
0.0
 11
73.414436892237
 21
806.128251366713
 31
0.0
  0
LINE
  5
1B29
330
1D
100
AcDbEntity
  8
0
100
AcDbLine
 10
72.50648675485
 20
806.740381776036
 30
0.0
 11
74.261674670839
 21
805.622675025781
 31
0.0
  0
LINE
  5
1B2A
330
1D
100
AcDbEntity
  8
0
100
AcDbLine
 10
65.565645200909
 20
812.044070959326
 30
0.0
 11
65.523602947274
 21
811.937744967107
 31
0.0
  0
LINE
  5
1B2B
330
1D
100
AcDbEntity
  8
0
100
AcDbLine
 10
51.757539393037
 20
824.640804052825
 30
0.0
 11
51.908779268196
 21
824.507433391154
 31
0.0
  0
LINE
  5
1B2C
330
1D
100
AcDbEntity
  8
0
100
AcDbLine
 10
51.971326525612
 20
824.469962194352
 30
0.0
 11
52.014029487478
 21
824.440042176446
 31
0.0
  0
LINE
  5
1B2D
330
1D
100
AcDbEntity
  8
0
100
AcDbLine
 10
51.971326525612
 20
824.469962194352
 30
0.0
 11
52.445056615809
 21
824.097519270346
 31
0.0
  0
LINE
  5
1B2E
330
1D
100
AcDbEntity
  8
0
100
AcDbLine
 10
51.070106531336
 20
825.190146317973
 30
0.0
 11
51.522352445551
 21
825.331002283682
 31
0.0
  0
LINE
  5
1B2F
330
1D
100
AcDbEntity
  8
0
100
AcDbLine
 10
51.070106531336
 20
825.190146317973
 30
0.0
 11
51.358311642094
 21
825.010581443534
 31
0.0
  0
LINE
  5
1B30
330
1D
100
AcDbEntity
  8
0
100
AcDbLine
 10
51.070106531336
 20
825.190146317973
 30
0.0
 11
51.971326525612
 21
824.469962194352
 31
0.0
  0
LINE
  5
1B31
330
1D
100
AcDbEntity
  8
0
100
AcDbLine
 10
51.070106531336
 20
825.190146317973
 30
0.0
 11
52.445056615809
 21
824.097519270346
 31
0.0
  0
LINE
  5
1B32
330
1D
100
AcDbEntity
  8
0
100
AcDbLine
 10
52.445056615809
 20
824.097519270346
 30
0.0
 11
53.2763072798
 21
823.555621693663
 31
0.0
  0
LINE
  5
1B33
330
1D
100
AcDbEntity
  8
0
100
AcDbLine
 10
52.445056615809
 20
824.097519270346
 30
0.0
 11
52.546432975895
 21
824.193068468403
 31
0.0
  0
LINE
  5
1B34
330
1D
100
AcDbEntity
  8
0
100
AcDbLine
 10
52.445056615809
 20
824.097519270346
 30
0.0
 11
52.603217952815
 21
824.143474448997
 31
0.0
  0
LINE
  5
1B35
330
1D
100
AcDbEntity
  8
0
100
AcDbLine
 10
52.445056615809
 20
824.097519270346
 30
0.0
 11
52.616637070188
 21
824.131754659654
 31
0.0
  0
LINE
  5
1B36
330
1D
100
AcDbEntity
  8
0
100
AcDbLine
 10
59.411255117146
 20
818.24304682614
 30
0.0
 11
59.858154173386
 21
817.883588339619
 31
0.0
  0
LINE
  5
1B37
330
1D
100
AcDbEntity
  8
0
100
AcDbLine
 10
59.411255117146
 20
818.24304682614
 30
0.0
 11
59.46127379414
 21
818.278197199375
 31
0.0
  0
LINE
  5
1B38
330
1D
100
AcDbEntity
  8
0
100
AcDbLine
 10
59.411255117146
 20
818.24304682614
 30
0.0
 11
59.575291728299
 21
818.202021751271
 31
0.0
  0
LINE
  5
1B39
330
1D
100
AcDbEntity
  8
0
100
AcDbLine
 10
59.411255117146
 20
818.24304682614
 30
0.0
 11
59.476094479302
 21
818.268295491001
 31
0.0
  0
LINE
  5
1B3A
330
1D
100
AcDbEntity
  8
0
100
AcDbLine
 10
59.411255117146
 20
818.24304682614
 30
0.0
 11
60.265222431663
 21
817.713286950595
 31
0.0
  0
LINE
  5
1B3B
330
1D
100
AcDbEntity
  8
0
100
AcDbLine
 10
59.411255117146
 20
818.24304682614
 30
0.0
 11
59.461393835247
 21
818.278116999841
 31
0.0
  0
LINE
  5
1B3C
330
1D
100
AcDbEntity
  8
0
100
AcDbLine
 10
39.675821526053
 20
834.441835676592
 30
0.0
 11
40.435036837285
 21
833.658050609632
 31
0.0
  0
LINE
  5
1B3D
330
1D
100
AcDbEntity
  8
0
100
AcDbLine
 10
39.675821526053
 20
834.441835676592
 30
0.0
 11
40.373514228268
 21
835.164619891519
 31
0.0
  0
LINE
  5
1B3E
330
1D
100
AcDbEntity
  8
0
100
AcDbLine
 10
59.870821481607
 20
817.957954158186
 30
0.0
 11
59.858154173386
 21
817.883588339619
 31
0.0
  0
LINE
  5
1B3F
330
1D
100
AcDbEntity
  8
0
100
AcDbLine
 10
59.879132278631
 20
817.952798543067
 30
0.0
 11
59.858154173386
 21
817.883588339619
 31
0.0
  0
LINE
  5
1B40
330
1D
100
AcDbEntity
  8
0
100
AcDbLine
 10
59.870106763197
 20
817.958397534799
 30
0.0
 11
59.858154173386
 21
817.883588339619
 31
0.0
  0
LINE
  5
1B41
330
1D
100
AcDbEntity
  8
0
100
AcDbLine
 10
59.885507624454
 20
817.94884358794
 30
0.0
 11
59.858154173386
 21
817.883588339619
 31
0.0
  0
LINE
  5
1B42
330
1D
100
AcDbEntity
  8
0
100
AcDbLine
 10
59.85156309967
 20
817.969901123654
 30
0.0
 11
59.858154173386
 21
817.883588339619
 31
0.0
  0
LINE
  5
1B43
330
1D
100
AcDbEntity
  8
0
100
AcDbLine
 10
59.851501180132
 20
817.969939535531
 30
0.0
 11
59.858154173386
 21
817.883588339619
 31
0.0
  0
LINE
  5
1B44
330
1D
100
AcDbEntity
  8
0
100
AcDbLine
 10
59.115690615742
 20
818.578125556456
 30
0.0
 11
59.133941983588
 21
818.496887772317
 31
0.0
  0
LINE
  5
1B45
330
1D
100
AcDbEntity
  8
0
100
AcDbLine
 10
59.133941983588
 20
818.496887772317
 30
0.0
 11
59.961467928055
 21
817.944017207688
 31
0.0
  0
LINE
  5
1B46
330
1D
100
AcDbEntity
  8
0
100
AcDbLine
 10
59.133941983588
 20
818.496887772317
 30
0.0
 11
60.082472967525
 21
818.229796266443
 31
0.0
  0
LINE
  5
1B47
330
1D
100
AcDbEntity
  8
0
100
AcDbLine
 10
59.133941983588
 20
818.496887772317
 30
0.0
 11
59.411255117146
 21
818.24304682614
 31
0.0
  0
LINE
  5
1B48
330
1D
100
AcDbEntity
  8
0
100
AcDbLine
 10
43.780239883949
 20
831.447793638917
 30
0.0
 11
44.830793266057
 21
830.803989350845
 31
0.0
  0
LINE
  5
1B49
330
1D
100
AcDbEntity
  8
0
100
AcDbLine
 10
43.780239883949
 20
831.447793638917
 30
0.0
 11
44.406740536139
 21
831.353403741127
 31
0.0
  0
LINE
  5
1B4A
330
1D
100
AcDbEntity
  8
0
100
AcDbLine
 10
43.780239883949
 20
831.447793638917
 30
0.0
 11
44.055814714011
 21
831.492913623802
 31
0.0
  0
LINE
  5
1B4B
330
1D
100
AcDbEntity
  8
0
100
AcDbLine
 10
51.358311642094
 20
825.010581443534
 30
0.0
 11
52.068637800263
 21
824.610358119599
 31
0.0
  0
LINE
  5
1B4C
330
1D
100
AcDbEntity
  8
0
100
AcDbLine
 10
60.58145758346
 20
817.26282739773
 30
0.0
 11
60.991166347737
 21
816.999062391571
 31
0.0
  0
LINE
  5
1B4D
330
1D
100
AcDbEntity
  8
0
100
AcDbLine
 10
60.58145758346
 20
817.26282739773
 30
0.0
 11
60.665939519866
 21
817.318612347443
 31
0.0
  0
LINE
  5
1B4E
330
1D
100
AcDbEntity
  8
0
100
AcDbLine
 10
60.991166347737
 20
816.999062391571
 30
0.0
 11
61.518431003297
 21
816.929067513204
 31
0.0
  0
LINE
  5
1B4F
330
1D
100
AcDbEntity
  8
0
100
AcDbLine
 10
60.039307941539
 20
817.662787315428
 30
0.0
 11
60.58145758346
 21
817.26282739773
 31
0.0
  0
LINE
  5
1B50
330
1D
100
AcDbEntity
  8
0
100
AcDbLine
 10
60.039307941539
 20
817.662787315428
 30
0.0
 11
60.715361546085
 21
817.331398082379
 31
0.0
  0
LINE
  5
1B51
330
1D
100
AcDbEntity
  8
0
100
AcDbLine
 10
60.039307941539
 20
817.662787315428
 30
0.0
 11
60.241410390916
 21
817.728058784983
 31
0.0
  0
LINE
  5
1B52
330
1D
100
AcDbEntity
  8
0
100
AcDbLine
 10
60.021416828276
 20
817.676624875408
 30
0.0
 11
60.715361546085
 21
817.331398082379
 31
0.0
  0
LINE
  5
1B53
330
1D
100
AcDbEntity
  8
0
100
AcDbLine
 10
60.021416828276
 20
817.676624875408
 30
0.0
 11
60.227904456421
 21
817.736437211248
 31
0.0
  0
LINE
  5
1B54
330
1D
100
AcDbEntity
  8
0
100
AcDbLine
 10
60.021416828276
 20
817.676624875408
 30
0.0
 11
60.832836584878
 21
817.225906162022
 31
0.0
  0
LINE
  5
1B55
330
1D
100
AcDbEntity
  8
0
100
AcDbLine
 10
59.858154173386
 20
817.883588339619
 30
0.0
 11
60.021416828276
 21
817.676624875408
 31
0.0
  0
LINE
  5
1B56
330
1D
100
AcDbEntity
  8
0
100
AcDbLine
 10
59.858154173386
 20
817.883588339619
 30
0.0
 11
59.913056081246
 21
817.93175386238
 31
0.0
  0
LINE
  5
1B57
330
1D
100
AcDbEntity
  8
0
100
AcDbLine
 10
44.830793266057
 20
830.803989350845
 30
0.0
 11
45.781864531747
 21
831.672272680279
 31
0.0
  0
LINE
  5
1B58
330
1D
100
AcDbEntity
  8
0
100
AcDbLine
 10
44.055814714011
 20
831.492913623802
 30
0.0
 11
44.536632456603
 21
831.386700873111
 31
0.0
  0
LINE
  5
1B59
330
1D
100
AcDbEntity
  8
0
100
AcDbLine
 10
44.055814714011
 20
831.492913623802
 30
0.0
 11
44.406740536139
 21
831.353403741127
 31
0.0
  0
LINE
  5
1B5A
330
1D
100
AcDbEntity
  8
0
100
AcDbLine
 10
43.639975984534
 20
832.001127485932
 30
0.0
 11
43.780239883949
 21
831.447793638917
 31
0.0
  0
LINE
  5
1B5B
330
1D
100
AcDbEntity
  8
0
100
AcDbLine
 10
43.307758809209
 20
832.407143957629
 30
0.0
 11
44.055814714011
 21
831.492913623802
 31
0.0
  0
LINE
  5
1B5C
330
1D
100
AcDbEntity
  8
0
100
AcDbLine
 10
40.30365642084
 20
835.231131277041
 30
0.0
 11
40.89514852081
 21
834.667973620897
 31
0.0
  0
LINE
  5
1B5D
330
1D
100
AcDbEntity
  8
0
100
AcDbLine
 10
39.84592401498
 20
835.718472086562
 30
0.0
 11
40.30365642084
 21
835.231131277041
 31
0.0
  0
LINE
  5
1B5E
330
1D
100
AcDbEntity
  8
0
100
AcDbLine
 10
42.994498297861
 20
832.723000273111
 30
0.0
 11
44.536632456603
 21
831.386700873111
 31
0.0
  0
LINE
  5
1B5F
330
1D
100
AcDbEntity
  8
0
100
AcDbLine
 10
48.594454491748
 20
828.146395759222
 30
0.0
 11
49.107312784305
 21
827.668278648302
 31
0.0
  0
LINE
  5
1B60
330
1D
100
AcDbEntity
  8
0
100
AcDbLine
 10
48.034671075495
 20
828.658666094971
 30
0.0
 11
48.594454491748
 21
828.146395759222
 31
0.0
  0
LINE
  5
1B61
330
1D
100
AcDbEntity
  8
0
100
AcDbLine
 10
47.315943016516
 20
829.216583451966
 30
0.0
 11
48.034671075495
 21
828.658666094971
 31
0.0
  0
LINE
  5
1B62
330
1D
100
AcDbEntity
  8
0
100
AcDbLine
 10
46.791231871184
 20
829.61263868695
 30
0.0
 11
46.173461965075
 21
828.555881138441
 31
0.0
  0
LINE
  5
1B63
330
1D
100
AcDbEntity
  8
0
100
AcDbLine
 10
44.536632456603
 20
831.386700873111
 30
0.0
 11
44.830793266057
 21
830.803989350845
 31
0.0
  0
LINE
  5
1B64
330
1D
100
AcDbEntity
  8
0
100
AcDbLine
 10
44.536632456603
 20
831.386700873111
 30
0.0
 11
45.420662707445
 21
832.084643306895
 31
0.0
  0
LINE
  5
1B65
330
1D
100
AcDbEntity
  8
0
100
AcDbLine
 10
42.557354476676
 20
832.844390921844
 30
0.0
 11
42.994498297861
 21
832.723000273111
 31
0.0
  0
LINE
  5
1B66
330
1D
100
AcDbEntity
  8
0
100
AcDbLine
 10
42.557354476676
 20
832.844390921844
 30
0.0
 11
42.97138706372
 21
832.153132050751
 31
0.0
  0
LINE
  5
1B67
330
1D
100
AcDbEntity
  8
0
100
AcDbLine
 10
49.356944544181
 20
828.701168847917
 30
0.0
 11
49.809649603308
 21
828.094424412886
 31
0.0
  0
LINE
  5
1B68
330
1D
100
AcDbEntity
  8
0
100
AcDbLine
 10
49.356944544181
 20
828.701168847917
 30
0.0
 11
49.56897067181
 21
828.823922815587
 31
0.0
  0
LINE
  5
1B69
330
1D
100
AcDbEntity
  8
0
100
AcDbLine
 10
49.356944544181
 20
828.701168847917
 30
0.0
 11
49.64222179465
 21
828.666219593775
 31
0.0
  0
LINE
  5
1B6A
330
1D
100
AcDbEntity
  8
0
100
AcDbLine
 10
43.247173841812
 20
833.884190359603
 30
0.0
 11
42.557354476676
 21
832.844390921844
 31
0.0
  0
LINE
  5
1B6B
330
1D
100
AcDbEntity
  8
0
100
AcDbLine
 10
45.156952923435
 20
832.346041478875
 30
0.0
 11
44.536632456603
 21
831.386700873111
 31
0.0
  0
LINE
  5
1B6C
330
1D
100
AcDbEntity
  8
0
100
AcDbLine
 10
43.673495312053
 20
833.595210882789
 30
0.0
 11
42.994498297861
 21
832.723000273111
 31
0.0
  0
LINE
  5
1B6D
330
1D
100
AcDbEntity
  8
0
100
AcDbLine
 10
45.048716930564
 20
835.540295972724
 30
0.0
 11
45.544757913077
 21
835.037780745424
 31
0.0
  0
LINE
  5
1B6E
330
1D
100
AcDbEntity
  8
0
100
AcDbLine
 10
45.048716930564
 20
835.540295972724
 30
0.0
 11
45.820266291133
 21
834.57658900263
 31
0.0
  0
LINE
  5
1B6F
330
1D
100
AcDbEntity
  8
0
100
AcDbLine
 10
45.820266291133
 20
834.57658900263
 30
0.0
 11
46.593734979203
 21
833.986053958306
 31
0.0
  0
LINE
  5
1B70
330
1D
100
AcDbEntity
  8
0
100
AcDbLine
 10
45.752114627806
 20
834.902579812833
 30
0.0
 11
46.593734979203
 21
833.986053958306
 31
0.0
  0
LINE
  5
1B71
330
1D
100
AcDbEntity
  8
0
100
AcDbLine
 10
45.544757913077
 20
835.037780745424
 30
0.0
 11
46.593734979203
 21
833.986053958306
 31
0.0
  0
LINE
  5
1B72
330
1D
100
AcDbEntity
  8
0
100
AcDbLine
 10
45.79221422324
 20
836.48983507449
 30
0.0
 11
45.048716930564
 21
835.540295972724
 31
0.0
  0
LINE
  5
1B73
330
1D
100
AcDbEntity
  8
0
100
AcDbLine
 10
49.807843835829
 20
830.33996536681
 30
0.0
 11
48.910386743503
 21
829.104594294131
 31
0.0
  0
LINE
  5
1B74
330
1D
100
AcDbEntity
  8
0
100
AcDbLine
 10
49.88604209776
 20
830.447607137708
 30
0.0
 11
49.814536121002
 21
830.349177456819
 31
0.0
  0
LINE
  5
1B75
330
1D
100
AcDbEntity
  8
0
100
AcDbLine
 10
46.593734979203
 20
833.986053958306
 30
0.0
 11
48.003124020425
 21
834.545110539058
 31
0.0
  0
LINE
  5
1B76
330
1D
100
AcDbEntity
  8
0
100
AcDbLine
 10
46.593734979203
 20
833.986053958306
 30
0.0
 11
46.863572235902
 21
834.177886111233
 31
0.0
  0
LINE
  5
1B77
330
1D
100
AcDbEntity
  8
0
100
AcDbLine
 10
49.381699213319
 20
829.227101786946
 30
0.0
 11
49.64222179465
 21
828.666219593775
 31
0.0
  0
LINE
  5
1B78
330
1D
100
AcDbEntity
  8
0
100
AcDbLine
 10
49.381699213319
 20
829.227101786946
 30
0.0
 11
50.856778810929
 21
828.169639787291
 31
0.0
  0
LINE
  5
1B79
330
1D
100
AcDbEntity
  8
0
100
AcDbLine
 10
49.820507620032
 20
828.574161971917
 30
0.0
 11
50.718352470115
 21
827.628651249364
 31
0.0
  0
LINE
  5
1B7A
330
1D
100
AcDbEntity
  8
0
100
AcDbLine
 10
49.910325627284
 20
828.479575597747
 30
0.0
 11
49.809649603308
 21
828.094424412886
 31
0.0
  0
LINE
  5
1B7B
330
1D
100
AcDbEntity
  8
0
100
AcDbLine
 10
49.64222179465
 20
828.666219593775
 30
0.0
 11
50.096433207001
 21
828.431688203786
 31
0.0
  0
LINE
  5
1B7C
330
1D
100
AcDbEntity
  8
0
100
AcDbLine
 10
48.910386743503
 20
829.104594294131
 30
0.0
 11
49.809649603308
 21
828.094424412886
 31
0.0
  0
LINE
  5
1B7D
330
1D
100
AcDbEntity
  8
0
100
AcDbLine
 10
48.910386743503
 20
829.104594294131
 30
0.0
 11
49.356944544181
 21
828.701168847917
 31
0.0
  0
LINE
  5
1B7E
330
1D
100
AcDbEntity
  8
0
100
AcDbLine
 10
48.910386743503
 20
829.104594294131
 30
0.0
 11
49.563032254564
 21
828.820484728561
 31
0.0
  0
LINE
  5
1B7F
330
1D
100
AcDbEntity
  8
0
100
AcDbLine
 10
48.910386743503
 20
829.104594294131
 30
0.0
 11
49.381699213319
 21
829.227101786946
 31
0.0
  0
LINE
  5
1B80
330
1D
100
AcDbEntity
  8
0
100
AcDbLine
 10
53.161443146609
 20
823.675893098854
 30
0.0
 11
53.2763072798
 21
823.555621693663
 31
0.0
  0
LINE
  5
1B81
330
1D
100
AcDbEntity
  8
0
100
AcDbLine
 10
53.2763072798
 20
823.555621693663
 30
0.0
 11
54.242297170005
 21
824.401683707543
 31
0.0
  0
LINE
  5
1B82
330
1D
100
AcDbEntity
  8
0
100
AcDbLine
 10
54.277163983767
 20
822.97440438652
 30
0.0
 11
54.320151962429
 21
822.937031829215
 31
0.0
  0
LINE
  5
1B83
330
1D
100
AcDbEntity
  8
0
100
AcDbLine
 10
52.20350348503
 20
824.539748650884
 30
0.0
 11
53.161443146609
 21
823.675893098854
 31
0.0
  0
LINE
  5
1B84
330
1D
100
AcDbEntity
  8
0
100
AcDbLine
 10
54.377245656749
 20
823.031909736465
 30
0.0
 11
53.861593969678
 21
822.175003321103
 31
0.0
  0
LINE
  5
1B85
330
1D
100
AcDbEntity
  8
0
100
AcDbLine
 10
51.698219139053
 20
826.480093666522
 30
0.0
 11
52.173974186048
 21
826.164825470761
 31
0.0
  0
LINE
  5
1B86
330
1D
100
AcDbEntity
  8
0
100
AcDbLine
 10
52.173974186048
 20
826.164825470761
 30
0.0
 11
52.967926085035
 21
825.547051335583
 31
0.0
  0
LINE
  5
1B87
330
1D
100
AcDbEntity
  8
0
100
AcDbLine
 10
53.554460067228
 20
825.06977253055
 30
0.0
 11
53.986003269052
 21
824.66758878528
 31
0.0
  0
LINE
  5
1B88
330
1D
100
AcDbEntity
  8
0
100
AcDbLine
 10
53.986003269052
 20
824.66758878528
 30
0.0
 11
54.247215036007
 21
824.396581418583
 31
0.0
  0
LINE
  5
1B89
330
1D
100
AcDbEntity
  8
0
100
AcDbLine
 10
52.967926085035
 20
825.547051335583
 30
0.0
 11
53.554460067228
 21
825.06977253055
 31
0.0
  0
LINE
  5
1B8A
330
1D
100
AcDbEntity
  8
0
100
AcDbLine
 10
52.12219914298
 20
826.199135194886
 30
0.0
 11
51.522352445551
 21
825.331002283682
 31
0.0
  0
LINE
  5
1B8B
330
1D
100
AcDbEntity
  8
0
100
AcDbLine
 10
51.811412115339
 20
826.405084172388
 30
0.0
 11
51.070106531336
 21
825.190146317973
 31
0.0
  0
LINE
  5
1B8C
330
1D
100
AcDbEntity
  8
0
100
AcDbLine
 10
54.377245656749
 20
823.031909736465
 30
0.0
 11
53.861593969678
 21
822.175003321103
 31
0.0
  0
LINE
  5
1B8D
330
1D
100
AcDbEntity
  8
0
100
AcDbLine
 10
51.426698408495
 20
827.312721808538
 30
0.0
 11
52.336323821182
 21
828.172008430834
 31
0.0
  0
LINE
  5
1B8E
330
1D
100
AcDbEntity
  8
0
100
AcDbLine
 10
51.522352445551
 20
825.331002283682
 30
0.0
 11
52.20350348503
 21
824.539748650884
 31
0.0
  0
LINE
  5
1B8F
330
1D
100
AcDbEntity
  8
0
100
AcDbLine
 10
50.879819725999
 20
827.341606348212
 30
0.0
 11
51.426698408495
 21
827.312721808538
 31
0.0
  0
LINE
  5
1B90
330
1D
100
AcDbEntity
  8
0
100
AcDbLine
 10
52.337510803007
 20
828.173129724927
 30
0.0
 11
52.410944452196
 21
828.242499546278
 31
0.0
  0
LINE
  5
1B91
330
1D
100
AcDbEntity
  8
0
100
AcDbLine
 10
50.856778810929
 20
828.169639787291
 30
0.0
 11
51.426698408495
 21
827.312721808538
 31
0.0
  0
LINE
  5
1B92
330
1D
100
AcDbEntity
  8
0
100
AcDbLine
 10
50.096433207001
 20
828.431688203786
 30
0.0
 11
50.718352470115
 21
827.628651249364
 31
0.0
  0
LINE
  5
1B93
330
1D
100
AcDbEntity
  8
0
100
AcDbLine
 10
52.068637800263
 20
824.610358119599
 30
0.0
 11
52.20350348503
 21
824.539748650884
 31
0.0
  0
LINE
  5
1B94
330
1D
100
AcDbEntity
  8
0
100
AcDbLine
 10
52.068637800263
 20
824.610358119599
 30
0.0
 11
53.2763072798
 21
823.555621693663
 31
0.0
  0
LINE
  5
1B95
330
1D
100
AcDbEntity
  8
0
100
AcDbLine
 10
52.068637800263
 20
824.610358119599
 30
0.0
 11
53.161443146609
 21
823.675893098854
 31
0.0
  0
LINE
  5
1B96
330
1D
100
AcDbEntity
  8
0
100
AcDbLine
 10
58.272074468565
 20
824.410771490868
 30
0.0
 11
58.250484819215
 21
824.236470323228
 31
0.0
  0
LINE
  5
1B97
330
1D
100
AcDbEntity
  8
0
100
AcDbLine
 10
58.272074468565
 20
824.410771490868
 30
0.0
 11
59.062343574109
 21
823.67364038257
 31
0.0
  0
LINE
  5
1B98
330
1D
100
AcDbEntity
  8
0
100
AcDbLine
 10
58.40721784661
 20
824.666347436838
 30
0.0
 11
58.31183232469
 21
824.404730255541
 31
0.0
  0
LINE
  5
1B99
330
1D
100
AcDbEntity
  8
0
100
AcDbLine
 10
58.213714368267
 20
824.708682599579
 30
0.0
 11
58.477132657592
 21
824.823790787164
 31
0.0
  0
LINE
  5
1B9A
330
1D
100
AcDbEntity
  8
0
100
AcDbLine
 10
58.213714368267
 20
824.708682599579
 30
0.0
 11
58.250484819215
 21
824.236470323228
 31
0.0
  0
LINE
  5
1B9B
330
1D
100
AcDbEntity
  8
0
100
AcDbLine
 10
58.213714368267
 20
824.708682599579
 30
0.0
 11
58.272074468565
 21
824.410771490868
 31
0.0
  0
LINE
  5
1B9C
330
1D
100
AcDbEntity
  8
0
100
AcDbLine
 10
58.477132657592
 20
824.823790787164
 30
0.0
 11
58.618346676477
 21
824.812863716642
 31
0.0
  0
LINE
  5
1B9D
330
1D
100
AcDbEntity
  8
0
100
AcDbLine
 10
56.801986373105
 20
820.992764075489
 30
0.0
 11
56.853400630701
 21
821.036142471549
 31
0.0
  0
LINE
  5
1B9E
330
1D
100
AcDbEntity
  8
0
100
AcDbLine
 10
60.133755576014
 20
819.351449432117
 30
0.0
 11
60.320795404287
 21
819.218532484892
 31
0.0
  0
LINE
  5
1B9F
330
1D
100
AcDbEntity
  8
0
100
AcDbLine
 10
59.752487386699
 20
819.600921943275
 30
0.0
 11
59.115690615742
 21
818.578125556456
 31
0.0
  0
LINE
  5
1BA0
330
1D
100
AcDbEntity
  8
0
100
AcDbLine
 10
60.501672093215
 20
819.045434618525
 30
0.0
 11
60.082472967525
 21
818.229796266443
 31
0.0
  0
LINE
  5
1BA1
330
1D
100
AcDbEntity
  8
0
100
AcDbLine
 10
59.825918461454
 20
819.692126641363
 30
0.0
 11
60.007657827918
 21
819.632574204994
 31
0.0
  0
LINE
  5
1BA2
330
1D
100
AcDbEntity
  8
0
100
AcDbLine
 10
59.825918461454
 20
819.692126641363
 30
0.0
 11
60.761562142278
 21
818.796721457922
 31
0.0
  0
LINE
  5
1BA3
330
1D
100
AcDbEntity
  8
0
100
AcDbLine
 10
60.082472967525
 20
818.229796266443
 30
0.0
 11
61.518431003297
 21
816.929067513204
 31
0.0
  0
LINE
  5
1BA4
330
1D
100
AcDbEntity
  8
0
100
AcDbLine
 10
60.082472967525
 20
818.229796266443
 30
0.0
 11
60.707148419051
 21
818.848795052632
 31
0.0
  0
LINE
  5
1BA5
330
1D
100
AcDbEntity
  8
0
100
AcDbLine
 10
59.961467928055
 20
817.944017207688
 30
0.0
 11
60.265222431663
 21
817.713286950595
 31
0.0
  0
LINE
  5
1BA6
330
1D
100
AcDbEntity
  8
0
100
AcDbLine
 10
60.891404315363
 20
819.16330204611
 30
0.0
 11
60.761562142278
 21
818.796721457922
 31
0.0
  0
LINE
  5
1BA7
330
1D
100
AcDbEntity
  8
0
100
AcDbLine
 10
60.847585336287
 20
819.21035097192
 30
0.0
 11
60.761562142278
 21
818.796721457922
 31
0.0
  0
LINE
  5
1BA8
330
1D
100
AcDbEntity
  8
0
100
AcDbLine
 10
60.007657827918
 20
819.632574204994
 30
0.0
 11
60.319199700084
 21
819.70926077217
 31
0.0
  0
LINE
  5
1BA9
330
1D
100
AcDbEntity
  8
0
100
AcDbLine
 10
60.007657827918
 20
819.632574204994
 30
0.0
 11
60.564573919944
 21
819.510390664825
 31
0.0
  0
LINE
  5
1BAA
330
1D
100
AcDbEntity
  8
0
100
AcDbLine
 10
60.007657827918
 20
819.632574204994
 30
0.0
 11
60.367495209035
 21
819.670118383638
 31
0.0
  0
LINE
  5
1BAB
330
1D
100
AcDbEntity
  8
0
100
AcDbLine
 10
60.089514489747
 20
817.822287629964
 30
0.0
 11
60.021416828276
 21
817.676624875408
 31
0.0
  0
LINE
  5
1BAC
330
1D
100
AcDbEntity
  8
0
100
AcDbLine
 10
60.761562142278
 20
818.796721457922
 30
0.0
 11
61.855485359519
 21
818.297324466759
 31
0.0
  0
LINE
  5
1BAD
330
1D
100
AcDbEntity
  8
0
100
AcDbLine
 10
60.761562142278
 20
818.796721457922
 30
0.0
 11
61.387601475148
 21
818.630529629904
 31
0.0
  0
LINE
  5
1BAE
330
1D
100
AcDbEntity
  8
0
100
AcDbLine
 10
60.761562142278
 20
818.796721457922
 30
0.0
 11
61.101492995359
 21
818.937727490811
 31
0.0
  0
LINE
  5
1BAF
330
1D
100
AcDbEntity
  8
0
100
AcDbLine
 10
60.761562142278
 20
818.796721457922
 30
0.0
 11
61.039317635253
 21
819.004485867353
 31
0.0
  0
LINE
  5
1BB0
330
1D
100
AcDbEntity
  8
0
100
AcDbLine
 10
60.761562142278
 20
818.796721457922
 30
0.0
 11
61.406871723948
 21
818.638248924638
 31
0.0
  0
LINE
  5
1BB1
330
1D
100
AcDbEntity
  8
0
100
AcDbLine
 10
58.250484819215
 20
824.236470323228
 30
0.0
 11
59.062343574109
 21
823.67364038257
 31
0.0
  0
LINE
  5
1BB2
330
1D
100
AcDbEntity
  8
0
100
AcDbLine
 10
58.250484819215
 20
824.236470323228
 30
0.0
 11
58.365239106721
 21
824.323871278654
 31
0.0
  0
LINE
  5
1BB3
330
1D
100
AcDbEntity
  8
0
100
AcDbLine
 10
61.306723318013
 20
819.00711317658
 30
0.0
 11
61.402910741641
 21
818.836861513915
 31
0.0
  0
LINE
  5
1BB4
330
1D
100
AcDbEntity
  8
0
100
AcDbLine
 10
60.579134391952
 20
819.498589740373
 30
0.0
 11
61.546941754134
 21
818.844848843911
 31
0.0
  0
LINE
  5
1BB5
330
1D
100
AcDbEntity
  8
0
100
AcDbLine
 10
60.579134391952
 20
819.498589740373
 30
0.0
 11
61.387601475148
 21
818.630529629904
 31
0.0
  0
LINE
  5
1BB6
330
1D
100
AcDbEntity
  8
0
100
AcDbLine
 10
60.579134391952
 20
819.498589740373
 30
0.0
 11
61.402910741641
 21
818.836861513915
 31
0.0
  0
LINE
  5
1BB7
330
1D
100
AcDbEntity
  8
0
100
AcDbLine
 10
60.323764710358
 20
821.352603802749
 30
0.0
 11
59.571215934164
 21
820.315484245465
 31
0.0
  0
LINE
  5
1BB8
330
1D
100
AcDbEntity
  8
0
100
AcDbLine
 10
59.062343574109
 20
823.67364038257
 30
0.0
 11
60.167798618625
 21
823.301243182587
 31
0.0
  0
LINE
  5
1BB9
330
1D
100
AcDbEntity
  8
0
100
AcDbLine
 10
59.062343574109
 20
823.67364038257
 30
0.0
 11
59.498522895038
 21
823.679291930524
 31
0.0
  0
LINE
  5
1BBA
330
1D
100
AcDbEntity
  8
0
100
AcDbLine
 10
59.571215934164
 20
820.315484245465
 30
0.0
 11
60.579134391952
 21
819.498589740373
 31
0.0
  0
LINE
  5
1BBB
330
1D
100
AcDbEntity
  8
0
100
AcDbLine
 10
59.571215934164
 20
820.315484245465
 30
0.0
 11
59.825918461454
 21
819.692126641363
 31
0.0
  0
LINE
  5
1BBC
330
1D
100
AcDbEntity
  8
0
100
AcDbLine
 10
60.832836584878
 20
817.225906162022
 30
0.0
 11
60.991166347737
 21
816.999062391571
 31
0.0
  0
LINE
  5
1BBD
330
1D
100
AcDbEntity
  8
0
100
AcDbLine
 10
60.715361546085
 20
817.331398082379
 30
0.0
 11
60.832836584878
 21
817.225906162022
 31
0.0
  0
LINE
  5
1BBE
330
1D
100
AcDbEntity
  8
0
100
AcDbLine
 10
61.087909777054
 20
818.647737485088
 30
0.0
 11
61.526843000226
 21
818.294905855874
 31
0.0
  0
LINE
  5
1BBF
330
1D
100
AcDbEntity
  8
0
100
AcDbLine
 10
61.331162548645
 20
818.894495851828
 30
0.0
 11
61.387601475148
 21
818.630529629904
 31
0.0
  0
LINE
  5
1BC0
330
1D
100
AcDbEntity
  8
0
100
AcDbLine
 10
61.402289525628
 20
818.837360528205
 30
0.0
 11
61.406871723948
 21
818.638248924638
 31
0.0
  0
LINE
  5
1BC1
330
1D
100
AcDbEntity
  8
0
100
AcDbLine
 10
61.38807091544
 20
818.848782142465
 30
0.0
 11
61.387601475148
 21
818.630529629904
 31
0.0
  0
LINE
  5
1BC2
330
1D
100
AcDbEntity
  8
0
100
AcDbLine
 10
61.399830330855
 20
818.944220637816
 30
0.0
 11
61.402027753976
 21
818.848735368378
 31
0.0
  0
LINE
  5
1BC3
330
1D
100
AcDbEntity
  8
0
100
AcDbLine
 10
61.388292957253
 20
818.952013978987
 30
0.0
 11
61.388101654968
 21
818.863073585448
 31
0.0
  0
LINE
  5
1BC4
330
1D
100
AcDbEntity
  8
0
100
AcDbLine
 10
61.400332687301
 20
818.943881302773
 30
0.0
 11
61.402910741641
 21
818.836861513915
 31
0.0
  0
LINE
  5
1BC5
330
1D
100
AcDbEntity
  8
0
100
AcDbLine
 10
61.546941754134
 20
818.844848843911
 30
0.0
 11
61.855485359519
 21
818.297324466759
 31
0.0
  0
LINE
  5
1BC6
330
1D
100
AcDbEntity
  8
0
100
AcDbLine
 10
61.546941754134
 20
818.844848843911
 30
0.0
 11
62.413505226407
 21
819.792780742555
 31
0.0
  0
LINE
  5
1BC7
330
1D
100
AcDbEntity
  8
0
100
AcDbLine
 10
61.402910741641
 20
818.836861513915
 30
0.0
 11
61.406871723948
 21
818.638248924638
 31
0.0
  0
LINE
  5
1BC8
330
1D
100
AcDbEntity
  8
0
100
AcDbLine
 10
61.402910741641
 20
818.836861513915
 30
0.0
 11
61.855485359519
 21
818.297324466759
 31
0.0
  0
LINE
  5
1BC9
330
1D
100
AcDbEntity
  8
0
100
AcDbLine
 10
61.402910741641
 20
818.836861513915
 30
0.0
 11
61.546941754134
 21
818.844848843911
 31
0.0
  0
LINE
  5
1BCA
330
1D
100
AcDbEntity
  8
0
100
AcDbLine
 10
61.526843000226
 20
818.294905855874
 30
0.0
 11
61.951528236383
 21
817.928109372534
 31
0.0
  0
LINE
  5
1BCB
330
1D
100
AcDbEntity
  8
0
100
AcDbLine
 10
61.951528236383
 20
817.928109372534
 30
0.0
 11
62.230408583802
 21
817.664468230404
 31
0.0
  0
LINE
  5
1BCC
330
1D
100
AcDbEntity
  8
0
100
AcDbLine
 10
61.855485359519
 20
818.297324466759
 30
0.0
 11
62.95504654966
 21
819.335049232775
 31
0.0
  0
LINE
  5
1BCD
330
1D
100
AcDbEntity
  8
0
100
AcDbLine
 10
60.55112624767
 20
817.48944167369
 30
0.0
 11
60.715361546085
 21
817.331398082379
 31
0.0
  0
LINE
  5
1BCE
330
1D
100
AcDbEntity
  8
0
100
AcDbLine
 10
60.265222431663
 20
817.713286950595
 30
0.0
 11
60.55112624767
 21
817.48944167369
 31
0.0
  0
LINE
  5
1BCF
330
1D
100
AcDbEntity
  8
0
100
AcDbLine
 10
58.737439449366
 20
824.766951769207
 30
0.0
 11
58.95864382915
 21
824.791562764541
 31
0.0
  0
LINE
  5
1BD0
330
1D
100
AcDbEntity
  8
0
100
AcDbLine
 10
59.498522895038
 20
823.679291930524
 30
0.0
 11
59.870315495362
 21
824.108531155601
 31
0.0
  0
LINE
  5
1BD1
330
1D
100
AcDbEntity
  8
0
100
AcDbLine
 10
58.303386307744
 20
824.381565071745
 30
0.0
 11
58.250484819215
 21
824.236470323228
 31
0.0
  0
LINE
  5
1BD2
330
1D
100
AcDbEntity
  8
0
100
AcDbLine
 10
58.618346676477
 20
824.812863716642
 30
0.0
 11
58.955533398013
 21
824.795392694128
 31
0.0
  0
LINE
  5
1BD3
330
1D
100
AcDbEntity
  8
0
100
AcDbLine
 10
58.618346676477
 20
824.812863716642
 30
0.0
 11
59.087518723109
 21
824.632876798618
 31
0.0
  0
LINE
  5
1BD4
330
1D
100
AcDbEntity
  8
0
100
AcDbLine
 10
59.315564849588
 20
824.467617065036
 30
0.0
 11
59.391683849225
 21
824.429784298195
 31
0.0
  0
LINE
  5
1BD5
330
1D
100
AcDbEntity
  8
0
100
AcDbLine
 10
59.834795435483
 20
824.132371891902
 30
0.0
 11
59.498522895038
 21
823.679291930524
 31
0.0
  0
LINE
  5
1BD6
330
1D
100
AcDbEntity
  8
0
100
AcDbLine
 10
60.606611616287
 20
824.328254668931
 30
0.0
 11
60.167798618625
 21
823.301243182587
 31
0.0
  0
LINE
  5
1BD7
330
1D
100
AcDbEntity
  8
0
100
AcDbLine
 10
59.308332682508
 20
825.572461347945
 30
0.0
 11
60.107737132071
 21
824.98809933171
 31
0.0
  0
LINE
  5
1BD8
330
1D
100
AcDbEntity
  8
0
100
AcDbLine
 10
60.107737132071
 20
824.98809933171
 30
0.0
 11
60.606611616287
 21
824.328254668931
 31
0.0
  0
LINE
  5
1BD9
330
1D
100
AcDbEntity
  8
0
100
AcDbLine
 10
58.609579540402
 20
825.221371877301
 30
0.0
 11
58.213714368267
 21
824.708682599579
 31
0.0
  0
LINE
  5
1BDA
330
1D
100
AcDbEntity
  8
0
100
AcDbLine
 10
58.609579540402
 20
825.221371877301
 30
0.0
 11
59.087518723109
 21
824.632876798618
 31
0.0
  0
LINE
  5
1BDB
330
1D
100
AcDbEntity
  8
0
100
AcDbLine
 10
58.609579540402
 20
825.221371877301
 30
0.0
 11
59.308332682508
 21
825.572461347945
 31
0.0
  0
LINE
  5
1BDC
330
1D
100
AcDbEntity
  8
0
100
AcDbLine
 10
59.09986264002
 20
824.625651999985
 30
0.0
 11
59.870315495362
 21
824.108531155601
 31
0.0
  0
LINE
  5
1BDD
330
1D
100
AcDbEntity
  8
0
100
AcDbLine
 10
49.809649603308
 20
828.094424412886
 30
0.0
 11
50.718352470115
 21
827.628651249364
 31
0.0
  0
LINE
  5
1BDE
330
1D
100
AcDbEntity
  8
0
100
AcDbLine
 10
49.809649603308
 20
828.094424412886
 30
0.0
 11
50.879819725999
 21
827.341606348212
 31
0.0
  0
LINE
  5
1BDF
330
1D
100
AcDbEntity
  8
0
100
AcDbLine
 10
49.809649603308
 20
828.094424412886
 30
0.0
 11
50.25326289694
 21
828.118432059872
 31
0.0
  0
LINE
  5
1BE0
330
1D
100
AcDbEntity
  8
0
100
AcDbLine
 10
42.97138706372
 20
832.153132050751
 30
0.0
 11
43.780239883949
 21
831.447793638917
 31
0.0
  0
LINE
  5
1BE1
330
1D
100
AcDbEntity
  8
0
100
AcDbLine
 10
42.97138706372
 20
832.153132050751
 30
0.0
 11
43.307758809209
 21
832.407143957629
 31
0.0
  0
LINE
  5
1BE2
330
1D
100
AcDbEntity
  8
0
100
AcDbLine
 10
42.97138706372
 20
832.153132050751
 30
0.0
 11
43.531809297637
 21
832.133322507234
 31
0.0
  0
LINE
  5
1BE3
330
1D
100
AcDbEntity
  8
0
100
AcDbLine
 10
42.97138706372
 20
832.153132050751
 30
0.0
 11
43.334405051431
 21
832.374578473198
 31
0.0
  0
LINE
  5
1BE4
330
1D
100
AcDbEntity
  8
0
100
AcDbLine
 10
63.007131276942
 20
815.082284205599
 30
0.0
 11
63.029359178666
 21
815.010763786242
 31
0.0
  0
LINE
  5
1BE5
330
1D
100
AcDbEntity
  8
0
100
AcDbLine
 10
63.007131276942
 20
815.082284205599
 30
0.0
 11
63.140610545639
 21
814.969106933905
 31
0.0
  0
LINE
  5
1BE6
330
1D
100
AcDbEntity
  8
0
100
AcDbLine
 10
62.800518617025
 20
815.263876878254
 30
0.0
 11
63.029359178666
 21
815.010763786242
 31
0.0
  0
LINE
  5
1BE7
330
1D
100
AcDbEntity
  8
0
100
AcDbLine
 10
62.800518617025
 20
815.263876878254
 30
0.0
 11
64.225050932057
 21
814.204807827677
 31
0.0
  0
LINE
  5
1BE8
330
1D
100
AcDbEntity
  8
0
100
AcDbLine
 10
62.800518617025
 20
815.263876878254
 30
0.0
 11
62.912742881899
 21
814.980686563495
 31
0.0
  0
LINE
  5
1BE9
330
1D
100
AcDbEntity
  8
0
100
AcDbLine
 10
62.734375164792
 20
815.052813656146
 30
0.0
 11
62.912742881899
 21
814.980686563495
 31
0.0
  0
LINE
  5
1BEA
330
1D
100
AcDbEntity
  8
0
100
AcDbLine
 10
62.734375164792
 20
815.052813656146
 30
0.0
 11
62.867666897895
 21
814.940968612061
 31
0.0
  0
LINE
  5
1BEB
330
1D
100
AcDbEntity
  8
0
100
AcDbLine
 10
63.734609677872
 20
814.658008427148
 30
0.0
 11
63.818591905032
 21
814.619276209488
 31
0.0
  0
LINE
  5
1BEC
330
1D
100
AcDbEntity
  8
0
100
AcDbLine
 10
63.734609677872
 20
814.658008427148
 30
0.0
 11
63.833862119298
 21
814.60827470749
 31
0.0
  0
LINE
  5
1BED
330
1D
100
AcDbEntity
  8
0
100
AcDbLine
 10
63.833862119298
 20
814.60827470749
 30
0.0
 11
64.184119352524
 21
814.36606812093
 31
0.0
  0
LINE
  5
1BEE
330
1D
100
AcDbEntity
  8
0
100
AcDbLine
 10
63.837451871322
 20
814.605792355943
 30
0.0
 11
63.855162944427
 21
814.546539508058
 31
0.0
  0
LINE
  5
1BEF
330
1D
100
AcDbEntity
  8
0
100
AcDbLine
 10
63.140610545639
 20
814.969106933905
 30
0.0
 11
64.197558828887
 21
814.164844682923
 31
0.0
  0
LINE
  5
1BF0
330
1D
100
AcDbEntity
  8
0
100
AcDbLine
 10
63.140610545639
 20
814.969106933905
 30
0.0
 11
64.199547166983
 21
814.16773497628
 31
0.0
  0
LINE
  5
1BF1
330
1D
100
AcDbEntity
  8
0
100
AcDbLine
 10
63.140610545639
 20
814.969106933905
 30
0.0
 11
64.198138893864
 21
814.165687878533
 31
0.0
  0
LINE
  5
1BF2
330
1D
100
AcDbEntity
  8
0
100
AcDbLine
 10
63.855162944427
 20
814.546539508058
 30
0.0
 11
64.145456013051
 21
814.31065660425
 31
0.0
  0
LINE
  5
1BF3
330
1D
100
AcDbEntity
  8
0
100
AcDbLine
 10
64.184119352524
 20
814.36606812093
 30
0.0
 11
64.731731763089
 21
813.96857359544
 31
0.0
  0
LINE
  5
1BF4
330
1D
100
AcDbEntity
  8
0
100
AcDbLine
 10
64.145456013051
 20
814.31065660425
 30
0.0
 11
64.24287578267
 21
814.230718434838
 31
0.0
  0
LINE
  5
1BF5
330
1D
100
AcDbEntity
  8
0
100
AcDbLine
 10
64.731731763089
 20
813.96857359544
 30
0.0
 11
65.318969746348
 21
813.532738178089
 31
0.0
  0
LINE
  5
1BF6
330
1D
100
AcDbEntity
  8
0
100
AcDbLine
 10
64.680994919885
 20
814.005401864897
 30
0.0
 11
64.233273856527
 21
813.306082746155
 31
0.0
  0
LINE
  5
1BF7
330
1D
100
AcDbEntity
  8
0
100
AcDbLine
 10
64.285408764051
 20
814.292545341322
 30
0.0
 11
63.702325003225
 21
813.444961560871
 31
0.0
  0
LINE
  5
1BF8
330
1D
100
AcDbEntity
  8
0
100
AcDbLine
 10
70.256239090918
 20
808.781818576667
 30
0.0
 11
70.363351755369
 21
808.693981096921
 31
0.0
  0
LINE
  5
1BF9
330
1D
100
AcDbEntity
  8
0
100
AcDbLine
 10
69.806825435855
 20
809.234112868741
 30
0.0
 11
70.087891548338
 21
808.920337582248
 31
0.0
  0
LINE
  5
1BFA
330
1D
100
AcDbEntity
  8
0
100
AcDbLine
 10
70.087891548338
 20
808.920337582248
 30
0.0
 11
70.24806853874
 21
808.833250645697
 31
0.0
  0
LINE
  5
1BFB
330
1D
100
AcDbEntity
  8
0
100
AcDbLine
 10
70.087891548338
 20
808.920337582248
 30
0.0
 11
70.362864055222
 21
808.694570270101
 31
0.0
  0
LINE
  5
1BFC
330
1D
100
AcDbEntity
  8
0
100
AcDbLine
 10
70.087891548338
 20
808.920337582248
 30
0.0
 11
70.256239090918
 21
808.781818576667
 31
0.0
  0
LINE
  5
1BFD
330
1D
100
AcDbEntity
  8
0
100
AcDbLine
 10
70.523140661736
 20
808.500945809217
 30
0.0
 11
71.437638059701
 21
807.93170466794
 31
0.0
  0
LINE
  5
1BFE
330
1D
100
AcDbEntity
  8
0
100
AcDbLine
 10
70.523140661736
 20
808.500945809217
 30
0.0
 11
70.789632645386
 21
808.627969485818
 31
0.0
  0
LINE
  5
1BFF
330
1D
100
AcDbEntity
  8
0
100
AcDbLine
 10
70.523140661736
 20
808.500945809217
 30
0.0
 11
70.957826440259
 21
808.447249665631
 31
0.0
  0
LINE
  5
1C00
330
1D
100
AcDbEntity
  8
0
100
AcDbLine
 10
69.904693537174
 20
809.248069757516
 30
0.0
 11
70.253172104544
 21
809.160871546045
 31
0.0
  0
LINE
  5
1C01
330
1D
100
AcDbEntity
  8
0
100
AcDbLine
 10
69.904693537174
 20
809.248069757516
 30
0.0
 11
70.523140661736
 21
808.500945809217
 31
0.0
  0
LINE
  5
1C02
330
1D
100
AcDbEntity
  8
0
100
AcDbLine
 10
71.224323078243
 20
808.062444658954
 30
0.0
 11
71.709194054111
 21
807.739527290638
 31
0.0
  0
LINE
  5
1C03
330
1D
100
AcDbEntity
  8
0
100
AcDbLine
 10
67.050798221875
 20
811.775793266785
 30
0.0
 11
67.649767350957
 21
811.495509352858
 31
0.0
  0
LINE
  5
1C04
330
1D
100
AcDbEntity
  8
0
100
AcDbLine
 10
67.050798221875
 20
811.775793266785
 30
0.0
 11
67.714392060979
 21
811.485405548893
 31
0.0
  0
LINE
  5
1C05
330
1D
100
AcDbEntity
  8
0
100
AcDbLine
 10
72.409431607066
 20
807.060318626506
 30
0.0
 11
72.580432315166
 21
806.878933074751
 31
0.0
  0
LINE
  5
1C06
330
1D
100
AcDbEntity
  8
0
100
AcDbLine
 10
72.409431607066
 20
807.060318626506
 30
0.0
 11
72.604267585404
 21
806.923593060188
 31
0.0
  0
LINE
  5
1C07
330
1D
100
AcDbEntity
  8
0
100
AcDbLine
 10
72.150709948152
 20
807.487843530119
 30
0.0
 11
72.971125416259
 21
808.242227998383
 31
0.0
  0
LINE
  5
1C08
330
1D
100
AcDbEntity
  8
0
100
AcDbLine
 10
71.709194054111
 20
807.739527290638
 30
0.0
 11
71.796694451143
 21
807.707500697096
 31
0.0
  0
LINE
  5
1C09
330
1D
100
AcDbEntity
  8
0
100
AcDbLine
 10
71.440763746901
 20
807.928346199043
 30
0.0
 11
71.845144304059
 21
807.882877803505
 31
0.0
  0
LINE
  5
1C0A
330
1D
100
AcDbEntity
  8
0
100
AcDbLine
 10
71.440763746901
 20
807.928346199043
 30
0.0
 11
72.150709948152
 21
807.487843530119
 31
0.0
  0
LINE
  5
1C0B
330
1D
100
AcDbEntity
  8
0
100
AcDbLine
 10
67.190546516253
 20
811.710398913368
 30
0.0
 11
66.637415665503
 21
810.998445659798
 31
0.0
  0
LINE
  5
1C0C
330
1D
100
AcDbEntity
  8
0
100
AcDbLine
 10
70.329058200308
 20
809.099952168457
 30
0.0
 11
70.523140661736
 21
808.500945809217
 31
0.0
  0
LINE
  5
1C0D
330
1D
100
AcDbEntity
  8
0
100
AcDbLine
 10
70.253172104544
 20
809.160871546045
 30
0.0
 11
71.845144304059
 21
807.882877803505
 31
0.0
  0
LINE
  5
1C0E
330
1D
100
AcDbEntity
  8
0
100
AcDbLine
 10
67.58301298372
 20
811.542896845792
 30
0.0
 11
67.649767350957
 21
811.495509352858
 31
0.0
  0
LINE
  5
1C0F
330
1D
100
AcDbEntity
  8
0
100
AcDbLine
 10
67.649767350957
 20
811.495509352858
 30
0.0
 11
67.960493082885
 21
811.357096168811
 31
0.0
  0
LINE
  5
1C10
330
1D
100
AcDbEntity
  8
0
100
AcDbLine
 10
66.257361945257
 20
812.534810058016
 30
0.0
 11
66.796924580672
 21
812.349110957339
 31
0.0
  0
LINE
  5
1C11
330
1D
100
AcDbEntity
  8
0
100
AcDbLine
 10
72.220783392684
 20
807.55227712535
 30
0.0
 11
72.362334947124
 21
807.500466913589
 31
0.0
  0
LINE
  5
1C12
330
1D
100
AcDbEntity
  8
0
100
AcDbLine
 10
72.362334947124
 20
807.500466913589
 30
0.0
 11
72.739971802282
 21
807.880129515917
 31
0.0
  0
LINE
  5
1C13
330
1D
100
AcDbEntity
  8
0
100
AcDbLine
 10
72.362334947124
 20
807.500466913589
 30
0.0
 11
72.718762176483
 21
807.894945019468
 31
0.0
  0
LINE
  5
1C14
330
1D
100
AcDbEntity
  8
0
100
AcDbLine
 10
72.247609873594
 20
807.57694448149
 30
0.0
 11
72.362334947124
 21
807.500466913589
 31
0.0
  0
LINE
  5
1C15
330
1D
100
AcDbEntity
  8
0
100
AcDbLine
 10
71.845144304059
 20
807.882877803505
 30
0.0
 11
72.150709948152
 21
807.487843530119
 31
0.0
  0
LINE
  5
1C16
330
1D
100
AcDbEntity
  8
0
100
AcDbLine
 10
72.718649678751
 20
807.137910018708
 30
0.0
 11
73.519168867108
 21
806.24062028341
 31
0.0
  0
LINE
  5
1C17
330
1D
100
AcDbEntity
  8
0
100
AcDbLine
 10
72.718649678751
 20
807.137910018708
 30
0.0
 11
72.50648675485
 21
806.740381776036
 31
0.0
  0
LINE
  5
1C18
330
1D
100
AcDbEntity
  8
0
100
AcDbLine
 10
70.413314688185
 20
809.032313258489
 30
0.0
 11
71.440763746901
 21
807.928346199043
 31
0.0
  0
LINE
  5
1C19
330
1D
100
AcDbEntity
  8
0
100
AcDbLine
 10
66.189018085122
 20
812.542513265154
 30
0.0
 11
67.050798221875
 21
811.775793266785
 31
0.0
  0
LINE
  5
1C1A
330
1D
100
AcDbEntity
  8
0
100
AcDbLine
 10
66.189018085122
 20
812.542513265154
 30
0.0
 11
66.796924580672
 21
812.349110957339
 31
0.0
  0
LINE
  5
1C1B
330
1D
100
AcDbEntity
  8
0
100
AcDbLine
 10
66.189018085122
 20
812.542513265154
 30
0.0
 11
66.939203461238
 21
812.131297091516
 31
0.0
  0
LINE
  5
1C1C
330
1D
100
AcDbEntity
  8
0
100
AcDbLine
 10
66.11828555181
 20
812.582675420615
 30
0.0
 11
66.189018085122
 21
812.542513265154
 31
0.0
  0
LINE
  5
1C1D
330
1D
100
AcDbEntity
  8
0
100
AcDbLine
 10
66.11828555181
 20
812.582675420615
 30
0.0
 11
67.050798221875
 21
811.775793266785
 31
0.0
  0
LINE
  5
1C1E
330
1D
100
AcDbEntity
  8
0
100
AcDbLine
 10
66.11828555181
 20
812.582675420615
 30
0.0
 11
66.207558822136
 21
812.551950598461
 31
0.0
  0
LINE
  5
1C1F
330
1D
100
AcDbEntity
  8
0
100
AcDbLine
 10
65.318969746348
 20
813.532738178089
 30
0.0
 11
65.895181575273
 21
813.097890803674
 31
0.0
  0
LINE
  5
1C20
330
1D
100
AcDbEntity
  8
0
100
AcDbLine
 10
61.518431003297
 20
816.929067513204
 30
0.0
 11
62.258241020747
 21
817.634901926515
 31
0.0
  0
LINE
  5
1C21
330
1D
100
AcDbEntity
  8
0
100
AcDbLine
 10
62.175293129435
 20
817.716571942526
 30
0.0
 11
61.518431003297
 21
816.929067513204
 31
0.0
  0
LINE
  5
1C22
330
1D
100
AcDbEntity
  8
0
100
AcDbLine
 10
65.884904285786
 20
813.082404371816
 30
0.0
 11
66.11828555181
 21
812.582675420615
 31
0.0
  0
LINE
  5
1C23
330
1D
100
AcDbEntity
  8
0
100
AcDbLine
 10
65.884904285786
 20
813.082404371816
 30
0.0
 11
66.796924580672
 21
812.349110957339
 31
0.0
  0
LINE
  5
1C24
330
1D
100
AcDbEntity
  8
0
100
AcDbLine
 10
67.717039777092
 20
811.541648885284
 30
0.0
 11
67.714392060979
 21
811.485405548893
 31
0.0
  0
LINE
  5
1C25
330
1D
100
AcDbEntity
  8
0
100
AcDbLine
 10
67.708237016295
 20
811.548321924338
 30
0.0
 11
67.714392060979
 21
811.485405548893
 31
0.0
  0
LINE
  5
1C26
330
1D
100
AcDbEntity
  8
0
100
AcDbLine
 10
68.713596292295
 20
810.692662902052
 30
0.0
 11
70.17597968664
 21
809.671148115434
 31
0.0
  0
LINE
  5
1C27
330
1D
100
AcDbEntity
  8
0
100
AcDbLine
 10
67.886050356015
 20
811.390256778946
 30
0.0
 11
68.015397138933
 21
811.293403197225
 31
0.0
  0
LINE
  5
1C28
330
1D
100
AcDbEntity
  8
0
100
AcDbLine
 10
68.015397138933
 20
811.293403197225
 30
0.0
 11
68.294831056644
 21
811.083471956975
 31
0.0
  0
LINE
  5
1C29
330
1D
100
AcDbEntity
  8
0
100
AcDbLine
 10
68.015397138933
 20
811.293403197225
 30
0.0
 11
68.822611793203
 21
810.709014677547
 31
0.0
  0
LINE
  5
1C2A
330
1D
100
AcDbEntity
  8
0
100
AcDbLine
 10
67.714392060979
 20
811.485405548893
 30
0.0
 11
67.960493082885
 21
811.357096168811
 31
0.0
  0
LINE
  5
1C2B
330
1D
100
AcDbEntity
  8
0
100
AcDbLine
 10
68.612131236526
 20
812.241033223538
 30
0.0
 11
69.015354902592
 21
811.892375676474
 31
0.0
  0
LINE
  5
1C2C
330
1D
100
AcDbEntity
  8
0
100
AcDbLine
 10
68.612131236526
 20
812.241033223538
 30
0.0
 11
68.646132752885
 21
812.186655499373
 31
0.0
  0
LINE
  5
1C2D
330
1D
100
AcDbEntity
  8
0
100
AcDbLine
 10
68.564902422209
 20
812.278909085121
 30
0.0
 11
68.612131236526
 21
812.241033223538
 31
0.0
  0
LINE
  5
1C2E
330
1D
100
AcDbEntity
  8
0
100
AcDbLine
 10
68.294831056644
 20
811.083471956975
 30
0.0
 11
68.496744725323
 21
810.932060892649
 31
0.0
  0
LINE
  5
1C2F
330
1D
100
AcDbEntity
  8
0
100
AcDbLine
 10
68.576320626735
 20
810.887318836695
 30
0.0
 11
68.619722690159
 21
810.847886171417
 31
0.0
  0
LINE
  5
1C30
330
1D
100
AcDbEntity
  8
0
100
AcDbLine
 10
68.496744725323
 20
810.932060892649
 30
0.0
 11
68.713596292295
 21
810.692662902052
 31
0.0
  0
LINE
  5
1C31
330
1D
100
AcDbEntity
  8
0
100
AcDbLine
 10
68.496744725323
 20
810.932060892649
 30
0.0
 11
68.822611793203
 21
810.709014677547
 31
0.0
  0
LINE
  5
1C32
330
1D
100
AcDbEntity
  8
0
100
AcDbLine
 10
68.822611793203
 20
810.709014677547
 30
0.0
 11
70.203797334335
 21
809.714530517119
 31
0.0
  0
LINE
  5
1C33
330
1D
100
AcDbEntity
  8
0
100
AcDbLine
 10
68.619722690159
 20
810.847886171417
 30
0.0
 11
68.822611793203
 21
810.709014677547
 31
0.0
  0
LINE
  5
1C34
330
1D
100
AcDbEntity
  8
0
100
AcDbLine
 10
68.550332530595
 20
811.279539222446
 30
0.0
 11
69.806997233461
 21
810.416667717569
 31
0.0
  0
LINE
  5
1C35
330
1D
100
AcDbEntity
  8
0
100
AcDbLine
 10
68.562579212578
 20
811.292012330026
 30
0.0
 11
70.01000162958
 21
810.322562589355
 31
0.0
  0
LINE
  5
1C36
330
1D
100
AcDbEntity
  8
0
100
AcDbLine
 10
68.646132752885
 20
812.186655499373
 30
0.0
 11
68.94820077714
 21
811.930579517051
 31
0.0
  0
LINE
  5
1C37
330
1D
100
AcDbEntity
  8
0
100
AcDbLine
 10
68.94820077714
 20
811.930579517051
 30
0.0
 11
69.015354902592
 21
811.892375676474
 31
0.0
  0
LINE
  5
1C38
330
1D
100
AcDbEntity
  8
0
100
AcDbLine
 10
68.94820077714
 20
811.930579517051
 30
0.0
 11
69.142143595699
 21
811.831033340425
 31
0.0
  0
LINE
  5
1C39
330
1D
100
AcDbEntity
  8
0
100
AcDbLine
 10
69.015354902592
 20
811.892375676474
 30
0.0
 11
69.221630937137
 21
811.68704597192
 31
0.0
  0
LINE
  5
1C3A
330
1D
100
AcDbEntity
  8
0
100
AcDbLine
 10
69.051625622486
 20
811.790100586984
 30
0.0
 11
69.204459284056
 21
811.704138846823
 31
0.0
  0
LINE
  5
1C3B
330
1D
100
AcDbEntity
  8
0
100
AcDbLine
 10
69.0173873943
 20
811.680108017662
 30
0.0
 11
69.218485971342
 21
811.552617146179
 31
0.0
  0
LINE
  5
1C3C
330
1D
100
AcDbEntity
  8
0
100
AcDbLine
 10
69.0173873943
 20
811.680108017662
 30
0.0
 11
69.266018502134
 21
811.505030714115
 31
0.0
  0
LINE
  5
1C3D
330
1D
100
AcDbEntity
  8
0
100
AcDbLine
 10
68.710717447482
 20
811.169413128924
 30
0.0
 11
69.806997233461
 21
810.416667717569
 31
0.0
  0
LINE
  5
1C3E
330
1D
100
AcDbEntity
  8
0
100
AcDbLine
 10
69.113542531702
 20
811.540569956908
 30
0.0
 11
69.157730042265
 21
811.58128364853
 31
0.0
  0
LINE
  5
1C3F
330
1D
100
AcDbEntity
  8
0
100
AcDbLine
 10
69.345181484011
 20
811.496695709595
 30
0.0
 11
70.674480493757
 21
810.745751115974
 31
0.0
  0
LINE
  5
1C40
330
1D
100
AcDbEntity
  8
0
100
AcDbLine
 10
69.266018502134
 20
811.505030714115
 30
0.0
 11
69.345181484011
 21
811.496695709595
 31
0.0
  0
LINE
  5
1C41
330
1D
100
AcDbEntity
  8
0
100
AcDbLine
 10
69.164063674517
 20
811.587119359733
 30
0.0
 11
69.220509895871
 21
811.63912803866
 31
0.0
  0
LINE
  5
1C42
330
1D
100
AcDbEntity
  8
0
100
AcDbLine
 10
69.548168029871
 20
811.303002983351
 30
0.0
 11
70.340245438308
 21
810.880726162183
 31
0.0
  0
LINE
  5
1C43
330
1D
100
AcDbEntity
  8
0
100
AcDbLine
 10
69.371204700393
 20
811.481994732985
 30
0.0
 11
69.548168029871
 21
811.303002983351
 31
0.0
  0
LINE
  5
1C44
330
1D
100
AcDbEntity
  8
0
100
AcDbLine
 10
69.221630937137
 20
811.68704597192
 30
0.0
 11
69.218485971342
 21
811.552617146179
 31
0.0
  0
LINE
  5
1C45
330
1D
100
AcDbEntity
  8
0
100
AcDbLine
 10
69.311118374161
 20
811.687992447062
 30
0.0
 11
69.218485971342
 21
811.552617146179
 31
0.0
  0
LINE
  5
1C46
330
1D
100
AcDbEntity
  8
0
100
AcDbLine
 10
69.220509895871
 20
811.63912803866
 30
0.0
 11
69.218485971342
 21
811.552617146179
 31
0.0
  0
LINE
  5
1C47
330
1D
100
AcDbEntity
  8
0
100
AcDbLine
 10
69.586001435277
 20
811.360652246752
 30
0.0
 11
69.548168029871
 21
811.303002983351
 31
0.0
  0
LINE
  5
1C48
330
1D
100
AcDbEntity
  8
0
100
AcDbLine
 10
68.48123221457
 20
811.209161329332
 30
0.0
 11
69.084482633296
 21
811.823565082197
 31
0.0
  0
LINE
  5
1C49
330
1D
100
AcDbEntity
  8
0
100
AcDbLine
 10
68.633391604341
 20
812.261703171781
 30
0.0
 11
69.51693481391
 21
812.135430305236
 31
0.0
  0
LINE
  5
1C4A
330
1D
100
AcDbEntity
  8
0
100
AcDbLine
 10
68.633391604341
 20
812.261703171781
 30
0.0
 11
69.684007509253
 21
811.696693021123
 31
0.0
  0
LINE
  5
1C4B
330
1D
100
AcDbEntity
  8
0
100
AcDbLine
 10
68.633391604341
 20
812.261703171781
 30
0.0
 11
69.882076521255
 21
811.204663726787
 31
0.0
  0
LINE
  5
1C4C
330
1D
100
AcDbEntity
  8
0
100
AcDbLine
 10
67.960493082885
 20
811.357096168811
 30
0.0
 11
68.48123221457
 21
811.209161329332
 31
0.0
  0
LINE
  5
1C4D
330
1D
100
AcDbEntity
  8
0
100
AcDbLine
 10
69.806997233461
 20
810.416667717569
 30
0.0
 11
69.902845659863
 21
810.394333156007
 31
0.0
  0
LINE
  5
1C4E
330
1D
100
AcDbEntity
  8
0
100
AcDbLine
 10
69.806997233461
 20
810.416667717569
 30
0.0
 11
70.01000162958
 21
810.322562589355
 31
0.0
  0
LINE
  5
1C4F
330
1D
100
AcDbEntity
  8
0
100
AcDbLine
 10
72.647545783329
 20
807.944691617342
 30
0.0
 11
73.036999598759
 21
807.672647478504
 31
0.0
  0
LINE
  5
1C50
330
1D
100
AcDbEntity
  8
0
100
AcDbLine
 10
72.647545783329
 20
807.944691617342
 30
0.0
 11
73.036999598759
 21
807.672647478504
 31
0.0
  0
LINE
  5
1C51
330
1D
100
AcDbEntity
  8
0
100
AcDbLine
 10
72.664923922775
 20
807.960671080183
 30
0.0
 11
73.046136927472
 21
807.687995595901
 31
0.0
  0
LINE
  5
1C52
330
1D
100
AcDbEntity
  8
0
100
AcDbLine
 10
72.653893261835
 20
807.950528220117
 30
0.0
 11
73.037802053769
 21
807.673995375038
 31
0.0
  0
LINE
  5
1C53
330
1D
100
AcDbEntity
  8
0
100
AcDbLine
 10
72.653819460157
 20
807.950460358356
 30
0.0
 11
73.037797476997
 21
807.673987687358
 31
0.0
  0
LINE
  5
1C54
330
1D
100
AcDbEntity
  8
0
100
AcDbLine
 10
70.173499813451
 20
810.075586570537
 30
0.0
 11
70.348259311179
 21
809.939823021232
 31
0.0
  0
LINE
  5
1C55
330
1D
100
AcDbEntity
  8
0
100
AcDbLine
 10
72.672198844355
 20
807.967360480933
 30
0.0
 11
73.066039213664
 21
807.691927889388
 31
0.0
  0
LINE
  5
1C56
330
1D
100
AcDbEntity
  8
0
100
AcDbLine
 10
69.892881033603
 20
810.313664499788
 30
0.0
 11
70.173499813451
 21
810.075586570537
 31
0.0
  0
LINE
  5
1C57
330
1D
100
AcDbEntity
  8
0
100
AcDbLine
 10
70.133635179943
 20
809.70072691118
 30
0.0
 11
69.806825435855
 21
809.234112868741
 31
0.0
  0
LINE
  5
1C58
330
1D
100
AcDbEntity
  8
0
100
AcDbLine
 10
72.900502223235
 20
807.767994627529
 30
0.0
 11
72.409431607066
 21
807.060318626506
 31
0.0
  0
LINE
  5
1C59
330
1D
100
AcDbEntity
  8
0
100
AcDbLine
 10
70.196326692977
 20
810.180576777562
 30
0.0
 11
70.402933252974
 21
810.025088566713
 31
0.0
  0
LINE
  5
1C5A
330
1D
100
AcDbEntity
  8
0
100
AcDbLine
 10
70.01000162958
 20
810.322562589355
 30
0.0
 11
70.488277726013
 21
810.018233054835
 31
0.0
  0
LINE
  5
1C5B
330
1D
100
AcDbEntity
  8
0
100
AcDbLine
 10
69.920098101281
 20
810.364238450662
 30
0.0
 11
69.892881033603
 21
810.313664499788
 31
0.0
  0
LINE
  5
1C5C
330
1D
100
AcDbEntity
  8
0
100
AcDbLine
 10
70.375351607285
 20
810.045845994457
 30
0.0
 11
70.317714248102
 21
809.963552238991
 31
0.0
  0
LINE
  5
1C5D
330
1D
100
AcDbEntity
  8
0
100
AcDbLine
 10
70.488277726013
 20
810.018233054835
 30
0.0
 11
70.974756341405
 21
809.678562910774
 31
0.0
  0
LINE
  5
1C5E
330
1D
100
AcDbEntity
  8
0
100
AcDbLine
 10
70.424542187028
 20
810.058788305361
 30
0.0
 11
69.904693537174
 21
809.248069757516
 31
0.0
  0
LINE
  5
1C5F
330
1D
100
AcDbEntity
  8
0
100
AcDbLine
 10
71.865409520904
 20
809.062931751842
 30
0.0
 11
72.474514225268
 21
808.618930153734
 31
0.0
  0
LINE
  5
1C60
330
1D
100
AcDbEntity
  8
0
100
AcDbLine
 10
70.974756341405
 20
809.678562910774
 30
0.0
 11
71.865409520904
 21
809.062931751842
 31
0.0
  0
LINE
  5
1C61
330
1D
100
AcDbEntity
  8
0
100
AcDbLine
 10
70.715396690736
 20
809.85965356331
 30
0.0
 11
70.253172104544
 21
809.160871546045
 31
0.0
  0
LINE
  5
1C62
330
1D
100
AcDbEntity
  8
0
100
AcDbLine
 10
73.053640278607
 20
807.700599094986
 30
0.0
 11
72.718649678751
 21
807.137910018708
 31
0.0
  0
LINE
  5
1C63
330
1D
100
AcDbEntity
  8
0
100
AcDbLine
 10
69.882076521255
 20
811.204663726787
 30
0.0
 11
70.522681778184
 21
810.837096121039
 31
0.0
  0
LINE
  5
1C64
330
1D
100
AcDbEntity
  8
0
100
AcDbLine
 10
69.882076521255
 20
811.204663726787
 30
0.0
 11
70.246410132634
 21
810.997901400385
 31
0.0
  0
LINE
  5
1C65
330
1D
100
AcDbEntity
  8
0
100
AcDbLine
 10
69.882076521255
 20
811.204663726787
 30
0.0
 11
70.480135816806
 21
810.901515381905
 31
0.0
  0
LINE
  5
1C66
330
1D
100
AcDbEntity
  8
0
100
AcDbLine
 10
69.882076521255
 20
811.204663726787
 30
0.0
 11
70.233286537414
 21
811.280960283391
 31
0.0
  0
LINE
  5
1C67
330
1D
100
AcDbEntity
  8
0
100
AcDbLine
 10
69.882076521255
 20
811.204663726787
 30
0.0
 11
70.54043660678
 21
810.918928731052
 31
0.0
  0
LINE
  5
1C68
330
1D
100
AcDbEntity
  8
0
100
AcDbLine
 10
69.872702783502
 20
811.555292814596
 30
0.0
 11
69.882076521255
 21
811.204663726787
 31
0.0
  0
LINE
  5
1C69
330
1D
100
AcDbEntity
  8
0
100
AcDbLine
 10
69.684007509253
 20
811.696693021123
 30
0.0
 11
70.053480802817
 21
811.419825461913
 31
0.0
  0
LINE
  5
1C6A
330
1D
100
AcDbEntity
  8
0
100
AcDbLine
 10
70.361680880197
 20
810.922457167034
 30
0.0
 11
70.289675404377
 21
810.782275272195
 31
0.0
  0
LINE
  5
1C6B
330
1D
100
AcDbEntity
  8
0
100
AcDbLine
 10
70.373183332607
 20
811.150608195583
 30
0.0
 11
70.54043660678
 21
810.918928731052
 31
0.0
  0
LINE
  5
1C6C
330
1D
100
AcDbEntity
  8
0
100
AcDbLine
 10
70.443342252969
 20
811.085235992203
 30
0.0
 11
70.54043660678
 21
810.918928731052
 31
0.0
  0
LINE
  5
1C6D
330
1D
100
AcDbEntity
  8
0
100
AcDbLine
 10
70.36368951626
 20
811.159454279443
 30
0.0
 11
70.54043660678
 21
810.918928731052
 31
0.0
  0
LINE
  5
1C6E
330
1D
100
AcDbEntity
  8
0
100
AcDbLine
 10
70.053480802817
 20
811.419825461913
 30
0.0
 11
70.233286537414
 21
811.280960283391
 31
0.0
  0
LINE
  5
1C6F
330
1D
100
AcDbEntity
  8
0
100
AcDbLine
 10
69.334523108747
 20
813.376063381292
 30
0.0
 11
68.633391604341
 21
812.261703171781
 31
0.0
  0
LINE
  5
1C70
330
1D
100
AcDbEntity
  8
0
100
AcDbLine
 10
70.562260744107
 20
814.482653707398
 30
0.0
 11
70.648345616427
 21
813.703150253424
 31
0.0
  0
LINE
  5
1C71
330
1D
100
AcDbEntity
  8
0
100
AcDbLine
 10
70.921949104936
 20
814.152120376122
 30
0.0
 11
70.81466322269
 21
814.004037630771
 31
0.0
  0
LINE
  5
1C72
330
1D
100
AcDbEntity
  8
0
100
AcDbLine
 10
70.921949104936
 20
814.152120376122
 30
0.0
 11
71.720271290334
 21
813.871390437744
 31
0.0
  0
LINE
  5
1C73
330
1D
100
AcDbEntity
  8
0
100
AcDbLine
 10
70.921949104936
 20
814.152120376122
 30
0.0
 11
72.254426959408
 21
813.338068057569
 31
0.0
  0
LINE
  5
1C74
330
1D
100
AcDbEntity
  8
0
100
AcDbLine
 10
71.005446987427
 20
814.023497406988
 30
0.0
 11
71.056913249024
 21
814.069666567193
 31
0.0
  0
LINE
  5
1C75
330
1D
100
AcDbEntity
  8
0
100
AcDbLine
 10
72.198310987028
 20
813.372351056922
 30
0.0
 11
72.366441144935
 21
813.087297580357
 31
0.0
  0
LINE
  5
1C76
330
1D
100
AcDbEntity
  8
0
100
AcDbLine
 10
72.172972158705
 20
813.387831338171
 30
0.0
 11
72.103173860766
 21
812.854445487633
 31
0.0
  0
LINE
  5
1C77
330
1D
100
AcDbEntity
  8
0
100
AcDbLine
 10
70.648345616427
 20
813.703150253424
 30
0.0
 11
72.103173860766
 21
812.854445487633
 31
0.0
  0
LINE
  5
1C78
330
1D
100
AcDbEntity
  8
0
100
AcDbLine
 10
70.648345616427
 20
813.703150253424
 30
0.0
 11
70.932012960694
 21
813.957621486733
 31
0.0
  0
LINE
  5
1C79
330
1D
100
AcDbEntity
  8
0
100
AcDbLine
 10
69.51693481391
 20
812.135430305236
 30
0.0
 11
70.580510599894
 21
811.3711752513
 31
0.0
  0
LINE
  5
1C7A
330
1D
100
AcDbEntity
  8
0
100
AcDbLine
 10
70.81466322269
 20
814.004037630771
 30
0.0
 11
70.648345616427
 21
813.703150253424
 31
0.0
  0
LINE
  5
1C7B
330
1D
100
AcDbEntity
  8
0
100
AcDbLine
 10
70.81466322269
 20
814.004037630771
 30
0.0
 11
71.806458077289
 21
813.611746232335
 31
0.0
  0
LINE
  5
1C7C
330
1D
100
AcDbEntity
  8
0
100
AcDbLine
 10
70.81466322269
 20
814.004037630771
 30
0.0
 11
71.114309665721
 21
814.034601304432
 31
0.0
  0
LINE
  5
1C7D
330
1D
100
AcDbEntity
  8
0
100
AcDbLine
 10
72.646979844731
 20
814.183935258863
 30
0.0
 11
73.292054215097
 21
813.624116809098
 31
0.0
  0
LINE
  5
1C7E
330
1D
100
AcDbEntity
  8
0
100
AcDbLine
 10
71.786311764777
 20
814.71239908558
 30
0.0
 11
72.646979844731
 21
814.183935258863
 31
0.0
  0
LINE
  5
1C7F
330
1D
100
AcDbEntity
  8
0
100
AcDbLine
 10
70.569609472401
 20
815.101255320872
 30
0.0
 11
71.786311764777
 21
814.71239908558
 31
0.0
  0
LINE
  5
1C80
330
1D
100
AcDbEntity
  8
0
100
AcDbLine
 10
70.569609472401
 20
815.101255320872
 30
0.0
 11
70.562260744107
 21
814.482653707398
 31
0.0
  0
LINE
  5
1C81
330
1D
100
AcDbEntity
  8
0
100
AcDbLine
 10
71.720271290334
 20
813.871390437744
 30
0.0
 11
72.254426959408
 21
813.338068057569
 31
0.0
  0
LINE
  5
1C82
330
1D
100
AcDbEntity
  8
0
100
AcDbLine
 10
72.294989568417
 20
813.208438965972
 30
0.0
 11
72.103173860766
 21
812.854445487633
 31
0.0
  0
LINE
  5
1C83
330
1D
100
AcDbEntity
  8
0
100
AcDbLine
 10
72.239949942698
 20
813.301754982893
 30
0.0
 11
72.103173860766
 21
812.854445487633
 31
0.0
  0
LINE
  5
1C84
330
1D
100
AcDbEntity
  8
0
100
AcDbLine
 10
72.103173860766
 20
812.854445487633
 30
0.0
 11
73.458665143344
 21
812.917244714169
 31
0.0
  0
LINE
  5
1C85
330
1D
100
AcDbEntity
  8
0
100
AcDbLine
 10
72.103173860766
 20
812.854445487633
 30
0.0
 11
72.366441144935
 21
813.087297580357
 31
0.0
  0
LINE
  5
1C86
330
1D
100
AcDbEntity
  8
0
100
AcDbLine
 10
72.254426959408
 20
813.338068057569
 30
0.0
 11
72.366441144935
 21
813.087297580357
 31
0.0
  0
LINE
  5
1C87
330
1D
100
AcDbEntity
  8
0
100
AcDbLine
 10
70.580510599894
 20
811.3711752513
 30
0.0
 11
70.834761994281
 21
810.720521558117
 31
0.0
  0
LINE
  5
1C88
330
1D
100
AcDbEntity
  8
0
100
AcDbLine
 10
70.580510599894
 20
811.3711752513
 30
0.0
 11
71.285497341861
 21
811.965714199218
 31
0.0
  0
LINE
  5
1C89
330
1D
100
AcDbEntity
  8
0
100
AcDbLine
 10
70.233286537414
 20
811.280960283391
 30
0.0
 11
70.834761994281
 21
810.720521558117
 31
0.0
  0
LINE
  5
1C8A
330
1D
100
AcDbEntity
  8
0
100
AcDbLine
 10
70.233286537414
 20
811.280960283391
 30
0.0
 11
70.54043660678
 21
810.918928731052
 31
0.0
  0
LINE
  5
1C8B
330
1D
100
AcDbEntity
  8
0
100
AcDbLine
 10
70.522681778184
 20
810.837096121039
 30
0.0
 11
70.834761994281
 21
810.720521558117
 31
0.0
  0
LINE
  5
1C8C
330
1D
100
AcDbEntity
  8
0
100
AcDbLine
 10
70.567322194722
 20
810.969714802233
 30
0.0
 11
70.54043660678
 21
810.918928731052
 31
0.0
  0
LINE
  5
1C8D
330
1D
100
AcDbEntity
  8
0
100
AcDbLine
 10
72.307567340117
 20
812.827660084565
 30
0.0
 11
72.35305625708
 21
812.866022412852
 31
0.0
  0
LINE
  5
1C8E
330
1D
100
AcDbEntity
  8
0
100
AcDbLine
 10
70.834761994281
 20
810.720521558117
 30
0.0
 11
71.75553241446
 21
811.54609194115
 31
0.0
  0
LINE
  5
1C8F
330
1D
100
AcDbEntity
  8
0
100
AcDbLine
 10
73.292054215097
 20
813.624116809098
 30
0.0
 11
73.458665143344
 21
812.917244714169
 31
0.0
  0
LINE
  5
1C90
330
1D
100
AcDbEntity
  8
0
100
AcDbLine
 10
70.54043660678
 20
810.918928731052
 30
0.0
 11
70.834761994281
 21
810.720521558117
 31
0.0
  0
LINE
  5
1C91
330
1D
100
AcDbEntity
  8
0
100
AcDbLine
 10
70.480135816806
 20
810.901515381905
 30
0.0
 11
70.54043660678
 21
810.918928731052
 31
0.0
  0
LINE
  5
1C92
330
1D
100
AcDbEntity
  8
0
100
AcDbLine
 10
70.246410132634
 20
810.997901400385
 30
0.0
 11
70.480135816806
 21
810.901515381905
 31
0.0
  0
LINE
  5
1C93
330
1D
100
AcDbEntity
  8
0
100
AcDbLine
 10
66.796924580672
 20
812.349110957339
 30
0.0
 11
67.960493082885
 21
811.357096168811
 31
0.0
  0
LINE
  5
1C94
330
1D
100
AcDbEntity
  8
0
100
AcDbLine
 10
66.796924580672
 20
812.349110957339
 30
0.0
 11
67.449070827289
 21
813.106034674632
 31
0.0
  0
LINE
  5
1C95
330
1D
100
AcDbEntity
  8
0
100
AcDbLine
 10
66.939203461238
 20
812.131297091516
 30
0.0
 11
67.960493082885
 21
811.357096168811
 31
0.0
  0
LINE
  5
1C96
330
1D
100
AcDbEntity
  8
0
100
AcDbLine
 10
73.889611851369
 20
807.180569492557
 30
0.0
 11
74.298392568497
 21
806.897011259274
 31
0.0
  0
LINE
  5
1C97
330
1D
100
AcDbEntity
  8
0
100
AcDbLine
 10
73.414436892237
 20
806.128251366713
 30
0.0
 11
74.284678547884
 21
805.572303787551
 31
0.0
  0
LINE
  5
1C98
330
1D
100
AcDbEntity
  8
0
100
AcDbLine
 10
73.414436892237
 20
806.128251366713
 30
0.0
 11
74.232213125062
 21
805.600009913373
 31
0.0
  0
LINE
  5
1C99
330
1D
100
AcDbEntity
  8
0
100
AcDbLine
 10
73.414436892237
 20
806.128251366713
 30
0.0
 11
74.407533236961
 21
805.516472207132
 31
0.0
  0
LINE
  5
1C9A
330
1D
100
AcDbEntity
  8
0
100
AcDbLine
 10
74.337155470523
 20
805.54700206336
 30
0.0
 11
74.419591811079
 21
805.504395751103
 31
0.0
  0
LINE
  5
1C9B
330
1D
100
AcDbEntity
  8
0
100
AcDbLine
 10
74.284678547884
 20
805.572303787551
 30
0.0
 11
74.407533236961
 21
805.516472207132
 31
0.0
  0
LINE
  5
1C9C
330
1D
100
AcDbEntity
  8
0
100
AcDbLine
 10
74.284678547884
 20
805.572303787551
 30
0.0
 11
75.127643401826
 21
805.165868669704
 31
0.0
  0
LINE
  5
1C9D
330
1D
100
AcDbEntity
  8
0
100
AcDbLine
 10
74.232213125062
 20
805.600009913373
 30
0.0
 11
74.284678547884
 21
805.572303787551
 31
0.0
  0
LINE
  5
1C9E
330
1D
100
AcDbEntity
  8
0
100
AcDbLine
 10
74.232213125062
 20
805.600009913373
 30
0.0
 11
74.286247500032
 21
805.573811837031
 31
0.0
  0
LINE
  5
1C9F
330
1D
100
AcDbEntity
  8
0
100
AcDbLine
 10
74.083546155214
 20
805.746426073944
 30
0.0
 11
74.261674670839
 21
805.622675025781
 31
0.0
  0
LINE
  5
1CA0
330
1D
100
AcDbEntity
  8
0
100
AcDbLine
 10
74.929524355617
 20
806.454368934946
 30
0.0
 11
75.502935763582
 21
806.037837294832
 31
0.0
  0
LINE
  5
1CA1
330
1D
100
AcDbEntity
  8
0
100
AcDbLine
 10
74.298392568497
 20
806.897011259274
 30
0.0
 11
74.929524355617
 21
806.454368934946
 31
0.0
  0
LINE
  5
1CA2
330
1D
100
AcDbEntity
  8
0
100
AcDbLine
 10
75.502935763582
 20
806.037837294832
 30
0.0
 11
75.912114140167
 21
805.746059457882
 31
0.0
  0
LINE
  5
1CA3
330
1D
100
AcDbEntity
  8
0
100
AcDbLine
 10
75.750753940041
 20
805.806240635951
 30
0.0
 11
75.889688042385
 21
805.713911190338
 31
0.0
  0
LINE
  5
1CA4
330
1D
100
AcDbEntity
  8
0
100
AcDbLine
 10
75.912114140167
 20
805.746059457882
 30
0.0
 11
76.085657661009
 21
805.610621330408
 31
0.0
  0
LINE
  5
1CA5
330
1D
100
AcDbEntity
  8
0
100
AcDbLine
 10
75.912114140167
 20
805.746059457882
 30
0.0
 11
78.18346809035
 21
804.283180415764
 31
0.0
  0
LINE
  5
1CA6
330
1D
100
AcDbEntity
  8
0
100
AcDbLine
 10
75.859329335037
 20
805.717378900925
 30
0.0
 11
75.964215205284
 21
805.705398356478
 31
0.0
  0
LINE
  5
1CA7
330
1D
100
AcDbEntity
  8
0
100
AcDbLine
 10
75.859329335037
 20
805.717378900925
 30
0.0
 11
78.133977493526
 21
804.21174851548
 31
0.0
  0
LINE
  5
1CA8
330
1D
100
AcDbEntity
  8
0
100
AcDbLine
 10
76.003210769389
 20
805.684838278576
 30
0.0
 11
76.085657661009
 21
805.610621330408
 31
0.0
  0
LINE
  5
1CA9
330
1D
100
AcDbEntity
  8
0
100
AcDbLine
 10
75.742789862742
 20
805.798055937528
 30
0.0
 11
75.859329335037
 21
805.717378900925
 31
0.0
  0
LINE
  5
1CAA
330
1D
100
AcDbEntity
  8
0
100
AcDbLine
 10
75.127643401826
 20
805.165868669704
 30
0.0
 11
75.782281060843
 21
805.83864112206
 31
0.0
  0
LINE
  5
1CAB
330
1D
100
AcDbEntity
  8
0
100
AcDbLine
 10
74.419591811079
 20
805.504395751103
 30
0.0
 11
75.021405778209
 21
805.213500668698
 31
0.0
  0
LINE
  5
1CAC
330
1D
100
AcDbEntity
  8
0
100
AcDbLine
 10
74.359335832018
 20
805.538375622543
 30
0.0
 11
75.127643401826
 21
805.165868669704
 31
0.0
  0
LINE
  5
1CAD
330
1D
100
AcDbEntity
  8
0
100
AcDbLine
 10
74.261674670839
 20
805.622675025781
 30
0.0
 11
74.407533236961
 21
805.516472207132
 31
0.0
  0
LINE
  5
1CAE
330
1D
100
AcDbEntity
  8
0
100
AcDbLine
 10
75.715650135738
 20
807.489950180488
 30
0.0
 11
75.21977543602
 21
806.79094235981
 31
0.0
  0
LINE
  5
1CAF
330
1D
100
AcDbEntity
  8
0
100
AcDbLine
 10
75.988186187618
 20
806.33610594215
 30
0.0
 11
77.171755859263
 21
805.672849489214
 31
0.0
  0
LINE
  5
1CB0
330
1D
100
AcDbEntity
  8
0
100
AcDbLine
 10
76.943935294523
 20
805.566250238365
 30
0.0
 11
77.192148318464
 21
805.249103813593
 31
0.0
  0
LINE
  5
1CB1
330
1D
100
AcDbEntity
  8
0
100
AcDbLine
 10
77.192148318464
 20
805.249103813593
 30
0.0
 11
78.031196734873
 21
805.009130888201
 31
0.0
  0
LINE
  5
1CB2
330
1D
100
AcDbEntity
  8
0
100
AcDbLine
 10
76.482389526202
 20
805.990084526436
 30
0.0
 11
76.943935294523
 21
805.566250238365
 31
0.0
  0
LINE
  5
1CB3
330
1D
100
AcDbEntity
  8
0
100
AcDbLine
 10
78.031196734873
 20
805.009130888201
 30
0.0
 11
78.581025639928
 21
805.572135178283
 31
0.0
  0
LINE
  5
1CB4
330
1D
100
AcDbEntity
  8
0
100
AcDbLine
 10
78.399774744197
 20
804.595385083312
 30
0.0
 11
77.931663800076
 21
803.919740487615
 31
0.0
  0
LINE
  5
1CB5
330
1D
100
AcDbEntity
  8
0
100
AcDbLine
 10
77.171755859263
 20
805.672849489214
 30
0.0
 11
78.031196734873
 21
805.009130888201
 31
0.0
  0
LINE
  5
1CB6
330
1D
100
AcDbEntity
  8
0
100
AcDbLine
 10
75.21977543602
 20
806.79094235981
 30
0.0
 11
75.63753548905
 21
806.198247001221
 31
0.0
  0
LINE
  5
1CB7
330
1D
100
AcDbEntity
  8
0
100
AcDbLine
 10
75.21977543602
 20
806.79094235981
 30
0.0
 11
75.988186187618
 21
806.33610594215
 31
0.0
  0
LINE
  5
1CB8
330
1D
100
AcDbEntity
  8
0
100
AcDbLine
 10
75.63753548905
 20
806.198247001221
 30
0.0
 11
76.482389526202
 21
805.990084526436
 31
0.0
  0
LINE
  5
1CB9
330
1D
100
AcDbEntity
  8
0
100
AcDbLine
 10
75.63753548905
 20
806.198247001221
 30
0.0
 11
77.192148318464
 21
805.249103813593
 31
0.0
  0
LINE
  5
1CBA
330
1D
100
AcDbEntity
  8
0
100
AcDbLine
 10
75.63753548905
 20
806.198247001221
 30
0.0
 11
76.592355939926
 21
805.889103128985
 31
0.0
  0
LINE
  5
1CBB
330
1D
100
AcDbEntity
  8
0
100
AcDbLine
 10
78.426680282104
 20
803.454897403853
 30
0.0
 11
78.528676848495
 21
803.364873737829
 31
0.0
  0
LINE
  5
1CBC
330
1D
100
AcDbEntity
  8
0
100
AcDbLine
 10
78.528676848495
 20
803.364873737829
 30
0.0
 11
78.739181498439
 21
803.317873446519
 31
0.0
  0
LINE
  5
1CBD
330
1D
100
AcDbEntity
  8
0
100
AcDbLine
 10
78.528676848495
 20
803.364873737829
 30
0.0
 11
78.842083097126
 21
803.167426116119
 31
0.0
  0
LINE
  5
1CBE
330
1D
100
AcDbEntity
  8
0
100
AcDbLine
 10
78.565055559177
 20
803.420440070022
 30
0.0
 11
78.528676848495
 21
803.364873737829
 31
0.0
  0
LINE
  5
1CBF
330
1D
100
AcDbEntity
  8
0
100
AcDbLine
 10
78.842083097126
 20
803.167426116119
 30
0.0
 11
79.08622462257
 21
803.008778470206
 31
0.0
  0
LINE
  5
1CC0
330
1D
100
AcDbEntity
  8
0
100
AcDbLine
 10
79.08622462257
 20
803.008778470206
 30
0.0
 11
80.184422636822
 21
802.466572920343
 31
0.0
  0
LINE
  5
1CC1
330
1D
100
AcDbEntity
  8
0
100
AcDbLine
 10
79.08622462257
 20
803.008778470206
 30
0.0
 11
79.745139395497
 21
802.641251162351
 31
0.0
  0
LINE
  5
1CC2
330
1D
100
AcDbEntity
  8
0
100
AcDbLine
 10
78.743833447009
 20
804.380480614586
 30
0.0
 11
79.426593021562
 21
803.965139967218
 31
0.0
  0
LINE
  5
1CC3
330
1D
100
AcDbEntity
  8
0
100
AcDbLine
 10
79.491463638055
 20
803.819981250236
 30
0.0
 11
80.030536840987
 21
803.584995438152
 31
0.0
  0
LINE
  5
1CC4
330
1D
100
AcDbEntity
  8
0
100
AcDbLine
 10
78.935361943906
 20
804.263968781057
 30
0.0
 11
79.491463638055
 21
803.819981250236
 31
0.0
  0
LINE
  5
1CC5
330
1D
100
AcDbEntity
  8
0
100
AcDbLine
 10
80.030536840987
 20
803.584995438152
 30
0.0
 11
80.600700495275
 21
803.211264990732
 31
0.0
  0
LINE
  5
1CC6
330
1D
100
AcDbEntity
  8
0
100
AcDbLine
 10
78.861173708019
 20
804.309099440616
 30
0.0
 11
78.362245726369
 21
803.539902568562
 31
0.0
  0
LINE
  5
1CC7
330
1D
100
AcDbEntity
  8
0
100
AcDbLine
 10
80.678832916345
 20
805.049901717978
 30
0.0
 11
81.919094443668
 21
804.510214045484
 31
0.0
  0
LINE
  5
1CC8
330
1D
100
AcDbEntity
  8
0
100
AcDbLine
 10
80.678832916345
 20
805.049901717978
 30
0.0
 11
81.027329932008
 21
805.206434524668
 31
0.0
  0
LINE
  5
1CC9
330
1D
100
AcDbEntity
  8
0
100
AcDbLine
 10
80.061782867312
 20
803.564514316091
 30
0.0
 11
79.738562239715
 21
803.061236865705
 31
0.0
  0
LINE
  5
1CCA
330
1D
100
AcDbEntity
  8
0
100
AcDbLine
 10
79.738562239715
 20
803.061236865705
 30
0.0
 11
80.368937369377
 21
802.357886913047
 31
0.0
  0
LINE
  5
1CCB
330
1D
100
AcDbEntity
  8
0
100
AcDbLine
 10
80.600700495275
 20
803.211264990732
 30
0.0
 11
81.281421063039
 21
802.742155463412
 31
0.0
  0
LINE
  5
1CCC
330
1D
100
AcDbEntity
  8
0
100
AcDbLine
 10
79.995118345814
 20
802.523786212693
 30
0.0
 11
80.36124231031
 21
802.362419587671
 31
0.0
  0
LINE
  5
1CCD
330
1D
100
AcDbEntity
  8
0
100
AcDbLine
 10
79.745139395497
 20
802.641251162351
 30
0.0
 11
80.343577294451
 21
802.372824935883
 31
0.0
  0
LINE
  5
1CCE
330
1D
100
AcDbEntity
  8
0
100
AcDbLine
 10
79.745139395497
 20
802.641251162351
 30
0.0
 11
79.995118345814
 21
802.523786212693
 31
0.0
  0
LINE
  5
1CCF
330
1D
100
AcDbEntity
  8
0
100
AcDbLine
 10
80.793842708164
 20
805.302354365504
 30
0.0
 11
80.678832916345
 21
805.049901717978
 31
0.0
  0
LINE
  5
1CD0
330
1D
100
AcDbEntity
  8
0
100
AcDbLine
 10
81.599606502019
 20
804.929610399768
 30
0.0
 11
81.919094443668
 21
804.510214045484
 31
0.0
  0
LINE
  5
1CD1
330
1D
100
AcDbEntity
  8
0
100
AcDbLine
 10
81.801560545031
 20
804.831920306975
 30
0.0
 11
81.919094443668
 21
804.510214045484
 31
0.0
  0
LINE
  5
1CD2
330
1D
100
AcDbEntity
  8
0
100
AcDbLine
 10
80.882157909165
 20
805.276657770367
 30
0.0
 11
82.002888051725
 21
804.734533285071
 31
0.0
  0
LINE
  5
1CD3
330
1D
100
AcDbEntity
  8
0
100
AcDbLine
 10
80.80599530689
 20
805.716392540444
 30
0.0
 11
82.657156713694
 21
804.714618266488
 31
0.0
  0
LINE
  5
1CD4
330
1D
100
AcDbEntity
  8
0
100
AcDbLine
 10
80.220088910064
 20
805.469296396892
 30
0.0
 11
80.882157909165
 21
805.276657770367
 31
0.0
  0
LINE
  5
1CD5
330
1D
100
AcDbEntity
  8
0
100
AcDbLine
 10
80.220088910064
 20
805.469296396892
 30
0.0
 11
80.80599530689
 21
805.716392540444
 31
0.0
  0
LINE
  5
1CD6
330
1D
100
AcDbEntity
  8
0
100
AcDbLine
 10
80.220088910064
 20
805.469296396892
 30
0.0
 11
80.678832916345
 21
805.049901717978
 31
0.0
  0
LINE
  5
1CD7
330
1D
100
AcDbEntity
  8
0
100
AcDbLine
 10
81.919094443668
 20
804.510214045484
 30
0.0
 11
82.881632354079
 21
804.288285090587
 31
0.0
  0
LINE
  5
1CD8
330
1D
100
AcDbEntity
  8
0
100
AcDbLine
 10
81.919094443668
 20
804.510214045484
 30
0.0
 11
82.099304802424
 21
804.612828841591
 31
0.0
  0
LINE
  5
1CD9
330
1D
100
AcDbEntity
  8
0
100
AcDbLine
 10
81.919094443668
 20
804.510214045484
 30
0.0
 11
82.055515785002
 21
804.668102618784
 31
0.0
  0
LINE
  5
1CDA
330
1D
100
AcDbEntity
  8
0
100
AcDbLine
 10
81.919094443668
 20
804.510214045484
 30
0.0
 11
82.135361298129
 21
804.567315632406
 31
0.0
  0
LINE
  5
1CDB
330
1D
100
AcDbEntity
  8
0
100
AcDbLine
 10
81.919094443668
 20
804.510214045484
 30
0.0
 11
82.221599743074
 21
804.458459008712
 31
0.0
  0
LINE
  5
1CDC
330
1D
100
AcDbEntity
  8
0
100
AcDbLine
 10
82.002888051725
 20
804.734533285071
 30
0.0
 11
82.103850186753
 21
804.660389793849
 31
0.0
  0
LINE
  5
1CDD
330
1D
100
AcDbEntity
  8
0
100
AcDbLine
 10
82.002888051725
 20
804.734533285071
 30
0.0
 11
82.221599743074
 21
804.458459008712
 31
0.0
  0
LINE
  5
1CDE
330
1D
100
AcDbEntity
  8
0
100
AcDbLine
 10
81.380840079781
 20
806.456456688636
 30
0.0
 11
80.80599530689
 21
805.716392540444
 31
0.0
  0
LINE
  5
1CDF
330
1D
100
AcDbEntity
  8
0
100
AcDbLine
 10
80.880484443696
 20
806.59694636075
 30
0.0
 11
80.220088910064
 21
805.469296396892
 31
0.0
  0
LINE
  5
1CE0
330
1D
100
AcDbEntity
  8
0
100
AcDbLine
 10
82.103850186753
 20
804.660389793849
 30
0.0
 11
82.18404961149
 21
804.580170953968
 31
0.0
  0
LINE
  5
1CE1
330
1D
100
AcDbEntity
  8
0
100
AcDbLine
 10
80.368937369377
 20
802.357886913047
 30
0.0
 11
81.009015444164
 21
802.929880173318
 31
0.0
  0
LINE
  5
1CE2
330
1D
100
AcDbEntity
  8
0
100
AcDbLine
 10
82.218727427425
 20
804.565660898563
 30
0.0
 11
82.221599743074
 21
804.458459008712
 31
0.0
  0
LINE
  5
1CE3
330
1D
100
AcDbEntity
  8
0
100
AcDbLine
 10
80.369792549777
 20
802.358651128297
 30
0.0
 11
80.679352308876
 21
802.222214788661
 31
0.0
  0
LINE
  5
1CE4
330
1D
100
AcDbEntity
  8
0
100
AcDbLine
 10
80.599892501579
 20
802.564275452583
 30
0.0
 11
82.295128662795
 21
801.431528261575
 31
0.0
  0
LINE
  5
1CE5
330
1D
100
AcDbEntity
  8
0
100
AcDbLine
 10
80.879626826917
 20
802.814254564605
 30
0.0
 11
81.186968389235
 21
802.640481216864
 31
0.0
  0
LINE
  5
1CE6
330
1D
100
AcDbEntity
  8
0
100
AcDbLine
 10
81.089478584994
 20
802.832330710137
 30
0.0
 11
81.272144111558
 21
802.748548551164
 31
0.0
  0
LINE
  5
1CE7
330
1D
100
AcDbEntity
  8
0
100
AcDbLine
 10
80.973697386355
 20
802.8983188813
 30
0.0
 11
81.089478584994
 21
802.832330710137
 31
0.0
  0
LINE
  5
1CE8
330
1D
100
AcDbEntity
  8
0
100
AcDbLine
 10
81.12986228275
 20
802.715551401372
 30
0.0
 11
81.36959903682
 21
802.598326068156
 31
0.0
  0
LINE
  5
1CE9
330
1D
100
AcDbEntity
  8
0
100
AcDbLine
 10
81.12986228275
 20
802.715551401372
 30
0.0
 11
81.439358128338
 21
802.516554990441
 31
0.0
  0
LINE
  5
1CEA
330
1D
100
AcDbEntity
  8
0
100
AcDbLine
 10
81.186968389235
 20
802.640481216864
 30
0.0
 11
81.439358128338
 21
802.516554990441
 31
0.0
  0
LINE
  5
1CEB
330
1D
100
AcDbEntity
  8
0
100
AcDbLine
 10
81.281421063039
 20
802.742155463412
 30
0.0
 11
81.540489885399
 21
802.492396809346
 31
0.0
  0
LINE
  5
1CEC
330
1D
100
AcDbEntity
  8
0
100
AcDbLine
 10
81.36959903682
 20
802.598326068156
 30
0.0
 11
81.449565620227
 21
802.580053524981
 31
0.0
  0
LINE
  5
1CED
330
1D
100
AcDbEntity
  8
0
100
AcDbLine
 10
81.140354202631
 20
802.710421112489
 30
0.0
 11
81.205305336308
 21
802.779205112361
 31
0.0
  0
LINE
  5
1CEE
330
1D
100
AcDbEntity
  8
0
100
AcDbLine
 10
80.679352308876
 20
802.222214788661
 30
0.0
 11
80.846654931465
 21
802.399390196066
 31
0.0
  0
LINE
  5
1CEF
330
1D
100
AcDbEntity
  8
0
100
AcDbLine
 10
80.679352308876
 20
802.222214788661
 30
0.0
 11
80.846654931465
 21
802.399390196066
 31
0.0
  0
LINE
  5
1CF0
330
1D
100
AcDbEntity
  8
0
100
AcDbLine
 10
82.881632354079
 20
804.288285090587
 30
0.0
 11
83.733469705842
 21
805.182042989656
 31
0.0
  0
LINE
  5
1CF1
330
1D
100
AcDbEntity
  8
0
100
AcDbLine
 10
80.397919200687
 20
802.383785960105
 30
0.0
 11
80.679352308876
 21
802.222214788661
 31
0.0
  0
LINE
  5
1CF2
330
1D
100
AcDbEntity
  8
0
100
AcDbLine
 10
80.381613917101
 20
802.369215062139
 30
0.0
 11
80.679352308876
 21
802.222214788661
 31
0.0
  0
LINE
  5
1CF3
330
1D
100
AcDbEntity
  8
0
100
AcDbLine
 10
80.37159193495
 20
802.360259113685
 30
0.0
 11
80.679352308876
 21
802.222214788661
 31
0.0
  0
LINE
  5
1CF4
330
1D
100
AcDbEntity
  8
0
100
AcDbLine
 10
82.657156713694
 20
804.714618266488
 30
0.0
 11
82.881632354079
 21
804.288285090587
 31
0.0
  0
LINE
  5
1CF5
330
1D
100
AcDbEntity
  8
0
100
AcDbLine
 10
82.657156713694
 20
804.714618266488
 30
0.0
 11
83.395820535864
 21
805.460853566157
 31
0.0
  0
LINE
  5
1CF6
330
1D
100
AcDbEntity
  8
0
100
AcDbLine
 10
82.18404961149
 20
804.580170953968
 30
0.0
 11
82.881632354079
 21
804.288285090587
 31
0.0
  0
LINE
  5
1CF7
330
1D
100
AcDbEntity
  8
0
100
AcDbLine
 10
82.18404961149
 20
804.580170953968
 30
0.0
 11
82.221599743074
 21
804.458459008712
 31
0.0
  0
LINE
  5
1CF8
330
1D
100
AcDbEntity
  8
0
100
AcDbLine
 10
78.362245726369
 20
803.539902568562
 30
0.0
 11
78.528676848495
 21
803.364873737829
 31
0.0
  0
LINE
  5
1CF9
330
1D
100
AcDbEntity
  8
0
100
AcDbLine
 10
78.362245726369
 20
803.539902568562
 30
0.0
 11
80.368937369377
 21
802.357886913047
 31
0.0
  0
LINE
  5
1CFA
330
1D
100
AcDbEntity
  8
0
100
AcDbLine
 10
78.362245726369
 20
803.539902568562
 30
0.0
 11
79.738562239715
 21
803.061236865705
 31
0.0
  0
LINE
  5
1CFB
330
1D
100
AcDbEntity
  8
0
100
AcDbLine
 10
77.931663800076
 20
803.919740487615
 30
0.0
 11
78.528676848495
 21
803.364873737829
 31
0.0
  0
LINE
  5
1CFC
330
1D
100
AcDbEntity
  8
0
100
AcDbLine
 10
77.931663800076
 20
803.919740487615
 30
0.0
 11
78.362245726369
 21
803.539902568562
 31
0.0
  0
LINE
  5
1CFD
330
1D
100
AcDbEntity
  8
0
100
AcDbLine
 10
73.519168867108
 20
806.24062028341
 30
0.0
 11
74.083546155214
 21
805.746426073944
 31
0.0
  0
LINE
  5
1CFE
330
1D
100
AcDbEntity
  8
0
100
AcDbLine
 10
73.519168867108
 20
806.24062028341
 30
0.0
 11
75.127643401826
 21
805.165868669704
 31
0.0
  0
LINE
  5
1CFF
330
1D
100
AcDbEntity
  8
0
100
AcDbLine
 10
73.519168867108
 20
806.24062028341
 30
0.0
 11
74.399403755079
 21
806.826167376389
 31
0.0
  0
LINE
  5
1D00
330
1D
100
AcDbEntity
  8
0
100
AcDbLine
 10
73.430613266749
 20
806.159975409767
 30
0.0
 11
74.083546155214
 21
805.746426073944
 31
0.0
  0
LINE
  5
1D01
330
1D
100
AcDbEntity
  8
0
100
AcDbLine
 10
153.296938561841
 20
697.608030313332
 30
0.0
 11
154.091437763573
 21
698.083493271771
 31
0.0
  0
LINE
  5
1D02
330
1D
100
AcDbEntity
  8
0
100
AcDbLine
 10
154.091437763573
 20
698.083493271771
 30
0.0
 11
154.998298250975
 21
698.636857138308
 31
0.0
  0
LINE
  5
1D03
330
1D
100
AcDbEntity
  8
0
100
AcDbLine
 10
82.295128662795
 20
801.431528261575
 30
0.0
 11
83.230873057865
 21
800.878969063755
 31
0.0
  0
LINE
  5
1D04
330
1D
100
AcDbEntity
  8
0
100
AcDbLine
 10
83.230873057865
 20
800.878969063755
 30
0.0
 11
83.834371556153
 21
800.518518231373
 31
0.0
  0
LINE
  5
1D05
330
1D
100
AcDbEntity
  8
0
100
AcDbLine
 10
83.834371556153
 20
800.518518231373
 30
0.0
 11
84.548195685816
 21
800.088859992873
 31
0.0
  0
LINE
  5
1D06
330
1D
100
AcDbEntity
  8
0
100
AcDbLine
 10
84.548195685816
 20
800.088859992873
 30
0.0
 11
85.054834704375
 21
799.812690280553
 31
0.0
  0
LINE
  5
1D07
330
1D
100
AcDbEntity
  8
0
100
AcDbLine
 10
84.899234675642
 20
800.303412148821
 30
0.0
 11
85.741759635741
 21
799.616422497071
 31
0.0
  0
LINE
  5
1D08
330
1D
100
AcDbEntity
  8
0
100
AcDbLine
 10
85.008981001065
 20
800.553993461085
 30
0.0
 11
84.899234675642
 21
800.303412148821
 31
0.0
  0
LINE
  5
1D09
330
1D
100
AcDbEntity
  8
0
100
AcDbLine
 10
85.008981001065
 20
800.553993461085
 30
0.0
 11
85.39880013542
 21
800.405606627132
 31
0.0
  0
LINE
  5
1D0A
330
1D
100
AcDbEntity
  8
0
100
AcDbLine
 10
86.098679442961
 20
799.111460111132
 30
0.0
 11
87.477508989081
 21
798.165960728399
 31
0.0
  0
LINE
  5
1D0B
330
1D
100
AcDbEntity
  8
0
100
AcDbLine
 10
85.054834704375
 20
799.812690280553
 30
0.0
 11
86.098679442961
 21
799.111460111132
 31
0.0
  0
LINE
  5
1D0C
330
1D
100
AcDbEntity
  8
0
100
AcDbLine
 10
86.198514688356
 20
799.496566266427
 30
0.0
 11
86.217654065523
 21
799.402598032376
 31
0.0
  0
LINE
  5
1D0D
330
1D
100
AcDbEntity
  8
0
100
AcDbLine
 10
86.134903210845
 20
799.808878321048
 30
0.0
 11
86.196641180753
 21
799.50576459088
 31
0.0
  0
LINE
  5
1D0E
330
1D
100
AcDbEntity
  8
0
100
AcDbLine
 10
85.937574672372
 20
799.968844402479
 30
0.0
 11
85.741759635741
 21
799.616422497071
 31
0.0
  0
LINE
  5
1D0F
330
1D
100
AcDbEntity
  8
0
100
AcDbLine
 10
85.571402081902
 20
800.087026687288
 30
0.0
 11
85.741759635741
 21
799.616422497071
 31
0.0
  0
LINE
  5
1D10
330
1D
100
AcDbEntity
  8
0
100
AcDbLine
 10
85.571402081902
 20
800.087026687288
 30
0.0
 11
85.904556851584
 21
799.99561058364
 31
0.0
  0
LINE
  5
1D11
330
1D
100
AcDbEntity
  8
0
100
AcDbLine
 10
85.571402081902
 20
800.087026687288
 30
0.0
 11
85.717751852349
 21
800.147045667234
 31
0.0
  0
LINE
  5
1D12
330
1D
100
AcDbEntity
  8
0
100
AcDbLine
 10
86.339547903085
 20
799.471000026683
 30
0.0
 11
86.464915249037
 21
799.541351216337
 31
0.0
  0
LINE
  5
1D13
330
1D
100
AcDbEntity
  8
0
100
AcDbLine
 10
86.217654065523
 20
799.402598032376
 30
0.0
 11
86.599927813577
 21
799.391232206423
 31
0.0
  0
LINE
  5
1D14
330
1D
100
AcDbEntity
  8
0
100
AcDbLine
 10
86.217654065523
 20
799.402598032376
 30
0.0
 11
86.325654681534
 21
799.463203700959
 31
0.0
  0
LINE
  5
1D15
330
1D
100
AcDbEntity
  8
0
100
AcDbLine
 10
85.741759635741
 20
799.616422497071
 30
0.0
 11
86.217654065523
 21
799.402598032376
 31
0.0
  0
LINE
  5
1D16
330
1D
100
AcDbEntity
  8
0
100
AcDbLine
 10
85.741759635741
 20
799.616422497071
 30
0.0
 11
86.69926857123
 21
799.365164385841
 31
0.0
  0
LINE
  5
1D17
330
1D
100
AcDbEntity
  8
0
100
AcDbLine
 10
85.741759635741
 20
799.616422497071
 30
0.0
 11
86.642656833076
 21
799.397263468432
 31
0.0
  0
LINE
  5
1D18
330
1D
100
AcDbEntity
  8
0
100
AcDbLine
 10
85.39880013542
 20
800.405606627132
 30
0.0
 11
86.642656833076
 21
799.397263468432
 31
0.0
  0
LINE
  5
1D19
330
1D
100
AcDbEntity
  8
0
100
AcDbLine
 10
85.39880013542
 20
800.405606627132
 30
0.0
 11
85.571402081902
 21
800.087026687288
 31
0.0
  0
LINE
  5
1D1A
330
1D
100
AcDbEntity
  8
0
100
AcDbLine
 10
86.642656833076
 20
799.397263468432
 30
0.0
 11
86.69926857123
 21
799.365164385841
 31
0.0
  0
LINE
  5
1D1B
330
1D
100
AcDbEntity
  8
0
100
AcDbLine
 10
88.135533183036
 20
797.686915678148
 30
0.0
 11
90.123796976326
 21
796.224700578297
 31
0.0
  0
LINE
  5
1D1C
330
1D
100
AcDbEntity
  8
0
100
AcDbLine
 10
87.477508989081
 20
798.165960728399
 30
0.0
 11
88.135533183036
 21
797.686915678148
 31
0.0
  0
LINE
  5
1D1D
330
1D
100
AcDbEntity
  8
0
100
AcDbLine
 10
93.512763472494
 20
793.471211180186
 30
0.0
 11
94.892857517684
 21
792.219185451046
 31
0.0
  0
LINE
  5
1D1E
330
1D
100
AcDbEntity
  8
0
100
AcDbLine
 10
90.157060496369
 20
796.199205188163
 30
0.0
 11
91.884475531452
 21
794.837506990965
 31
0.0
  0
LINE
  5
1D1F
330
1D
100
AcDbEntity
  8
0
100
AcDbLine
 10
94.892857517684
 20
792.219185451046
 30
0.0
 11
96.511207350052
 21
790.621033762352
 31
0.0
  0
LINE
  5
1D20
330
1D
100
AcDbEntity
  8
0
100
AcDbLine
 10
96.511207350052
 20
790.621033762352
 30
0.0
 11
98.042517098383
 21
788.954933388825
 31
0.0
  0
LINE
  5
1D21
330
1D
100
AcDbEntity
  8
0
100
AcDbLine
 10
98.042517098383
 20
788.954933388825
 30
0.0
 11
99.487799320786
 21
787.217423878748
 31
0.0
  0
LINE
  5
1D22
330
1D
100
AcDbEntity
  8
0
100
AcDbLine
 10
103.348868181897
 20
782.151598705121
 30
0.0
 11
109.546996331672
 21
769.989014586647
 31
0.0
  0
LINE
  5
1D23
330
1D
100
AcDbEntity
  8
0
100
AcDbLine
 10
100.880882731184
 20
785.368719641298
 30
0.0
 11
101.120237119697
 21
784.884646966421
 31
0.0
  0
LINE
  5
1D24
330
1D
100
AcDbEntity
  8
0
100
AcDbLine
 10
100.868036468677
 20
785.394700049232
 30
0.0
 11
101.120237119697
 21
784.884646966421
 31
0.0
  0
LINE
  5
1D25
330
1D
100
AcDbEntity
  8
0
100
AcDbLine
 10
101.120237119697
 20
784.884646966421
 30
0.0
 11
101.294282384358
 21
784.500890981649
 31
0.0
  0
LINE
  5
1D26
330
1D
100
AcDbEntity
  8
0
100
AcDbLine
 10
99.487799320786
 20
787.217423878748
 30
0.0
 11
100.852169814695
 21
785.40682338296
 31
0.0
  0
LINE
  5
1D27
330
1D
100
AcDbEntity
  8
0
100
AcDbLine
 10
109.546996331672
 20
769.989014586647
 30
0.0
 11
117.168539945274
 21
754.606703668064
 31
0.0
  0
LINE
  5
1D28
330
1D
100
AcDbEntity
  8
0
100
AcDbLine
 10
117.168539945274
 20
754.606703668064
 30
0.0
 11
130.058604460554
 21
730.347309940439
 31
0.0
  0
LINE
  5
1D29
330
1D
100
AcDbEntity
  8
0
100
AcDbLine
 10
130.058604460554
 20
730.347309940439
 30
0.0
 11
145.562483998059
 21
703.547883545289
 31
0.0
  0
LINE
  5
1D2A
330
1D
100
AcDbEntity
  8
0
100
AcDbLine
 10
130.058604460554
 20
730.347309940439
 30
0.0
 11
145.562483998059
 21
703.547883545289
 31
0.0
  0
LINE
  5
1D2B
330
1D
100
AcDbEntity
  8
0
100
AcDbLine
 10
139.625599219853
 20
769.160664144444
 30
0.0
 11
150.968904906043
 21
750.447603202961
 31
0.0
  0
LINE
  5
1D2C
330
1D
100
AcDbEntity
  8
0
100
AcDbLine
 10
131.399896331849
 20
781.973210447123
 30
0.0
 11
139.625599219853
 21
769.160664144444
 31
0.0
  0
LINE
  5
1D2D
330
1D
100
AcDbEntity
  8
0
100
AcDbLine
 10
149.13479716207
 20
707.60762366636
 30
0.0
 11
150.323449241213
 21
708.975976613391
 31
0.0
  0
LINE
  5
1D2E
330
1D
100
AcDbEntity
  8
0
100
AcDbLine
 10
154.998298250975
 20
698.636857138308
 30
0.0
 11
156.007450588517
 21
699.260788798456
 31
0.0
  0
LINE
  5
1D2F
330
1D
100
AcDbEntity
  8
0
100
AcDbLine
 10
154.973803975546
 20
715.096782838462
 30
0.0
 11
154.57614206108
 21
713.915013482038
 31
0.0
  0
LINE
  5
1D30
330
1D
100
AcDbEntity
  8
0
100
AcDbLine
 10
153.480562471349
 20
712.608207116216
 30
0.0
 11
154.207079956491
 21
713.465894841459
 31
0.0
  0
LINE
  5
1D31
330
1D
100
AcDbEntity
  8
0
100
AcDbLine
 10
150.323449241213
 20
708.975976613391
 30
0.0
 11
151.630372321413
 21
710.479056555523
 31
0.0
  0
LINE
  5
1D32
330
1D
100
AcDbEntity
  8
0
100
AcDbLine
 10
158.423849381336
 20
737.681051565565
 30
0.0
 11
172.951321919756
 21
712.15736358194
 31
0.0
  0
LINE
  5
1D33
330
1D
100
AcDbEntity
  8
0
100
AcDbLine
 10
150.968904906043
 20
750.447603202961
 30
0.0
 11
158.423849381336
 21
737.681051565565
 31
0.0
  0
LINE
  5
1D34
330
1D
100
AcDbEntity
  8
0
100
AcDbLine
 10
115.700168348995
 20
803.816056215575
 30
0.0
 11
120.345652285399
 21
797.74818436157
 31
0.0
  0
LINE
  5
1D35
330
1D
100
AcDbEntity
  8
0
100
AcDbLine
 10
120.345652285399
 20
797.74818436157
 30
0.0
 11
124.885185632469
 21
791.491816559016
 31
0.0
  0
LINE
  5
1D36
330
1D
100
AcDbEntity
  8
0
100
AcDbLine
 10
124.885185632469
 20
791.491816559016
 30
0.0
 11
131.399896331849
 21
781.973210447123
 31
0.0
  0
LINE
  5
1D37
330
1D
100
AcDbEntity
  8
0
100
AcDbLine
 10
124.885185632469
 20
791.491816559016
 30
0.0
 11
126.330257294935
 21
789.352679366048
 31
0.0
  0
LINE
  5
1D38
330
1D
100
AcDbEntity
  8
0
100
AcDbLine
 10
110.924108416121
 20
809.701866351622
 30
0.0
 11
115.700168348995
 21
803.816056215575
 31
0.0
  0
LINE
  5
1D39
330
1D
100
AcDbEntity
  8
0
100
AcDbLine
 10
172.951321919756
 20
712.15736358194
 30
0.0
 11
173.292304680553
 21
711.37049083693
 31
0.0
  0
LINE
  5
1D3A
330
1D
100
AcDbEntity
  8
0
100
AcDbLine
 10
76.128478954743
 20
844.263829076943
 30
0.0
 11
87.926050017634
 21
833.791417749266
 31
0.0
  0
LINE
  5
1D3B
330
1D
100
AcDbEntity
  8
0
100
AcDbLine
 10
63.435595761142
 20
854.714695368002
 30
0.0
 11
76.128478954743
 21
844.263829076943
 31
0.0
  0
LINE
  5
1D3C
330
1D
100
AcDbEntity
  8
0
100
AcDbLine
 10
87.926050017634
 20
833.791417749266
 30
0.0
 11
94.334686692579
 21
827.67011200551
 31
0.0
  0
LINE
  5
1D3D
330
1D
100
AcDbEntity
  8
0
100
AcDbLine
 10
94.334686692579
 20
827.67011200551
 30
0.0
 11
100.452260421372
 21
821.444623866995
 31
0.0
  0
LINE
  5
1D3E
330
1D
100
AcDbEntity
  8
0
100
AcDbLine
 10
100.452260421372
 20
821.444623866995
 30
0.0
 11
105.780371769101
 21
815.658218134055
 31
0.0
  0
LINE
  5
1D3F
330
1D
100
AcDbEntity
  8
0
100
AcDbLine
 10
105.780371769101
 20
815.658218134055
 30
0.0
 11
110.924108416121
 21
809.701866351622
 31
0.0
  0
LINE
  5
1D4D
330
1D
100
AcDbEntity
  8
0
100
AcDbLine
 10
172.049232348328
 20
709.305119927942
 30
0.0
 11
172.251431708516
 21
709.429951010984
 31
0.0
  0
LINE
  5
1D4E
330
1D
100
AcDbEntity
  8
0
100
AcDbLine
 10
173.332838935689
 20
710.939634742438
 30
0.0
 11
172.989051149492
 21
710.032092788553
 31
0.0
  0
LINE
  5
1D4F
330
1D
100
AcDbEntity
  8
0
100
AcDbLine
 10
172.603475273768
 20
709.714152221686
 30
0.0
 11
172.989051149492
 21
710.032092788553
 31
0.0
  0
LINE
  5
1D50
330
1D
100
AcDbEntity
  8
0
100
AcDbLine
 10
172.251431708516
 20
709.429951010984
 30
0.0
 11
172.562839923408
 21
709.68416325872
 31
0.0
  0
LINE
  5
1D51
330
1D
100
AcDbEntity
  8
0
100
AcDbLine
 10
173.292304680553
 20
711.37049083693
 30
0.0
 11
173.332838935689
 21
710.939634742438
 31
0.0
  0
LINE
  5
1D55
330
1D
100
AcDbEntity
  8
0
100
AcDbLine
 10
-4.002258771791
 20
889.372498261938
 30
0.0
 11
-3.674558476479
 21
888.905630193473
 31
0.0
  0
LINE
  5
1D56
330
1D
100
AcDbEntity
  8
0
100
AcDbLine
 10
-3.674558476479
 20
888.905630193473
 30
0.0
 11
76.034118781549
 21
822.576760969247
 31
0.0
  0
LINE
  5
1D57
330
1D
100
AcDbEntity
  8
0
100
AcDbLine
 10
76.034118781549
 20
822.576760969247
 30
0.0
 11
83.910425540893
 21
815.967754872443
 31
0.0
  0
LINE
  5
1D58
330
1D
100
AcDbEntity
  8
0
100
AcDbLine
 10
83.910425540893
 20
815.967754872443
 30
0.0
 11
89.999082901785
 21
810.241170459038
 31
0.0
  0
LINE
  5
1D59
330
1D
100
AcDbEntity
  8
0
100
AcDbLine
 10
89.999082901785
 20
810.241170459038
 30
0.0
 11
91.948261441924
 21
808.327580872806
 31
0.0
  0
LINE
  5
1D5A
330
1D
100
AcDbEntity
  8
0
100
AcDbLine
 10
91.948261441924
 20
808.327580872806
 30
0.0
 11
97.709985750971
 21
802.664316957377
 31
0.0
  0
LINE
  5
1D5B
330
1D
100
AcDbEntity
  8
0
100
AcDbLine
 10
97.709985750971
 20
802.664316957377
 30
0.0
 11
101.46998723992
 21
798.748411658374
 31
0.0
  0
LINE
  5
1D5C
330
1D
100
AcDbEntity
  8
0
100
AcDbLine
 10
101.46998723992
 20
798.748411658374
 30
0.0
 11
104.243668941806
 21
795.797087027469
 31
0.0
  0
LINE
  5
1D5D
330
1D
100
AcDbEntity
  8
0
100
AcDbLine
 10
104.243668941806
 20
795.797087027469
 30
0.0
 11
108.841644936118
 21
790.504877791983
 31
0.0
  0
LINE
  5
1D5E
330
1D
100
AcDbEntity
  8
0
100
AcDbLine
 10
108.841644936118
 20
790.504877791983
 30
0.0
 11
111.451746860452
 21
787.571927431379
 31
0.0
  0
LINE
  5
1D5F
330
1D
100
AcDbEntity
  8
0
100
AcDbLine
 10
111.451746860452
 20
787.571927431379
 30
0.0
 11
114.799798553169
 21
783.342750734583
 31
0.0
  0
LINE
  5
1D60
330
1D
100
AcDbEntity
  8
0
100
AcDbLine
 10
114.799798553169
 20
783.342750734583
 30
0.0
 11
117.003676439891
 21
780.15299397009
 31
0.0
  0
LINE
  5
1D61
330
1D
100
AcDbEntity
  8
0
100
AcDbLine
 10
117.003676439891
 20
780.15299397009
 30
0.0
 11
120.812123073782
 21
774.483831805215
 31
0.0
  0
LINE
  5
1D62
330
1D
100
AcDbEntity
  8
0
100
AcDbLine
 10
120.812123073782
 20
774.483831805215
 30
0.0
 11
127.003469247454
 21
764.754730163
 31
0.0
  0
LINE
  5
1D63
330
1D
100
AcDbEntity
  8
0
100
AcDbLine
 10
127.003469247454
 20
764.754730163
 30
0.0
 11
130.354160071168
 21
759.387147936887
 31
0.0
  0
LINE
  5
1D64
330
1D
100
AcDbEntity
  8
0
100
AcDbLine
 10
130.354160071168
 20
759.387147936887
 30
0.0
 11
147.983323352885
 21
730.423879595702
 31
0.0
  0
LINE
  5
1D65
330
1D
100
AcDbEntity
  8
0
100
AcDbLine
 10
147.983323352885
 20
730.423879595702
 30
0.0
 11
154.130986579332
 21
718.003481046223
 31
0.0
  0
LINE
  5
1D66
330
1D
100
AcDbEntity
  8
0
100
AcDbLine
 10
154.130986579332
 20
718.003481046223
 30
0.0
 11
154.985666060434
 21
715.940916783588
 31
0.0
  0
LINE
  5
1D67
330
1D
100
AcDbEntity
  8
0
100
AcDbLine
 10
154.985666060434
 20
715.940916783588
 30
0.0
 11
154.973803975546
 21
715.096782838462
 31
0.0
  0
LINE
  5
1D68
330
1D
100
AcDbEntity
  8
0
100
AcDbLine
 10
154.57614206108
 20
713.915013482038
 30
0.0
 11
154.207079956491
 21
713.465894841459
 31
0.0
  0
LINE
  5
1D69
330
1D
100
AcDbEntity
  8
0
100
AcDbLine
 10
149.13479716207
 20
707.60762366636
 30
0.0
 11
145.463515666043
 21
703.38326596525
 31
0.0
  0
LINE
  5
1D6A
330
1D
100
AcDbEntity
  8
0
100
AcDbLine
 10
172.251431708516
 20
709.429951010984
 30
0.0
 11
156.007450588517
 21
699.260788798456
 31
0.0
  0
LINE
  5
1D6B
330
1D
100
AcDbEntity
  8
0
100
AcDbLine
 10
151.630372321413
 20
710.479056555523
 30
0.0
 11
153.480562471349
 21
712.608207116216
 31
0.0
  0
LINE
  5
1D6C
330
1D
100
AcDbEntity
  8
0
100
AcDbLine
 10
-1.561803718084
 20
883.160986236414
 30
0.0
 11
48.144448484445
 21
841.73017550745
 31
0.0
  0
LINE
  5
1D6D
330
1D
100
AcDbEntity
  8
0
100
AcDbLine
 10
48.144448484445
 20
841.73017550745
 30
0.0
 11
57.129176500368
 21
834.02990169659
 31
0.0
  0
LINE
  5
1D6E
330
1D
100
AcDbEntity
  8
0
100
AcDbLine
 10
57.129176500368
 20
834.02990169659
 30
0.0
 11
78.708905754039
 21
814.694366766912
 31
0.0
  0
LINE
  5
1D6F
330
1D
100
AcDbEntity
  8
0
100
AcDbLine
 10
78.708905754039
 20
814.694366766912
 30
0.0
 11
86.51494927223
 21
807.399552795562
 31
0.0
  0
LINE
  5
1D70
330
1D
100
AcDbEntity
  8
0
100
AcDbLine
 10
86.51494927223
 20
807.399552795562
 30
0.0
 11
92.074639500911
 21
801.865525418555
 31
0.0
  0
LINE
  5
1D71
330
1D
100
AcDbEntity
  8
0
100
AcDbLine
 10
92.074639500911
 20
801.865525418555
 30
0.0
 11
93.685511305875
 21
800.116635089519
 31
0.0
  0
LINE
  5
1D72
330
1D
100
AcDbEntity
  8
0
100
AcDbLine
 10
93.685511305875
 20
800.116635089519
 30
0.0
 11
95.601067164504
 21
797.666221391903
 31
0.0
  0
LINE
  5
1D73
330
1D
100
AcDbEntity
  8
0
100
AcDbLine
 10
95.601067164504
 20
797.666221391903
 30
0.0
 11
96.789507954566
 21
795.990654238694
 31
0.0
  0
LINE
  5
1D74
330
1D
100
AcDbEntity
  8
0
100
AcDbLine
 10
96.789507954566
 20
795.990654238694
 30
0.0
 11
97.779451932812
 21
794.460274006556
 31
0.0
  0
LINE
  5
1D75
330
1D
100
AcDbEntity
  8
0
100
AcDbLine
 10
97.779451932812
 20
794.460274006556
 30
0.0
 11
99.483906618692
 21
791.544725783063
 31
0.0
  0
LINE
  5
1D76
330
1D
100
AcDbEntity
  8
0
100
AcDbLine
 10
99.483906618692
 20
791.544725783063
 30
0.0
 11
100.814965288361
 21
788.632579587323
 31
0.0
  0
LINE
  5
1D77
330
1D
100
AcDbEntity
  8
0
100
AcDbLine
 10
100.814965288361
 20
788.632579587323
 30
0.0
 11
101.983479883595
 21
785.718727498573
 31
0.0
  0
LINE
  5
1D78
330
1D
100
AcDbEntity
  8
0
100
AcDbLine
 10
101.983479883595
 20
785.718727498573
 30
0.0
 11
103.348868181897
 21
782.151598705121
 31
0.0
  0
LINE
  5
1D79
330
1D
100
AcDbEntity
  8
0
100
AcDbLine
 10
101.294282384358
 20
784.500890981649
 30
0.0
 11
103.348868181897
 21
782.151598705121
 31
0.0
  0
LINE
  5
1D7A
330
1D
100
AcDbEntity
  8
0
100
AcDbLine
 10
91.884475531452
 20
794.837506990965
 30
0.0
 11
93.512763472494
 21
793.471211180186
 31
0.0
  0
ENDSEC
  0
SECTION
  2
OBJECTS
  0
DICTIONARY
  5
C
330
0
100
AcDbDictionary
281
     1
  3
ACAD_GROUP
350
D
  3
ACAD_LAYOUT
350
1A
  3
ACAD_MLEADERSTYLE
350
1D7D
  3
ACAD_MLINESTYLE
350
17
  3
ACAD_PLOTSETTINGS
350
19
  3
ACAD_PLOTSTYLENAME
350
E
  3
ACAD_SCALELIST
350
12E6
  3
AcDbVariableDictionary
350
1D7B
  3
DWGPROPS
350
1D80
  0
DICTIONARY
  5
D
102
{ACAD_REACTORS
330
C
102
}
330
C
100
AcDbDictionary
281
     1
  0
DICTIONARY
  5
1A
102
{ACAD_REACTORS
330
C
102
}
330
C
100
AcDbDictionary
281
     1
  3
Layout1
350
1C
  3
Model
350
1E
  0
DICTIONARY
  5
1D7D
102
{ACAD_REACTORS
330
C
102
}
330
C
100
AcDbDictionary
281
     1
  0
DICTIONARY
  5
17
102
{ACAD_REACTORS
330
C
102
}
330
C
100
AcDbDictionary
281
     1
  3
Standard
350
18
  0
DICTIONARY
  5
19
102
{ACAD_REACTORS
330
C
102
}
330
C
100
AcDbDictionary
281
     1
  0
ACDBDICTIONARYWDFLT
  5
E
102
{ACAD_REACTORS
330
C
102
}
330
C
100
AcDbDictionary
281
     1
  3
Normal
350
F
100
AcDbDictionaryWithDefault
340
F
  0
DICTIONARY
  5
12E6
102
{ACAD_REACTORS
330
C
102
}
330
C
100
AcDbDictionary
281
     1
  3
A0
350
12E7
  3
A1
350
12E8
  3
A2
350
12E9
  3
A3
350
12EA
  3
A4
350
12EB
  3
A5
350
12EC
  3
A6
350
12ED
  3
A7
350
12EE
  3
A8
350
12EF
  3
A9
350
12F0
  3
B0
350
12F1
  3
B1
350
12F2
  3
B2
350
12F3
  3
B3
350
12F4
  3
B4
350
12F5
  3
B5
350
12F6
  3
B6
350
12F7
  3
B7
350
12F8
  3
B8
350
12F9
  3
B9
350
12FA
  3
C0
350
12FB
  3
C1
350
12FC
  3
C2
350
12FD
  3
C3
350
12FE
  3
C4
350
12FF
  3
C5
350
1300
  3
C6
350
1301
  3
C7
350
1302
  3
C8
350
1303
  3
C9
350
1304
  3
D0
350
1305
  3
D1
350
1306
  3
D2
350
1307
  0
DICTIONARY
  5
1D7B
102
{ACAD_REACTORS
330
C
102
}
330
C
100
AcDbDictionary
281
     1
  3
CANNOSCALE
350
1D7E
  0
XRECORD
  5
1D80
102
{ACAD_REACTORS
330
C
102
}
330
C
100
AcDbXrecord
280
     1
  1
DWGPROPS COOKIE
  2

  3

  4

  6

  7

  8
MARTIN
  9

300
=
301
=
302
=
303
=
304
=
305
=
306
=
307
=
308
=
309
=
 40
0.0
 41
2455824.922718819
 42
2455824.924038623
  1

 90
        0
  0
LAYOUT
  5
1C
102
{ACAD_REACTORS
330
1A
102
}
330
1A
100
AcDbPlotSettings
  1

  2
none_device
  4

  6

 40
0.0
 41
0.0
 42
0.0
 43
0.0
 44
0.0
 45
0.0
 46
0.0
 47
0.0
 48
0.0
 49
0.0
140
0.0
141
0.0
142
1.0
143
1.0
 70
   688
 72
     0
 73
     0
 74
     5
  7

 75
    16
147
1.0
148
0.0
149
0.0
100
AcDbLayout
  1
Layout1
 70
     1
 71
     1
 10
0.0
 20
0.0
 11
12.0
 21
9.0
 12
0.0
 22
0.0
 32
0.0
 14
1.000000000000E+20
 24
1.000000000000E+20
 34
1.000000000000E+20
 15
-1.000000000000E+20
 25
-1.000000000000E+20
 35
-1.000000000000E+20
146
0.0
 13
0.0
 23
0.0
 33
0.0
 16
1.0
 26
0.0
 36
0.0
 17
0.0
 27
1.0
 37
0.0
 76
     0
330
1B
  0
LAYOUT
  5
1E
102
{ACAD_REACTORS
330
1A
102
}
330
1A
100
AcDbPlotSettings
  1

  2
none_device
  4

  6

 40
0.0
 41
0.0
 42
0.0
 43
0.0
 44
0.0
 45
0.0
 46
0.0
 47
0.0
 48
0.0
 49
0.0
140
0.0
141
0.0
142
1.0
143
1.0
 70
  1712
 72
     0
 73
     0
 74
     0
  7

 75
     0
147
1.0
148
0.0
149
0.0
100
AcDbLayout
  1
Model
 70
     1
 71
     0
 10
0.0
 20
0.0
 11
12.0
 21
9.0
 12
0.0
 22
0.0
 32
0.0
 14
-4.107544890171
 24
0.107
 34
0.0
 15
217.94954
 25
957.893
 35
0.0
146
0.0
 13
0.0
 23
0.0
 33
0.0
 16
1.0
 26
0.0
 36
0.0
 17
0.0
 27
1.0
 37
0.0
 76
     0
330
1D
331
12E1
  0
MLINESTYLE
  5
18
102
{ACAD_REACTORS
330
17
102
}
330
17
100
AcDbMlineStyle
  2
Standard
 70
     0
  3

 62
   256
 51
90.0
 52
90.0
 71
     2
 49
0.5
 62
   256
  6
BYLAYER
 49
-0.5
 62
   256
  6
BYLAYER
  0
ACDBPLACEHOLDER
  5
F
102
{ACAD_REACTORS
330
E
102
}
330
E
  0
SCALE
  5
12E7
102
{ACAD_REACTORS
330
12E6
102
}
330
12E6
100
AcDbScale
 70
     0
300
1:1
140
1.0
141
1.0
290
     1
  0
SCALE
  5
12E8
102
{ACAD_REACTORS
330
12E6
102
}
330
12E6
100
AcDbScale
 70
     0
300
1:2
140
1.0
141
2.0
290
     0
  0
SCALE
  5
12E9
102
{ACAD_REACTORS
330
12E6
102
}
330
12E6
100
AcDbScale
 70
     0
300
1:4
140
1.0
141
4.0
290
     0
  0
SCALE
  5
12EA
102
{ACAD_REACTORS
330
12E6
102
}
330
12E6
100
AcDbScale
 70
     0
300
1:5
140
1.0
141
5.0
290
     0
  0
SCALE
  5
12EB
102
{ACAD_REACTORS
330
12E6
102
}
330
12E6
100
AcDbScale
 70
     0
300
1:8
140
1.0
141
8.0
290
     0
  0
SCALE
  5
12EC
102
{ACAD_REACTORS
330
12E6
102
}
330
12E6
100
AcDbScale
 70
     0
300
1:10
140
1.0
141
10.0
290
     0
  0
SCALE
  5
12ED
102
{ACAD_REACTORS
330
12E6
102
}
330
12E6
100
AcDbScale
 70
     0
300
1:16
140
1.0
141
16.0
290
     0
  0
SCALE
  5
12EE
102
{ACAD_REACTORS
330
12E6
102
}
330
12E6
100
AcDbScale
 70
     0
300
1:20
140
1.0
141
20.0
290
     0
  0
SCALE
  5
12EF
102
{ACAD_REACTORS
330
12E6
102
}
330
12E6
100
AcDbScale
 70
     0
300
1:30
140
1.0
141
30.0
290
     0
  0
SCALE
  5
12F0
102
{ACAD_REACTORS
330
12E6
102
}
330
12E6
100
AcDbScale
 70
     0
300
1:40
140
1.0
141
40.0
290
     0
  0
SCALE
  5
12F1
102
{ACAD_REACTORS
330
12E6
102
}
330
12E6
100
AcDbScale
 70
     0
300
1:50
140
1.0
141
50.0
290
     0
  0
SCALE
  5
12F2
102
{ACAD_REACTORS
330
12E6
102
}
330
12E6
100
AcDbScale
 70
     0
300
1:100
140
1.0
141
100.0
290
     0
  0
SCALE
  5
12F3
102
{ACAD_REACTORS
330
12E6
102
}
330
12E6
100
AcDbScale
 70
     0
300
2:1
140
2.0
141
1.0
290
     0
  0
SCALE
  5
12F4
102
{ACAD_REACTORS
330
12E6
102
}
330
12E6
100
AcDbScale
 70
     0
300
4:1
140
4.0
141
1.0
290
     0
  0
SCALE
  5
12F5
102
{ACAD_REACTORS
330
12E6
102
}
330
12E6
100
AcDbScale
 70
     0
300
8:1
140
8.0
141
1.0
290
     0
  0
SCALE
  5
12F6
102
{ACAD_REACTORS
330
12E6
102
}
330
12E6
100
AcDbScale
 70
     0
300
10:1
140
10.0
141
1.0
290
     0
  0
SCALE
  5
12F7
102
{ACAD_REACTORS
330
12E6
102
}
330
12E6
100
AcDbScale
 70
     0
300
100:1
140
100.0
141
1.0
290
     0
  0
SCALE
  5
12F8
102
{ACAD_REACTORS
330
12E6
102
}
330
12E6
100
AcDbScale
 70
     0
300
1/128" = 1'-0"
140
0.0078125
141
12.0
290
     0
  0
SCALE
  5
12F9
102
{ACAD_REACTORS
330
12E6
102
}
330
12E6
100
AcDbScale
 70
     0
300
1/64" = 1'-0"
140
0.015625
141
12.0
290
     0
  0
SCALE
  5
12FA
102
{ACAD_REACTORS
330
12E6
102
}
330
12E6
100
AcDbScale
 70
     0
300
1/32" = 1'-0"
140
0.03125
141
12.0
290
     0
  0
SCALE
  5
12FB
102
{ACAD_REACTORS
330
12E6
102
}
330
12E6
100
AcDbScale
 70
     0
300
1/16" = 1'-0"
140
0.0625
141
12.0
290
     0
  0
SCALE
  5
12FC
102
{ACAD_REACTORS
330
12E6
102
}
330
12E6
100
AcDbScale
 70
     0
300
3/32" = 1'-0"
140
0.09375
141
12.0
290
     0
  0
SCALE
  5
12FD
102
{ACAD_REACTORS
330
12E6
102
}
330
12E6
100
AcDbScale
 70
     0
300
1/8" = 1'-0"
140
0.125
141
12.0
290
     0
  0
SCALE
  5
12FE
102
{ACAD_REACTORS
330
12E6
102
}
330
12E6
100
AcDbScale
 70
     0
300
3/16" = 1'-0"
140
0.1875
141
12.0
290
     0
  0
SCALE
  5
12FF
102
{ACAD_REACTORS
330
12E6
102
}
330
12E6
100
AcDbScale
 70
     0
300
1/4" = 1'-0"
140
0.25
141
12.0
290
     0
  0
SCALE
  5
1300
102
{ACAD_REACTORS
330
12E6
102
}
330
12E6
100
AcDbScale
 70
     0
300
3/8" = 1'-0"
140
0.375
141
12.0
290
     0
  0
SCALE
  5
1301
102
{ACAD_REACTORS
330
12E6
102
}
330
12E6
100
AcDbScale
 70
     0
300
1/2" = 1'-0"
140
0.5
141
12.0
290
     0
  0
SCALE
  5
1302
102
{ACAD_REACTORS
330
12E6
102
}
330
12E6
100
AcDbScale
 70
     0
300
3/4" = 1'-0"
140
0.75
141
12.0
290
     0
  0
SCALE
  5
1303
102
{ACAD_REACTORS
330
12E6
102
}
330
12E6
100
AcDbScale
 70
     0
300
1" = 1'-0"
140
1.0
141
12.0
290
     0
  0
SCALE
  5
1304
102
{ACAD_REACTORS
330
12E6
102
}
330
12E6
100
AcDbScale
 70
     0
300
1-1/2" = 1'-0"
140
1.5
141
12.0
290
     0
  0
SCALE
  5
1305
102
{ACAD_REACTORS
330
12E6
102
}
330
12E6
100
AcDbScale
 70
     0
300
3" = 1'-0"
140
3.0
141
12.0
290
     0
  0
SCALE
  5
1306
102
{ACAD_REACTORS
330
12E6
102
}
330
12E6
100
AcDbScale
 70
     0
300
6" = 1'-0"
140
6.0
141
12.0
290
     0
  0
SCALE
  5
1307
102
{ACAD_REACTORS
330
12E6
102
}
330
12E6
100
AcDbScale
 70
     0
300
1'-0" = 1'-0"
140
12.0
141
12.0
290
     0
  0
DICTIONARYVAR
  5
1D7E
102
{ACAD_REACTORS
330
1D7B
102
}
330
1D7B
100
DictionaryVariables
280
     0
  1
1:1
  0
ENDSEC
  0
SECTION
  2
THUMBNAILIMAGE
 90
    16364
310
28000000B40000005500000001000800000000000000000000000000000000000000000000000000FFFFFF000000FF0000FFFF0000FF0000FFFF0000FF000000FF00FF000000000080808000C0C0C0000000FF007F7FFF000000A5005252A50000007F003F3F7F0000004C0026264C000000260013132600003FFF007F9FFF
310
000029A5005267A500001F7F003F4F7F0000134C00262F4C000009260013172600007FFF007FBFFF000052A500527CA500003F7F003F5F7F0000264C0026394C0000132600131C260000BFFF007FDFFF00007CA5005291A500005F7F003F6F7F0000394C0026424C00001C26001321260000FFFF007FFFFF0000A5A50052A5
310
A500007F7F003F7F7F00004C4C00264C4C00002626001326260000FFBF007FFFDF0000A57C0052A59100007F5F003F7F6F00004C3900264C420000261C001326210000FF7F007FFFBF0000A5520052A57C00007F3F003F7F5F00004C2600264C39000026130013261C0000FF3F007FFF9F0000A5290052A56700007F1F003F
310
7F4F00004C1300264C2F00002609001326170000FF00007FFF7F0000A5000052A55200007F00003F7F3F00004C0000264C260000260000132613003FFF00009FFF7F0029A5000067A552001F7F00004F7F3F00134C00002F4C260009260000172613007FFF0000BFFF7F0052A500007CA552003F7F00005F7F3F00264C0000
310
394C2600132600001C261300BFFF0000DFFF7F007CA5000091A552005F7F00006F7F3F00394C0000424C26001C26000021261300FFFF0000FFFF7F00A5A50000A5A552007F7F00007F7F3F004C4C00004C4C26002626000026261300FFBF0000FFDF7F00A57C0000A59152007F5F00007F6F3F004C3900004C422600261C00
310
0026211300FF7F0000FFBF7F00A5520000A57C52007F3F00007F5F3F004C2600004C39260026130000261C1300FF3F0000FF9F7F00A5290000A56752007F1F00007F4F3F004C1300004C2F26002609000026171300FF000000FF7F7F00A5000000A55252007F0000007F3F3F004C0000004C2626002600000026131300FF00
310
3F00FF7F9F00A5002900A55267007F001F007F3F4F004C0013004C262F002600090026131700FF007F00FF7FBF00A5005200A5527C007F003F007F3F5F004C0026004C2639002600130026131C00FF00BF00FF7FDF00A5007C00A55291007F005F007F3F6F004C0039004C26420026001C0026132100FF00FF00FF7FFF00A5
310
00A500A552A5007F007F007F3F7F004C004C004C264C002600260026132600BF00FF00DF7FFF007C00A5009152A5005F007F006F3F7F0039004C0042264C001C002600211326007F00FF00BF7FFF005200A5007C52A5003F007F005F3F7F0026004C0039264C00130026001C1326003F00FF009F7FFF002900A5006752A500
310
1F007F004F3F7F0013004C002F264C000900260017132600000000002D2D2D005B5B5B0089898900B7B7B700B3B3B30000000000000000000000000000000000000000000000000000000000000000000000000000000000000000000000000000000000000000000000000000000000000000000000000000000000000000
310
00000000000000000000000000000000000000070707000000000000000000000000000000000000000000000000000000000000000000000000000000000000000000000000000000000000000000000000000000000000000000000000000000000000000000000000000000000000000000000000000000000000000000
310
00000000000000000000000000000000000000000000000000000000000000000000000000000000000000000000000000000000000000000000000000000000000000000000000007070700000000000000000000000000000000000000000000000000000000000000000000000000000000000000000000000000000000
310
00000000000000000000000000000000000000000000000000000000000000000000000000000000000000000000000000000000000000000000000000000000000000000000000000000000000000000000000000000000000000000000000000000000000000000000000000000000000000000000000000000000000700
310
07000000000000000000000000000000000000000000000000000000000000000000000000000000000000000000000000000000000000000000000000000000000000000000000000000000000000000000000000000000000000000000000000000000000000000000000000000000000000000000000000000000000000
310
00000000000000000000000000000000000000000000000000000000000000000000000000000000000000000000000000000007000700000000000000000000000000000000000000000000000000000000000000000000000000000000000000000000000000000000000000000000000000000000000000000000000000
310
00000000000000000000000000000000000000000000000000000000000000000000000000000000000000000000000000000000000000000000000000000000000000000000000000000000000000000000000000000000000000000000000000000000000000000700070000000000000000000000000000000000000000
310
00000000000000000000000000000000000000000000000000000000000000000000000000000000000000000000000000000000000000000000000000000000000000000000000000000000000000000000000000000000000000000000000000000000000000000000000000000000000000000000000000000000000000
310
00000000000000000000000000000000000000000000000000000000000007000700000000000000000000000000000000000000000000000000000000000000000000000000000000000000000000000000000000000000000000000000000000000000000000000000000000000000000000000000000000000000000000
310
00000000000000000000000000000000000000000000000000000000000000000000000000000000000000000000000000000000000000000000000000000000000000000000000000000000000000000000000700070000000000000000000000000000000000000000000000000000000000000000000000000000000000
310
00000000000000000000000000000000000000000000000000000000000000000000000000000000000000000000000000000000000000000000000000000000000000000000000000000000000000000000000000000000000000000000000000000000000000000000000000000000000000000000000000000000000000
310
00000000000000000007000700000000000000000000000000000000000000000000000000000000000000000000000000000000000000000000000000000000000000000000000000000000000000000000000000000000000000000000000000000000000000000000000000000000000000000000000000000000000000
310
00000000000000000000000000000000000000000000000000000000000000000000000000000000000000000000000000000000000000000000000000000700070000000000000000000000000000000000000000000000000000000000000000000000000000000000000000000000000000000000000000000000000000
310
00000000000000000000000000000000000000000000000000000000000000000000000000000000000000000000000000000000000000000000000000000000000000000000000000000000000000000000000000000000000000000000000000000000000000000000000000000000000000070007000000000000000000
310
00000000000000000000000000000000000000000000000000000000000000000000000000000000000000000000000000000000000000000000000000000000000000000000000000000000000000000000000000000000000000000000000000000000000000000000000000000000000000000000000000000000000000
310
00000000000000000000000000000000000000000000000000000000000000000000000000000000000700070000000000000000000000000000000000000000000000000000000000000000000000000000000000000000000000000000000000000000000000000000000000000000000000000000000000000000000000
310
00000000000000000000000000000000000000000000000000000000000000000000000000000000000000000000000000000000000000000000000000000000000000000000000000000000000000000000000000000000000000000000070007000000000000000000000000000000000000000000000000000000000000
310
00000000000000000000000000000000000000000000000000000000000000000000000000000000000000000000000000000000000000000000000000000000000000000000000000000000000000000000000000000000000000000000000000000000000000000000000000000000000000000000000000000000000000
310
00000000000000000000000000000000000000000700070000000000000000000000000000000000000000000000000000000000000000000000000000000000000000000000000000000000000000000000000000000000000000000000000000000000000000000000000000000000000000000000000000000000000000
310
00000000000000000000000000000000000000000000000000000000000000000000000000000000000000000000000000000000000000000000000000000000000000000000000000070007000000000000000000000000000000000000000000000000000000000000000000000000000000000000000000000000000000
310
00000000000000000000000000000000000000000000000000000000000000000000000000000000000000000000000000000000000000000000000000000000000000000000000000000000000000000000000000000000000000000000000000000000000000000000000000000000000000000000000000000000000007
310
00070000000000000000000000000000000000000000000000000000000000000000000000000000000000000000000000000000000000000000000000000000000000000000000000000000000000000000000000000000000000000000000000000000000000000000000000000000000000000000000000000000000000
310
00000000000000000000000000000000000000000000000000000000000000000000000000000000000000000000000000000000070007000000000000000000000000000000000000000000000000000000000000000000000000000000000000000000000000000000000000000000000000000000000000000000000000
310
00000000000000000000000000000000000000000000000000000000000000000000000000000000000000000000000000000000000000000000000000000000000000000000000000000000000000000000000000000000000000000000000000000000000000000007000700000000000000000000000000000000000000
310
00000000000000000000000000000000000000000000000000000000000000000000000000000000000000000000000000000000000000000000000000000000000000000000000000000000000000000000000000000000000000000000000000000000000000000000000000000000000000000000000000000000000000
310
00000000000000000000000000000000000000000000000000000000070707070007000000000000000000000000000000000000000000000000000000000000000000000000000000000000000000000000000000000000000000000000000000000000000000000000000000000000000000000000000000000000000000
310
00000000000000000000000000000000000000000000000000000000000000000000000000000000000000000000000000000000000000000000000000000000000000000000000000000000000000000007000707000700000000000000000000000000000000000000000000000000000000000000000000000000000000
310
00000000000000000000000000000000000000000000000000000000000000000000000000000000000000000000000000000000000000000000000000000000000000000000000000000000000000000000000000000000000000000000000000000000000000000000000000000000000000000000000000000000000000
310
00000000000000070007070007000000000000000000000000000000000000000000000000000000000000000000000000000000000000000000000000000000000000000000000000000000000000000000000000000000000000000000000000000000000000000000000000000000000000000000000000000000000000
310
00000000000000000000000000000000000000000000000000000000000000000000000000000000000000000000000000000000000000000000000007000007000700000000000000000000000000000000000000000000000000000000000000000000000000000000000000000000000000000000000000000000000000
310
00000000000000000000000000000000000000000000000000000000000000000000000000000000000000000000000000000000000000000000000000000000000000000000000000000000000000000000000000000000000000000000000000000000000000000000000000000000000700000700070000000000000000
310
00000000000000000000000000000000000000000000000000000000000000000000000000000000000000000000000000000000000000000000000000000000000000000000000000000000000000000000000000000000000000000000000000000000000000000000000000000000000000000000000000000000000000
310
00000000000000000000000000000000000000000000000000000000000000000000000000000007000007000700000000000000000000000000000000000000000000000000000000000000000000000000000000000000000000000000000000000000000000000000000000000000000000000000000000000000000000
310
00000000000000000000000000000000000000000000000000000000000000000000000000000000000000000000000000000000000000000000000000000000000000000000000000000000000000000000000000000000000000000707070700070000000000000000000000000000000000000000000000000000000000
310
00000000000000000000000000000000000000000000000000000000000000000000000000000000000000000000000000000000000000000000000000000000000000000000000000000000000000000000000000000000000000000000000000000000000000000000000000000000000000000000000000000000000000
310
00000000000000000000000000000000000007000707000700000000000000000000000000000000000000000000000000000000000000000000000000000000000000000000000000000000000000000000000000000000000000000000000000000000000000000000000000000000000000000000000000000000000000
310
00000000000000000000000000000000000000000000000000000000000000000000000000000000000000000000000000000000000000000000000000000000000000000000000700070700070000000000000000000000000000000000000000000000000000000000000000000000000000000000000000000000000000
310
00000000000000000000000000000000000000000000000000000000000000000000000000000000000000000000000000000000000000000000000000000000000000000000000000000000000000000000000000000000000000000000000000000000000000000000000000000000000000000000000000000000070707
310
07000700000000000000000000000000000000000000000000000000000000000000000000000000000000000000000000000000000000000000000000000000000000000000000000000000000000000000000000000000000000000000000000000000000000000000000000000000000000000000000000000000000000
310
00000000000000000000000000000000000000000000000000000000000000000000000000000000000707070707070707070707070700070000000000000000000000000000000000000000000000000000000000000000000000000000000000000000000000000000000000000000000000000000000000000000000000
310
00000000000000000000000000000000000000000000000000000000000000000000000000000000000000000000000000000000000000000000000000000000000000000000000000000000000000000000000000000000000000000000070000000000000000000000070007000000000000000000000000000000000000
310
00000000000000000000000000000000000000000000000000000000000000000000000000000000000000000000000000000000000000000000000000000000000000000000000000000000000000000000000000000000000000000000000000000000000000000000000000000000000000000000000000000000000000
310
00000000000000000000000000000000000000000707070707070707070707070700070000000000000000000000000000000000000000000000000000000000000000000000000000000000000000000000000000000000000000000000000000000000000000000000000000000000000000000000000000000000000000
310
00000000000000000000000000000000000000000000000000000000000000000000000000000000000000000000000000000000000000000000000000000000000000000000000000000000000000000000070007070007000000000000000000000000000000000000000000000000000000000000000000000000000000
310
00000000000000000000000000000000000000000000000000000000000000000000000000000000000000000000000000000000000000000000000000000000000000000000000000000000000000000000000000000000000000000000000000000000000000000000000000000000000000000000000000000000000000
310
00000000000000000700070700070000000000000000000000000000000000000000000000000000000000000000000000000000000000000000000000000000000000000000000000000000000000000000000000000000000000000000000000000000000000000000000000000000000000000000000000000000000000
310
00000000000000000000000000000000000000000000000000000000000000000000000000000000000000000000000000000000000000000000000000070007070007000000000000000000000000000000000000000000000000000000000000000000000000000000000000000000000000000000000000000000000000
310
00000000000000000000000000000000000000000000000000000000000000000000000000000000000000000000000000000000000000000000000000000000000000000000000000000000000000000000000000000000000000000000000000000000000000000000000000000000000007000707000700000000000000
310
00000000000000000000000000000000000000000000000000000000000000000000000000000000000000000000000000000000000000000000000000000000000000000000000000000000000000000000000000000000000000000000000000000000000000000000000000000000000000000000000000000000000000
310
00000000000000000000000000000000000000000000000000000000000000000000000000000000070007070007000000000000000000000000000000000000000000000000000000000000000000000000000000000000000000000000000000000000000000000000000000000000000000000000000000000000000000
310
00000000000000000000000000000000000000000000000000000000000000000000000000000000000000000000000000000000000000000000000000000000000000000000000000000000000000000000000000000000000000000007000707000700000000000000000000000000000000000000000000000000000000
310
00000000000000000000000000000000000000000000000000000000000000000000000000000000000000000000000000000000000000000000000000000000000000000000000000000000000000000000000000000000000000000000000000000000000000000000000000000000000000000000000000000000000000
310
00000000000000000000000000000000000000070007070007000000000000000000000000000000000000000000000000000000000000000000000000000000000000000000000000000000000000000000000000000000000000000000000000000000000000000000000000000000000000000000000000000000000000
310
00000000000000000000000000000000000000000000000000000000000000000000000000000000000000000000000000000000000000000000000000000000000000000000000007000707000700000000000000000000000000000000000000000000000000000000000000000000000000000000000000000000000000
310
00000000000000000000000000000000000000000000000000000000000000000000000000000000000000000000000000000000000000000000000000000000000000000000000000000000000000000000000000000000000000000000000000000000000000000000000000000000000000000000000000000000000700
310
07070007000000000000000000000000000000000000000000000000000000000000000000000000000000000000000000000000000000000000000000000000000000000000000000000000000000000000000000000000000000000000000000000000000000000000000000000000000000000000000000000000000000
310
00000000000000000000000000000000000000000000000000000000000000000000000000000000000000000000000000000007000707000700000000000000000000000000000000000000000000000000000000000000000000000000000000000000000000000000000000000000000000000000000000000000000000
310
00000000000000000000000000000000000000000000000000000000000000000000000000000000000000000000000000000000000000000000000000000000000000000000000000000000000000000000000000000000000000000000000000000000000000000700070700070000000000000000000000000000000000
310
00000000000000000000000000000000000000000000000000000000000000000000000000000000000000000000000000000000000000000000000000000000000000000000000000000000000000000000000000000000000000000000000000000000000000000000000000000000000000000000000000000000000000
310
00000000000000000000000000000000000000000000000000000000000007000707000700000000000000000000000000000000000000000000000000000000000000000000000000000000000000000000000000000000000000000000000000000000000000000000000000000000000000000000000000000000000000
310
00000000000000000000000000000000000000000000000000000000000000000000000000000000000000000000000000000000000000000000000000000000000000000000000000000000000000000000000700070700070000000000000000000000000000000000000000000000000000000000000000000000000000
310
00000000000000000000000000000000000000000000000000000000000000000000000000000000000000000000000000000000000000000000000000000000000000000000000000000000000000000000000000000000000000000000000000000000000000000000000000000000000000000000000000000000000000
310
00000000000000000007000707000700000000000000000000000000000000000000000000000000000000000000000000000000000000000000000000000000000000000000000000000000000000000000000000000000000000000000000000000000000000000000000000000000000000000000000000000000000000
310
00000000000000000000000000000000000000000000000000000000000000000000000000000000000000000000000000000000000000000000000000000700070700070000000000000000000000000000000000000000000000000000000000000000000000000000000000000000000000000000000000000000000000
310
00000000000000000000000000000000000000000000000000000000000000000000000000000000000000000000000000000000000000000000000000000000000000000000000000000000000000000000000000000000000000000000000000000000000000000000000000000000000000070007070007000000000000
310
00000000000000000000000000000000000000000000000000000000000000000000000000000000000000000000000000000000000000000000000000000000000000000000000000000000000000000000000000000000000000000000000000000000000000000000000000000000000000000000000000000000000000
310
00000000000000000000000000000000000000000000000000000000000000000000000000000000000700070700070000000000000000000000000000000000000000000000000000000000000000000000000000000000000000000000000000000000000000000000000000000000000000000000000000000000000000
310
00000000000000000000000000000000000000000000000000000000000000000000000000000000000000000000000000000000000000000000000000000000000000000000000000000000000000000000000000000000000000000000070007070007000000000000000000000000000000000000000000000000000000
310
00000000000000000000000000000000000000000000000000000000000000000000000000000000000000000000000000000000000000000000000000000000000000000000000000000000000000000000000000000000000000000000000000000000000000000000000000000000000000000000000000000000000000
310
00000000000000000000000000000000000000000700070707000000000000000000000000000000000000000000000000000000000000000000000000000000000000000000000000000000000000000000000000000000000000000000000000000000000000000000000000000000000000000000000000000000000000
310
00000000000000000000000000000000000000000000000000000000000000000000000000000000000000000000000000000000000000000000000000000000000000000000000000070007070700000000000000000000000000000000000000000000000000000000000000000000000000000000000000000000000000
310
00000000000000000000000000000000000000000000000000000000000000000000000000000000000000000000000000000000000000000000000000000000000000000000000000000000000000000000000000000000000000000000000000000000000000000000000000000000000000000000000000000000000007
310
00070707000000000000000000000000000000000000000000000000000000000000000000000000000000000000000000000000000000000000000000000000000000000000000000000000000000000000000000000000000000000000000000000000000000000000000000000000000000000000000000000000000000
310
00000000000000000000000000000000000000000000000000000000000000000000000000000000000000000000000000000000070007000700000000000000000000000000000000000000000000000000000000000000000000000000000000000000000000000000000000000000000000000000000000000000000000
310
00000000000000000000000000000000000000000000000000000000000000000000000000000000000000000000000000000000000000000000000000000000000000000000000000000000000000000000000000000000000000000000000000000000000000000007000700070000000000000000000000000000000000
310
00000000000000000000000000000000000000000000000000000000000000000000000000000000000000000000000000000000000000000000000000000000000000000000000000000000000000000000000000000000000000000000000000000000000000000000000000000000000000000000000000000000000000
310
00000000000000000000000000000000000000000000000000000000000000070007000700000000000000000000000000000000000000000000000000000000000000000000000000000000000000000000000000000000000000000000000000000000000000000000000000000000000000000000000000000000000000
310
00000000000000000000000000000000000000000000000000000000000000000000000000000000000000000000000000000000000000000000000000000000000000000000000000000000000000000000000007000707000000000000000000000000000000000000000000000000000000000000000000000000000000
310
00000000000000000000000000000000000000000000000000000000000000000000000000000000000000000000000000000000000000000000000000000000000000000000000000000000000000000000000000000000000000000000000000000000000000000000000000000000000000000000000000000000000000
310
00000000000000000000070700070000000000000000000000000000000000000000000000000000000000000000000000000000000000000000000000000000000000000000000000000000000000000000000000000000000000000000000000000000000000000000000000000000000000000000000000000000000000
310
00000000000000000000000000000000000000000000000000000000000000000000000000000000000000000000000000000000000000000000000000000007070700000000000000000000000000000000000000000000000000000000000000000000000000000000000000000000000000000000000000000000000000
310
00000000000000000000000000000000000000000000000000000000000000000000000000000000000000000000000000000000000000000000000000000000000000000000000000000000000000000000000000000000000000000000000000000000000000000000000000000000000000000707070000000000000000
310
00000000000000000000000000000000000000000000000000000000000000000000000000000000000000000000000000000000000000000000000000000000000000000000000000000000000000000000000000000000000000000000000000000000000000000000000000000000000000000000000000000000000000
310
00000000000000000000000000000000000000000000000000000000000000000000000000000000000007070700000000000000000000000000000000000000000000000000000000000000000000000000000000000000000000000000000000000000000000000000000000000000000000000000000000000000000000
310
00000000000000000000000000000000000000000000000000000000000000000000000000000000000000000000000000000000000000000000000000000000000000000000000000000000000000000000000000000000000000000000070000070000000000000000000000000000000000000000000000000000000000
310
00000000000000000000000000000000000000000000000000000000000000000000000000000000000000000000000000000000000000000000000000000000000000000000000000000000000000000000000000000000000000000000000000000000000000000000000000000000000000000000000000000000000000
310
00000000000000000000000000000000000000000700000700000000000000000000000000000000000000000000000000000000000000000000000000000000000000000000000000000000000000000000000000000000000000000000000000000000000000000000000000000000000000000000000000000000000000
310
00000000000000000000000000000000000000000000000000000000000000000000000000000000000000000000000000000000000000000000000000000000000000000000000007070007070000000000000000000000000000000000000000000000000000000000000000000000000000000000000000000000000000
310
00000000000000000000000000000000000000000000000000000000000000000000000000000000000000000000000000000000000000000000000000000000000000000000000000000000000000000000000000000000000000000000000000000000000000000000000000000000000000000000000000000000070007
310
07070700000000000000000000000000000000000000000000000000000000000000000000000000000000000000000000000000000000000000000000000000000000000000000000000000000000000000000000000000000000000000000000000000000000000000000000000000000000000000000000000000000000
310
00000000000000000000000000000000000000000000000000000000000000000000000000000000000000000000000000000700070700070000000000000000000000000000000000000000000000000000000000000000000000000000000000000000000000000000000000000000000000000000000000000000000000
310
00000000000000000000000000000000000000000000000000000000000000000000000000000000000000000000000000000000000000000000000000000000000000000000000000000000000000000000000000000000000000000000000000000000000007000707070007000000000000000000000000000000000000
310
00000000000000000000000000000000000000000000000000000000000000000000000000000000000000000000000000000000000000000000000000000000000000000000000000000000000000000000000000000000000000000000000000000000000000000000000000000000000000000000000000000000000000
310
00000000000000000000000000000000000000000000000000000000070007070700070000000000000000000000000000000000000000000000000000000000000000000000000000000000000000000000000000000000000000000000000000000000000000000000000000000000000000000000000000000000000000
310
00000000000000000000000000000000000000000000000000000000000000000000000000000000000000000000000000000000000000000000000000000000000000000000000000000000000000000700070700070007000000000000000000000000000000000000000000000000000000000000000000000000000000
310
00000000000000000000000000000000000000000000000000000000000000000000000000000000000000000000000000000000000000000000000000000000000000000000000000000000000000000000000000000000000000000000000000000000000000000000000000000000000000000000000000000000000000
310
00000000000007070007000700070000000000000000000000000000000000000000000000000000000000000000000000000000000000000000000000000000000000000000000000000000000000000000000000000000000000000000000000000000000000000000000000000000000000000000000000000000000000
310
00000000000000000000000000000000000000000000000000000000000000000000000000000000000000000000000000000000000000000000070707070000070007000000000000000000000000000000000000000000000000000000000000000000000000000000000000000000000000000000000000000000000000
310
00000000000000000000000000000000000000000000000000000000000000000000000000000000000000000000000000000000000000000000000000000000000000000000000000000000000000000000000000000000000000000000000000000000000000000000000000000707070707000007000700000000000000
310
00000000000000000000000000000000000000000000000000000000000000000000000000000000000000000000000000000000000000000000000000000000000000000000000000000000000000000000000000000000000000000000000000000000000000000000000000000000000000000000000000000000000000
310
00000000000000000000000000000000000000000000000000000000000000000000070707070707000000070007000000000000000000000000000000000000000000000000000000000000000000000000000000000000000000000000000000000000000000000000000000000000000000000000000000000000000000
310
00000000000000000000000000000000000000000000000000000000000000000000000000000000000000000000000000000000000000000000000000000000000000000000000000000000000000000000000000000707070707070000000007000700000000000000000000000000000000000000000000000000000000
310
00000000000000000000000000000000000000000000000000000000000000000000000000000000000000000000000000000000000000000000000000000000000000000000000000000000000000000000000000000000000000000000000000000000000000000000000000000000000000000000000000000000000000
310
00000000000000000000000707070707070000000000070007000000000000000000000000000000000000000000000000000000000000000000000000000000000000000000000000000000000000000000000000000000000000000000000000000000000000000000000000000000000000000000000000000000000000
310
00000000000000000000000000000000000000000000000000000000000000000000000000000000000000000000000000000000000000000000000000000007070700070000000000000007000700000000000000000000000000000000000000000000000000000000000000000000000000000000000000000000000000
310
00000000000000000000000000000000000000000000000000000000000000000000000000000000000000000000000000000000000000000000000000000000000000000000000000000000000000000000000000000000000000000000000000000000000000000000000000000000000000070707000700000000000000
310
00070007000000000000000000000000000000000000000000000000000000000000000000000000000000000000000000000000000000000000000000000000000000000000000000000000000000000000000000000000000000000000000000000000000000000000000000000000000000000000000000000000000000
310
00000000000000000000000000000000000000000000000000000000000000000000000000000000070707000707000000000000000007000700000000000000000000000000000000000000000000000000000000000000000000000000000000000000000000000000000000000000000000000000000000000000000000
310
00000000000000000000000000000000000000000000000000000000000000000000000000000000000000000000000000000000000000000000000000000000000000000000000000000000000000000000000000000000000000000007070707000000000000000000000700070000000000000000000000000000000000
310
00000000000000000000000000000000000000000000000000000000000000000000000000000000000000000000000000000000000000000000000000000000000000000000000000000000000000000000000000000000000000000000000000000000000000000000000000000000000000000000000000000000000000
310
00000000000000000000000000000000000007070707000000000000000000000007070707070000000000000000000000000000000000000000000000000000000000000000000000000000000000000000000000000000000000000000000000000000000000000000000000000000000000000000000000000000000000
310
00000000000000000000000000000000000000000000000000000000000000000000000000000000000000000000000000000000000000000000000000000000000000000000000007070000000000000000000000000700000007000000000000000000000000000000000000000000000000000000000000000000000000
310
00000000000000000000000000000000000000000000000000000000000000000000000000000000000000000000000000000000000000000000000000000000000000000000000000000000000000000000000000000000000000000000000000000000000000000000000000000000000000000000000000000000000000
310
00000000000000000000000007000000070000000000000000000000000000000000000000000000000000000000000000000000000000000000000000000000000000000000000000000000000000000000000000000000000000000000000000000000000000000000000000000000000000000000000000000000000000
310
00000000000000000000000000000000000000000000000000000000000000000000000000000000000000000000000000000000000000000000000000000000000700000007000000000000000000000000000000000000000000000000000000000000000000000000000000000000000000000000000000000000000000
310
00000000000000000000000000000000000000000000000000000000000000000000000000000000000000000000000000000000000000000000000000000000000000000000000000000000000000000000000000000000000000000000000000000000000000000000000000000000000000000000070707070700000000
310
00000000000000000000000000000000000000000000000000000000000000000000000000000000000000000000000000000000000000000000000000000000000000000000000000000000000000000000000000000000000000000000000000000000000000000000000000000000000000000000000000000000000000
310
00000000000000000000000000000000000000000000000000000000000000000000000000000000000000000700070000000000000000000000000000000000000000000000000000000000000000000000000000000000000000000000000000000000000000000000000000000000000000000000000000000000000000
310
00000000000000000000000000000000000000000000000000000000000000000000000000000000000000000000000000000000000000000000000000000000000000000000000000000000000000000000000000000000000000000000000000070707000000000000000000000000000000000000000000000000000000
310
00000000000000000000000000000000000000000000000000000000000000000000000000000000000000000000000000000000000000000000000000000000000000000000000000000000000000000000000000000000000000000000000000000000000000000000000000000000000000000000000000000000000000
310
000000000000000000000000000000000000000000000000000000000000000000000000000000000000000000000000000000000000000000000000000000000000000000000000000000000000000000000000000000000000000000000000000000000000000000000000
  0
ENDSEC
  0
EOF
