  0
SECTION
  2
HEADER
  9
$ACADVER
  1
AC1014
  9
$ACADMAINTVER
 70
     9
  9
$DWGCODEPAGE
  3
ANSI_1252
  9
$INSBASE
 10
0.0
 20
0.0
 30
0.0
  9
$EXTMIN
 10
-0.0000000000000083
 20
-0.0644999999999776
 30
0.0
  9
$EXTMAX
 10
150.0
 20
928.0644999999999
 30
0.0
  9
$LIMMIN
 10
0.0
 20
0.0
  9
$LIMMAX
 10
12.0
 20
9.0
  9
$ORTHOMODE
 70
     0
  9
$REGENMODE
 70
     1
  9
$FILLMODE
 70
     1
  9
$QTEXTMODE
 70
     0
  9
$MIRRTEXT
 70
     1
  9
$DRAGMODE
 70
     2
  9
$LTSCALE
 40
1.0
  9
$OSMODE
 70
    37
  9
$ATTMODE
 70
     1
  9
$TEXTSIZE
 40
0.2
  9
$TRACEWID
 40
0.05
  9
$TEXTSTYLE
  7
STANDARD
  9
$CLAYER
  8
0
  9
$CELTYPE
  6
CONTINUOUS
  9
$CECOLOR
 62
   256
  9
$CELTSCALE
 40
1.0
  9
$DELOBJ
 70
     1
  9
$DISPSILH
 70
     0
  9
$DIMSCALE
 40
1.0
  9
$DIMASZ
 40
0.18
  9
$DIMEXO
 40
0.0625
  9
$DIMDLI
 40
0.38
  9
$DIMRND
 40
0.0
  9
$DIMDLE
 40
0.0
  9
$DIMEXE
 40
0.18
  9
$DIMTP
 40
0.0
  9
$DIMTM
 40
0.0
  9
$DIMTXT
 40
0.18
  9
$DIMCEN
 40
0.09
  9
$DIMTSZ
 40
0.0
  9
$DIMTOL
 70
     0
  9
$DIMLIM
 70
     0
  9
$DIMTIH
 70
     1
  9
$DIMTOH
 70
     1
  9
$DIMSE1
 70
     0
  9
$DIMSE2
 70
     0
  9
$DIMTAD
 70
     0
  9
$DIMZIN
 70
     0
  9
$DIMBLK
  1

  9
$DIMASO
 70
     1
  9
$DIMSHO
 70
     1
  9
$DIMPOST
  1

  9
$DIMAPOST
  1

  9
$DIMALT
 70
     0
  9
$DIMALTD
 70
     2
  9
$DIMALTF
 40
25.4
  9
$DIMLFAC
 40
1.0
  9
$DIMTOFL
 70
     0
  9
$DIMTVP
 40
0.0
  9
$DIMTIX
 70
     0
  9
$DIMSOXD
 70
     0
  9
$DIMSAH
 70
     0
  9
$DIMBLK1
  1

  9
$DIMBLK2
  1

  9
$DIMSTYLE
  2
STANDARD
  9
$DIMCLRD
 70
     0
  9
$DIMCLRE
 70
     0
  9
$DIMCLRT
 70
     0
  9
$DIMTFAC
 40
1.0
  9
$DIMGAP
 40
0.09
  9
$DIMJUST
 70
     0
  9
$DIMSD1
 70
     0
  9
$DIMSD2
 70
     0
  9
$DIMTOLJ
 70
     1
  9
$DIMTZIN
 70
     0
  9
$DIMALTZ
 70
     0
  9
$DIMALTTZ
 70
     0
  9
$DIMFIT
 70
     3
  9
$DIMUPT
 70
     0
  9
$DIMUNIT
 70
     2
  9
$DIMDEC
 70
     4
  9
$DIMTDEC
 70
     4
  9
$DIMALTU
 70
     2
  9
$DIMALTTD
 70
     2
  9
$DIMTXSTY
  7
STANDARD
  9
$DIMAUNIT
 70
     0
  9
$LUNITS
 70
     2
  9
$LUPREC
 70
     4
  9
$SKETCHINC
 40
0.1
  9
$FILLETRAD
 40
0.0
  9
$AUNITS
 70
     0
  9
$AUPREC
 70
     0
  9
$MENU
  1
.
  9
$ELEVATION
 40
0.0
  9
$PELEVATION
 40
0.0
  9
$THICKNESS
 40
0.0
  9
$LIMCHECK
 70
     0
  9
$BLIPMODE
 70
     0
  9
$CHAMFERA
 40
0.0
  9
$CHAMFERB
 40
0.0
  9
$CHAMFERC
 40
0.0
  9
$CHAMFERD
 40
0.0
  9
$SKPOLY
 70
     0
  9
$TDCREATE
 40
2455239.933259004
  9
$TDUPDATE
 40
2455239.937898761
  9
$TDINDWG
 40
0.0046399306
  9
$TDUSRTIMER
 40
0.0046399306
  9
$USRTIMER
 70
     1
  9
$ANGBASE
 50
0.0
  9
$ANGDIR
 70
     0
  9
$PDMODE
 70
     0
  9
$PDSIZE
 40
0.0
  9
$PLINEWID
 40
0.0
  9
$COORDS
 70
     1
  9
$SPLFRAME
 70
     0
  9
$SPLINETYPE
 70
     6
  9
$SPLINESEGS
 70
     8
  9
$ATTDIA
 70
     0
  9
$ATTREQ
 70
     1
  9
$HANDLING
 70
 22529
  9
$HANDSEED
  5
572
  9
$SURFTAB1
 70
     6
  9
$SURFTAB2
 70
     6
  9
$SURFTYPE
 70
     6
  9
$SURFU
 70
     6
  9
$SURFV
 70
     6
  9
$UCSNAME
  2

  9
$UCSORG
 10
0.0
 20
0.0
 30
0.0
  9
$UCSXDIR
 10
1.0
 20
0.0
 30
0.0
  9
$UCSYDIR
 10
0.0
 20
1.0
 30
0.0
  9
$PUCSNAME
  2

  9
$PUCSORG
 10
0.0
 20
0.0
 30
0.0
  9
$PUCSXDIR
 10
1.0
 20
0.0
 30
0.0
  9
$PUCSYDIR
 10
0.0
 20
1.0
 30
0.0
  9
$USERI1
 70
     0
  9
$USERI2
 70
     0
  9
$USERI3
 70
     0
  9
$USERI4
 70
     0
  9
$USERI5
 70
     0
  9
$USERR1
 40
0.0
  9
$USERR2
 40
0.0
  9
$USERR3
 40
0.0
  9
$USERR4
 40
0.0
  9
$USERR5
 40
0.0
  9
$WORLDVIEW
 70
     1
  9
$SHADEDGE
 70
     3
  9
$SHADEDIF
 70
    70
  9
$TILEMODE
 70
     1
  9
$MAXACTVP
 70
    64
  9
$PINSBASE
 10
0.0
 20
0.0
 30
0.0
  9
$PLIMCHECK
 70
     0
  9
$PEXTMIN
 10
1.000000000000000E+20
 20
1.000000000000000E+20
 30
1.000000000000000E+20
  9
$PEXTMAX
 10
-1.000000000000000E+20
 20
-1.000000000000000E+20
 30
-1.000000000000000E+20
  9
$PLIMMIN
 10
0.0
 20
0.0
  9
$PLIMMAX
 10
12.0
 20
9.0
  9
$UNITMODE
 70
     0
  9
$VISRETAIN
 70
     1
  9
$PLINEGEN
 70
     0
  9
$PSLTSCALE
 70
     1
  9
$TREEDEPTH
 70
  3020
  9
$PICKSTYLE
 70
     1
  9
$CMLSTYLE
  2
STANDARD
  9
$CMLJUST
 70
     0
  9
$CMLSCALE
 40
1.0
  9
$PROXYGRAPHICS
 70
     1
  9
$MEASUREMENT
 70
     0
  0
ENDSEC
  0
SECTION
  2
CLASSES
  0
CLASS
  1
ACDBDICTIONARYWDFLT
  2
AcDbDictionaryWithDefault
  3
AutoCAD 2000
 90
        0
280
     0
281
     0
  0
CLASS
  1
ACDBPLACEHOLDER
  2
AcDbPlaceHolder
  3
AutoCAD 2000
 90
        0
280
     0
281
     0
  0
CLASS
  1
LAYOUT
  2
AcDbLayout
  3
AutoCAD 2000
 90
        0
280
     0
281
     0
  0
CLASS
  1
DICTIONARYVAR
  2
AcDbDictionaryVar
  3
AutoCAD 2000
 90
        0
280
     0
281
     0
  0
CLASS
  1
LONG_TRANSACTION
  2
AcDbLongTransaction
  3
AutoCAD 2000
 90
        0
280
     0
281
     0
  0
CLASS
  1
LWPOLYLINE
  2
AcDbPolyline
  3
AutoCAD 2000
 90
        0
280
     0
281
     1
  0
CLASS
  1
HATCH
  2
AcDbHatch
  3
AutoCAD 2000
 90
        0
280
     0
281
     1
  0
CLASS
  1
XRECORD
  2
AcDbXrecord
  3
AutoCAD 2000
 90
        0
280
     0
281
     0
  0
ENDSEC
  0
SECTION
  2
TABLES
  0
TABLE
  2
VPORT
  5
8
330
0
100
AcDbSymbolTable
 70
     3
  0
VPORT
  5
54D
330
8
100
AcDbSymbolTableRecord
100
AcDbViewportTableRecord
  2
*ACTIVE
 70
     0
 10
0.0
 20
0.0
 11
1.0
 21
1.0
 12
74.99999999999999
 22
464.0
 13
0.0
 23
0.0
 14
1.0
 24
1.0
 15
0.0
 25
0.0
 16
0.0
 26
0.0
 36
1.0
 17
0.0
 27
0.0
 37
0.0
 40
934.2217505470458
 41
2.041621029572836
 42
50.0
 43
0.0
 44
0.0
 50
0.0
 51
0.0
 71
     0
 72
   100
 73
     1
 74
     3
 75
     0
 76
     0
 77
     0
 78
     0
  0
ENDTAB
  0
TABLE
  2
LTYPE
  5
5
330
0
100
AcDbSymbolTable
 70
     1
  0
LTYPE
  5
13
330
5
100
AcDbSymbolTableRecord
100
AcDbLinetypeTableRecord
  2
BYBLOCK
 70
     0
  3

 72
    65
 73
     0
 40
0.0
  0
LTYPE
  5
14
330
5
100
AcDbSymbolTableRecord
100
AcDbLinetypeTableRecord
  2
BYLAYER
 70
     0
  3

 72
    65
 73
     0
 40
0.0
  0
LTYPE
  5
15
330
5
100
AcDbSymbolTableRecord
100
AcDbLinetypeTableRecord
  2
CONTINUOUS
 70
     0
  3
Solid line
 72
    65
 73
     0
 40
0.0
  0
ENDTAB
  0
TABLE
  2
LAYER
  5
2
330
0
100
AcDbSymbolTable
 70
     1
  0
LAYER
  5
10
330
2
100
AcDbSymbolTableRecord
100
AcDbLayerTableRecord
  2
0
 70
     0
 62
     7
  6
CONTINUOUS
  0
ENDTAB
  0
TABLE
  2
STYLE
  5
3
330
0
100
AcDbSymbolTable
 70
     1
  0
STYLE
  5
11
330
3
100
AcDbSymbolTableRecord
100
AcDbTextStyleTableRecord
  2
STANDARD
 70
     0
 40
0.0
 41
1.0
 50
0.0
 71
     0
 42
0.2
  3
txt
  4

  0
ENDTAB
  0
TABLE
  2
VIEW
  5
6
330
0
100
AcDbSymbolTable
 70
     0
  0
ENDTAB
  0
TABLE
  2
UCS
  5
7
330
0
100
AcDbSymbolTable
 70
     0
  0
ENDTAB
  0
TABLE
  2
APPID
  5
9
330
0
100
AcDbSymbolTable
 70
     1
  0
APPID
  5
12
330
9
100
AcDbSymbolTableRecord
100
AcDbRegAppTableRecord
  2
ACAD
 70
     0
  0
ENDTAB
  0
TABLE
  2
DIMSTYLE
  5
A
330
0
100
AcDbSymbolTable
 70
     1
  0
DIMSTYLE
105
544
330
A
100
AcDbSymbolTableRecord
100
AcDbDimStyleTableRecord
  2
STANDARD
 70
     0
  3

  4

  5

  6

  7

 40
1.0
 41
0.18
 42
0.0625
 43
0.38
 44
0.18
 45
0.0
 46
0.0
 47
0.0
 48
0.0
140
0.18
141
0.09
142
0.0
143
25.4
144
1.0
145
0.0
146
1.0
147
0.09
 71
     0
 72
     0
 73
     1
 74
     1
 75
     0
 76
     0
 77
     0
 78
     0
170
     0
171
     2
172
     0
173
     0
174
     0
175
     0
176
     0
177
     0
178
     0
270
     2
271
     4
272
     4
273
     2
274
     2
340
11
275
     0
280
     0
281
     0
282
     0
283
     1
284
     0
285
     0
286
     0
287
     3
288
     0
  0
ENDTAB
  0
TABLE
  2
BLOCK_RECORD
  5
1
330
0
100
AcDbSymbolTable
 70
     0
  0
BLOCK_RECORD
  5
1E
102
{ACAD_XDICTIONARY
360
570
102
}
330
1
100
AcDbSymbolTableRecord
100
AcDbBlockTableRecord
  2
*MODEL_SPACE
  0
BLOCK_RECORD
  5
1A
102
{ACAD_XDICTIONARY
360
56E
102
}
330
1
100
AcDbSymbolTableRecord
100
AcDbBlockTableRecord
  2
*PAPER_SPACE
  0
ENDTAB
  0
ENDSEC
  0
SECTION
  2
BLOCKS
  0
BLOCK
  5
1F
330
1E
100
AcDbEntity
  8
0
100
AcDbBlockBegin
  2
*MODEL_SPACE
 70
     0
 10
0.0
 20
0.0
 30
0.0
  3
*MODEL_SPACE
  1

  0
ENDBLK
  5
20
330
1E
100
AcDbEntity
  8
0
100
AcDbBlockEnd
  0
BLOCK
  5
1B
330
1A
100
AcDbEntity
 67
     1
  8
0
100
AcDbBlockBegin
  2
*PAPER_SPACE
 70
     0
 10
0.0
 20
0.0
 30
0.0
  3
*PAPER_SPACE
  1

  0
ENDBLK
  5
1C
330
1A
100
AcDbEntity
 67
     1
  8
0
100
AcDbBlockEnd
  0
ENDSEC
  0
SECTION
  2
ENTITIES
  0
LINE
  5
22
330
1E
100
AcDbEntity
  8
0
100
AcDbLine
 10
3.39999999999999
 20
796.9394999999999
 30
0.0
 11
5.29999999999999
 21
792.3395
 31
0.0
  0
LINE
  5
23
330
1E
100
AcDbEntity
  8
0
100
AcDbLine
 10
5.49999999999999
 20
792.3395
 30
0.0
 11
8.5
 21
787.8894999999999
 31
0.0
  0
LINE
  5
24
330
1E
100
AcDbEntity
  8
0
100
AcDbLine
 10
23.5
 20
776.8664999999999
 30
0.0
 11
29.1
 21
773.6665
 31
0.0
  0
LINE
  5
25
330
1E
100
AcDbEntity
  8
0
100
AcDbLine
 10
23.3022
 20
779.8754999999999
 30
0.0
 11
24.3022
 21
779.0094999999999
 31
0.0
  0
LINE
  5
26
330
1E
100
AcDbEntity
  8
0
100
AcDbLine
 10
23.3022
 20
779.8754999999999
 30
0.0
 11
23.4528629880541
 21
780.4068007915331
 31
0.0
  0
LINE
  5
27
330
1E
100
AcDbEntity
  8
0
100
AcDbLine
 10
23.3022
 20
779.8754999999999
 30
0.0
 11
24.9572
 21
779.8415
 31
0.0
  0
LINE
  5
28
330
1E
100
AcDbEntity
  8
0
100
AcDbLine
 10
18.1551
 20
786.0884999999999
 30
0.0
 11
20.00099999999999
 21
785.8244999999999
 31
0.0
  0
LINE
  5
29
330
1E
100
AcDbEntity
  8
0
100
AcDbLine
 10
20.00099999999999
 20
785.8244999999999
 30
0.0
 11
20.4892314064583
 21
787.307441857483
 31
0.0
  0
LINE
  5
2A
330
1E
100
AcDbEntity
  8
0
100
AcDbLine
 10
19.4833
 20
786.7904999999999
 30
0.0
 11
19.6632801247404
 21
787.337071220922
 31
0.0
  0
LINE
  5
2B
330
1E
100
AcDbEntity
  8
0
100
AcDbLine
 10
19.4833
 20
786.7904999999999
 30
0.0
 11
20.00099999999999
 21
785.8244999999999
 31
0.0
  0
LINE
  5
2C
330
1E
100
AcDbEntity
  8
0
100
AcDbLine
 10
17.63749999999999
 20
787.0544999999999
 30
0.0
 11
18.1551
 21
786.0884999999999
 31
0.0
  0
LINE
  5
2D
330
1E
100
AcDbEntity
  8
0
100
AcDbLine
 10
17.63749999999999
 20
787.0544999999999
 30
0.0
 11
17.75309173362919
 21
787.4055954393969
 31
0.0
  0
LINE
  5
2E
330
1E
100
AcDbEntity
  8
0
100
AcDbLine
 10
17.63749999999999
 20
787.0544999999999
 30
0.0
 11
19.4833
 21
786.7904999999999
 31
0.0
  0
LINE
  5
2F
330
1E
100
AcDbEntity
  8
0
100
AcDbLine
 10
18.7
 20
780.4165
 30
0.0
 11
23.5
 21
776.8664999999999
 31
0.0
  0
LINE
  5
30
330
1E
100
AcDbEntity
  8
0
100
AcDbLine
 10
15.09999999999999
 20
784.2165
 30
0.0
 11
18.7
 21
780.4165
 31
0.0
  0
LINE
  5
31
330
1E
100
AcDbEntity
  8
0
100
AcDbLine
 10
17.9
 20
779.7395
 30
0.0
 11
24.1
 21
776.1894999999999
 31
0.0
  0
LINE
  5
32
330
1E
100
AcDbEntity
  8
0
100
AcDbLine
 10
12.6
 20
783.6894999999999
 30
0.0
 11
17.9
 21
779.7395
 31
0.0
  0
LINE
  5
33
330
1E
100
AcDbEntity
  8
0
100
AcDbLine
 10
17.7
 20
779.6395
 30
0.0
 11
24.0
 21
776.1395
 31
0.0
  0
LINE
  5
34
330
1E
100
AcDbEntity
  8
0
100
AcDbLine
 10
12.4
 20
783.6395
 30
0.0
 11
17.7
 21
779.6395
 31
0.0
  0
LINE
  5
35
330
1E
100
AcDbEntity
  8
0
100
AcDbLine
 10
12.3
 20
788.2165
 30
0.0
 11
15.09999999999999
 21
784.2165
 31
0.0
  0
LINE
  5
36
330
1E
100
AcDbEntity
  8
0
100
AcDbLine
 10
8.5
 20
787.8894999999999
 30
0.0
 11
12.6
 21
783.6894999999999
 31
0.0
  0
LINE
  5
37
330
1E
100
AcDbEntity
  8
0
100
AcDbLine
 10
8.29999999999999
 20
787.8395
 30
0.0
 11
12.4
 21
783.6395
 31
0.0
  0
LINE
  5
38
330
1E
100
AcDbEntity
  8
0
100
AcDbLine
 10
6.599999999999999
 20
789.7414999999999
 30
0.0
 11
8.29999999999999
 21
787.8395
 31
0.0
  0
LINE
  5
39
330
1E
100
AcDbEntity
  8
0
100
AcDbLine
 10
17.7929
 20
794.2105
 30
0.0
 11
17.7929
 21
793.2105
 31
0.0
  0
LINE
  5
3A
330
1E
100
AcDbEntity
  8
0
100
AcDbLine
 10
17.7929
 20
794.2105
 30
0.0
 11
17.94974108812589
 21
794.650452543811
 31
0.0
  0
LINE
  5
3B
330
1E
100
AcDbEntity
  8
0
100
AcDbLine
 10
17.7929
 20
793.2105
 30
0.0
 11
18.28550135092069
 21
794.5922885352099
 31
0.0
  0
LINE
  5
3C
330
1E
100
AcDbEntity
  8
0
100
AcDbLine
 10
17.7929
 20
793.2105
 30
0.0
 11
17.7929
 21
794.2105
 31
0.0
  0
LINE
  5
3D
330
1E
100
AcDbEntity
  8
0
100
AcDbLine
 10
15.88189999999999
 20
793.7215
 30
0.0
 11
15.88189999999999
 21
794.7214999999999
 31
0.0
  0
LINE
  5
3E
330
1E
100
AcDbEntity
  8
0
100
AcDbLine
 10
15.88189999999999
 20
793.7215
 30
0.0
 11
17.7929
 21
793.2105
 31
0.0
  0
LINE
  5
3F
330
1E
100
AcDbEntity
  8
0
100
AcDbLine
 10
15.88189999999999
 20
794.7214999999999
 30
0.0
 11
16.0556661828887
 21
795.208846267888
 31
0.0
  0
LINE
  5
40
330
1E
100
AcDbEntity
  8
0
100
AcDbLine
 10
15.88189999999999
 20
794.7214999999999
 30
0.0
 11
17.7929
 21
794.2105
 31
0.0
  0
LINE
  5
41
330
1E
100
AcDbEntity
  8
0
100
AcDbLine
 10
15.88189999999999
 20
794.7214999999999
 30
0.0
 11
15.88189999999999
 21
793.7215
 31
0.0
  0
LINE
  5
42
330
1E
100
AcDbEntity
  8
0
100
AcDbLine
 10
10.7
 20
792.3664999999999
 30
0.0
 11
12.3
 21
788.2165
 31
0.0
  0
LINE
  5
43
330
1E
100
AcDbEntity
  8
0
100
AcDbLine
 10
10.0
 20
797.4825
 30
0.0
 11
10.7
 21
801.7324999999999
 31
0.0
  0
LINE
  5
44
330
1E
100
AcDbEntity
  8
0
100
AcDbLine
 10
10.0
 20
797.4825
 30
0.0
 11
10.0
 21
796.6165
 31
0.0
  0
LINE
  5
45
330
1E
100
AcDbEntity
  8
0
100
AcDbLine
 10
10.0
 20
796.6165
 30
0.0
 11
10.7
 21
792.3664999999999
 31
0.0
  0
LINE
  5
46
330
1E
100
AcDbEntity
  8
0
100
AcDbLine
 10
10.0
 20
796.6165
 30
0.0
 11
10.0
 21
797.4825
 31
0.0
  0
LINE
  5
47
330
1E
100
AcDbEntity
  8
0
100
AcDbLine
 10
10.0
 20
796.6165
 30
0.0
 11
10.7
 21
800.8665
 31
0.0
  0
LINE
  5
48
330
1E
100
AcDbEntity
  8
0
100
AcDbLine
 10
3.59999999999999
 20
796.9394999999999
 30
0.0
 11
5.49999999999999
 21
792.3395
 31
0.0
  0
LINE
  5
49
330
1E
100
AcDbEntity
  8
0
100
AcDbLine
 10
5.29999999999999
 20
792.3395
 30
0.0
 11
8.29999999999999
 21
787.8395
 31
0.0
  0
LINE
  5
4A
330
1E
100
AcDbEntity
  8
0
100
AcDbLine
 10
3.5
 20
794.3414999999999
 30
0.0
 11
6.599999999999999
 21
789.7414999999999
 31
0.0
  0
LINE
  5
4B
330
1E
100
AcDbEntity
  8
0
100
AcDbLine
 10
19.4833
 20
800.6304999999999
 30
0.0
 11
20.00099999999999
 21
801.5964999999999
 31
0.0
  0
LINE
  5
4C
330
1E
100
AcDbEntity
  8
0
100
AcDbLine
 10
20.00099999999999
 20
801.5964999999999
 30
0.0
 11
20.56331713424929
 21
803.1535037512639
 31
0.0
  0
LINE
  5
4D
330
1E
100
AcDbEntity
  8
0
100
AcDbLine
 10
17.63749999999999
 20
801.3894999999999
 30
0.0
 11
18.1551
 21
802.3554999999999
 31
0.0
  0
LINE
  5
4E
330
1E
100
AcDbEntity
  8
0
100
AcDbLine
 10
17.63749999999999
 20
801.3894999999999
 30
0.0
 11
18.0702268870461
 21
802.5884397344199
 31
0.0
  0
LINE
  5
4F
330
1E
100
AcDbEntity
  8
0
100
AcDbLine
 10
17.63749999999999
 20
801.3894999999999
 30
0.0
 11
19.4833
 21
800.6304999999999
 31
0.0
  0
LINE
  5
50
330
1E
100
AcDbEntity
  8
0
100
AcDbLine
 10
10.7
 20
800.8665
 30
0.0
 11
12.3
 21
805.0175000000001
 31
0.0
  0
LINE
  5
51
330
1E
100
AcDbEntity
  8
0
100
AcDbLine
 10
18.1551
 20
802.3554999999999
 30
0.0
 11
18.31685289993849
 21
802.8035839105321
 31
0.0
  0
LINE
  5
52
330
1E
100
AcDbEntity
  8
0
100
AcDbLine
 10
18.1551
 20
802.3554999999999
 30
0.0
 11
20.00099999999999
 21
801.5964999999999
 31
0.0
  0
LINE
  5
53
330
1E
100
AcDbEntity
  8
0
100
AcDbLine
 10
12.3
 20
805.0175000000001
 30
0.0
 11
15.09999999999999
 21
809.0175
 31
0.0
  0
LINE
  5
54
330
1E
100
AcDbEntity
  8
0
100
AcDbLine
 10
12.3
 20
805.8825
 30
0.0
 11
15.09999999999999
 21
809.8825000000001
 31
0.0
  0
LINE
  5
55
330
1E
100
AcDbEntity
  8
0
100
AcDbLine
 10
10.7
 20
801.7324999999999
 30
0.0
 11
12.3
 21
805.8825
 31
0.0
  0
LINE
  5
56
330
1E
100
AcDbEntity
  8
0
100
AcDbLine
 10
2.9
 20
801.6384999999999
 30
0.0
 11
3.59999999999999
 21
796.9394999999999
 31
0.0
  0
LINE
  5
57
330
1E
100
AcDbEntity
  8
0
100
AcDbLine
 10
2.9
 20
801.6384999999999
 30
0.0
 11
3.59999999999999
 21
806.3385
 31
0.0
  0
LINE
  5
58
330
1E
100
AcDbEntity
  8
0
100
AcDbLine
 10
2.69999999999999
 20
801.6384999999999
 30
0.0
 11
3.39999999999999
 21
796.9394999999999
 31
0.0
  0
LINE
  5
59
330
1E
100
AcDbEntity
  8
0
100
AcDbLine
 10
2.69999999999999
 20
801.6384999999999
 30
0.0
 11
3.39999999999999
 21
806.3385
 31
0.0
  0
LINE
  5
5A
330
1E
100
AcDbEntity
  8
0
100
AcDbLine
 10
1.499999999999989
 20
799.0905
 30
0.0
 11
3.5
 21
794.3414999999999
 31
0.0
  0
LINE
  5
5B
330
1E
100
AcDbEntity
  8
0
100
AcDbLine
 10
0.799999999999995
 20
801.2425
 30
0.0
 11
1.499999999999989
 21
799.0905
 31
0.0
  0
LINE
  5
5C
330
1E
100
AcDbEntity
  8
0
100
AcDbLine
 10
3.59999999999999
 20
806.3385
 30
0.0
 11
5.49999999999999
 21
810.9394999999999
 31
0.0
  0
LINE
  5
5D
330
1E
100
AcDbEntity
  8
0
100
AcDbLine
 10
3.5
 20
817.9434999999999
 30
0.0
 11
6.599999999999999
 21
822.5435
 31
0.0
  0
LINE
  5
5E
330
1E
100
AcDbEntity
  8
0
100
AcDbLine
 10
1.499999999999989
 20
813.1935
 30
0.0
 11
3.5
 21
817.9434999999999
 31
0.0
  0
LINE
  5
5F
330
1E
100
AcDbEntity
  8
0
100
AcDbLine
 10
0.799999999999995
 20
811.0425000000001
 30
0.0
 11
1.499999999999989
 21
813.1935
 31
0.0
  0
LINE
  5
60
330
1E
100
AcDbEntity
  8
0
100
AcDbLine
 10
15.09999999999999
 20
809.0175
 30
0.0
 11
18.7
 21
812.8155000000001
 31
0.0
  0
LINE
  5
61
330
1E
100
AcDbEntity
  8
0
100
AcDbLine
 10
15.09999999999999
 20
809.8825000000001
 30
0.0
 11
18.7
 21
813.6824999999999
 31
0.0
  0
LINE
  5
62
330
1E
100
AcDbEntity
  8
0
100
AcDbLine
 10
8.5
 20
815.3885
 30
0.0
 11
12.6
 21
819.5885
 31
0.0
  0
LINE
  5
63
330
1E
100
AcDbEntity
  8
0
100
AcDbLine
 10
5.49999999999999
 20
810.9394999999999
 30
0.0
 11
8.5
 21
815.3885
 31
0.0
  0
LINE
  5
64
330
1E
100
AcDbEntity
  8
0
100
AcDbLine
 10
12.4
 20
828.6455
 30
0.0
 11
17.7
 21
832.6454999999999
 31
0.0
  0
LINE
  5
65
330
1E
100
AcDbEntity
  8
0
100
AcDbLine
 10
8.29999999999999
 20
824.4455
 30
0.0
 11
12.4
 21
828.6455
 31
0.0
  0
LINE
  5
66
330
1E
100
AcDbEntity
  8
0
100
AcDbLine
 10
6.599999999999999
 20
822.5435
 30
0.0
 11
8.29999999999999
 21
824.4455
 31
0.0
  0
LINE
  5
67
330
1E
100
AcDbEntity
  8
0
100
AcDbLine
 10
12.6
 20
819.5885
 30
0.0
 11
17.9
 21
823.5385
 31
0.0
  0
LINE
  5
68
330
1E
100
AcDbEntity
  8
0
100
AcDbLine
 10
12.4
 20
819.6385000000001
 30
0.0
 11
17.7
 21
823.6385
 31
0.0
  0
LINE
  5
69
330
1E
100
AcDbEntity
  8
0
100
AcDbLine
 10
8.29999999999999
 20
815.4394999999999
 30
0.0
 11
12.4
 21
819.6385000000001
 31
0.0
  0
LINE
  5
6A
330
1E
100
AcDbEntity
  8
0
100
AcDbLine
 10
5.29999999999999
 20
810.9394999999999
 30
0.0
 11
8.29999999999999
 21
815.4394999999999
 31
0.0
  0
LINE
  5
6B
330
1E
100
AcDbEntity
  8
0
100
AcDbLine
 10
3.39999999999999
 20
806.3385
 30
0.0
 11
5.29999999999999
 21
810.9394999999999
 31
0.0
  0
LINE
  5
6C
330
1E
100
AcDbEntity
  8
0
100
AcDbLine
 10
23.3022
 20
808.5675
 30
0.0
 11
24.3022
 21
809.4345
 31
0.0
  0
LINE
  5
6D
330
1E
100
AcDbEntity
  8
0
100
AcDbLine
 10
23.3022
 20
808.5675
 30
0.0
 11
23.7192905280729
 21
809.7983659810839
 31
0.0
  0
LINE
  5
6E
330
1E
100
AcDbEntity
  8
0
100
AcDbLine
 10
23.3022
 20
808.5675
 30
0.0
 11
24.9572
 21
807.5784999999999
 31
0.0
  0
LINE
  5
6F
330
1E
100
AcDbEntity
  8
0
100
AcDbLine
 10
18.7
 20
812.8155000000001
 30
0.0
 11
23.5
 21
816.3664999999999
 31
0.0
  0
LINE
  5
70
330
1E
100
AcDbEntity
  8
0
100
AcDbLine
 10
23.5
 20
816.3664999999999
 30
0.0
 11
29.1
 21
819.5655
 31
0.0
  0
LINE
  5
71
330
1E
100
AcDbEntity
  8
0
100
AcDbLine
 10
23.5
 20
817.2324999999998
 30
0.0
 11
29.1
 21
820.4325
 31
0.0
  0
LINE
  5
72
330
1E
100
AcDbEntity
  8
0
100
AcDbLine
 10
18.7
 20
813.6824999999999
 30
0.0
 11
23.5
 21
817.2324999999998
 31
0.0
  0
LINE
  5
73
330
1E
100
AcDbEntity
  8
0
100
AcDbLine
 10
17.9
 20
823.5385
 30
0.0
 11
24.1
 21
827.0884999999999
 31
0.0
  0
LINE
  5
74
330
1E
100
AcDbEntity
  8
0
100
AcDbLine
 10
24.0
 20
827.1385
 30
0.0
 11
31.0
 21
830.2884999999999
 31
0.0
  0
LINE
  5
75
330
1E
100
AcDbEntity
  8
0
100
AcDbLine
 10
24.0
 20
836.1454999999999
 30
0.0
 11
31.0
 21
839.2965
 31
0.0
  0
LINE
  5
77
330
1E
100
AcDbEntity
  8
0
100
AcDbLine
 10
17.7
 20
832.6454999999999
 30
0.0
 11
24.0
 21
836.1454999999999
 31
0.0
  0
LINE
  5
78
330
1E
100
AcDbEntity
  8
0
100
AcDbLine
 10
17.7
 20
823.6385
 30
0.0
 11
24.0
 21
827.1385
 31
0.0
  0
LINE
  5
7A
330
1E
100
AcDbEntity
  8
0
100
AcDbLine
 10
-0.0000000000000083
 20
806.1424999999999
 30
0.0
 11
0.799999999999995
 21
801.2425
 31
0.0
  0
LINE
  5
7B
330
1E
100
AcDbEntity
  8
0
100
AcDbLine
 10
-0.0000000000000083
 20
806.1424999999999
 30
0.0
 11
0.799999999999995
 21
811.0425000000001
 31
0.0
  0
LINE
  5
7C
330
1E
100
AcDbEntity
  8
0
100
AcDbLine
 10
60.0
 20
653.0644999999999
 30
0.0
 11
63.0
 21
653.0644999999999
 31
0.0
  0
LINE
  5
7D
330
1E
100
AcDbEntity
  8
0
100
AcDbLine
 10
58.0
 20
677.6584999999999
 30
0.0
 11
58.0
 21
688.0644999999999
 31
0.0
  0
LINE
  5
7E
330
1E
100
AcDbEntity
  8
0
100
AcDbLine
 10
58.0
 20
677.6584999999999
 30
0.0
 11
58.0
 21
671.0644999999999
 31
0.0
  0
LINE
  5
7F
330
1E
100
AcDbEntity
  8
0
100
AcDbLine
 10
58.0
 20
671.0644999999999
 30
0.0
 11
58.0
 21
677.6584999999999
 31
0.0
  0
LINE
  5
80
330
1E
100
AcDbEntity
  8
0
100
AcDbLine
 10
58.0
 20
671.0644999999999
 30
0.0
 11
58.0
 21
664.5645
 31
0.0
  0
LINE
  5
81
330
1E
100
AcDbEntity
  8
0
100
AcDbLine
 10
58.0
 20
664.5645
 30
0.0
 11
58.0
 21
671.0644999999999
 31
0.0
  0
LINE
  5
82
330
1E
100
AcDbEntity
  8
0
100
AcDbLine
 10
58.0
 20
664.5645
 30
0.0
 11
58.0
 21
660.2644999999999
 31
0.0
  0
LINE
  5
83
330
1E
100
AcDbEntity
  8
0
100
AcDbLine
 10
58.0
 20
660.2644999999999
 30
0.0
 11
58.0
 21
664.5645
 31
0.0
  0
LINE
  5
84
330
1E
100
AcDbEntity
  8
0
100
AcDbLine
 10
58.0
 20
660.2644999999999
 30
0.0
 11
58.0
 21
656.9645
 31
0.0
  0
LINE
  5
85
330
1E
100
AcDbEntity
  8
0
100
AcDbLine
 10
58.0
 20
656.9645
 30
0.0
 11
58.0
 21
660.2644999999999
 31
0.0
  0
LINE
  5
86
330
1E
100
AcDbEntity
  8
0
100
AcDbLine
 10
58.0
 20
656.9645
 30
0.0
 11
58.0
 21
655.0644999999999
 31
0.0
  0
LINE
  5
87
330
1E
100
AcDbEntity
  8
0
100
AcDbLine
 10
58.0
 20
655.0644999999999
 30
0.0
 11
58.0
 21
656.9645
 31
0.0
  0
LINE
  5
88
330
1E
100
AcDbEntity
  8
0
100
AcDbLine
 10
58.0
 20
655.0644999999999
 30
0.0
 11
58.0
 21
653.9645
 31
0.0
  0
LINE
  5
89
330
1E
100
AcDbEntity
  8
0
100
AcDbLine
 10
60.0
 20
678.0644999999999
 30
0.0
 11
64.0
 21
671.0644999999999
 31
0.0
  0
LINE
  5
8A
330
1E
100
AcDbEntity
  8
0
100
AcDbLine
 10
60.0
 20
678.0644999999999
 30
0.0
 11
60.0
 21
688.0644999999999
 31
0.0
  0
LINE
  5
8B
330
1E
100
AcDbEntity
  8
0
100
AcDbLine
 10
58.0
 20
653.9645
 30
0.0
 11
58.0
 21
655.0644999999999
 31
0.0
  0
LINE
  5
8C
330
1E
100
AcDbEntity
  8
0
100
AcDbLine
 10
58.0
 20
653.9645
 30
0.0
 11
58.0
 21
653.0644999999999
 31
0.0
  0
LINE
  5
8D
330
1E
100
AcDbEntity
  8
0
100
AcDbLine
 10
58.0
 20
653.0644999999999
 30
0.0
 11
58.0
 21
653.9645
 31
0.0
  0
LINE
  5
8E
330
1E
100
AcDbEntity
  8
0
100
AcDbLine
 10
58.0
 20
653.0644999999999
 30
0.0
 11
60.0
 21
653.0644999999999
 31
0.0
  0
LINE
  5
8F
330
1E
100
AcDbEntity
  8
0
100
AcDbLine
 10
58.0
 20
653.0644999999999
 30
0.0
 11
58.0
 21
688.0644999999999
 31
0.0
  0
LINE
  5
90
330
1E
100
AcDbEntity
  8
0
100
AcDbLine
 10
63.0
 20
653.0644999999999
 30
0.0
 11
63.0
 21
254.0645
 31
0.0
  0
LINE
  5
91
330
1E
100
AcDbEntity
  8
0
100
AcDbLine
 10
63.0
 20
254.0645
 30
0.0
 11
63.39999999999999
 21
254.0645
 31
0.0
  0
LINE
  5
92
330
1E
100
AcDbEntity
  8
0
100
AcDbLine
 10
63.0
 20
254.0645
 30
0.0
 11
64.0
 21
253.0645
 31
0.0
  0
LINE
  5
93
330
1E
100
AcDbEntity
  8
0
100
AcDbLine
 10
63.0
 20
254.0645
 30
0.0
 11
63.0
 21
653.0644999999999
 31
0.0
  0
LINE
  5
94
330
1E
100
AcDbEntity
  8
0
100
AcDbLine
 10
63.0
 20
206.0645
 30
0.0
 11
63.39999999999999
 21
206.0645
 31
0.0
  0
LINE
  5
95
330
1E
100
AcDbEntity
  8
0
100
AcDbLine
 10
63.0
 20
206.0645
 30
0.0
 11
66.5349798861064
 21
204.650508045557
 31
0.0
  0
LINE
  5
96
330
1E
100
AcDbEntity
  8
0
100
AcDbLine
 10
63.0
 20
206.0645
 30
0.0
 11
63.0
 21
252.0645
 31
0.0
  0
LINE
  5
97
330
1E
100
AcDbEntity
  8
0
100
AcDbLine
 10
63.39999999999999
 20
206.0645
 30
0.0
 11
64.59999999999999
 21
206.0645
 31
0.0
  0
LINE
  5
98
330
1E
100
AcDbEntity
  8
0
100
AcDbLine
 10
64.59999999999999
 20
206.0645
 30
0.0
 11
66.5
 21
206.0645
 31
0.0
  0
LINE
  5
99
330
1E
100
AcDbEntity
  8
0
100
AcDbLine
 10
64.59999999999999
 20
252.0645
 30
0.0
 11
66.5
 21
252.0645
 31
0.0
  0
LINE
  5
9A
330
1E
100
AcDbEntity
  8
0
100
AcDbLine
 10
64.40000000000001
 20
253.0645
 30
0.0
 11
65.5
 21
253.0645
 31
0.0
  0
LINE
  5
9B
330
1E
100
AcDbEntity
  8
0
100
AcDbLine
 10
63.39999999999999
 20
252.0645
 30
0.0
 11
64.59999999999999
 21
252.0645
 31
0.0
  0
LINE
  5
9C
330
1E
100
AcDbEntity
  8
0
100
AcDbLine
 10
64.59999999999999
 20
254.0645
 30
0.0
 11
66.5
 21
254.0645
 31
0.0
  0
LINE
  5
9D
330
1E
100
AcDbEntity
  8
0
100
AcDbLine
 10
63.39999999999999
 20
254.0645
 30
0.0
 11
64.59999999999999
 21
254.0645
 31
0.0
  0
LINE
  5
9E
330
1E
100
AcDbEntity
  8
0
100
AcDbLine
 10
64.0
 20
253.0645
 30
0.0
 11
64.40000000000001
 21
253.0645
 31
0.0
  0
LINE
  5
9F
330
1E
100
AcDbEntity
  8
0
100
AcDbLine
 10
63.0
 20
252.0645
 30
0.0
 11
63.39999999999999
 21
252.0645
 31
0.0
  0
LINE
  5
A0
330
1E
100
AcDbEntity
  8
0
100
AcDbLine
 10
63.0
 20
252.0645
 30
0.0
 11
64.0
 21
253.0645
 31
0.0
  0
LINE
  5
A1
330
1E
100
AcDbEntity
  8
0
100
AcDbLine
 10
63.0
 20
252.0645
 30
0.0
 11
63.0
 21
206.0645
 31
0.0
  0
LINE
  5
A2
330
1E
100
AcDbEntity
  8
0
100
AcDbLine
 10
61.0
 20
676.3144999999999
 30
0.0
 11
61.0
 21
688.0644999999999
 31
0.0
  0
LINE
  5
A3
330
1E
100
AcDbEntity
  8
0
100
AcDbLine
 10
63.9
 20
674.3964999999999
 30
0.0
 11
65.59999999999999
 21
676.3605
 31
0.0
  0
LINE
  5
A4
330
1E
100
AcDbEntity
  8
0
100
AcDbLine
 10
63.3
 20
674.1245
 30
0.0
 11
63.9
 21
674.3964999999999
 31
0.0
  0
LINE
  5
A5
330
1E
100
AcDbEntity
  8
0
100
AcDbLine
 10
62.2514285714286
 20
674.1245
 30
0.0
 11
63.3
 21
674.1245
 31
0.0
  0
LINE
  5
A6
330
1E
100
AcDbEntity
  8
0
100
AcDbLine
 10
64.8
 20
679.6905
 30
0.0
 11
65.09999999999999
 21
683.1145
 31
0.0
  0
LINE
  5
A7
330
1E
100
AcDbEntity
  8
0
100
AcDbLine
 10
63.1
 20
676.3605
 30
0.0
 11
64.8
 21
679.6905
 31
0.0
  0
LINE
  5
A8
330
1E
100
AcDbEntity
  8
0
100
AcDbLine
 10
61.9588582212786
 20
674.6364981127619
 30
0.0
 11
63.1
 21
676.3605
 31
0.0
  0
LINE
  5
A9
330
1E
100
AcDbEntity
  8
0
100
AcDbLine
 10
64.8
 20
687.1385
 30
0.0
 11
65.09999999999999
 21
683.1145
 31
0.0
  0
LINE
  5
AA
330
1E
100
AcDbEntity
  8
0
100
AcDbLine
 10
61.0
 20
688.0644999999999
 30
0.0
 11
61.0
 21
701.0544999999999
 31
0.0
  0
LINE
  5
AB
330
1E
100
AcDbEntity
  8
0
100
AcDbLine
 10
61.0
 20
688.0644999999999
 30
0.0
 11
61.0
 21
676.3144999999999
 31
0.0
  0
LINE
  5
AC
330
1E
100
AcDbEntity
  8
0
100
AcDbLine
 10
64.0
 20
671.0644999999999
 30
0.0
 11
67.1453089855497
 21
670.263875894587
 31
0.0
  0
LINE
  5
AD
330
1E
100
AcDbEntity
  8
0
100
AcDbLine
 10
60.0
 20
688.0644999999999
 30
0.0
 11
60.0
 21
698.0644999999999
 31
0.0
  0
LINE
  5
AE
330
1E
100
AcDbEntity
  8
0
100
AcDbLine
 10
63.1
 20
692.4684999999999
 30
0.0
 11
64.8
 21
687.1385
 31
0.0
  0
LINE
  5
AF
330
1E
100
AcDbEntity
  8
0
100
AcDbLine
 10
58.0
 20
688.0644999999999
 30
0.0
 11
58.0
 21
723.0644999999999
 31
0.0
  0
LINE
  5
B0
330
1E
100
AcDbEntity
  8
0
100
AcDbLine
 10
58.0
 20
688.0644999999999
 30
0.0
 11
58.0
 21
698.4704999999999
 31
0.0
  0
LINE
  5
B2
330
1E
100
AcDbEntity
  8
0
100
AcDbLine
 10
58.0
 20
688.0644999999999
 30
0.0
 11
58.0
 21
677.6584999999999
 31
0.0
  0
LINE
  5
B3
330
1E
100
AcDbEntity
  8
0
100
AcDbLine
 10
58.0
 20
688.0644999999999
 30
0.0
 11
58.0
 21
653.0644999999999
 31
0.0
  0
LINE
  5
B4
330
1E
100
AcDbEntity
  8
0
100
AcDbLine
 10
66.18981999999999
 20
-0.0644999999999776
 30
0.0
 11
67.07558
 21
525.2815
 31
0.0
  0
LINE
  5
B5
330
1E
100
AcDbEntity
  8
0
100
AcDbLine
 10
65.5
 20
253.0645
 30
0.0
 11
66.6166083319565
 21
253.0645
 31
0.0
  0
LINE
  5
B6
330
1E
100
AcDbEntity
  8
0
100
AcDbLine
 10
66.18981999999999
 20
-0.0644999999999518
 30
0.0
 11
66.45293000000001
 21
0.0645000000000291
 31
0.0
  0
LINE
  5
B7
330
1E
100
AcDbEntity
  8
0
100
AcDbLine
 10
66.18981999999999
 20
-0.0644999999999518
 30
0.0
 11
67.07558
 21
525.2815
 31
0.0
  0
LINE
  5
B8
330
1E
100
AcDbEntity
  8
0
100
AcDbLine
 10
66.5
 20
254.0645
 30
0.0
 11
66.6182943826735
 21
254.0645
 31
0.0
  0
LINE
  5
B9
330
1E
100
AcDbEntity
  8
0
100
AcDbLine
 10
66.5
 20
252.0645
 30
0.0
 11
66.6149222812394
 21
252.0645
 31
0.0
  0
LINE
  5
BA
330
1E
100
AcDbEntity
  8
0
100
AcDbLine
 10
66.45293000000001
 20
0.0645000000000291
 30
0.0
 11
67.88393000000001
 21
0.7675000000000301
 31
0.0
  0
LINE
  5
BB
330
1E
100
AcDbEntity
  8
0
100
AcDbLine
 10
67.8441668731352
 20
0.747965773455011
 30
0.0
 11
67.9945935375569
 21
0.8217846202993291
 31
0.0
  0
LINE
  5
BC
330
1E
100
AcDbEntity
  8
0
100
AcDbLine
 10
67.88393000000001
 20
0.7675000000000301
 30
0.0
 11
70.2813
 21
1.943500000000019
 31
0.0
  0
LINE
  5
BD
330
1E
100
AcDbEntity
  8
0
100
AcDbLine
 10
67.05972
 20
558.2825
 30
0.0
 11
67.07558
 21
525.2815
 31
0.0
  0
LINE
  5
BE
330
1E
100
AcDbEntity
  8
0
100
AcDbLine
 10
67.03161
 20
581.2795
 30
0.0
 11
67.05972
 21
558.2825
 31
0.0
  0
LINE
  5
BF
330
1E
100
AcDbEntity
  8
0
100
AcDbLine
 10
66.98968
 20
606.0764999999999
 30
0.0
 11
67.03161
 21
581.2795
 31
0.0
  0
LINE
  5
C0
330
1E
100
AcDbEntity
  8
0
100
AcDbLine
 10
66.93578999999999
 20
631.1734999999999
 30
0.0
 11
66.98968
 21
606.0764999999999
 31
0.0
  0
LINE
  5
C1
330
1E
100
AcDbEntity
  8
0
100
AcDbLine
 10
66.86561999999999
 20
654.2794999999999
 30
0.0
 11
67.1453089855497
 21
670.263875894587
 31
0.0
  0
LINE
  5
C2
330
1E
100
AcDbEntity
  8
0
100
AcDbLine
 10
66.86561999999999
 20
654.2794999999999
 30
0.0
 11
66.93578999999999
 21
631.1734999999999
 31
0.0
  0
LINE
  5
C3
330
1E
100
AcDbEntity
  8
0
100
AcDbLine
 10
67.1453089855497
 20
670.263875894587
 30
0.0
 11
67.1998162538583
 21
673.3789955834059
 31
0.0
  0
LINE
  5
C5
330
1E
100
AcDbEntity
  8
0
100
AcDbLine
 10
73.1939
 20
3.37350000000002
 30
0.0
 11
76.3436
 21
4.91850000000005
 31
0.0
  0
LINE
  5
C6
330
1E
100
AcDbEntity
  8
0
100
AcDbLine
 10
72.11066777153179
 20
2.841665183441109
 30
0.0
 11
75.1053
 21
4.31050000000004
 31
0.0
  0
LINE
  5
C7
330
1E
100
AcDbEntity
  8
0
100
AcDbLine
 10
70.2813
 20
1.943500000000019
 30
0.0
 11
73.1939
 21
3.37350000000002
 31
0.0
  0
LINE
  5
CC
330
1E
100
AcDbEntity
  8
0
100
AcDbLine
 10
75.1053
 20
4.31050000000004
 30
0.0
 11
76.97203593960129
 21
5.22676814757867
 31
0.0
  0
LINE
  5
CD
330
1E
100
AcDbEntity
  8
0
100
AcDbLine
 10
76.3436
 20
4.91850000000005
 30
0.0
 11
79.1426
 21
6.29150000000007
 31
0.0
  0
LINE
  5
D2
330
1E
100
AcDbEntity
  8
0
100
AcDbLine
 10
75.0
 20
671.4695
 30
0.0
 11
77.59999999999999
 21
671.6694999999999
 31
0.0
  0
LINE
  5
D3
330
1E
100
AcDbEntity
  8
0
100
AcDbLine
 10
77.59999999999999
 20
671.6694999999999
 30
0.0
 11
80.0
 21
672.1195
 31
0.0
  0
LINE
  5
D4
330
1E
100
AcDbEntity
  8
0
100
AcDbLine
 10
72.40000000000001
 20
671.6694999999999
 30
0.0
 11
75.0
 21
671.4695
 31
0.0
  0
LINE
  5
D5
330
1E
100
AcDbEntity
  8
0
100
AcDbLine
 10
70.0
 20
672.1195
 30
0.0
 11
72.40000000000001
 21
671.6694999999999
 31
0.0
  0
LINE
  5
D7
330
1E
100
AcDbEntity
  8
0
100
AcDbLine
 10
67.9
 20
672.9194999999999
 30
0.0
 11
70.0
 21
672.1195
 31
0.0
  0
LINE
  5
D8
330
1E
100
AcDbEntity
  8
0
100
AcDbLine
 10
66.29999999999999
 20
673.9695
 30
0.0
 11
67.9
 21
672.9194999999999
 31
0.0
  0
LINE
  5
D9
330
1E
100
AcDbEntity
  8
0
100
AcDbLine
 10
65.59999999999999
 20
676.3605
 30
0.0
 11
67.59999999999999
 21
679.6905
 31
0.0
  0
LINE
  5
DA
330
1E
100
AcDbEntity
  8
0
100
AcDbLine
 10
67.59999999999999
 20
679.6905
 30
0.0
 11
68.3
 21
683.1145
 31
0.0
  0
LINE
  5
DB
330
1E
100
AcDbEntity
  8
0
100
AcDbLine
 10
67.59999999999999
 20
687.1385
 30
0.0
 11
68.3
 21
683.1145
 31
0.0
  0
LINE
  5
DC
330
1E
100
AcDbEntity
  8
0
100
AcDbLine
 10
65.59999999999999
 20
692.4684999999999
 30
0.0
 11
67.59999999999999
 21
687.1385
 31
0.0
  0
LINE
  5
DD
330
1E
100
AcDbEntity
  8
0
100
AcDbLine
 10
75.0
 20
696.7005
 30
0.0
 11
78.0
 21
696.9005
 31
0.0
  0
LINE
  5
DE
330
1E
100
AcDbEntity
  8
0
100
AcDbLine
 10
72.0
 20
696.9005
 30
0.0
 11
75.0
 21
696.7005
 31
0.0
  0
LINE
  5
DF
330
1E
100
AcDbEntity
  8
0
100
AcDbLine
 10
65.4
 20
675.1694999999999
 30
0.0
 11
66.29999999999999
 21
673.9695
 31
0.0
  0
LINE
  5
E0
330
1E
100
AcDbEntity
  8
0
100
AcDbLine
 10
65.18209373748161
 20
675.877695353185
 30
0.0
 11
65.4
 21
675.1694999999999
 31
0.0
  0
LINE
  5
E1
330
1E
100
AcDbEntity
  8
0
100
AcDbLine
 10
63.9
 20
697.4325
 30
0.0
 11
65.59999999999999
 21
692.4684999999999
 31
0.0
  0
LINE
  5
E2
330
1E
100
AcDbEntity
  8
0
100
AcDbLine
 10
61.79999999999999
 20
697.4325
 30
0.0
 11
63.1
 21
692.4684999999999
 31
0.0
  0
LINE
  5
E3
330
1E
100
AcDbEntity
  8
0
100
AcDbLine
 10
60.0
 20
698.0644999999999
 30
0.0
 11
61.0
 21
699.8145
 31
0.0
  0
LINE
  5
E4
330
1E
100
AcDbEntity
  8
0
100
AcDbLine
 10
69.29999999999999
 20
697.4505
 30
0.0
 11
72.0
 21
696.9005
 31
0.0
  0
LINE
  5
E5
330
1E
100
AcDbEntity
  8
0
100
AcDbLine
 10
58.0
 20
698.4704999999999
 30
0.0
 11
58.0
 21
705.0644999999999
 31
0.0
  0
LINE
  5
E6
330
1E
100
AcDbEntity
  8
0
100
AcDbLine
 10
58.0
 20
698.4704999999999
 30
0.0
 11
58.0
 21
688.0644999999999
 31
0.0
  0
LINE
  5
E7
330
1E
100
AcDbEntity
  8
0
100
AcDbLine
 10
66.90000000000001
 20
698.4004999999999
 30
0.0
 11
69.29999999999999
 21
697.4505
 31
0.0
  0
LINE
  5
EB
330
1E
100
AcDbEntity
  8
0
100
AcDbLine
 10
80.2202999133663
 20
6.821097286360089
 30
0.0
 11
80.41059999999999
 21
6.914500000000018
 31
0.0
  0
LINE
  5
EC
330
1E
100
AcDbEntity
  8
0
100
AcDbLine
 10
80.41059999999999
 20
6.914500000000018
 30
0.0
 11
81.8453
 21
7.618500000000018
 31
0.0
  0
LINE
  5
ED
330
1E
100
AcDbEntity
  8
0
100
AcDbLine
 10
83.03791739100484
 20
669.6162067634809
 30
0.0
 11
86.0
 21
671.0644999999999
 31
0.0
  0
LINE
  5
EE
330
1E
100
AcDbEntity
  8
0
100
AcDbLine
 10
81.8453
 20
7.618500000000018
 30
0.0
 11
82.11200000000001
 21
7.74950000000005
 31
0.0
  0
LINE
  5
EF
330
1E
100
AcDbEntity
  8
0
100
AcDbLine
 10
81.0819
 20
7.2445
 30
0.0
 11
82.11200000000001
 21
7.74950000000005
 31
0.0
  0
LINE
  5
F0
330
1E
100
AcDbEntity
  8
0
100
AcDbLine
 10
79.1426
 20
6.29150000000007
 30
0.0
 11
81.0819
 21
7.2445
 31
0.0
  0
LINE
  5
F1
330
1E
100
AcDbEntity
  8
0
100
AcDbLine
 10
80.0
 20
672.1195
 30
0.0
 11
82.09999999999999
 21
672.9194999999999
 31
0.0
  0
LINE
  5
F2
330
1E
100
AcDbEntity
  8
0
100
AcDbLine
 10
82.11200000000001
 20
7.74949999999999
 30
0.0
 11
83.07579999999999
 21
525.2804999999999
 31
0.0
  0
LINE
  5
F3
330
1E
100
AcDbEntity
  8
0
100
AcDbLine
 10
82.47795422866309
 20
204.2556816914649
 30
0.0
 11
87.0
 21
206.0645
 31
0.0
  0
LINE
  5
F4
330
1E
100
AcDbEntity
  8
0
100
AcDbLine
 10
82.48132279805458
 20
206.0645
 30
0.0
 11
83.49999999999999
 21
206.0645
 31
0.0
  0
LINE
  5
F5
330
1E
100
AcDbEntity
  8
0
100
AcDbLine
 10
82.56885108138449
 20
253.0645
 30
0.0
 11
82.79999999999999
 21
253.0645
 31
0.0
  0
LINE
  5
F6
330
1E
100
AcDbEntity
  8
0
100
AcDbLine
 10
82.56698877748389
 20
252.0645
 30
0.0
 11
83.49999999999999
 21
252.0645
 31
0.0
  0
LINE
  5
F7
330
1E
100
AcDbEntity
  8
0
100
AcDbLine
 10
82.57071338528509
 20
254.0645
 30
0.0
 11
83.49999999999999
 21
254.0645
 31
0.0
  0
LINE
  5
F8
330
1E
100
AcDbEntity
  8
0
100
AcDbLine
 10
82.79999999999999
 20
253.0645
 30
0.0
 11
84.50000000000001
 21
253.0645
 31
0.0
  0
LINE
  5
F9
330
1E
100
AcDbEntity
  8
0
100
AcDbLine
 10
82.47795422866309
 20
204.2556816914649
 30
0.0
 11
87.0
 21
206.0645
 31
0.0
  0
LINE
  5
FA
330
1E
100
AcDbEntity
  8
0
100
AcDbLine
 10
82.11200000000001
 20
7.74950000000005
 30
0.0
 11
83.07579999999999
 21
525.2804999999999
 31
0.0
  0
LINE
  5
FB
330
1E
100
AcDbEntity
  8
0
100
AcDbLine
 10
83.49999999999999
 20
254.0645
 30
0.0
 11
85.4
 21
254.0645
 31
0.0
  0
LINE
  5
FC
330
1E
100
AcDbEntity
  8
0
100
AcDbLine
 10
83.49999999999999
 20
206.0645
 30
0.0
 11
85.4
 21
206.0645
 31
0.0
  0
LINE
  5
FD
330
1E
100
AcDbEntity
  8
0
100
AcDbLine
 10
83.49999999999999
 20
252.0645
 30
0.0
 11
85.4
 21
252.0645
 31
0.0
  0
LINE
  5
FE
330
1E
100
AcDbEntity
  8
0
100
AcDbLine
 10
83.0596
 20
558.2815
 30
0.0
 11
83.07579999999999
 21
525.2804999999999
 31
0.0
  0
LINE
  5
FF
330
1E
100
AcDbEntity
  8
0
100
AcDbLine
 10
83.0306
 20
581.2885
 30
0.0
 11
83.0596
 21
558.2815
 31
0.0
  0
LINE
  5
100
330
1E
100
AcDbEntity
  8
0
100
AcDbLine
 10
82.98959999999999
 20
606.0855
 30
0.0
 11
83.0306
 21
581.2885
 31
0.0
  0
LINE
  5
101
330
1E
100
AcDbEntity
  8
0
100
AcDbLine
 10
82.93470000000001
 20
631.1824999999999
 30
0.0
 11
82.98959999999999
 21
606.0855
 31
0.0
  0
LINE
  5
103
330
1E
100
AcDbEntity
  8
0
100
AcDbLine
 10
83.14736489792091
 20
670.338374701289
 30
0.0
 11
83.2055434263958
 21
673.645012873572
 31
0.0
  0
LINE
  5
104
330
1E
100
AcDbEntity
  8
0
100
AcDbLine
 10
82.8648
 20
654.2785
 30
0.0
 11
83.04577666352159
 21
670.3125158779872
 31
0.0
  0
LINE
  5
105
330
1E
100
AcDbEntity
  8
0
100
AcDbLine
 10
82.8648
 20
654.2785
 30
0.0
 11
82.93470000000001
 21
631.1824999999999
 31
0.0
  0
LINE
  5
106
330
1E
100
AcDbEntity
  8
0
100
AcDbLine
 10
82.09999999999999
 20
672.9194999999999
 30
0.0
 11
83.7
 21
673.9695
 31
0.0
  0
LINE
  5
107
330
1E
100
AcDbEntity
  8
0
100
AcDbLine
 10
82.4
 20
679.6905
 30
0.0
 11
84.40000000000001
 21
676.3605
 31
0.0
  0
LINE
  5
108
330
1E
100
AcDbEntity
  8
0
100
AcDbLine
 10
81.69999999999999
 20
683.1145
 30
0.0
 11
82.4
 21
687.1385
 31
0.0
  0
LINE
  5
109
330
1E
100
AcDbEntity
  8
0
100
AcDbLine
 10
81.69999999999999
 20
683.1145
 30
0.0
 11
82.4
 21
679.6905
 31
0.0
  0
LINE
  5
10A
330
1E
100
AcDbEntity
  8
0
100
AcDbLine
 10
82.4
 20
687.1385
 30
0.0
 11
84.40000000000001
 21
692.4684999999999
 31
0.0
  0
LINE
  5
10B
330
1E
100
AcDbEntity
  8
0
100
AcDbLine
 10
78.0
 20
696.9005
 30
0.0
 11
80.7
 21
697.4505
 31
0.0
  0
LINE
  5
10C
330
1E
100
AcDbEntity
  8
0
100
AcDbLine
 10
80.7
 20
697.4505
 30
0.0
 11
83.1
 21
698.4004999999999
 31
0.0
  0
LINE
  5
10D
330
1E
100
AcDbEntity
  8
0
100
AcDbLine
 10
83.1
 20
698.4004999999999
 30
0.0
 11
85.0
 21
699.6005
 31
0.0
  0
LINE
  5
10E
330
1E
100
AcDbEntity
  8
0
100
AcDbLine
 10
83.7
 20
673.9695
 30
0.0
 11
84.59999999999999
 21
675.1694999999999
 31
0.0
  0
LINE
  5
110
330
1E
100
AcDbEntity
  8
0
100
AcDbLine
 10
63.3
 20
700.1045
 30
0.0
 11
63.9
 21
697.4325
 31
0.0
  0
LINE
  5
111
330
1E
100
AcDbEntity
  8
0
100
AcDbLine
 10
61.29999999999999
 20
700.1045
 30
0.0
 11
61.79999999999999
 21
697.4325
 31
0.0
  0
LINE
  5
113
330
1E
100
AcDbEntity
  8
0
100
AcDbLine
 10
63.9
 20
700.9505
 30
0.0
 11
65.0
 21
699.6005
 31
0.0
  0
LINE
  5
114
330
1E
100
AcDbEntity
  8
0
100
AcDbLine
 10
65.0
 20
699.6005
 30
0.0
 11
66.90000000000001
 21
698.4004999999999
 31
0.0
  0
LINE
  5
11A
330
1E
100
AcDbEntity
  8
0
100
AcDbLine
 10
84.40000000000001
 20
676.3605
 30
0.0
 11
86.09999999999999
 21
674.3964999999999
 31
0.0
  0
LINE
  5
11B
330
1E
100
AcDbEntity
  8
0
100
AcDbLine
 10
84.40000000000001
 20
692.4684999999999
 30
0.0
 11
86.09999999999999
 21
697.4325
 31
0.0
  0
LINE
  5
11C
330
1E
100
AcDbEntity
  8
0
100
AcDbLine
 10
84.50000000000001
 20
253.0645
 30
0.0
 11
85.6
 21
253.0645
 31
0.0
  0
LINE
  5
11D
330
1E
100
AcDbEntity
  8
0
100
AcDbLine
 10
85.4
 20
206.0645
 30
0.0
 11
86.6
 21
206.0645
 31
0.0
  0
LINE
  5
11E
330
1E
100
AcDbEntity
  8
0
100
AcDbLine
 10
85.4
 20
252.0645
 30
0.0
 11
86.6
 21
252.0645
 31
0.0
  0
LINE
  5
11F
330
1E
100
AcDbEntity
  8
0
100
AcDbLine
 10
85.6
 20
253.0645
 30
0.0
 11
86.0
 21
253.0645
 31
0.0
  0
LINE
  5
120
330
1E
100
AcDbEntity
  8
0
100
AcDbLine
 10
85.20000000000001
 20
679.6905
 30
0.0
 11
86.90000000000001
 21
676.3605
 31
0.0
  0
LINE
  5
121
330
1E
100
AcDbEntity
  8
0
100
AcDbLine
 10
84.9
 20
683.1145
 30
0.0
 11
85.20000000000001
 21
687.1385
 31
0.0
  0
LINE
  5
122
330
1E
100
AcDbEntity
  8
0
100
AcDbLine
 10
84.9
 20
683.1145
 30
0.0
 11
85.20000000000001
 21
679.6905
 31
0.0
  0
LINE
  5
123
330
1E
100
AcDbEntity
  8
0
100
AcDbLine
 10
85.20000000000001
 20
687.1385
 30
0.0
 11
86.90000000000001
 21
692.4684999999999
 31
0.0
  0
LINE
  5
124
330
1E
100
AcDbEntity
  8
0
100
AcDbLine
 10
85.4
 20
254.0645
 30
0.0
 11
86.6
 21
254.0645
 31
0.0
  0
LINE
  5
125
330
1E
100
AcDbEntity
  8
0
100
AcDbLine
 10
86.0
 20
253.0645
 30
0.0
 11
87.0
 21
252.0645
 31
0.0
  0
LINE
  5
126
330
1E
100
AcDbEntity
  8
0
100
AcDbLine
 10
86.0
 20
253.0645
 30
0.0
 11
87.0
 21
254.0645
 31
0.0
  0
LINE
  5
127
330
1E
100
AcDbEntity
  8
0
100
AcDbLine
 10
86.09999999999999
 20
674.3964999999999
 30
0.0
 11
86.69999999999999
 21
674.1245
 31
0.0
  0
LINE
  5
128
330
1E
100
AcDbEntity
  8
0
100
AcDbLine
 10
86.09999999999999
 20
697.4325
 30
0.0
 11
86.69999999999999
 21
700.1045
 31
0.0
  0
LINE
  5
129
330
1E
100
AcDbEntity
  8
0
100
AcDbLine
 10
86.0
 20
671.0644999999999
 30
0.0
 11
90.0
 21
678.0644999999999
 31
0.0
  0
LINE
  5
12A
330
1E
100
AcDbEntity
  8
0
100
AcDbLine
 10
85.0
 20
699.6005
 30
0.0
 11
86.09999999999999
 21
700.9505
 31
0.0
  0
LINE
  5
12B
330
1E
100
AcDbEntity
  8
0
100
AcDbLine
 10
86.6
 20
206.0645
 30
0.0
 11
87.0
 21
206.0645
 31
0.0
  0
LINE
  5
12C
330
1E
100
AcDbEntity
  8
0
100
AcDbLine
 10
87.0
 20
206.0645
 30
0.0
 11
87.0
 21
252.0645
 31
0.0
  0
LINE
  5
12D
330
1E
100
AcDbEntity
  8
0
100
AcDbLine
 10
87.0
 20
254.0645
 30
0.0
 11
87.0
 21
653.0644999999999
 31
0.0
  0
LINE
  5
12E
330
1E
100
AcDbEntity
  8
0
100
AcDbLine
 10
86.6
 20
254.0645
 30
0.0
 11
87.0
 21
254.0645
 31
0.0
  0
LINE
  5
12F
330
1E
100
AcDbEntity
  8
0
100
AcDbLine
 10
86.6
 20
252.0645
 30
0.0
 11
87.0
 21
252.0645
 31
0.0
  0
LINE
  5
130
330
1E
100
AcDbEntity
  8
0
100
AcDbLine
 10
87.0
 20
252.0645
 30
0.0
 11
87.0
 21
206.0645
 31
0.0
  0
LINE
  5
131
330
1E
100
AcDbEntity
  8
0
100
AcDbLine
 10
86.69999999999999
 20
674.1245
 30
0.0
 11
87.74857142857142
 21
674.1245
 31
0.0
  0
LINE
  5
132
330
1E
100
AcDbEntity
  8
0
100
AcDbLine
 10
86.90000000000001
 20
676.3605
 30
0.0
 11
88.04114177872142
 21
674.6364981127619
 31
0.0
  0
LINE
  5
134
330
1E
100
AcDbEntity
  8
0
100
AcDbLine
 10
86.69999999999999
 20
700.1045
 30
0.0
 11
87.0
 21
701.0544999999999
 31
0.0
  0
LINE
  5
135
330
1E
100
AcDbEntity
  8
0
100
AcDbLine
 10
86.90000000000001
 20
692.4684999999999
 30
0.0
 11
88.2
 21
697.4325
 31
0.0
  0
LINE
  5
136
330
1E
100
AcDbEntity
  8
0
100
AcDbLine
 10
87.0
 20
653.0644999999999
 30
0.0
 11
90.0
 21
653.0644999999999
 31
0.0
  0
LINE
  5
137
330
1E
100
AcDbEntity
  8
0
100
AcDbLine
 10
87.0
 20
653.0644999999999
 30
0.0
 11
87.0
 21
254.0645
 31
0.0
  0
LINE
  5
139
330
1E
100
AcDbEntity
  8
0
100
AcDbLine
 10
86.09999999999999
 20
700.9505
 30
0.0
 11
86.26671114076049
 21
701.575666777852
 31
0.0
  0
LINE
  5
13A
330
1E
100
AcDbEntity
  8
0
100
AcDbLine
 10
84.59999999999999
 20
675.1694999999999
 30
0.0
 11
84.81790626251841
 21
675.877695353185
 31
0.0
  0
LINE
  5
13C
330
1E
100
AcDbEntity
  8
0
100
AcDbLine
 10
63.0
 20
701.0544999999999
 30
0.0
 11
63.280689206762
 21
702.142170676203
 31
0.0
  0
LINE
  5
13D
330
1E
100
AcDbEntity
  8
0
100
AcDbLine
 10
63.0
 20
701.0544999999999
 30
0.0
 11
63.3
 21
700.1045
 31
0.0
  0
LINE
  5
13E
330
1E
100
AcDbEntity
  8
0
100
AcDbLine
 10
61.0
 20
701.0544999999999
 30
0.0
 11
61.5
 21
702.8545
 31
0.0
  0
LINE
  5
13F
330
1E
100
AcDbEntity
  8
0
100
AcDbLine
 10
61.0
 20
701.0544999999999
 30
0.0
 11
61.0
 21
688.0644999999999
 31
0.0
  0
LINE
  5
140
330
1E
100
AcDbEntity
  8
0
100
AcDbLine
 10
61.0
 20
701.0544999999999
 30
0.0
 11
61.29999999999999
 21
700.1045
 31
0.0
  0
LINE
  5
141
330
1E
100
AcDbEntity
  8
0
100
AcDbLine
 10
61.5
 20
702.8545
 30
0.0
 11
62.2316165375717
 21
703.742891509909
 31
0.0
  0
LINE
  5
142
330
1E
100
AcDbEntity
  8
0
100
AcDbLine
 10
63.7332888592395
 20
701.575666777852
 30
0.0
 11
63.9
 21
700.9505
 31
0.0
  0
LINE
  5
144
330
1E
100
AcDbEntity
  8
0
100
AcDbLine
 10
63.0
 20
702.4935
 30
0.0
 11
63.73328885923954
 21
701.5756667778518
 31
0.0
  0
LINE
  5
145
330
1E
100
AcDbEntity
  8
0
100
AcDbLine
 10
61.5
 20
704.9325
 30
0.0
 11
63.0
 21
702.4935
 31
0.0
  0
LINE
  5
146
330
1E
100
AcDbEntity
  8
0
100
AcDbLine
 10
86.71931079323799
 20
702.142170676203
 30
0.0
 11
87.0
 21
701.0544999999999
 31
0.0
  0
LINE
  5
147
330
1E
100
AcDbEntity
  8
0
100
AcDbLine
 10
86.26671114076044
 20
701.5756667778518
 30
0.0
 11
87.0
 21
702.4935
 31
0.0
  0
LINE
  5
148
330
1E
100
AcDbEntity
  8
0
100
AcDbLine
 10
89.0
 20
676.3144999999999
 30
0.0
 11
89.0
 21
688.0644999999999
 31
0.0
  0
LINE
  5
149
330
1E
100
AcDbEntity
  8
0
100
AcDbLine
 10
88.2
 20
697.4325
 30
0.0
 11
88.7
 21
700.1045
 31
0.0
  0
LINE
  5
14A
330
1E
100
AcDbEntity
  8
0
100
AcDbLine
 10
89.0
 20
688.0644999999999
 30
0.0
 11
89.0
 21
701.0544999999999
 31
0.0
  0
LINE
  5
14B
330
1E
100
AcDbEntity
  8
0
100
AcDbLine
 10
89.0
 20
688.0644999999999
 30
0.0
 11
89.0
 21
676.3144999999999
 31
0.0
  0
LINE
  5
14C
330
1E
100
AcDbEntity
  8
0
100
AcDbLine
 10
88.7
 20
700.1045
 30
0.0
 11
89.0
 21
701.0544999999999
 31
0.0
  0
LINE
  5
14D
330
1E
100
AcDbEntity
  8
0
100
AcDbLine
 10
88.49999999999999
 20
702.8545
 30
0.0
 11
89.0
 21
701.0544999999999
 31
0.0
  0
LINE
  5
14E
330
1E
100
AcDbEntity
  8
0
100
AcDbLine
 10
89.0
 20
701.0544999999999
 30
0.0
 11
89.0
 21
688.0644999999999
 31
0.0
  0
LINE
  5
14F
330
1E
100
AcDbEntity
  8
0
100
AcDbLine
 10
87.76838346242831
 20
703.742891509909
 30
0.0
 11
88.49999999999999
 21
702.8545
 31
0.0
  0
LINE
  5
150
330
1E
100
AcDbEntity
  8
0
100
AcDbLine
 10
89.0
 20
699.8145
 30
0.0
 11
90.0
 21
698.0644999999999
 31
0.0
  0
LINE
  5
151
330
1E
100
AcDbEntity
  8
0
100
AcDbLine
 10
87.0
 20
702.4935
 30
0.0
 11
88.49999999999999
 21
704.9325
 31
0.0
  0
LINE
  5
152
330
1E
100
AcDbEntity
  8
0
100
AcDbLine
 10
58.0
 20
705.0644999999999
 30
0.0
 11
58.0
 21
711.5644999999999
 31
0.0
  0
LINE
  5
153
330
1E
100
AcDbEntity
  8
0
100
AcDbLine
 10
58.0
 20
705.0644999999999
 30
0.0
 11
58.0
 21
698.4704999999999
 31
0.0
  0
LINE
  5
154
330
1E
100
AcDbEntity
  8
0
100
AcDbLine
 10
58.0
 20
711.5644999999999
 30
0.0
 11
58.0
 21
715.8644999999999
 31
0.0
  0
LINE
  5
155
330
1E
100
AcDbEntity
  8
0
100
AcDbLine
 10
58.0
 20
711.5644999999999
 30
0.0
 11
58.0
 21
705.0644999999999
 31
0.0
  0
LINE
  5
156
330
1E
100
AcDbEntity
  8
0
100
AcDbLine
 10
58.0
 20
715.8644999999999
 30
0.0
 11
58.0
 21
719.1645
 31
0.0
  0
LINE
  5
157
330
1E
100
AcDbEntity
  8
0
100
AcDbLine
 10
58.0
 20
715.8644999999999
 30
0.0
 11
58.0
 21
711.5644999999999
 31
0.0
  0
LINE
  5
158
330
1E
100
AcDbEntity
  8
0
100
AcDbLine
 10
58.0
 20
719.1645
 30
0.0
 11
58.0
 21
721.0644999999999
 31
0.0
  0
LINE
  5
159
330
1E
100
AcDbEntity
  8
0
100
AcDbLine
 10
58.0
 20
719.1645
 30
0.0
 11
58.0
 21
715.8644999999999
 31
0.0
  0
LINE
  5
15A
330
1E
100
AcDbEntity
  8
0
100
AcDbLine
 10
58.0
 20
721.0644999999999
 30
0.0
 11
58.0
 21
722.1644999999999
 31
0.0
  0
LINE
  5
15B
330
1E
100
AcDbEntity
  8
0
100
AcDbLine
 10
58.0
 20
721.0644999999999
 30
0.0
 11
58.0
 21
719.1645
 31
0.0
  0
LINE
  5
15C
330
1E
100
AcDbEntity
  8
0
100
AcDbLine
 10
58.0
 20
722.1644999999999
 30
0.0
 11
58.0
 21
723.0644999999999
 31
0.0
  0
LINE
  5
15D
330
1E
100
AcDbEntity
  8
0
100
AcDbLine
 10
58.0
 20
722.1644999999999
 30
0.0
 11
58.0
 21
721.0644999999999
 31
0.0
  0
LINE
  5
15E
330
1E
100
AcDbEntity
  8
0
100
AcDbLine
 10
61.0
 20
706.7174999999999
 30
0.0
 11
61.0
 21
715.2605
 31
0.0
  0
LINE
  5
15F
330
1E
100
AcDbEntity
  8
0
100
AcDbLine
 10
61.0
 20
706.7174999999999
 30
0.0
 11
61.5
 21
704.9325
 31
0.0
  0
LINE
  5
160
330
1E
100
AcDbEntity
  8
0
100
AcDbLine
 10
61.0
 20
715.2605
 30
0.0
 11
61.0
 21
722.4015
 31
0.0
  0
LINE
  5
161
330
1E
100
AcDbEntity
  8
0
100
AcDbLine
 10
61.0
 20
715.2605
 30
0.0
 11
61.0
 21
706.7174999999999
 31
0.0
  0
LINE
  5
162
330
1E
100
AcDbEntity
  8
0
100
AcDbLine
 10
61.0
 20
722.4015
 30
0.0
 11
61.0
 21
731.8814999999999
 31
0.0
  0
LINE
  5
163
330
1E
100
AcDbEntity
  8
0
100
AcDbLine
 10
61.0
 20
722.4015
 30
0.0
 11
61.0
 21
715.2605
 31
0.0
  0
LINE
  5
164
330
1E
100
AcDbEntity
  8
0
100
AcDbLine
 10
89.0
 20
706.7174999999999
 30
0.0
 11
89.0
 21
715.2605
 31
0.0
  0
LINE
  5
165
330
1E
100
AcDbEntity
  8
0
100
AcDbLine
 10
88.49999999999999
 20
704.9325
 30
0.0
 11
89.0
 21
706.7174999999999
 31
0.0
  0
LINE
  5
166
330
1E
100
AcDbEntity
  8
0
100
AcDbLine
 10
89.0
 20
715.2605
 30
0.0
 11
89.0
 21
722.4015
 31
0.0
  0
LINE
  5
167
330
1E
100
AcDbEntity
  8
0
100
AcDbLine
 10
89.0
 20
715.2605
 30
0.0
 11
89.0
 21
706.7174999999999
 31
0.0
  0
LINE
  5
168
330
1E
100
AcDbEntity
  8
0
100
AcDbLine
 10
58.0
 20
723.0644999999999
 30
0.0
 11
58.0
 21
688.0644999999999
 31
0.0
  0
LINE
  5
169
330
1E
100
AcDbEntity
  8
0
100
AcDbLine
 10
58.0
 20
723.0644999999999
 30
0.0
 11
61.0
 21
723.0644999999999
 31
0.0
  0
LINE
  5
16A
330
1E
100
AcDbEntity
  8
0
100
AcDbLine
 10
58.0
 20
723.0644999999999
 30
0.0
 11
58.0
 21
722.1644999999999
 31
0.0
  0
LINE
  5
16B
330
1E
100
AcDbEntity
  8
0
100
AcDbLine
 10
61.0
 20
731.8814999999999
 30
0.0
 11
61.0
 21
740.0555
 31
0.0
  0
LINE
  5
16C
330
1E
100
AcDbEntity
  8
0
100
AcDbLine
 10
61.0
 20
731.8814999999999
 30
0.0
 11
61.0
 21
722.4015
 31
0.0
  0
LINE
  5
16D
330
1E
100
AcDbEntity
  8
0
100
AcDbLine
 10
89.0
 20
723.0644999999999
 30
0.0
 11
92.0
 21
723.0644999999999
 31
0.0
  0
LINE
  5
16E
330
1E
100
AcDbEntity
  8
0
100
AcDbLine
 10
61.0
 20
740.0555
 30
0.0
 11
61.0
 21
747.7694999999999
 31
0.0
  0
LINE
  5
16F
330
1E
100
AcDbEntity
  8
0
100
AcDbLine
 10
61.0
 20
740.0555
 30
0.0
 11
61.0
 21
731.8814999999999
 31
0.0
  0
LINE
  5
170
330
1E
100
AcDbEntity
  8
0
100
AcDbLine
 10
89.0
 20
722.4015
 30
0.0
 11
89.0
 21
731.8814999999999
 31
0.0
  0
LINE
  5
171
330
1E
100
AcDbEntity
  8
0
100
AcDbLine
 10
89.0
 20
722.4015
 30
0.0
 11
89.0
 21
715.2605
 31
0.0
  0
LINE
  5
172
330
1E
100
AcDbEntity
  8
0
100
AcDbLine
 10
89.0
 20
731.8814999999999
 30
0.0
 11
89.0
 21
740.0555
 31
0.0
  0
LINE
  5
173
330
1E
100
AcDbEntity
  8
0
100
AcDbLine
 10
89.0
 20
731.8814999999999
 30
0.0
 11
89.0
 21
722.4015
 31
0.0
  0
LINE
  5
174
330
1E
100
AcDbEntity
  8
0
100
AcDbLine
 10
61.0
 20
747.7694999999999
 30
0.0
 11
61.0
 21
754.8875
 31
0.0
  0
LINE
  5
175
330
1E
100
AcDbEntity
  8
0
100
AcDbLine
 10
61.0
 20
747.7694999999999
 30
0.0
 11
61.0
 21
740.0555
 31
0.0
  0
LINE
  5
176
330
1E
100
AcDbEntity
  8
0
100
AcDbLine
 10
61.0
 20
754.8875
 30
0.0
 11
61.0
 21
761.3724999999999
 31
0.0
  0
LINE
  5
177
330
1E
100
AcDbEntity
  8
0
100
AcDbLine
 10
61.0
 20
754.8875
 30
0.0
 11
61.0
 21
747.7694999999999
 31
0.0
  0
LINE
  5
178
330
1E
100
AcDbEntity
  8
0
100
AcDbLine
 10
89.0
 20
740.0555
 30
0.0
 11
89.0
 21
747.7694999999999
 31
0.0
  0
LINE
  5
179
330
1E
100
AcDbEntity
  8
0
100
AcDbLine
 10
89.0
 20
740.0555
 30
0.0
 11
89.0
 21
731.8814999999999
 31
0.0
  0
LINE
  5
17A
330
1E
100
AcDbEntity
  8
0
100
AcDbLine
 10
89.0
 20
747.7694999999999
 30
0.0
 11
89.0
 21
754.8875
 31
0.0
  0
LINE
  5
17B
330
1E
100
AcDbEntity
  8
0
100
AcDbLine
 10
89.0
 20
747.7694999999999
 30
0.0
 11
89.0
 21
740.0555
 31
0.0
  0
LINE
  5
17C
330
1E
100
AcDbEntity
  8
0
100
AcDbLine
 10
61.0
 20
764.9966204819279
 30
0.0
 11
61.0
 21
761.3724999999999
 31
0.0
  0
LINE
  5
17D
330
1E
100
AcDbEntity
  8
0
100
AcDbLine
 10
74.0
 20
758.6604999999999
 30
0.0
 11
74.0
 21
758.9595
 31
0.0
  0
LINE
  5
17E
330
1E
100
AcDbEntity
  8
0
100
AcDbLine
 10
74.0
 20
758.6604999999999
 30
0.0
 11
76.0
 21
758.6604999999999
 31
0.0
  0
LINE
  5
17F
330
1E
100
AcDbEntity
  8
0
100
AcDbLine
 10
74.0
 20
758.6604999999999
 30
0.0
 11
74.0
 21
758.9084999999999
 31
0.0
  0
LINE
  5
180
330
1E
100
AcDbEntity
  8
0
100
AcDbLine
 10
74.0
 20
758.9084999999999
 30
0.0
 11
74.0
 21
758.6604999999999
 31
0.0
  0
LINE
  5
181
330
1E
100
AcDbEntity
  8
0
100
AcDbLine
 10
74.0
 20
758.9084999999999
 30
0.0
 11
74.0
 21
759.4974999999999
 31
0.0
  0
LINE
  5
182
330
1E
100
AcDbEntity
  8
0
100
AcDbLine
 10
76.0
 20
758.6604999999999
 30
0.0
 11
76.0
 21
758.9084999999999
 31
0.0
  0
LINE
  5
183
330
1E
100
AcDbEntity
  8
0
100
AcDbLine
 10
74.0
 20
758.9595
 30
0.0
 11
74.0
 21
759.7364999999999
 31
0.0
  0
LINE
  5
184
330
1E
100
AcDbEntity
  8
0
100
AcDbLine
 10
74.0
 20
758.9595
 30
0.0
 11
74.0
 21
758.6604999999999
 31
0.0
  0
LINE
  5
185
330
1E
100
AcDbEntity
  8
0
100
AcDbLine
 10
74.0
 20
760.7445
 30
0.0
 11
74.0
 21
764.157676470588
 31
0.0
  0
LINE
  5
186
330
1E
100
AcDbEntity
  8
0
100
AcDbLine
 10
74.0
 20
760.7445
 30
0.0
 11
74.0
 21
759.7364999999999
 31
0.0
  0
LINE
  5
187
330
1E
100
AcDbEntity
  8
0
100
AcDbLine
 10
74.0
 20
759.7364999999999
 30
0.0
 11
74.0
 21
760.7445
 31
0.0
  0
LINE
  5
188
330
1E
100
AcDbEntity
  8
0
100
AcDbLine
 10
74.0
 20
759.7364999999999
 30
0.0
 11
74.0
 21
758.9595
 31
0.0
  0
LINE
  5
189
330
1E
100
AcDbEntity
  8
0
100
AcDbLine
 10
74.0
 20
759.4974999999999
 30
0.0
 11
74.0
 21
758.9084999999999
 31
0.0
  0
LINE
  5
18A
330
1E
100
AcDbEntity
  8
0
100
AcDbLine
 10
74.0
 20
759.4974999999999
 30
0.0
 11
74.0
 21
761.3025
 31
0.0
  0
LINE
  5
18B
330
1E
100
AcDbEntity
  8
0
100
AcDbLine
 10
74.0
 20
761.3025
 30
0.0
 11
74.0
 21
759.4974999999999
 31
0.0
  0
LINE
  5
18C
330
1E
100
AcDbEntity
  8
0
100
AcDbLine
 10
74.0
 20
761.3025
 30
0.0
 11
74.0
 21
767.0525
 31
0.0
  0
LINE
  5
18D
330
1E
100
AcDbEntity
  8
0
100
AcDbLine
 10
76.0
 20
758.9084999999999
 30
0.0
 11
76.0
 21
759.4974999999999
 31
0.0
  0
LINE
  5
18E
330
1E
100
AcDbEntity
  8
0
100
AcDbLine
 10
76.0
 20
758.9084999999999
 30
0.0
 11
76.0
 21
758.6604999999999
 31
0.0
  0
LINE
  5
18F
330
1E
100
AcDbEntity
  8
0
100
AcDbLine
 10
76.0
 20
759.4974999999999
 30
0.0
 11
76.0
 21
761.3535
 31
0.0
  0
LINE
  5
190
330
1E
100
AcDbEntity
  8
0
100
AcDbLine
 10
76.0
 20
759.4974999999999
 30
0.0
 11
76.0
 21
758.9084999999999
 31
0.0
  0
LINE
  5
191
330
1E
100
AcDbEntity
  8
0
100
AcDbLine
 10
76.0
 20
761.3535
 30
0.0
 11
76.0
 21
764.6625
 31
0.0
  0
LINE
  5
192
330
1E
100
AcDbEntity
  8
0
100
AcDbLine
 10
76.0
 20
761.3535
 30
0.0
 11
76.0
 21
759.4974999999999
 31
0.0
  0
LINE
  5
193
330
1E
100
AcDbEntity
  8
0
100
AcDbLine
 10
83.49999999999999
 20
764.4664999999999
 30
0.0
 11
91.79999999999999
 21
765.2664999999999
 31
0.0
  0
LINE
  5
194
330
1E
100
AcDbEntity
  8
0
100
AcDbLine
 10
76.0
 20
764.157676470588
 30
0.0
 11
83.49999999999999
 21
764.4664999999999
 31
0.0
  0
LINE
  5
195
330
1E
100
AcDbEntity
  8
0
100
AcDbLine
 10
74.0
 20
764.6625
 30
0.0
 11
74.0
 21
765.396461038961
 31
0.0
  0
LINE
  5
196
330
1E
100
AcDbEntity
  8
0
100
AcDbLine
 10
74.0
 20
764.6625
 30
0.0
 11
74.0
 21
765.1074999999999
 31
0.0
  0
LINE
  5
197
330
1E
100
AcDbEntity
  8
0
100
AcDbLine
 10
76.0
 20
764.6625
 30
0.0
 11
76.0
 21
761.3535
 31
0.0
  0
LINE
  5
198
330
1E
100
AcDbEntity
  8
0
100
AcDbLine
 10
76.0
 20
764.6625
 30
0.0
 11
76.0
 21
765.1074999999999
 31
0.0
  0
LINE
  5
199
330
1E
100
AcDbEntity
  8
0
100
AcDbLine
 10
66.5
 20
764.4664999999999
 30
0.0
 11
74.0
 21
764.157676470588
 31
0.0
  0
LINE
  5
19A
330
1E
100
AcDbEntity
  8
0
100
AcDbLine
 10
61.0
 20
761.3724999999999
 30
0.0
 11
61.0
 21
764.9966204819279
 31
0.0
  0
LINE
  5
19B
330
1E
100
AcDbEntity
  8
0
100
AcDbLine
 10
61.0
 20
761.3724999999999
 30
0.0
 11
61.0
 21
754.8875
 31
0.0
  0
LINE
  5
19C
330
1E
100
AcDbEntity
  8
0
100
AcDbLine
 10
89.0
 20
754.8875
 30
0.0
 11
89.0
 21
761.3724999999999
 31
0.0
  0
LINE
  5
19D
330
1E
100
AcDbEntity
  8
0
100
AcDbLine
 10
89.0
 20
754.8875
 30
0.0
 11
89.0
 21
747.7694999999999
 31
0.0
  0
LINE
  5
19E
330
1E
100
AcDbEntity
  8
0
100
AcDbLine
 10
90.0
 20
653.0644999999999
 30
0.0
 11
92.0
 21
653.0644999999999
 31
0.0
  0
LINE
  5
19F
330
1E
100
AcDbEntity
  8
0
100
AcDbLine
 10
90.0
 20
688.0644999999999
 30
0.0
 11
90.0
 21
678.0644999999999
 31
0.0
  0
LINE
  5
1A1
330
1E
100
AcDbEntity
  8
0
100
AcDbLine
 10
90.0
 20
698.0644999999999
 30
0.0
 11
90.0
 21
688.0644999999999
 31
0.0
  0
LINE
  5
1A2
330
1E
100
AcDbEntity
  8
0
100
AcDbLine
 10
92.0
 20
688.0644999999999
 30
0.0
 11
92.0
 21
677.6584999999999
 31
0.0
  0
LINE
  5
1A3
330
1E
100
AcDbEntity
  8
0
100
AcDbLine
 10
92.0
 20
688.0644999999999
 30
0.0
 11
92.0
 21
698.4704999999999
 31
0.0
  0
LINE
  5
1A4
330
1E
100
AcDbEntity
  8
0
100
AcDbLine
 10
92.0
 20
677.6584999999999
 30
0.0
 11
92.0
 21
671.0644999999999
 31
0.0
  0
LINE
  5
1A5
330
1E
100
AcDbEntity
  8
0
100
AcDbLine
 10
92.0
 20
677.6584999999999
 30
0.0
 11
92.0
 21
688.0644999999999
 31
0.0
  0
LINE
  5
1A6
330
1E
100
AcDbEntity
  8
0
100
AcDbLine
 10
92.0
 20
671.0644999999999
 30
0.0
 11
92.0
 21
664.5645
 31
0.0
  0
LINE
  5
1A7
330
1E
100
AcDbEntity
  8
0
100
AcDbLine
 10
92.0
 20
671.0644999999999
 30
0.0
 11
92.0
 21
677.6584999999999
 31
0.0
  0
LINE
  5
1A8
330
1E
100
AcDbEntity
  8
0
100
AcDbLine
 10
92.0
 20
664.5645
 30
0.0
 11
92.0
 21
660.2644999999999
 31
0.0
  0
LINE
  5
1A9
330
1E
100
AcDbEntity
  8
0
100
AcDbLine
 10
92.0
 20
664.5645
 30
0.0
 11
92.0
 21
671.0644999999999
 31
0.0
  0
LINE
  5
1AA
330
1E
100
AcDbEntity
  8
0
100
AcDbLine
 10
92.0
 20
660.2644999999999
 30
0.0
 11
92.0
 21
656.9645
 31
0.0
  0
LINE
  5
1AB
330
1E
100
AcDbEntity
  8
0
100
AcDbLine
 10
92.0
 20
660.2644999999999
 30
0.0
 11
92.0
 21
664.5645
 31
0.0
  0
LINE
  5
1AC
330
1E
100
AcDbEntity
  8
0
100
AcDbLine
 10
92.0
 20
656.9645
 30
0.0
 11
92.0
 21
655.0644999999999
 31
0.0
  0
LINE
  5
1AD
330
1E
100
AcDbEntity
  8
0
100
AcDbLine
 10
92.0
 20
656.9645
 30
0.0
 11
92.0
 21
660.2644999999999
 31
0.0
  0
LINE
  5
1AE
330
1E
100
AcDbEntity
  8
0
100
AcDbLine
 10
92.0
 20
655.0644999999999
 30
0.0
 11
92.0
 21
653.9645
 31
0.0
  0
LINE
  5
1AF
330
1E
100
AcDbEntity
  8
0
100
AcDbLine
 10
92.0
 20
655.0644999999999
 30
0.0
 11
92.0
 21
656.9645
 31
0.0
  0
LINE
  5
1B0
330
1E
100
AcDbEntity
  8
0
100
AcDbLine
 10
92.0
 20
653.9645
 30
0.0
 11
92.0
 21
653.0644999999999
 31
0.0
  0
LINE
  5
1B1
330
1E
100
AcDbEntity
  8
0
100
AcDbLine
 10
92.0
 20
653.9645
 30
0.0
 11
92.0
 21
655.0644999999999
 31
0.0
  0
LINE
  5
1B2
330
1E
100
AcDbEntity
  8
0
100
AcDbLine
 10
92.0
 20
653.0644999999999
 30
0.0
 11
92.0
 21
653.9645
 31
0.0
  0
LINE
  5
1B3
330
1E
100
AcDbEntity
  8
0
100
AcDbLine
 10
92.0
 20
698.4704999999999
 30
0.0
 11
92.0
 21
688.0644999999999
 31
0.0
  0
LINE
  5
1B4
330
1E
100
AcDbEntity
  8
0
100
AcDbLine
 10
92.0
 20
698.4704999999999
 30
0.0
 11
92.0
 21
705.0644999999999
 31
0.0
  0
LINE
  5
1B5
330
1E
100
AcDbEntity
  8
0
100
AcDbLine
 10
92.0
 20
705.0644999999999
 30
0.0
 11
92.0
 21
698.4704999999999
 31
0.0
  0
LINE
  5
1B6
330
1E
100
AcDbEntity
  8
0
100
AcDbLine
 10
92.0
 20
705.0644999999999
 30
0.0
 11
92.0
 21
711.5644999999999
 31
0.0
  0
LINE
  5
1B7
330
1E
100
AcDbEntity
  8
0
100
AcDbLine
 10
92.0
 20
711.5644999999999
 30
0.0
 11
92.0
 21
705.0644999999999
 31
0.0
  0
LINE
  5
1B8
330
1E
100
AcDbEntity
  8
0
100
AcDbLine
 10
92.0
 20
711.5644999999999
 30
0.0
 11
92.0
 21
715.8644999999999
 31
0.0
  0
LINE
  5
1B9
330
1E
100
AcDbEntity
  8
0
100
AcDbLine
 10
92.0
 20
715.8644999999999
 30
0.0
 11
92.0
 21
711.5644999999999
 31
0.0
  0
LINE
  5
1BA
330
1E
100
AcDbEntity
  8
0
100
AcDbLine
 10
92.0
 20
715.8644999999999
 30
0.0
 11
92.0
 21
719.1645
 31
0.0
  0
LINE
  5
1BB
330
1E
100
AcDbEntity
  8
0
100
AcDbLine
 10
92.0
 20
719.1645
 30
0.0
 11
92.0
 21
715.8644999999999
 31
0.0
  0
LINE
  5
1BC
330
1E
100
AcDbEntity
  8
0
100
AcDbLine
 10
92.0
 20
719.1645
 30
0.0
 11
92.0
 21
721.0644999999999
 31
0.0
  0
LINE
  5
1BD
330
1E
100
AcDbEntity
  8
0
100
AcDbLine
 10
92.0
 20
721.0644999999999
 30
0.0
 11
92.0
 21
719.1645
 31
0.0
  0
LINE
  5
1BE
330
1E
100
AcDbEntity
  8
0
100
AcDbLine
 10
92.0
 20
721.0644999999999
 30
0.0
 11
92.0
 21
722.1644999999999
 31
0.0
  0
LINE
  5
1BF
330
1E
100
AcDbEntity
  8
0
100
AcDbLine
 10
92.0
 20
722.1644999999999
 30
0.0
 11
92.0
 21
721.0644999999999
 31
0.0
  0
LINE
  5
1C0
330
1E
100
AcDbEntity
  8
0
100
AcDbLine
 10
92.0
 20
722.1644999999999
 30
0.0
 11
92.0
 21
723.0644999999999
 31
0.0
  0
LINE
  5
1C1
330
1E
100
AcDbEntity
  8
0
100
AcDbLine
 10
92.0
 20
723.0644999999999
 30
0.0
 11
92.0
 21
722.1644999999999
 31
0.0
  0
LINE
  5
1C2
330
1E
100
AcDbEntity
  8
0
100
AcDbLine
 10
89.0
 20
761.3724999999999
 30
0.0
 11
89.0
 21
764.9966204819279
 31
0.0
  0
LINE
  5
1C3
330
1E
100
AcDbEntity
  8
0
100
AcDbLine
 10
89.0
 20
761.3724999999999
 30
0.0
 11
89.0
 21
754.8875
 31
0.0
  0
LINE
  5
1C4
330
1E
100
AcDbEntity
  8
0
100
AcDbLine
 10
76.0
 20
765.1074999999999
 30
0.0
 11
76.0
 21
767.0575
 31
0.0
  0
LINE
  5
1C5
330
1E
100
AcDbEntity
  8
0
100
AcDbLine
 10
76.0
 20
765.1074999999999
 30
0.0
 11
76.0
 21
764.6625
 31
0.0
  0
LINE
  5
1C6
330
1E
100
AcDbEntity
  8
0
100
AcDbLine
 10
74.0
 20
765.1074999999999
 30
0.0
 11
74.0
 21
764.6625
 31
0.0
  0
LINE
  5
1C7
330
1E
100
AcDbEntity
  8
0
100
AcDbLine
 10
74.0
 20
765.1074999999999
 30
0.0
 11
74.0
 21
767.0575
 31
0.0
  0
LINE
  5
1C8
330
1E
100
AcDbEntity
  8
0
100
AcDbLine
 10
74.0
 20
765.1074999999999
 30
0.0
 11
76.0
 21
765.1074999999999
 31
0.0
  0
LINE
  5
1C9
330
1E
100
AcDbEntity
  8
0
100
AcDbLine
 10
91.79999999999999
 20
765.2664999999999
 30
0.0
 11
99.8
 21
766.6665
 31
0.0
  0
LINE
  5
1CA
330
1E
100
AcDbEntity
  8
0
100
AcDbLine
 10
46.307
 20
768.3724999999999
 30
0.0
 11
47.2625
 21
768.6894999999999
 31
0.0
  0
LINE
  5
1CB
330
1E
100
AcDbEntity
  8
0
100
AcDbLine
 10
35.2556
 20
773.1314999999999
 30
0.0
 11
35.4140114503382
 21
773.8388838254559
 31
0.0
  0
LINE
  5
1CC
330
1E
100
AcDbEntity
  8
0
100
AcDbLine
 10
33.9043
 20
772.9664999999999
 30
0.0
 11
35.2556
 21
773.1314999999999
 31
0.0
  0
LINE
  5
1CD
330
1E
100
AcDbEntity
  8
0
100
AcDbLine
 10
33.8414
 20
773.8385
 30
0.0
 11
35.2556
 21
773.1314999999999
 31
0.0
  0
LINE
  5
1CE
330
1E
100
AcDbEntity
  8
0
100
AcDbLine
 10
33.8414
 20
773.8385
 30
0.0
 11
33.9490752294664
 21
774.3195801239819
 31
0.0
  0
LINE
  5
1CF
330
1E
100
AcDbEntity
  8
0
100
AcDbLine
 10
32.4901
 20
773.6735
 30
0.0
 11
32.6451291978186
 21
774.36615202477
 31
0.0
  0
LINE
  5
1D0
330
1E
100
AcDbEntity
  8
0
100
AcDbLine
 10
32.4901
 20
773.6735
 30
0.0
 11
33.9043
 21
772.9664999999999
 31
0.0
  0
LINE
  5
1D1
330
1E
100
AcDbEntity
  8
0
100
AcDbLine
 10
32.4901
 20
773.6735
 30
0.0
 11
33.8414
 21
773.8385
 31
0.0
  0
LINE
  5
1D2
330
1E
100
AcDbEntity
  8
0
100
AcDbLine
 10
29.1
 20
773.6665
 30
0.0
 11
35.5
 21
770.8664999999999
 31
0.0
  0
LINE
  5
1D3
330
1E
100
AcDbEntity
  8
0
100
AcDbLine
 10
45.5304
 20
769.1894999999999
 30
0.0
 11
47.2625
 21
768.6894999999999
 31
0.0
  0
LINE
  5
1D4
330
1E
100
AcDbEntity
  8
0
100
AcDbLine
 10
45.5304
 20
769.1894999999999
 30
0.0
 11
45.8254
 21
771.0995
 31
0.0
  0
LINE
  5
1D5
330
1E
100
AcDbEntity
  8
0
100
AcDbLine
 10
44.57489999999999
 20
768.8724999999999
 30
0.0
 11
44.68705710932529
 21
769.598803747613
 31
0.0
  0
LINE
  5
1D6
330
1E
100
AcDbEntity
  8
0
100
AcDbLine
 10
44.57489999999999
 20
768.8724999999999
 30
0.0
 11
46.307
 21
768.3724999999999
 31
0.0
  0
LINE
  5
1D7
330
1E
100
AcDbEntity
  8
0
100
AcDbLine
 10
44.57489999999999
 20
768.8724999999999
 30
0.0
 11
45.5304
 21
769.1894999999999
 31
0.0
  0
LINE
  5
1D8
330
1E
100
AcDbEntity
  8
0
100
AcDbLine
 10
47.2625
 20
768.6894999999999
 30
0.0
 11
47.37130869306089
 21
769.393990182191
 31
0.0
  0
LINE
  5
1D9
330
1E
100
AcDbEntity
  8
0
100
AcDbLine
 10
48.1509
 20
773.1654999999999
 30
0.0
 11
48.27387857148
 21
774.0783812856969
 31
0.0
  0
LINE
  5
1DA
330
1E
100
AcDbEntity
  8
0
100
AcDbLine
 10
46.95929999999999
 20
772.7454999999999
 30
0.0
 11
48.1509
 21
773.1654999999999
 31
0.0
  0
LINE
  5
1DB
330
1E
100
AcDbEntity
  8
0
100
AcDbLine
 10
46.5641
 20
773.7745
 30
0.0
 11
48.1509
 21
773.1654999999999
 31
0.0
  0
LINE
  5
1DC
330
1E
100
AcDbEntity
  8
0
100
AcDbLine
 10
46.5641
 20
773.7745
 30
0.0
 11
46.685561096496
 21
774.6757568581849
 31
0.0
  0
LINE
  5
1DD
330
1E
100
AcDbEntity
  8
0
100
AcDbLine
 10
45.37259999999999
 20
773.3545
 30
0.0
 11
45.53493888623029
 21
774.559075282012
 31
0.0
  0
LINE
  5
1DE
330
1E
100
AcDbEntity
  8
0
100
AcDbLine
 10
45.37259999999999
 20
773.3545
 30
0.0
 11
46.95929999999999
 21
772.7454999999999
 31
0.0
  0
LINE
  5
1DF
330
1E
100
AcDbEntity
  8
0
100
AcDbLine
 10
45.37259999999999
 20
773.3545
 30
0.0
 11
46.5641
 21
773.7745
 31
0.0
  0
LINE
  5
1E0
330
1E
100
AcDbEntity
  8
0
100
AcDbLine
 10
35.5
 20
770.8664999999999
 30
0.0
 11
42.6
 21
768.4664999999999
 31
0.0
  0
LINE
  5
1E1
330
1E
100
AcDbEntity
  8
0
100
AcDbLine
 10
42.6
 20
768.4664999999999
 30
0.0
 11
50.2
 21
766.6665
 31
0.0
  0
LINE
  5
1E2
330
1E
100
AcDbEntity
  8
0
100
AcDbLine
 10
60.665
 20
765.5405
 30
0.0
 11
61.1596
 21
765.9525
 31
0.0
  0
LINE
  5
1E3
330
1E
100
AcDbEntity
  8
0
100
AcDbLine
 10
59.2278
 20
766.2115
 30
0.0
 11
61.1596
 21
765.9525
 31
0.0
  0
LINE
  5
1E4
330
1E
100
AcDbEntity
  8
0
100
AcDbLine
 10
59.2278
 20
766.2115
 30
0.0
 11
59.3805
 21
768.1515
 31
0.0
  0
LINE
  5
1E5
330
1E
100
AcDbEntity
  8
0
100
AcDbLine
 10
61.1596
 20
765.9525
 30
0.0
 11
61.2142356389455
 21
766.6461723792809
 31
0.0
  0
LINE
  5
1E6
330
1E
100
AcDbEntity
  8
0
100
AcDbLine
 10
58.73319999999999
 20
765.7994999999999
 30
0.0
 11
58.7931142970569
 21
766.5606901525239
 31
0.0
  0
LINE
  5
1E7
330
1E
100
AcDbEntity
  8
0
100
AcDbLine
 10
58.73319999999999
 20
765.7994999999999
 30
0.0
 11
60.665
 21
765.5405
 31
0.0
  0
LINE
  5
1E8
330
1E
100
AcDbEntity
  8
0
100
AcDbLine
 10
58.73319999999999
 20
765.7994999999999
 30
0.0
 11
59.2278
 21
766.2115
 31
0.0
  0
LINE
  5
1E9
330
1E
100
AcDbEntity
  8
0
100
AcDbLine
 10
88.8404
 20
765.9525
 30
0.0
 11
89.335
 21
765.5405
 31
0.0
  0
LINE
  5
1EA
330
1E
100
AcDbEntity
  8
0
100
AcDbLine
 10
88.8404
 20
765.9525
 30
0.0
 11
90.7722
 21
766.2115
 31
0.0
  0
LINE
  5
1EB
330
1E
100
AcDbEntity
  8
0
100
AcDbLine
 10
90.7722
 20
766.2115
 30
0.0
 11
91.2668
 21
765.7994999999999
 31
0.0
  0
LINE
  5
1EC
330
1E
100
AcDbEntity
  8
0
100
AcDbLine
 10
89.335
 20
765.5405
 30
0.0
 11
91.2668
 21
765.7994999999999
 31
0.0
  0
LINE
  5
1ED
330
1E
100
AcDbEntity
  8
0
100
AcDbLine
 10
88.78576436105449
 20
766.6461723792809
 30
0.0
 11
88.8404
 21
765.9525
 31
0.0
  0
LINE
  5
1EE
330
1E
100
AcDbEntity
  8
0
100
AcDbLine
 10
91.2068857029431
 20
766.5606901525239
 30
0.0
 11
91.2668
 21
765.7994999999999
 31
0.0
  0
LINE
  5
1EF
330
1E
100
AcDbEntity
  8
0
100
AcDbLine
 10
74.0
 20
765.396461038961
 30
0.0
 11
74.0
 21
764.6625
 31
0.0
  0
LINE
  5
1F0
330
1E
100
AcDbEntity
  8
0
100
AcDbLine
 10
57.7981
 20
769.7675
 30
0.0
 11
58.5471
 21
770.3155
 31
0.0
  0
LINE
  5
1F1
330
1E
100
AcDbEntity
  8
0
100
AcDbLine
 10
56.6993
 20
770.6974999999999
 30
0.0
 11
58.5471
 21
770.3155
 31
0.0
  0
LINE
  5
1F2
330
1E
100
AcDbEntity
  8
0
100
AcDbLine
 10
56.6993
 20
770.6974999999999
 30
0.0
 11
56.7790946810965
 21
771.6531097450239
 31
0.0
  0
LINE
  5
1F3
330
1E
100
AcDbEntity
  8
0
100
AcDbLine
 10
58.5471
 20
770.3155
 30
0.0
 11
58.6273073870106
 21
771.276052252319
 31
0.0
  0
LINE
  5
1F4
330
1E
100
AcDbEntity
  8
0
100
AcDbLine
 10
55.9503
 20
770.1495
 30
0.0
 11
56.0534765652231
 21
771.385127861788
 31
0.0
  0
LINE
  5
1F5
330
1E
100
AcDbEntity
  8
0
100
AcDbLine
 10
55.9503
 20
770.1495
 30
0.0
 11
57.7981
 21
769.7675
 31
0.0
  0
LINE
  5
1F6
330
1E
100
AcDbEntity
  8
0
100
AcDbLine
 10
55.9503
 20
770.1495
 30
0.0
 11
56.6993
 21
770.6974999999999
 31
0.0
  0
LINE
  5
1F7
330
1E
100
AcDbEntity
  8
0
100
AcDbLine
 10
68.08159999999999
 20
769.0375
 30
0.0
 11
70.0645
 21
768.9075
 31
0.0
  0
LINE
  5
1F8
330
1E
100
AcDbEntity
  8
0
100
AcDbLine
 10
68.08159999999999
 20
769.0375
 30
0.0
 11
68.1088711552405
 21
770.001893366884
 31
0.0
  0
LINE
  5
1F9
330
1E
100
AcDbEntity
  8
0
100
AcDbLine
 10
70.0645
 20
768.9075
 30
0.0
 11
70.0916463845634
 21
769.8674810853999
 31
0.0
  0
LINE
  5
1FA
330
1E
100
AcDbEntity
  8
0
100
AcDbLine
 10
69.8091
 20
768.2935
 30
0.0
 11
70.0645
 21
768.9075
 31
0.0
  0
LINE
  5
1FB
330
1E
100
AcDbEntity
  8
0
100
AcDbLine
 10
67.82618000000001
 20
768.4235
 30
0.0
 11
67.8613698570227
 21
769.6686190327209
 31
0.0
  0
LINE
  5
1FC
330
1E
100
AcDbEntity
  8
0
100
AcDbLine
 10
67.82618000000001
 20
768.4235
 30
0.0
 11
69.8091
 21
768.2935
 31
0.0
  0
LINE
  5
1FD
330
1E
100
AcDbEntity
  8
0
100
AcDbLine
 10
67.82618000000001
 20
768.4235
 30
0.0
 11
68.08159999999999
 21
769.0375
 31
0.0
  0
LINE
  5
1FE
330
1E
100
AcDbEntity
  8
0
100
AcDbLine
 10
66.72539
 20
772.7165
 30
0.0
 11
67.23911
 21
773.4625
 31
0.0
  0
LINE
  5
1FF
330
1E
100
AcDbEntity
  8
0
100
AcDbLine
 10
64.7935
 20
772.9754999999999
 30
0.0
 11
64.8016997379323
 21
773.21233834248
 31
0.0
  0
LINE
  5
200
330
1E
100
AcDbEntity
  8
0
100
AcDbLine
 10
64.7935
 20
772.9754999999999
 30
0.0
 11
66.72539
 21
772.7165
 31
0.0
  0
LINE
  5
201
330
1E
100
AcDbEntity
  8
0
100
AcDbLine
 10
64.7935
 20
772.9754999999999
 30
0.0
 11
65.30726
 21
773.7214999999999
 31
0.0
  0
LINE
  5
202
330
1E
100
AcDbEntity
  8
0
100
AcDbLine
 10
67.23911
 20
773.4625
 30
0.0
 11
67.2590519115998
 21
774.0390806751669
 31
0.0
  0
LINE
  5
203
330
1E
100
AcDbEntity
  8
0
100
AcDbLine
 10
74.0
 20
773.0175
 30
0.0
 11
74.0
 21
772.2374999999999
 31
0.0
  0
LINE
  5
204
330
1E
100
AcDbEntity
  8
0
100
AcDbLine
 10
74.0
 20
773.0175
 30
0.0
 11
74.0
 21
774.8595
 31
0.0
  0
LINE
  5
205
330
1E
100
AcDbEntity
  8
0
100
AcDbLine
 10
74.0
 20
773.0175
 30
0.0
 11
76.0
 21
773.0175
 31
0.0
  0
LINE
  5
206
330
1E
100
AcDbEntity
  8
0
100
AcDbLine
 10
74.0
 20
772.5013163265311
 30
0.0
 11
74.0
 21
772.2374999999999
 31
0.0
  0
LINE
  5
207
330
1E
100
AcDbEntity
  8
0
100
AcDbLine
 10
74.0
 20
772.2374999999999
 30
0.0
 11
76.0
 21
772.2374999999999
 31
0.0
  0
LINE
  5
208
330
1E
100
AcDbEntity
  8
0
100
AcDbLine
 10
74.0
 20
772.2374999999999
 30
0.0
 11
74.0
 21
772.5013163265311
 31
0.0
  0
LINE
  5
209
330
1E
100
AcDbEntity
  8
0
100
AcDbLine
 10
74.0
 20
772.2374999999999
 30
0.0
 11
74.0
 21
773.0175
 31
0.0
  0
LINE
  5
20A
330
1E
100
AcDbEntity
  8
0
100
AcDbLine
 10
81.9184
 20
769.0375
 30
0.0
 11
82.1738
 21
768.4235
 31
0.0
  0
LINE
  5
20B
330
1E
100
AcDbEntity
  8
0
100
AcDbLine
 10
79.9355
 20
768.9075
 30
0.0
 11
80.1909
 21
768.2935
 31
0.0
  0
LINE
  5
20C
330
1E
100
AcDbEntity
  8
0
100
AcDbLine
 10
79.9355
 20
768.9075
 30
0.0
 11
81.9184
 21
769.0375
 31
0.0
  0
LINE
  5
20D
330
1E
100
AcDbEntity
  8
0
100
AcDbLine
 10
80.1909
 20
768.2935
 30
0.0
 11
82.1738
 21
768.4235
 31
0.0
  0
LINE
  5
20E
330
1E
100
AcDbEntity
  8
0
100
AcDbLine
 10
90.61950000000001
 20
768.1515
 30
0.0
 11
90.7722
 21
766.2115
 31
0.0
  0
LINE
  5
20F
330
1E
100
AcDbEntity
  8
0
100
AcDbLine
 10
82.13859025348471
 20
769.6686267901781
 30
0.0
 11
82.1738
 21
768.4235
 31
0.0
  0
LINE
  5
210
330
1E
100
AcDbEntity
  8
0
100
AcDbLine
 10
81.89112884475951
 20
770.001893366884
 30
0.0
 11
81.9184
 21
769.0375
 31
0.0
  0
LINE
  5
211
330
1E
100
AcDbEntity
  8
0
100
AcDbLine
 10
79.90835361543649
 20
769.8674810853999
 30
0.0
 11
79.9355
 21
768.9075
 31
0.0
  0
LINE
  5
212
330
1E
100
AcDbEntity
  8
0
100
AcDbLine
 10
76.0
 20
772.2374999999999
 30
0.0
 11
76.0
 21
773.0175
 31
0.0
  0
LINE
  5
213
330
1E
100
AcDbEntity
  8
0
100
AcDbLine
 10
76.0
 20
773.0175
 30
0.0
 11
76.0
 21
774.8595
 31
0.0
  0
LINE
  5
214
330
1E
100
AcDbEntity
  8
0
100
AcDbLine
 10
76.0
 20
773.0175
 30
0.0
 11
76.0
 21
772.2374999999999
 31
0.0
  0
LINE
  5
215
330
1E
100
AcDbEntity
  8
0
100
AcDbLine
 10
82.76090000000001
 20
773.4625
 30
0.0
 11
83.2746
 21
772.7165
 31
0.0
  0
LINE
  5
216
330
1E
100
AcDbEntity
  8
0
100
AcDbLine
 10
82.76090000000001
 20
773.4625
 30
0.0
 11
84.69269999999999
 21
773.7214999999999
 31
0.0
  0
LINE
  5
217
330
1E
100
AcDbEntity
  8
0
100
AcDbLine
 10
83.2746
 20
772.7165
 30
0.0
 11
85.20650000000001
 21
772.9754999999999
 31
0.0
  0
LINE
  5
218
330
1E
100
AcDbEntity
  8
0
100
AcDbLine
 10
85.1983002620677
 20
773.21233834248
 30
0.0
 11
85.20650000000001
 21
772.9754999999999
 31
0.0
  0
LINE
  5
219
330
1E
100
AcDbEntity
  8
0
100
AcDbLine
 10
91.37269261298941
 20
771.276052252319
 30
0.0
 11
91.45290000000001
 21
770.3155
 31
0.0
  0
LINE
  5
21A
330
1E
100
AcDbEntity
  8
0
100
AcDbLine
 10
93.3007
 20
770.6974999999999
 30
0.0
 11
94.0497
 21
770.1495
 31
0.0
  0
LINE
  5
21B
330
1E
100
AcDbEntity
  8
0
100
AcDbLine
 10
93.22090531890351
 20
771.6531097450239
 30
0.0
 11
93.3007
 21
770.6974999999999
 31
0.0
  0
LINE
  5
21C
330
1E
100
AcDbEntity
  8
0
100
AcDbLine
 10
91.45290000000001
 20
770.3155
 30
0.0
 11
92.2019
 21
769.7675
 31
0.0
  0
LINE
  5
21D
330
1E
100
AcDbEntity
  8
0
100
AcDbLine
 10
91.45290000000001
 20
770.3155
 30
0.0
 11
93.3007
 21
770.6974999999999
 31
0.0
  0
LINE
  5
21E
330
1E
100
AcDbEntity
  8
0
100
AcDbLine
 10
92.2019
 20
769.7675
 30
0.0
 11
94.0497
 21
770.1495
 31
0.0
  0
LINE
  5
21F
330
1E
100
AcDbEntity
  8
0
100
AcDbLine
 10
93.946523434777
 20
771.385127861788
 30
0.0
 11
94.0497
 21
770.1495
 31
0.0
  0
LINE
  5
220
330
1E
100
AcDbEntity
  8
0
100
AcDbLine
 10
76.0
 20
767.0575
 30
0.0
 11
76.0
 21
765.1074999999999
 31
0.0
  0
LINE
  5
221
330
1E
100
AcDbEntity
  8
0
100
AcDbLine
 10
74.0
 20
767.0575
 30
0.0
 11
74.0
 21
765.1074999999999
 31
0.0
  0
LINE
  5
222
330
1E
100
AcDbEntity
  8
0
100
AcDbLine
 10
74.0
 20
767.0525
 30
0.0
 11
74.0
 21
761.3025
 31
0.0
  0
LINE
  5
223
330
1E
100
AcDbEntity
  8
0
100
AcDbLine
 10
103.6929999999999
 20
768.3724999999999
 30
0.0
 11
105.4251
 21
768.8724999999999
 31
0.0
  0
LINE
  5
224
330
1E
100
AcDbEntity
  8
0
100
AcDbLine
 10
104.4696
 20
769.1894999999999
 30
0.0
 11
105.4251
 21
768.8724999999999
 31
0.0
  0
LINE
  5
225
330
1E
100
AcDbEntity
  8
0
100
AcDbLine
 10
104.1746
 20
771.0995
 30
0.0
 11
104.4696
 21
769.1894999999999
 31
0.0
  0
LINE
  5
226
330
1E
100
AcDbEntity
  8
0
100
AcDbLine
 10
102.6286913069389
 20
769.393990182191
 30
0.0
 11
102.7374999999999
 21
768.6894999999999
 31
0.0
  0
LINE
  5
227
330
1E
100
AcDbEntity
  8
0
100
AcDbLine
 10
102.7374999999999
 20
768.6894999999999
 30
0.0
 11
103.6929999999999
 21
768.3724999999999
 31
0.0
  0
LINE
  5
228
330
1E
100
AcDbEntity
  8
0
100
AcDbLine
 10
102.7374999999999
 20
768.6894999999999
 30
0.0
 11
104.4696
 21
769.1894999999999
 31
0.0
  0
LINE
  5
229
330
1E
100
AcDbEntity
  8
0
100
AcDbLine
 10
105.3129428906749
 20
769.598803747613
 30
0.0
 11
105.4251
 21
768.8724999999999
 31
0.0
  0
LINE
  5
22A
330
1E
100
AcDbEntity
  8
0
100
AcDbLine
 10
101.8491
 20
773.1654999999999
 30
0.0
 11
103.0407
 21
772.7454999999999
 31
0.0
  0
LINE
  5
22B
330
1E
100
AcDbEntity
  8
0
100
AcDbLine
 10
101.8491
 20
773.1654999999999
 30
0.0
 11
103.4359
 21
773.7745
 31
0.0
  0
LINE
  5
22C
330
1E
100
AcDbEntity
  8
0
100
AcDbLine
 10
103.0407
 20
772.7454999999999
 30
0.0
 11
104.6273999999999
 21
773.3545
 31
0.0
  0
LINE
  5
22D
330
1E
100
AcDbEntity
  8
0
100
AcDbLine
 10
114.7443999999999
 20
773.1314999999999
 30
0.0
 11
116.0957
 21
772.9664999999999
 31
0.0
  0
LINE
  5
22E
330
1E
100
AcDbEntity
  8
0
100
AcDbLine
 10
114.7443999999999
 20
773.1314999999999
 30
0.0
 11
116.1586
 21
773.8385
 31
0.0
  0
LINE
  5
22F
330
1E
100
AcDbEntity
  8
0
100
AcDbLine
 10
116.0957
 20
772.9664999999999
 30
0.0
 11
117.5099
 21
773.6735
 31
0.0
  0
LINE
  5
230
330
1E
100
AcDbEntity
  8
0
100
AcDbLine
 10
114.5
 20
770.8664999999999
 30
0.0
 11
120.9
 21
773.6665
 31
0.0
  0
LINE
  5
231
330
1E
100
AcDbEntity
  8
0
100
AcDbLine
 10
107.4
 20
768.4664999999999
 30
0.0
 11
114.5
 21
770.8664999999999
 31
0.0
  0
LINE
  5
232
330
1E
100
AcDbEntity
  8
0
100
AcDbLine
 10
99.8
 20
766.6665
 30
0.0
 11
107.4
 21
768.4664999999999
 31
0.0
  0
LINE
  5
233
330
1E
100
AcDbEntity
  8
0
100
AcDbLine
 10
65.30726
 20
773.7214999999999
 30
0.0
 11
67.23911
 21
773.4625
 31
0.0
  0
LINE
  5
234
330
1E
100
AcDbEntity
  8
0
100
AcDbLine
 10
65.30726
 20
773.7214999999999
 30
0.0
 11
65.37081999999999
 21
775.5584999999999
 31
0.0
  0
LINE
  5
235
330
1E
100
AcDbEntity
  8
0
100
AcDbLine
 10
84.69269999999999
 20
773.7214999999999
 30
0.0
 11
85.20650000000001
 21
772.9754999999999
 31
0.0
  0
LINE
  5
236
330
1E
100
AcDbEntity
  8
0
100
AcDbLine
 10
82.7409486877582
 20
774.039080375793
 30
0.0
 11
82.76090000000001
 21
773.4625
 31
0.0
  0
LINE
  5
237
330
1E
100
AcDbEntity
  8
0
100
AcDbLine
 10
103.4359
 20
773.7745
 30
0.0
 11
104.6273999999999
 21
773.3545
 31
0.0
  0
LINE
  5
238
330
1E
100
AcDbEntity
  8
0
100
AcDbLine
 10
58.0147
 20
774.3795
 30
0.0
 11
59.0071
 21
775.0265
 31
0.0
  0
LINE
  5
239
330
1E
100
AcDbEntity
  8
0
100
AcDbLine
 10
57.2751
 20
775.5265
 30
0.0
 11
59.0071
 21
775.0265
 31
0.0
  0
LINE
  5
23A
330
1E
100
AcDbEntity
  8
0
100
AcDbLine
 10
57.2751
 20
775.5265
 30
0.0
 11
57.3895169939
 21
777.226915422373
 31
0.0
  0
LINE
  5
23B
330
1E
100
AcDbEntity
  8
0
100
AcDbLine
 10
59.0071
 20
775.0265
 30
0.0
 11
59.05006343901559
 21
775.665003877879
 31
0.0
  0
LINE
  5
23C
330
1E
100
AcDbEntity
  8
0
100
AcDbLine
 10
56.2826
 20
774.8795
 30
0.0
 11
56.4054
 21
776.7045
 31
0.0
  0
LINE
  5
23D
330
1E
100
AcDbEntity
  8
0
100
AcDbLine
 10
56.2826
 20
774.8795
 30
0.0
 11
58.0147
 21
774.3795
 31
0.0
  0
LINE
  5
23E
330
1E
100
AcDbEntity
  8
0
100
AcDbLine
 10
56.2826
 20
774.8795
 30
0.0
 11
57.2751
 21
775.5265
 31
0.0
  0
LINE
  5
23F
330
1E
100
AcDbEntity
  8
0
100
AcDbLine
 10
91.98529999999999
 20
774.3795
 30
0.0
 11
93.7174
 21
774.8795
 31
0.0
  0
LINE
  5
240
330
1E
100
AcDbEntity
  8
0
100
AcDbLine
 10
92.72490000000001
 20
775.5265
 30
0.0
 11
93.7174
 21
774.8795
 31
0.0
  0
LINE
  5
241
330
1E
100
AcDbEntity
  8
0
100
AcDbLine
 10
90.99290000000001
 20
775.0265
 30
0.0
 11
91.98529999999999
 21
774.3795
 31
0.0
  0
LINE
  5
242
330
1E
100
AcDbEntity
  8
0
100
AcDbLine
 10
90.99290000000001
 20
775.0265
 30
0.0
 11
92.72490000000001
 21
775.5265
 31
0.0
  0
LINE
  5
243
330
1E
100
AcDbEntity
  8
0
100
AcDbLine
 10
76.0
 20
774.8595
 30
0.0
 11
76.0
 21
773.0175
 31
0.0
  0
LINE
  5
244
330
1E
100
AcDbEntity
  8
0
100
AcDbLine
 10
74.0
 20
774.8595
 30
0.0
 11
74.0
 21
773.0175
 31
0.0
  0
LINE
  5
245
330
1E
100
AcDbEntity
  8
0
100
AcDbLine
 10
90.9499365609844
 20
775.665003877879
 30
0.0
 11
90.99290000000001
 21
775.0265
 31
0.0
  0
LINE
  5
246
330
1E
100
AcDbEntity
  8
0
100
AcDbLine
 10
84.6292
 20
775.5584999999999
 30
0.0
 11
84.69269999999999
 21
773.7214999999999
 31
0.0
  0
LINE
  5
247
330
1E
100
AcDbEntity
  8
0
100
AcDbLine
 10
103.314438903504
 20
774.6757568581849
 30
0.0
 11
103.4359
 21
773.7745
 31
0.0
  0
LINE
  5
248
330
1E
100
AcDbEntity
  8
0
100
AcDbLine
 10
101.7261214285199
 20
774.0783812856969
 30
0.0
 11
101.8491
 21
773.1654999999999
 31
0.0
  0
LINE
  5
249
330
1E
100
AcDbEntity
  8
0
100
AcDbLine
 10
116.1586
 20
773.8385
 30
0.0
 11
117.5099
 21
773.6735
 31
0.0
  0
LINE
  5
24A
330
1E
100
AcDbEntity
  8
0
100
AcDbLine
 10
116.050924770534
 20
774.3195801239819
 30
0.0
 11
116.1586
 21
773.8385
 31
0.0
  0
LINE
  5
24B
330
1E
100
AcDbEntity
  8
0
100
AcDbLine
 10
114.5859885496619
 20
773.8388838254559
 30
0.0
 11
114.7443999999999
 21
773.1314999999999
 31
0.0
  0
LINE
  5
24C
330
1E
100
AcDbEntity
  8
0
100
AcDbLine
 10
117.354870802181
 20
774.36615202477
 30
0.0
 11
117.5099
 21
773.6735
 31
0.0
  0
LINE
  5
24D
330
1E
100
AcDbEntity
  8
0
100
AcDbLine
 10
104.4650611137699
 20
774.559075282012
 30
0.0
 11
104.6273999999999
 21
773.3545
 31
0.0
  0
LINE
  5
24E
330
1E
100
AcDbEntity
  8
0
100
AcDbLine
 10
120.9
 20
773.6665
 30
0.0
 11
126.5
 21
776.8664999999999
 31
0.0
  0
LINE
  5
24F
330
1E
100
AcDbEntity
  8
0
100
AcDbLine
 10
50.2
 20
766.6665
 30
0.0
 11
58.2
 21
765.2664999999999
 31
0.0
  0
LINE
  5
250
330
1E
100
AcDbEntity
  8
0
100
AcDbLine
 10
58.2
 20
765.2664999999999
 30
0.0
 11
66.5
 21
764.4664999999999
 31
0.0
  0
LINE
  5
251
330
1E
100
AcDbEntity
  8
0
100
AcDbLine
 10
26.2
 20
775.1604999999999
 30
0.0
 11
27.3855877862599
 21
774.6461641221369
 31
0.0
  0
LINE
  5
252
330
1E
100
AcDbEntity
  8
0
100
AcDbLine
 10
26.2
 20
775.1604999999999
 30
0.0
 11
27.3855877862599
 21
774.6461641221369
 31
0.0
  0
LINE
  5
253
330
1E
100
AcDbEntity
  8
0
100
AcDbLine
 10
89.0
 20
764.9966204819279
 30
0.0
 11
89.0
 21
761.3724999999999
 31
0.0
  0
LINE
  5
254
330
1E
100
AcDbEntity
  8
0
100
AcDbLine
 10
122.6144122137399
 20
774.6461641221369
 30
0.0
 11
123.7999999999999
 21
775.1604999999999
 31
0.0
  0
LINE
  5
255
330
1E
100
AcDbEntity
  8
0
100
AcDbLine
 10
123.7999999999999
 20
775.1604999999999
 30
0.0
 11
125.9
 21
776.1894999999999
 31
0.0
  0
LINE
  5
256
330
1E
100
AcDbEntity
  8
0
100
AcDbLine
 10
124.774202539485
 20
775.6979546299159
 30
0.0
 11
125.9
 21
776.1894999999999
 31
0.0
  0
LINE
  5
257
330
1E
100
AcDbEntity
  8
0
100
AcDbLine
 10
122.365882352942
 20
774.504147058824
 30
0.0
 11
126.0
 21
776.1395
 31
0.0
  0
LINE
  5
258
330
1E
100
AcDbEntity
  8
0
100
AcDbLine
 10
125.9
 20
776.1894999999999
 30
0.0
 11
132.0999999999999
 21
779.7395
 31
0.0
  0
LINE
  5
259
330
1E
100
AcDbEntity
  8
0
100
AcDbLine
 10
126.0
 20
776.1395
 30
0.0
 11
132.3
 21
779.6395
 31
0.0
  0
LINE
  5
25A
330
1E
100
AcDbEntity
  8
0
100
AcDbLine
 10
24.3022
 20
779.0094999999999
 30
0.0
 11
25.9572
 21
778.9755
 31
0.0
  0
LINE
  5
25B
330
1E
100
AcDbEntity
  8
0
100
AcDbLine
 10
24.9572
 20
779.8415
 30
0.0
 11
25.1152861949025
 21
780.3992874939519
 31
0.0
  0
LINE
  5
25C
330
1E
100
AcDbEntity
  8
0
100
AcDbLine
 10
24.9572
 20
779.8415
 30
0.0
 11
25.9572
 21
778.9755
 31
0.0
  0
LINE
  5
25D
330
1E
100
AcDbEntity
  8
0
100
AcDbLine
 10
25.9572
 20
778.9755
 30
0.0
 11
26.3946533271421
 21
780.5189997041829
 31
0.0
  0
LINE
  5
25E
330
1E
100
AcDbEntity
  8
0
100
AcDbLine
 10
28.1707
 20
788.2514999999999
 30
0.0
 11
30.1112
 21
788.0225
 31
0.0
  0
LINE
  5
25F
330
1E
100
AcDbEntity
  8
0
100
AcDbLine
 10
27.9096
 20
789.2424999999999
 30
0.0
 11
28.1707
 21
788.2514999999999
 31
0.0
  0
LINE
  5
260
330
1E
100
AcDbEntity
  8
0
100
AcDbLine
 10
27.9096
 20
789.2424999999999
 30
0.0
 11
28.2009414809357
 21
790.4727354835
 31
0.0
  0
LINE
  5
261
330
1E
100
AcDbEntity
  8
0
100
AcDbLine
 10
27.9096
 20
789.2424999999999
 30
0.0
 11
29.8502
 21
789.0145
 31
0.0
  0
LINE
  5
262
330
1E
100
AcDbEntity
  8
0
100
AcDbLine
 10
27.9096
 20
794.4334999999999
 30
0.0
 11
28.1707
 21
795.4255
 31
0.0
  0
LINE
  5
263
330
1E
100
AcDbEntity
  8
0
100
AcDbLine
 10
27.9096
 20
794.4334999999999
 30
0.0
 11
28.0631202811654
 21
795.0614348430209
 31
0.0
  0
LINE
  5
264
330
1E
100
AcDbEntity
  8
0
100
AcDbLine
 10
27.9096
 20
794.4334999999999
 30
0.0
 11
29.8502
 21
793.9494999999999
 31
0.0
  0
LINE
  5
265
330
1E
100
AcDbEntity
  8
0
100
AcDbLine
 10
28.1707
 20
795.4255
 30
0.0
 11
28.2741925980002
 21
795.8489134252251
 31
0.0
  0
LINE
  5
266
330
1E
100
AcDbEntity
  8
0
100
AcDbLine
 10
28.1707
 20
795.4255
 30
0.0
 11
30.1112
 21
794.9415
 31
0.0
  0
LINE
  5
267
330
1E
100
AcDbEntity
  8
0
100
AcDbLine
 10
25.9572
 20
808.4455
 30
0.0
 11
26.4537102358756
 21
809.909767955899
 31
0.0
  0
LINE
  5
268
330
1E
100
AcDbEntity
  8
0
100
AcDbLine
 10
24.9572
 20
807.5784999999999
 30
0.0
 11
25.9572
 21
808.4455
 31
0.0
  0
LINE
  5
269
330
1E
100
AcDbEntity
  8
0
100
AcDbLine
 10
24.3022
 20
809.4345
 30
0.0
 11
24.4508181168535
 21
809.8730834055091
 31
0.0
  0
LINE
  5
26A
330
1E
100
AcDbEntity
  8
0
100
AcDbLine
 10
24.3022
 20
809.4345
 30
0.0
 11
25.9572
 21
808.4455
 31
0.0
  0
LINE
  5
26B
330
1E
100
AcDbEntity
  8
0
100
AcDbLine
 10
29.8502
 20
789.0145
 30
0.0
 11
29.96585791869289
 21
789.50300364481
 31
0.0
  0
LINE
  5
26C
330
1E
100
AcDbEntity
  8
0
100
AcDbLine
 10
29.8502
 20
789.0145
 30
0.0
 11
30.1112
 21
788.0225
 31
0.0
  0
LINE
  5
26D
330
1E
100
AcDbEntity
  8
0
100
AcDbLine
 10
30.8577
 20
783.2374999999999
 30
0.0
 11
31.6231
 21
782.3134999999999
 31
0.0
  0
LINE
  5
26E
330
1E
100
AcDbEntity
  8
0
100
AcDbLine
 10
30.8577
 20
783.2374999999999
 30
0.0
 11
31.1224345026977
 21
784.4733921257519
 31
0.0
  0
LINE
  5
26F
330
1E
100
AcDbEntity
  8
0
100
AcDbLine
 10
30.8577
 20
783.2374999999999
 30
0.0
 11
32.66599999999999
 21
783.2555
 31
0.0
  0
LINE
  5
270
330
1E
100
AcDbEntity
  8
0
100
AcDbLine
 10
30.1112
 20
788.0225
 30
0.0
 11
30.4201707859658
 21
789.3274980216659
 31
0.0
  0
LINE
  5
271
330
1E
100
AcDbEntity
  8
0
100
AcDbLine
 10
30.1112
 20
794.9415
 30
0.0
 11
30.2305368701681
 21
795.429736201718
 31
0.0
  0
LINE
  5
272
330
1E
100
AcDbEntity
  8
0
100
AcDbLine
 10
29.8502
 20
793.9494999999999
 30
0.0
 11
30.1112
 21
794.9415
 31
0.0
  0
LINE
  5
273
330
1E
100
AcDbEntity
  8
0
100
AcDbLine
 10
30.8577
 20
800.4394999999998
 30
0.0
 11
31.6231
 21
801.3635
 31
0.0
  0
LINE
  5
274
330
1E
100
AcDbEntity
  8
0
100
AcDbLine
 10
30.8577
 20
800.4394999999998
 30
0.0
 11
31.0020545926992
 21
801.0533868994791
 31
0.0
  0
LINE
  5
275
330
1E
100
AcDbEntity
  8
0
100
AcDbLine
 10
30.8577
 20
800.4394999999998
 30
0.0
 11
32.66599999999999
 21
799.7084999999999
 31
0.0
  0
LINE
  5
276
330
1E
100
AcDbEntity
  8
0
100
AcDbLine
 10
29.1
 20
819.5655
 30
0.0
 11
35.5
 21
822.3665
 31
0.0
  0
LINE
  5
277
330
1E
100
AcDbEntity
  8
0
100
AcDbLine
 10
29.1
 20
820.4325
 30
0.0
 11
35.5
 21
823.2324999999999
 31
0.0
  0
LINE
  5
278
330
1E
100
AcDbEntity
  8
0
100
AcDbLine
 10
24.1
 20
827.0884999999999
 30
0.0
 11
31.2
 21
830.1895
 31
0.0
  0
LINE
  5
279
330
1E
100
AcDbEntity
  8
0
100
AcDbLine
 10
31.0
 20
830.2884999999999
 30
0.0
 11
39.0
 21
832.9394999999999
 31
0.0
  0
LINE
  5
27A
330
1E
100
AcDbEntity
  8
0
100
AcDbLine
 10
31.6231
 20
782.3134999999999
 30
0.0
 11
33.4314
 21
782.3315
 31
0.0
  0
LINE
  5
27B
330
1E
100
AcDbEntity
  8
0
100
AcDbLine
 10
33.4314
 20
782.3315
 30
0.0
 11
33.7072446958582
 21
783.619598158601
 31
0.0
  0
LINE
  5
27C
330
1E
100
AcDbEntity
  8
0
100
AcDbLine
 10
32.66599999999999
 20
783.2555
 30
0.0
 11
32.8260751303201
 21
784.002994817552
 31
0.0
  0
LINE
  5
27D
330
1E
100
AcDbEntity
  8
0
100
AcDbLine
 10
32.66599999999999
 20
783.2555
 30
0.0
 11
33.4314
 21
782.3315
 31
0.0
  0
LINE
  5
27E
330
1E
100
AcDbEntity
  8
0
100
AcDbLine
 10
32.4901
 20
814.7705
 30
0.0
 11
33.9043
 21
815.4764999999999
 31
0.0
  0
LINE
  5
27F
330
1E
100
AcDbEntity
  8
0
100
AcDbLine
 10
32.4901
 20
814.7705
 30
0.0
 11
32.79760011007169
 21
815.8355471214131
 31
0.0
  0
LINE
  5
280
330
1E
100
AcDbEntity
  8
0
100
AcDbLine
 10
32.4901
 20
814.7705
 30
0.0
 11
33.8414
 21
813.5825
 31
0.0
  0
LINE
  5
281
330
1E
100
AcDbEntity
  8
0
100
AcDbLine
 10
33.8414
 20
813.5825
 30
0.0
 11
35.2556
 21
814.2894999999999
 31
0.0
  0
LINE
  5
282
330
1E
100
AcDbEntity
  8
0
100
AcDbLine
 10
35.2556
 20
814.2894999999999
 30
0.0
 11
35.6651579366091
 21
815.7099945692081
 31
0.0
  0
LINE
  5
283
330
1E
100
AcDbEntity
  8
0
100
AcDbLine
 10
33.9043
 20
815.4764999999999
 30
0.0
 11
34.19660816557279
 21
816.4896294521049
 31
0.0
  0
LINE
  5
284
330
1E
100
AcDbEntity
  8
0
100
AcDbLine
 10
33.9043
 20
815.4764999999999
 30
0.0
 11
35.2556
 21
814.2894999999999
 31
0.0
  0
LINE
  5
285
330
1E
100
AcDbEntity
  8
0
100
AcDbLine
 10
33.4314
 20
800.6325
 30
0.0
 11
33.7395905896781
 21
801.943466025059
 31
0.0
  0
LINE
  5
286
330
1E
100
AcDbEntity
  8
0
100
AcDbLine
 10
32.66599999999999
 20
799.7084999999999
 30
0.0
 11
33.4314
 21
800.6325
 31
0.0
  0
LINE
  5
287
330
1E
100
AcDbEntity
  8
0
100
AcDbLine
 10
31.6231
 20
801.3635
 30
0.0
 11
32.003
 21
802.9795
 31
0.0
  0
LINE
  5
288
330
1E
100
AcDbEntity
  8
0
100
AcDbLine
 10
31.6231
 20
801.3635
 30
0.0
 11
33.4314
 21
800.6325
 31
0.0
  0
LINE
  5
289
330
1E
100
AcDbEntity
  8
0
100
AcDbLine
 10
35.5
 20
822.3665
 30
0.0
 11
42.6
 21
824.7654999999999
 31
0.0
  0
LINE
  5
28A
330
1E
100
AcDbEntity
  8
0
100
AcDbLine
 10
38.0315
 20
777.0245
 30
0.0
 11
39.5844
 21
777.2644999999999
 31
0.0
  0
LINE
  5
28B
330
1E
100
AcDbEntity
  8
0
100
AcDbLine
 10
38.36679999999999
 20
778.0574999999999
 30
0.0
 11
39.5844
 21
777.2644999999999
 31
0.0
  0
LINE
  5
28C
330
1E
100
AcDbEntity
  8
0
100
AcDbLine
 10
38.36679999999999
 20
778.0574999999999
 30
0.0
 11
38.5163424222737
 21
778.8916011600929
 31
0.0
  0
LINE
  5
28D
330
1E
100
AcDbEntity
  8
0
100
AcDbLine
 10
36.814
 20
777.8175
 30
0.0
 11
37.030910116834
 21
779.028021982086
 31
0.0
  0
LINE
  5
28E
330
1E
100
AcDbEntity
  8
0
100
AcDbLine
 10
36.814
 20
777.8175
 30
0.0
 11
38.0315
 21
777.0245
 31
0.0
  0
LINE
  5
28F
330
1E
100
AcDbEntity
  8
0
100
AcDbLine
 10
36.814
 20
777.8175
 30
0.0
 11
38.36679999999999
 21
778.0574999999999
 31
0.0
  0
LINE
  5
290
330
1E
100
AcDbEntity
  8
0
100
AcDbLine
 10
38.36679999999999
 20
804.9065
 30
0.0
 11
39.5844
 21
805.6994999999998
 31
0.0
  0
LINE
  5
291
330
1E
100
AcDbEntity
  8
0
100
AcDbLine
 10
38.0315
 20
806.6515
 30
0.0
 11
38.35779999999999
 21
808.2214999999999
 31
0.0
  0
LINE
  5
292
330
1E
100
AcDbEntity
  8
0
100
AcDbLine
 10
38.0315
 20
806.6515
 30
0.0
 11
39.5844
 21
805.6994999999998
 31
0.0
  0
LINE
  5
293
330
1E
100
AcDbEntity
  8
0
100
AcDbLine
 10
36.814
 20
805.8585
 30
0.0
 11
38.0315
 21
806.6515
 31
0.0
  0
LINE
  5
294
330
1E
100
AcDbEntity
  8
0
100
AcDbLine
 10
36.814
 20
805.8585
 30
0.0
 11
36.94007226742279
 21
806.465486000984
 31
0.0
  0
LINE
  5
295
330
1E
100
AcDbEntity
  8
0
100
AcDbLine
 10
36.814
 20
805.8585
 30
0.0
 11
38.36679999999999
 21
804.9065
 31
0.0
  0
LINE
  5
296
330
1E
100
AcDbEntity
  8
0
100
AcDbLine
 10
35.5
 20
823.2324999999999
 30
0.0
 11
42.6
 21
825.6325
 31
0.0
  0
LINE
  5
297
330
1E
100
AcDbEntity
  8
0
100
AcDbLine
 10
31.2
 20
830.1895
 30
0.0
 11
39.1
 21
832.8384999999999
 31
0.0
  0
LINE
  5
298
330
1E
100
AcDbEntity
  8
0
100
AcDbLine
 10
39.2973
 20
790.5895000000001
 30
0.0
 11
39.40435440840389
 21
791.3383577916849
 31
0.0
  0
LINE
  5
299
330
1E
100
AcDbEntity
  8
0
100
AcDbLine
 10
39.2973
 20
790.5895000000001
 30
0.0
 11
41.2822
 21
790.3764999999999
 31
0.0
  0
LINE
  5
29A
330
1E
100
AcDbEntity
  8
0
100
AcDbLine
 10
39.2973
 20
790.5895000000001
 30
0.0
 11
39.2973
 21
789.5895
 31
0.0
  0
LINE
  5
29B
330
1E
100
AcDbEntity
  8
0
100
AcDbLine
 10
39.5844
 20
777.2644999999999
 30
0.0
 11
39.8144988679371
 21
778.548313426259
 31
0.0
  0
LINE
  5
29C
330
1E
100
AcDbEntity
  8
0
100
AcDbLine
 10
40.7727
 20
784.9854999999999
 30
0.0
 11
42.6899
 21
785.0304999999999
 31
0.0
  0
LINE
  5
29D
330
1E
100
AcDbEntity
  8
0
100
AcDbLine
 10
40.255
 20
785.9515
 30
0.0
 11
40.7727
 21
784.9854999999999
 31
0.0
  0
LINE
  5
29E
330
1E
100
AcDbEntity
  8
0
100
AcDbLine
 10
40.255
 20
785.9515
 30
0.0
 11
40.3137421748688
 21
786.384949423495
 31
0.0
  0
LINE
  5
29F
330
1E
100
AcDbEntity
  8
0
100
AcDbLine
 10
40.255
 20
785.9515
 30
0.0
 11
42.17229999999999
 21
785.9955
 31
0.0
  0
LINE
  5
2A0
330
1E
100
AcDbEntity
  8
0
100
AcDbLine
 10
39.2973
 20
789.5895
 30
0.0
 11
39.2973
 21
790.5895000000001
 31
0.0
  0
LINE
  5
2A1
330
1E
100
AcDbEntity
  8
0
100
AcDbLine
 10
39.2973
 20
789.5895
 30
0.0
 11
41.2822
 21
789.3765
 31
0.0
  0
LINE
  5
2A2
330
1E
100
AcDbEntity
  8
0
100
AcDbLine
 10
40.255
 20
794.2264999999999
 30
0.0
 11
40.7727
 21
795.1925
 31
0.0
  0
LINE
  5
2A3
330
1E
100
AcDbEntity
  8
0
100
AcDbLine
 10
40.255
 20
794.2264999999999
 30
0.0
 11
40.44637396866729
 21
795.58700520498
 31
0.0
  0
LINE
  5
2A4
330
1E
100
AcDbEntity
  8
0
100
AcDbLine
 10
40.255
 20
794.2264999999999
 30
0.0
 11
42.17229999999999
 21
793.7565
 31
0.0
  0
LINE
  5
2A5
330
1E
100
AcDbEntity
  8
0
100
AcDbLine
 10
41.2822
 20
790.3764999999999
 30
0.0
 11
41.2822
 21
789.3765
 31
0.0
  0
LINE
  5
2A6
330
1E
100
AcDbEntity
  8
0
100
AcDbLine
 10
41.2822
 20
790.3764999999999
 30
0.0
 11
41.4484112493948
 21
791.5398433945829
 31
0.0
  0
LINE
  5
2A7
330
1E
100
AcDbEntity
  8
0
100
AcDbLine
 10
42.17229999999999
 20
785.9955
 30
0.0
 11
42.2295451986296
 21
786.418081546376
 31
0.0
  0
LINE
  5
2A8
330
1E
100
AcDbEntity
  8
0
100
AcDbLine
 10
42.17229999999999
 20
785.9955
 30
0.0
 11
42.6899
 21
785.0304999999999
 31
0.0
  0
LINE
  5
2A9
330
1E
100
AcDbEntity
  8
0
100
AcDbLine
 10
41.2822
 20
789.3765
 30
0.0
 11
41.3711260992745
 21
789.9989102795309
 31
0.0
  0
LINE
  5
2AA
330
1E
100
AcDbEntity
  8
0
100
AcDbLine
 10
41.2822
 20
789.3765
 30
0.0
 11
41.2822
 21
790.3764999999999
 31
0.0
  0
LINE
  5
2AB
330
1E
100
AcDbEntity
  8
0
100
AcDbLine
 10
42.17229999999999
 20
793.7565
 30
0.0
 11
42.6899
 21
794.7224999999999
 31
0.0
  0
LINE
  5
2AC
330
1E
100
AcDbEntity
  8
0
100
AcDbLine
 10
40.7727
 20
795.1925
 30
0.0
 11
40.8720230627931
 21
795.8988996919559
 31
0.0
  0
LINE
  5
2AD
330
1E
100
AcDbEntity
  8
0
100
AcDbLine
 10
40.7727
 20
795.1925
 30
0.0
 11
42.6899
 21
794.7224999999999
 31
0.0
  0
LINE
  5
2AE
330
1E
100
AcDbEntity
  8
0
100
AcDbLine
 10
39.5844
 20
805.6994999999998
 30
0.0
 11
39.8214400578533
 21
806.8411000333771
 31
0.0
  0
LINE
  5
2AF
330
1E
100
AcDbEntity
  8
0
100
AcDbLine
 10
42.6899
 20
785.0304999999999
 30
0.0
 11
42.7831904553783
 21
785.71877275258
 31
0.0
  0
LINE
  5
2B0
330
1E
100
AcDbEntity
  8
0
100
AcDbLine
 10
42.6899
 20
794.7224999999999
 30
0.0
 11
42.84663457905439
 21
795.8372185280979
 31
0.0
  0
LINE
  5
2B1
330
1E
100
AcDbEntity
  8
0
100
AcDbLine
 10
43.5806
 20
781.5965
 30
0.0
 11
44.58059999999999
 21
780.7305
 31
0.0
  0
LINE
  5
2B2
330
1E
100
AcDbEntity
  8
0
100
AcDbLine
 10
43.5806
 20
781.5965
 30
0.0
 11
43.6323880458967
 21
782.0298931438459
 31
0.0
  0
LINE
  5
2B3
330
1E
100
AcDbEntity
  8
0
100
AcDbLine
 10
43.5806
 20
781.5965
 30
0.0
 11
45.2995
 21
781.8795
 31
0.0
  0
LINE
  5
2B4
330
1E
100
AcDbEntity
  8
0
100
AcDbLine
 10
44.58059999999999
 20
780.7305
 30
0.0
 11
46.2995
 21
781.0135
 31
0.0
  0
LINE
  5
2B5
330
1E
100
AcDbEntity
  8
0
100
AcDbLine
 10
46.2995
 20
781.0135
 30
0.0
 11
46.38420810758679
 21
781.722786034848
 31
0.0
  0
LINE
  5
2B6
330
1E
100
AcDbEntity
  8
0
100
AcDbLine
 10
45.2995
 20
781.8795
 30
0.0
 11
45.3511408727015
 21
782.311904298455
 31
0.0
  0
LINE
  5
2B7
330
1E
100
AcDbEntity
  8
0
100
AcDbLine
 10
45.2995
 20
781.8795
 30
0.0
 11
46.2995
 21
781.0135
 31
0.0
  0
LINE
  5
2B8
330
1E
100
AcDbEntity
  8
0
100
AcDbLine
 10
46.2995
 20
798.7385
 30
0.0
 11
46.44155878848629
 21
799.845850593842
 31
0.0
  0
LINE
  5
2B9
330
1E
100
AcDbEntity
  8
0
100
AcDbLine
 10
45.2995
 20
797.8724999999999
 30
0.0
 11
46.2995
 21
798.7385
 31
0.0
  0
LINE
  5
2BA
330
1E
100
AcDbEntity
  8
0
100
AcDbLine
 10
43.5806
 20
798.5815
 30
0.0
 11
44.58059999999999
 21
799.4475
 31
0.0
  0
LINE
  5
2BB
330
1E
100
AcDbEntity
  8
0
100
AcDbLine
 10
43.5806
 20
798.5815
 30
0.0
 11
43.7599179866129
 21
799.9792866563429
 31
0.0
  0
LINE
  5
2BC
330
1E
100
AcDbEntity
  8
0
100
AcDbLine
 10
43.5806
 20
798.5815
 30
0.0
 11
45.2995
 21
797.8724999999999
 31
0.0
  0
LINE
  5
2BD
330
1E
100
AcDbEntity
  8
0
100
AcDbLine
 10
44.57489999999999
 20
819.5705
 30
0.0
 11
46.307
 21
820.0705000000001
 31
0.0
  0
LINE
  5
2BE
330
1E
100
AcDbEntity
  8
0
100
AcDbLine
 10
44.57489999999999
 20
819.5705
 30
0.0
 11
44.7810955108074
 21
820.548024634427
 31
0.0
  0
LINE
  5
2BF
330
1E
100
AcDbEntity
  8
0
100
AcDbLine
 10
44.57489999999999
 20
819.5705
 30
0.0
 11
45.5304
 21
818.2314999999999
 31
0.0
  0
LINE
  5
2C0
330
1E
100
AcDbEntity
  8
0
100
AcDbLine
 10
46.5641
 20
809.1894999999999
 30
0.0
 11
48.1509
 21
809.7984999999999
 31
0.0
  0
LINE
  5
2C1
330
1E
100
AcDbEntity
  8
0
100
AcDbLine
 10
45.5304
 20
818.2314999999999
 30
0.0
 11
47.2625
 21
818.7314999999999
 31
0.0
  0
LINE
  5
2C2
330
1E
100
AcDbEntity
  8
0
100
AcDbLine
 10
47.2625
 20
818.7314999999999
 30
0.0
 11
47.55749999999999
 21
820.1325
 31
0.0
  0
LINE
  5
2C3
330
1E
100
AcDbEntity
  8
0
100
AcDbLine
 10
46.307
 20
820.0705000000001
 30
0.0
 11
46.50950546352549
 21
821.0308564185499
 31
0.0
  0
LINE
  5
2C4
330
1E
100
AcDbEntity
  8
0
100
AcDbLine
 10
46.307
 20
820.0705000000001
 30
0.0
 11
47.2625
 21
818.7314999999999
 31
0.0
  0
LINE
  5
2C5
330
1E
100
AcDbEntity
  8
0
100
AcDbLine
 10
46.95929999999999
 20
810.9305
 30
0.0
 11
47.2097
 21
812.4624999999999
 31
0.0
  0
LINE
  5
2C6
330
1E
100
AcDbEntity
  8
0
100
AcDbLine
 10
46.95929999999999
 20
810.9305
 30
0.0
 11
48.1509
 21
809.7984999999999
 31
0.0
  0
LINE
  5
2C7
330
1E
100
AcDbEntity
  8
0
100
AcDbLine
 10
45.37259999999999
 20
810.3225
 30
0.0
 11
46.95929999999999
 21
810.9305
 31
0.0
  0
LINE
  5
2C8
330
1E
100
AcDbEntity
  8
0
100
AcDbLine
 10
45.37259999999999
 20
810.3225
 30
0.0
 11
45.4687367893611
 21
810.9103012161019
 31
0.0
  0
LINE
  5
2C9
330
1E
100
AcDbEntity
  8
0
100
AcDbLine
 10
45.37259999999999
 20
810.3225
 30
0.0
 11
46.5641
 21
809.1894999999999
 31
0.0
  0
LINE
  5
2CA
330
1E
100
AcDbEntity
  8
0
100
AcDbLine
 10
44.58059999999999
 20
799.4475
 30
0.0
 11
44.6681050358386
 21
800.129603194266
 31
0.0
  0
LINE
  5
2CB
330
1E
100
AcDbEntity
  8
0
100
AcDbLine
 10
44.58059999999999
 20
799.4475
 30
0.0
 11
46.2995
 21
798.7385
 31
0.0
  0
LINE
  5
2CC
330
1E
100
AcDbEntity
  8
0
100
AcDbLine
 10
42.6
 20
824.7654999999999
 30
0.0
 11
50.2
 21
826.5655
 31
0.0
  0
LINE
  5
2CD
330
1E
100
AcDbEntity
  8
0
100
AcDbLine
 10
42.6
 20
825.6325
 30
0.0
 11
50.2
 21
827.4325000000001
 31
0.0
  0
LINE
  5
2CE
330
1E
100
AcDbEntity
  8
0
100
AcDbLine
 10
39.1
 20
832.8384999999999
 30
0.0
 11
47.5
 21
834.8885
 31
0.0
  0
LINE
  5
2CF
330
1E
100
AcDbEntity
  8
0
100
AcDbLine
 10
39.0
 20
832.9394999999999
 30
0.0
 11
47.4
 21
834.9885
 31
0.0
  0
LINE
  5
2D0
330
1E
100
AcDbEntity
  8
0
100
AcDbLine
 10
48.1509
 20
809.7984999999999
 30
0.0
 11
48.3239791335639
 21
810.8578577012378
 31
0.0
  0
LINE
  5
2D1
330
1E
100
AcDbEntity
  8
0
100
AcDbLine
 10
47.5
 20
834.8885
 30
0.0
 11
56.4
 21
836.3884999999999
 31
0.0
  0
LINE
  5
2D2
330
1E
100
AcDbEntity
  8
0
100
AcDbLine
 10
47.4
 20
834.9885
 30
0.0
 11
56.4
 21
836.4885000000001
 31
0.0
  0
LINE
  5
2D3
330
1E
100
AcDbEntity
  8
0
100
AcDbLine
 10
33.0
 20
840.0744999999998
 30
0.0
 11
40.6
 21
842.6244999999999
 31
0.0
  0
LINE
  5
2D4
330
1E
100
AcDbEntity
  8
0
100
AcDbLine
 10
31.0
 20
839.2965
 30
0.0
 11
33.0
 21
840.0744999999998
 31
0.0
  0
LINE
  5
2D5
330
1E
100
AcDbEntity
  8
0
100
AcDbLine
 10
40.6
 20
842.6244999999999
 30
0.0
 11
48.6
 21
844.5744999999998
 31
0.0
  0
LINE
  5
2D6
330
1E
100
AcDbEntity
  8
0
100
AcDbLine
 10
49.0473
 20
802.3574999999999
 30
0.0
 11
50.4615
 21
803.0644999999999
 31
0.0
  0
LINE
  5
2D7
330
1E
100
AcDbEntity
  8
0
100
AcDbLine
 10
49.0473
 20
802.3574999999999
 30
0.0
 11
49.21751967331079
 21
803.9577218136129
 31
0.0
  0
LINE
  5
2D8
330
1E
100
AcDbEntity
  8
0
100
AcDbLine
 10
49.0473
 20
802.3574999999999
 30
0.0
 11
50.4508
 21
801.4435
 31
0.0
  0
LINE
  5
2D9
330
1E
100
AcDbEntity
  8
0
100
AcDbLine
 10
49.0473
 20
777.8194999999999
 30
0.0
 11
49.0767220502622
 21
778.125584232567
 31
0.0
  0
LINE
  5
2DA
330
1E
100
AcDbEntity
  8
0
100
AcDbLine
 10
49.0473
 20
777.8194999999999
 30
0.0
 11
50.4615
 21
777.1124999999999
 31
0.0
  0
LINE
  5
2DB
330
1E
100
AcDbEntity
  8
0
100
AcDbLine
 10
49.0473
 20
777.8194999999999
 30
0.0
 11
50.4508
 21
778.3084999999999
 31
0.0
  0
LINE
  5
2DC
330
1E
100
AcDbEntity
  8
0
100
AcDbLine
 10
50.4508
 20
801.4435
 30
0.0
 11
51.865
 21
802.1504999999999
 31
0.0
  0
LINE
  5
2DD
330
1E
100
AcDbEntity
  8
0
100
AcDbLine
 10
51.865
 20
802.1504999999999
 30
0.0
 11
51.98790672041039
 21
803.3059788395521
 31
0.0
  0
LINE
  5
2DE
330
1E
100
AcDbEntity
  8
0
100
AcDbLine
 10
50.4615
 20
803.0644999999999
 30
0.0
 11
50.5353239952743
 21
803.7585390574719
 31
0.0
  0
LINE
  5
2DF
330
1E
100
AcDbEntity
  8
0
100
AcDbLine
 10
50.4615
 20
803.0644999999999
 30
0.0
 11
51.865
 21
802.1504999999999
 31
0.0
  0
LINE
  5
2E0
330
1E
100
AcDbEntity
  8
0
100
AcDbLine
 10
50.4508
 20
778.3084999999999
 30
0.0
 11
51.865
 21
777.6015
 31
0.0
  0
LINE
  5
2E1
330
1E
100
AcDbEntity
  8
0
100
AcDbLine
 10
50.4508
 20
778.3084999999999
 30
0.0
 11
50.6110972559097
 21
779.975148498405
 31
0.0
  0
LINE
  5
2E2
330
1E
100
AcDbEntity
  8
0
100
AcDbLine
 10
52.3204
 20
786.8595
 30
0.0
 11
54.3014
 21
786.9144999999999
 31
0.0
  0
LINE
  5
2E3
330
1E
100
AcDbEntity
  8
0
100
AcDbLine
 10
52.0593
 20
787.8515
 30
0.0
 11
52.3204
 21
786.8595
 31
0.0
  0
LINE
  5
2E4
330
1E
100
AcDbEntity
  8
0
100
AcDbLine
 10
52.0593
 20
787.8515
 30
0.0
 11
52.11516021724071
 21
788.973876587151
 31
0.0
  0
LINE
  5
2E5
330
1E
100
AcDbEntity
  8
0
100
AcDbLine
 10
52.0593
 20
787.8515
 30
0.0
 11
54.0403
 21
787.9065
 31
0.0
  0
LINE
  5
2E6
330
1E
100
AcDbEntity
  8
0
100
AcDbLine
 10
56.13859999999999
 20
782.2505
 30
0.0
 11
56.18284268002089
 21
783.3754549753501
 31
0.0
  0
LINE
  5
2E7
330
1E
100
AcDbEntity
  8
0
100
AcDbLine
 10
56.13859999999999
 20
782.2505
 30
0.0
 11
57.3561
 21
781.4574999999999
 31
0.0
  0
LINE
  5
2E8
330
1E
100
AcDbEntity
  8
0
100
AcDbLine
 10
56.13859999999999
 20
782.2505
 30
0.0
 11
57.7238
 21
782.7835
 31
0.0
  0
LINE
  5
2E9
330
1E
100
AcDbEntity
  8
0
100
AcDbLine
 10
54.3014
 20
786.9144999999999
 30
0.0
 11
54.3656385365865
 21
788.206714362852
 31
0.0
  0
LINE
  5
2EA
330
1E
100
AcDbEntity
  8
0
100
AcDbLine
 10
54.0403
 20
787.9065
 30
0.0
 11
54.0723966553641
 21
788.5514050198159
 31
0.0
  0
LINE
  5
2EB
330
1E
100
AcDbEntity
  8
0
100
AcDbLine
 10
54.0403
 20
787.9065
 30
0.0
 11
54.3014
 21
786.9144999999999
 31
0.0
  0
LINE
  5
2EC
330
1E
100
AcDbEntity
  8
0
100
AcDbLine
 10
55.973
 20
793.2635
 30
0.0
 11
56.0352749565291
 21
794.589453732807
 31
0.0
  0
LINE
  5
2ED
330
1E
100
AcDbEntity
  8
0
100
AcDbLine
 10
55.2076
 20
792.3395
 30
0.0
 11
55.973
 21
793.2635
 31
0.0
  0
LINE
  5
2EE
330
1E
100
AcDbEntity
  8
0
100
AcDbLine
 10
53.3616
 20
792.7974999999999
 30
0.0
 11
54.127
 21
793.7215
 31
0.0
  0
LINE
  5
2EF
330
1E
100
AcDbEntity
  8
0
100
AcDbLine
 10
53.3616
 20
792.7974999999999
 30
0.0
 11
53.39113496504889
 21
793.4263562744559
 31
0.0
  0
LINE
  5
2F0
330
1E
100
AcDbEntity
  8
0
100
AcDbLine
 10
53.3616
 20
792.7974999999999
 30
0.0
 11
55.2076
 21
792.3395
 31
0.0
  0
LINE
  5
2F1
330
1E
100
AcDbEntity
  8
0
100
AcDbLine
 10
56.2826
 20
805.2984999999999
 30
0.0
 11
58.0147
 21
805.7985
 31
0.0
  0
LINE
  5
2F2
330
1E
100
AcDbEntity
  8
0
100
AcDbLine
 10
56.2826
 20
805.2984999999999
 30
0.0
 11
56.4054
 21
806.9105
 31
0.0
  0
LINE
  5
2F3
330
1E
100
AcDbEntity
  8
0
100
AcDbLine
 10
56.2826
 20
805.2984999999999
 30
0.0
 11
57.2751
 21
804.2265
 31
0.0
  0
LINE
  5
2F4
330
1E
100
AcDbEntity
  8
0
100
AcDbLine
 10
55.9503
 20
813.5265
 30
0.0
 11
57.7981
 21
813.9084999999999
 31
0.0
  0
LINE
  5
2F5
330
1E
100
AcDbEntity
  8
0
100
AcDbLine
 10
55.9503
 20
813.5265
 30
0.0
 11
56.0065198282232
 21
814.0640529954
 31
0.0
  0
LINE
  5
2F6
330
1E
100
AcDbEntity
  8
0
100
AcDbLine
 10
55.9503
 20
813.5265
 30
0.0
 11
56.6993
 21
812.2654999999999
 31
0.0
  0
LINE
  5
2F7
330
1E
100
AcDbEntity
  8
0
100
AcDbLine
 10
54.127
 20
793.7215
 30
0.0
 11
54.18031006578079
 21
794.8559117103429
 31
0.0
  0
LINE
  5
2F8
330
1E
100
AcDbEntity
  8
0
100
AcDbLine
 10
54.127
 20
793.7215
 30
0.0
 11
55.973
 21
793.2635
 31
0.0
  0
LINE
  5
2F9
330
1E
100
AcDbEntity
  8
0
100
AcDbLine
 10
51.865
 20
777.6015
 30
0.0
 11
51.93146341516599
 21
778.292535853712
 31
0.0
  0
LINE
  5
2FA
330
1E
100
AcDbEntity
  8
0
100
AcDbLine
 10
50.4615
 20
777.1124999999999
 30
0.0
 11
51.865
 21
777.6015
 31
0.0
  0
LINE
  5
2FB
330
1E
100
AcDbEntity
  8
0
100
AcDbLine
 10
50.2
 20
826.5655
 30
0.0
 11
58.2
 21
827.9654999999999
 31
0.0
  0
LINE
  5
2FC
330
1E
100
AcDbEntity
  8
0
100
AcDbLine
 10
50.2
 20
827.4325000000001
 30
0.0
 11
58.2
 21
828.8325
 31
0.0
  0
LINE
  5
2FD
330
1E
100
AcDbEntity
  8
0
100
AcDbLine
 10
56.6993
 20
812.2654999999999
 30
0.0
 11
58.5471
 21
812.6485
 31
0.0
  0
LINE
  5
2FE
330
1E
100
AcDbEntity
  8
0
100
AcDbLine
 10
56.4
 20
836.3884999999999
 30
0.0
 11
65.59999999999999
 21
837.3384999999998
 31
0.0
  0
LINE
  5
2FF
330
1E
100
AcDbEntity
  8
0
100
AcDbLine
 10
56.4
 20
836.4885000000001
 30
0.0
 11
65.59999999999999
 21
837.4394999999999
 31
0.0
  0
LINE
  5
300
330
1E
100
AcDbEntity
  8
0
100
AcDbLine
 10
57.2751
 20
804.2265
 30
0.0
 11
59.0071
 21
804.7264999999999
 31
0.0
  0
LINE
  5
301
330
1E
100
AcDbEntity
  8
0
100
AcDbLine
 10
58.0147
 20
805.7985
 30
0.0
 11
58.06851441130969
 21
806.5049237054671
 31
0.0
  0
LINE
  5
302
330
1E
100
AcDbEntity
  8
0
100
AcDbLine
 10
58.0147
 20
805.7985
 30
0.0
 11
59.0071
 21
804.7264999999999
 31
0.0
  0
LINE
  5
303
330
1E
100
AcDbEntity
  8
0
100
AcDbLine
 10
57.7981
 20
813.9084999999999
 30
0.0
 11
57.95539999999999
 21
815.4144999999999
 31
0.0
  0
LINE
  5
304
330
1E
100
AcDbEntity
  8
0
100
AcDbLine
 10
57.7981
 20
813.9084999999999
 30
0.0
 11
58.5471
 21
812.6485
 31
0.0
  0
LINE
  5
305
330
1E
100
AcDbEntity
  8
0
100
AcDbLine
 10
57.7238
 20
782.7835
 30
0.0
 11
58.9413
 21
781.9905
 31
0.0
  0
LINE
  5
306
330
1E
100
AcDbEntity
  8
0
100
AcDbLine
 10
57.7238
 20
782.7835
 30
0.0
 11
57.7498407690088
 21
783.4456364855059
 31
0.0
  0
LINE
  5
307
330
1E
100
AcDbEntity
  8
0
100
AcDbLine
 10
57.3561
 20
781.4574999999999
 30
0.0
 11
58.9413
 21
781.9905
 31
0.0
  0
LINE
  5
308
330
1E
100
AcDbEntity
  8
0
100
AcDbLine
 10
58.2
 20
827.9654999999999
 30
0.0
 11
66.5
 21
828.7654999999999
 31
0.0
  0
LINE
  5
309
330
1E
100
AcDbEntity
  8
0
100
AcDbLine
 10
58.2
 20
828.8325
 30
0.0
 11
66.5
 21
829.6325000000001
 31
0.0
  0
LINE
  5
30A
330
1E
100
AcDbEntity
  8
0
100
AcDbLine
 10
58.9413
 20
781.9905
 30
0.0
 11
58.9952020151202
 21
783.361062092131
 31
0.0
  0
LINE
  5
30B
330
1E
100
AcDbEntity
  8
0
100
AcDbLine
 10
65.27172
 20
778.4205
 30
0.0
 11
65.2934001420273
 21
779.5724811440229
 31
0.0
  0
LINE
  5
30C
330
1E
100
AcDbEntity
  8
0
100
AcDbLine
 10
65.27172
 20
778.4205
 30
0.0
 11
67.11948000000001
 21
778.0375
 31
0.0
  0
LINE
  5
30D
330
1E
100
AcDbEntity
  8
0
100
AcDbLine
 10
65.27172
 20
778.4205
 30
0.0
 11
66.03636
 21
779.2685
 31
0.0
  0
LINE
  5
30E
330
1E
100
AcDbEntity
  8
0
100
AcDbLine
 10
65.56801
 20
784.1515000000001
 30
0.0
 11
66.22332
 21
784.0964999999999
 31
0.0
  0
LINE
  5
30F
330
1E
100
AcDbEntity
  8
0
100
AcDbLine
 10
64.9444
 20
784.2675
 30
0.0
 11
65.56801
 21
784.1515000000001
 31
0.0
  0
LINE
  5
310
330
1E
100
AcDbEntity
  8
0
100
AcDbLine
 10
64.4231
 20
784.4634999999999
 30
0.0
 11
64.9444
 21
784.2675
 31
0.0
  0
LINE
  5
311
330
1E
100
AcDbEntity
  8
0
100
AcDbLine
 10
61.4172
 20
796.8105
 30
0.0
 11
63.0039
 21
797.4194999999999
 31
0.0
  0
LINE
  5
312
330
1E
100
AcDbEntity
  8
0
100
AcDbLine
 10
63.0039
 20
797.4194999999999
 30
0.0
 11
63.0507868584941
 21
798.9170538984179
 31
0.0
  0
LINE
  5
313
330
1E
100
AcDbEntity
  8
0
100
AcDbLine
 10
59.0071
 20
804.7264999999999
 30
0.0
 11
59.1021540029173
 21
805.9742773021389
 31
0.0
  0
LINE
  5
314
330
1E
100
AcDbEntity
  8
0
100
AcDbLine
 10
59.2278
 20
821.2105000000001
 30
0.0
 11
61.1596
 21
821.4684999999999
 31
0.0
  0
LINE
  5
315
330
1E
100
AcDbEntity
  8
0
100
AcDbLine
 10
61.1596
 20
821.4684999999999
 30
0.0
 11
61.3124
 21
822.8384999999999
 31
0.0
  0
LINE
  5
316
330
1E
100
AcDbEntity
  8
0
100
AcDbLine
 10
60.665
 20
822.9034999999999
 30
0.0
 11
60.76648478298899
 21
823.812745208848
 31
0.0
  0
LINE
  5
317
330
1E
100
AcDbEntity
  8
0
100
AcDbLine
 10
60.665
 20
822.9034999999999
 30
0.0
 11
61.1596
 21
821.4684999999999
 31
0.0
  0
LINE
  5
318
330
1E
100
AcDbEntity
  8
0
100
AcDbLine
 10
58.73319999999999
 20
822.6435
 30
0.0
 11
60.665
 21
822.9034999999999
 31
0.0
  0
LINE
  5
319
330
1E
100
AcDbEntity
  8
0
100
AcDbLine
 10
58.73319999999999
 20
822.6435
 30
0.0
 11
58.83551707855289
 21
823.5614724794849
 31
0.0
  0
LINE
  5
31A
330
1E
100
AcDbEntity
  8
0
100
AcDbLine
 10
58.73319999999999
 20
822.6435
 30
0.0
 11
59.2278
 21
821.2105000000001
 31
0.0
  0
LINE
  5
31B
330
1E
100
AcDbEntity
  8
0
100
AcDbLine
 10
58.5471
 20
812.6485
 30
0.0
 11
58.6516634923706
 21
813.648297052209
 31
0.0
  0
LINE
  5
31C
330
1E
100
AcDbEntity
  8
0
100
AcDbLine
 10
61.7876
 20
798.2875
 30
0.0
 11
61.8258171350898
 21
799.5104483228719
 31
0.0
  0
LINE
  5
31D
330
1E
100
AcDbEntity
  8
0
100
AcDbLine
 10
61.7876
 20
798.2875
 30
0.0
 11
63.0039
 21
797.4194999999999
 31
0.0
  0
LINE
  5
31E
330
1E
100
AcDbEntity
  8
0
100
AcDbLine
 10
60.20089999999999
 20
797.6795
 30
0.0
 11
61.7876
 21
798.2875
 31
0.0
  0
LINE
  5
31F
330
1E
100
AcDbEntity
  8
0
100
AcDbLine
 10
60.20089999999999
 20
797.6795
 30
0.0
 11
60.21892777863389
 21
798.256048769517
 31
0.0
  0
LINE
  5
320
330
1E
100
AcDbEntity
  8
0
100
AcDbLine
 10
60.20089999999999
 20
797.6795
 30
0.0
 11
61.4172
 21
796.8105
 31
0.0
  0
LINE
  5
321
330
1E
100
AcDbEntity
  8
0
100
AcDbLine
 10
65.30726
 20
806.0304999999999
 30
0.0
 11
67.23911
 21
806.2894999999999
 31
0.0
  0
LINE
  5
322
330
1E
100
AcDbEntity
  8
0
100
AcDbLine
 10
64.7935
 20
807.2025
 30
0.0
 11
66.72539
 21
807.4614999999999
 31
0.0
  0
LINE
  5
323
330
1E
100
AcDbEntity
  8
0
100
AcDbLine
 10
64.7935
 20
807.2025
 30
0.0
 11
64.8571
 21
808.8025
 31
0.0
  0
LINE
  5
324
330
1E
100
AcDbEntity
  8
0
100
AcDbLine
 10
64.7935
 20
807.2025
 30
0.0
 11
65.30726
 21
806.0304999999999
 31
0.0
  0
LINE
  5
325
330
1E
100
AcDbEntity
  8
0
100
AcDbLine
 10
64.94410000000001
 20
786.4845
 30
0.0
 11
65.57692
 21
786.6164999999999
 31
0.0
  0
LINE
  5
326
330
1E
100
AcDbEntity
  8
0
100
AcDbLine
 10
65.57692
 20
786.6164999999999
 30
0.0
 11
66.22410000000001
 21
786.6554999999999
 31
0.0
  0
LINE
  5
327
330
1E
100
AcDbEntity
  8
0
100
AcDbLine
 10
64.3993
 20
786.2765
 30
0.0
 11
64.94410000000001
 21
786.4845
 31
0.0
  0
LINE
  5
328
330
1E
100
AcDbEntity
  8
0
100
AcDbLine
 10
64.0074
 20
786.0154999999999
 30
0.0
 11
64.3993
 21
786.2765
 31
0.0
  0
LINE
  5
329
330
1E
100
AcDbEntity
  8
0
100
AcDbLine
 10
63.77600000000001
 20
785.7034999999999
 30
0.0
 11
64.0074
 21
786.0154999999999
 31
0.0
  0
LINE
  5
32A
330
1E
100
AcDbEntity
  8
0
100
AcDbLine
 10
63.6644
 20
785.3755
 30
0.0
 11
63.7431
 21
785.0525
 31
0.0
  0
LINE
  5
32B
330
1E
100
AcDbEntity
  8
0
100
AcDbLine
 10
63.6644
 20
785.3755
 30
0.0
 11
63.77600000000001
 21
785.7034999999999
 31
0.0
  0
LINE
  5
32C
330
1E
100
AcDbEntity
  8
0
100
AcDbLine
 10
63.7431
 20
785.0525
 30
0.0
 11
64.0065
 21
784.7355
 31
0.0
  0
LINE
  5
32D
330
1E
100
AcDbEntity
  8
0
100
AcDbLine
 10
63.0668648520684
 20
786.247109423845
 30
0.0
 11
63.7431
 21
785.0525
 31
0.0
  0
LINE
  5
32E
330
1E
100
AcDbEntity
  8
0
100
AcDbLine
 10
64.0065
 20
784.7355
 30
0.0
 11
64.4231
 21
784.4634999999999
 31
0.0
  0
LINE
  5
32F
330
1E
100
AcDbEntity
  8
0
100
AcDbLine
 10
66.03636
 20
779.2685
 30
0.0
 11
67.88412
 21
778.8854999999999
 31
0.0
  0
LINE
  5
330
330
1E
100
AcDbEntity
  8
0
100
AcDbLine
 10
66.03636
 20
779.2685
 30
0.0
 11
66.04766303477089
 21
779.8687511714519
 31
0.0
  0
LINE
  5
331
330
1E
100
AcDbEntity
  8
0
100
AcDbLine
 10
67.88412
 20
778.8854999999999
 30
0.0
 11
67.9131179220458
 21
780.4263136796589
 31
0.0
  0
LINE
  5
332
330
1E
100
AcDbEntity
  8
0
100
AcDbLine
 10
67.11948000000001
 20
778.0375
 30
0.0
 11
67.88412
 21
778.8854999999999
 31
0.0
  0
LINE
  5
333
330
1E
100
AcDbEntity
  8
0
100
AcDbLine
 10
78.7337
 20
778.4324999999999
 30
0.0
 11
78.9945
 21
777.5175
 31
0.0
  0
LINE
  5
334
330
1E
100
AcDbEntity
  8
0
100
AcDbLine
 10
78.7302466488434
 20
778.969586982511
 30
0.0
 11
78.7337
 21
778.4324999999999
 31
0.0
  0
LINE
  5
335
330
1E
100
AcDbEntity
  8
0
100
AcDbLine
 10
76.7508
 20
778.3015
 30
0.0
 11
77.0116
 21
777.3864999999999
 31
0.0
  0
LINE
  5
336
330
1E
100
AcDbEntity
  8
0
100
AcDbLine
 10
76.7508
 20
778.3015
 30
0.0
 11
78.7337
 21
778.4324999999999
 31
0.0
  0
LINE
  5
337
330
1E
100
AcDbEntity
  8
0
100
AcDbLine
 10
77.0116
 20
777.3864999999999
 30
0.0
 11
78.9945
 21
777.5175
 31
0.0
  0
LINE
  5
338
330
1E
100
AcDbEntity
  8
0
100
AcDbLine
 10
111.9685
 20
777.0245
 30
0.0
 11
113.186
 21
777.8175
 31
0.0
  0
LINE
  5
339
330
1E
100
AcDbEntity
  8
0
100
AcDbLine
 10
99.5385
 20
777.1124999999999
 30
0.0
 11
100.9526999999999
 21
777.8194999999999
 31
0.0
  0
LINE
  5
33A
330
1E
100
AcDbEntity
  8
0
100
AcDbLine
 10
99.54920000000001
 20
778.3084999999999
 30
0.0
 11
100.9526999999999
 21
777.8194999999999
 31
0.0
  0
LINE
  5
33B
330
1E
100
AcDbEntity
  8
0
100
AcDbLine
 10
98.0685365848341
 20
778.292535853712
 30
0.0
 11
98.13500000000001
 21
777.6015
 31
0.0
  0
LINE
  5
33C
330
1E
100
AcDbEntity
  8
0
100
AcDbLine
 10
98.13500000000001
 20
777.6015
 30
0.0
 11
99.5385
 21
777.1124999999999
 31
0.0
  0
LINE
  5
33D
330
1E
100
AcDbEntity
  8
0
100
AcDbLine
 10
98.13500000000001
 20
777.6015
 30
0.0
 11
99.54920000000001
 21
778.3084999999999
 31
0.0
  0
LINE
  5
33E
330
1E
100
AcDbEntity
  8
0
100
AcDbLine
 10
110.185501132063
 20
778.548313426259
 30
0.0
 11
110.4155999999999
 21
777.2644999999999
 31
0.0
  0
LINE
  5
33F
330
1E
100
AcDbEntity
  8
0
100
AcDbLine
 10
111.6332
 20
778.0574999999999
 30
0.0
 11
113.186
 21
777.8175
 31
0.0
  0
LINE
  5
340
330
1E
100
AcDbEntity
  8
0
100
AcDbLine
 10
124.0428
 20
778.9755
 30
0.0
 11
125.0428
 21
779.8415
 31
0.0
  0
LINE
  5
341
330
1E
100
AcDbEntity
  8
0
100
AcDbLine
 10
124.0428
 20
778.9755
 30
0.0
 11
125.6977999999999
 21
779.0094999999999
 31
0.0
  0
LINE
  5
342
330
1E
100
AcDbEntity
  8
0
100
AcDbLine
 10
125.6977999999999
 20
779.0094999999999
 30
0.0
 11
126.6977999999999
 21
779.8754999999999
 31
0.0
  0
LINE
  5
343
330
1E
100
AcDbEntity
  8
0
100
AcDbLine
 10
111.483657577726
 20
778.8916011600929
 30
0.0
 11
111.6332
 21
778.0574999999999
 31
0.0
  0
LINE
  5
344
330
1E
100
AcDbEntity
  8
0
100
AcDbLine
 10
110.4155999999999
 20
777.2644999999999
 30
0.0
 11
111.9685
 21
777.0245
 31
0.0
  0
LINE
  5
345
330
1E
100
AcDbEntity
  8
0
100
AcDbLine
 10
110.4155999999999
 20
777.2644999999999
 30
0.0
 11
111.6332
 21
778.0574999999999
 31
0.0
  0
LINE
  5
346
330
1E
100
AcDbEntity
  8
0
100
AcDbLine
 10
112.969089883166
 20
779.028021982086
 30
0.0
 11
113.186
 21
777.8175
 31
0.0
  0
LINE
  5
347
330
1E
100
AcDbEntity
  8
0
100
AcDbLine
 10
100.923277949738
 20
778.125584232567
 30
0.0
 11
100.9526999999999
 21
777.8194999999999
 31
0.0
  0
LINE
  5
348
330
1E
100
AcDbEntity
  8
0
100
AcDbLine
 10
92.61048300610001
 20
777.226915422373
 30
0.0
 11
92.72490000000001
 21
775.5265
 31
0.0
  0
LINE
  5
349
330
1E
100
AcDbEntity
  8
0
100
AcDbLine
 10
93.5946
 20
776.7045
 30
0.0
 11
93.7174
 21
774.8795
 31
0.0
  0
LINE
  5
34A
330
1E
100
AcDbEntity
  8
0
100
AcDbLine
 10
78.98631289074799
 20
778.790810938929
 30
0.0
 11
78.9945
 21
777.5175
 31
0.0
  0
LINE
  5
34B
330
1E
100
AcDbEntity
  8
0
100
AcDbLine
 10
88.21240000000001
 20
779.4265
 30
0.0
 11
89.7991
 21
780.0354999999999
 31
0.0
  0
LINE
  5
34C
330
1E
100
AcDbEntity
  8
0
100
AcDbLine
 10
126.5
 20
776.8664999999999
 30
0.0
 11
131.3
 21
780.4165
 31
0.0
  0
LINE
  5
34D
330
1E
100
AcDbEntity
  8
0
100
AcDbLine
 10
76.74118231164929
 20
779.7981472924659
 30
0.0
 11
76.7508
 21
778.3015
 31
0.0
  0
LINE
  5
34E
330
1E
100
AcDbEntity
  8
0
100
AcDbLine
 10
99.38890274409029
 20
779.975148498405
 30
0.0
 11
99.54920000000001
 21
778.3084999999999
 31
0.0
  0
LINE
  5
34F
330
1E
100
AcDbEntity
  8
0
100
AcDbLine
 10
124.884713805097
 20
780.3992874939519
 30
0.0
 11
125.0428
 21
779.8415
 31
0.0
  0
LINE
  5
350
330
1E
100
AcDbEntity
  8
0
100
AcDbLine
 10
125.0428
 20
779.8415
 30
0.0
 11
126.6977999999999
 21
779.8754999999999
 31
0.0
  0
LINE
  5
351
330
1E
100
AcDbEntity
  8
0
100
AcDbLine
 10
123.605346672858
 20
780.5189997041829
 30
0.0
 11
124.0428
 21
778.9755
 31
0.0
  0
LINE
  5
352
330
1E
100
AcDbEntity
  8
0
100
AcDbLine
 10
126.5471370119459
 20
780.4068007915331
 30
0.0
 11
126.6977999999999
 21
779.8754999999999
 31
0.0
  0
LINE
  5
353
330
1E
100
AcDbEntity
  8
0
100
AcDbLine
 10
105.4194
 20
780.7305
 30
0.0
 11
106.4194
 21
781.5965
 31
0.0
  0
LINE
  5
354
330
1E
100
AcDbEntity
  8
0
100
AcDbLine
 10
103.7005
 20
781.0135
 30
0.0
 11
104.7004999999999
 21
781.8795
 31
0.0
  0
LINE
  5
355
330
1E
100
AcDbEntity
  8
0
100
AcDbLine
 10
103.7005
 20
781.0135
 30
0.0
 11
105.4194
 21
780.7305
 31
0.0
  0
LINE
  5
356
330
1E
100
AcDbEntity
  8
0
100
AcDbLine
 10
88.5828
 20
780.7525
 30
0.0
 11
89.7991
 21
780.0354999999999
 31
0.0
  0
LINE
  5
357
330
1E
100
AcDbEntity
  8
0
100
AcDbLine
 10
86.99609999999999
 20
780.1435
 30
0.0
 11
88.21240000000001
 21
779.4265
 31
0.0
  0
LINE
  5
358
330
1E
100
AcDbEntity
  8
0
100
AcDbLine
 10
86.99609999999999
 20
780.1435
 30
0.0
 11
88.5828
 21
780.7525
 31
0.0
  0
LINE
  5
359
330
1E
100
AcDbEntity
  8
0
100
AcDbLine
 10
103.615791892413
 20
781.722786034848
 30
0.0
 11
103.7005
 21
781.0135
 31
0.0
  0
LINE
  5
35A
330
1E
100
AcDbEntity
  8
0
100
AcDbLine
 10
104.6488591272979
 20
782.311904298455
 30
0.0
 11
104.7004999999999
 21
781.8795
 31
0.0
  0
LINE
  5
35B
330
1E
100
AcDbEntity
  8
0
100
AcDbLine
 10
104.7004999999999
 20
781.8795
 30
0.0
 11
106.4194
 21
781.5965
 31
0.0
  0
LINE
  5
35C
330
1E
100
AcDbEntity
  8
0
100
AcDbLine
 10
116.5685999999999
 20
782.3315
 30
0.0
 11
117.334
 21
783.2555
 31
0.0
  0
LINE
  5
35D
330
1E
100
AcDbEntity
  8
0
100
AcDbLine
 10
116.5685999999999
 20
782.3315
 30
0.0
 11
118.3769
 21
782.3134999999999
 31
0.0
  0
LINE
  5
35E
330
1E
100
AcDbEntity
  8
0
100
AcDbLine
 10
118.3769
 20
782.3134999999999
 30
0.0
 11
119.1423
 21
783.2374999999999
 31
0.0
  0
LINE
  5
35F
330
1E
100
AcDbEntity
  8
0
100
AcDbLine
 10
106.367611954103
 20
782.0298931438459
 30
0.0
 11
106.4194
 21
781.5965
 31
0.0
  0
LINE
  5
360
330
1E
100
AcDbEntity
  8
0
100
AcDbLine
 10
88.56367640516269
 20
781.3881524460989
 30
0.0
 11
88.5828
 21
780.7525
 31
0.0
  0
LINE
  5
361
330
1E
100
AcDbEntity
  8
0
100
AcDbLine
 10
86.95074030499501
 20
781.651218675779
 30
0.0
 11
86.99609999999999
 21
780.1435
 31
0.0
  0
LINE
  5
362
330
1E
100
AcDbEntity
  8
0
100
AcDbLine
 10
89.76544606554899
 20
781.156239515208
 30
0.0
 11
89.7991
 21
780.0354999999999
 31
0.0
  0
LINE
  5
363
330
1E
100
AcDbEntity
  8
0
100
AcDbLine
 10
131.3
 20
780.4165
 30
0.0
 11
134.8999999999999
 21
784.2165
 31
0.0
  0
LINE
  5
364
330
1E
100
AcDbEntity
  8
0
100
AcDbLine
 10
132.0999999999999
 20
779.7395
 30
0.0
 11
137.4
 21
783.6894999999999
 31
0.0
  0
LINE
  5
365
330
1E
100
AcDbEntity
  8
0
100
AcDbLine
 10
132.3
 20
779.6395
 30
0.0
 11
137.5999999999999
 21
783.6395
 31
0.0
  0
LINE
  5
366
330
1E
100
AcDbEntity
  8
0
100
AcDbLine
 10
116.292755304142
 20
783.619598158601
 30
0.0
 11
116.5685999999999
 21
782.3315
 31
0.0
  0
LINE
  5
367
330
1E
100
AcDbEntity
  8
0
100
AcDbLine
 10
117.334
 20
783.2555
 30
0.0
 11
119.1423
 21
783.2374999999999
 31
0.0
  0
LINE
  5
368
330
1E
100
AcDbEntity
  8
0
100
AcDbLine
 10
66.87119
 20
784.1355
 30
0.0
 11
67.50404
 21
784.2675
 31
0.0
  0
LINE
  5
369
330
1E
100
AcDbEntity
  8
0
100
AcDbLine
 10
66.22332
 20
784.0964999999999
 30
0.0
 11
66.87119
 21
784.1355
 31
0.0
  0
LINE
  5
36A
330
1E
100
AcDbEntity
  8
0
100
AcDbLine
 10
67.50404
 20
784.2675
 30
0.0
 11
68.0488
 21
784.4755
 31
0.0
  0
LINE
  5
36B
330
1E
100
AcDbEntity
  8
0
100
AcDbLine
 10
68.0488
 20
784.4755
 30
0.0
 11
68.4401
 21
784.7364999999999
 31
0.0
  0
LINE
  5
36C
330
1E
100
AcDbEntity
  8
0
100
AcDbLine
 10
68.4401
 20
784.7364999999999
 30
0.0
 11
68.67149999999999
 21
785.0475
 31
0.0
  0
LINE
  5
36D
330
1E
100
AcDbEntity
  8
0
100
AcDbLine
 10
68.67149999999999
 20
785.0475
 30
0.0
 11
68.78289999999999
 21
785.3755
 31
0.0
  0
LINE
  5
36E
330
1E
100
AcDbEntity
  8
0
100
AcDbLine
 10
68.67149999999999
 20
785.0475
 30
0.0
 11
69.27187089810669
 21
786.100002068286
 31
0.0
  0
LINE
  5
36F
330
1E
100
AcDbEntity
  8
0
100
AcDbLine
 10
73.464
 20
785.4524999999999
 30
0.0
 11
75.0
 21
785.3445
 31
0.0
  0
LINE
  5
370
330
1E
100
AcDbEntity
  8
0
100
AcDbLine
 10
75.0
 20
785.3445
 30
0.0
 11
76.536
 21
785.4524999999999
 31
0.0
  0
LINE
  5
371
330
1E
100
AcDbEntity
  8
0
100
AcDbLine
 10
68.7043
 20
785.6994999999999
 30
0.0
 11
68.78289999999999
 21
785.3755
 31
0.0
  0
LINE
  5
372
330
1E
100
AcDbEntity
  8
0
100
AcDbLine
 10
68.4409
 20
786.0154999999999
 30
0.0
 11
68.7043
 21
785.6994999999999
 31
0.0
  0
LINE
  5
373
330
1E
100
AcDbEntity
  8
0
100
AcDbLine
 10
72.024
 20
785.7414999999999
 30
0.0
 11
73.464
 21
785.4524999999999
 31
0.0
  0
LINE
  5
374
330
1E
100
AcDbEntity
  8
0
100
AcDbLine
 10
70.75199999999999
 20
786.2214999999999
 30
0.0
 11
72.024
 21
785.7414999999999
 31
0.0
  0
LINE
  5
375
330
1E
100
AcDbEntity
  8
0
100
AcDbLine
 10
76.536
 20
785.4524999999999
 30
0.0
 11
77.976
 21
785.7414999999999
 31
0.0
  0
LINE
  5
376
330
1E
100
AcDbEntity
  8
0
100
AcDbLine
 10
77.976
 20
785.7414999999999
 30
0.0
 11
79.24800000000001
 21
786.2214999999999
 31
0.0
  0
LINE
  5
377
330
1E
100
AcDbEntity
  8
0
100
AcDbLine
 10
66.22410000000001
 20
786.6554999999999
 30
0.0
 11
66.87948
 21
786.5995
 31
0.0
  0
LINE
  5
378
330
1E
100
AcDbEntity
  8
0
100
AcDbLine
 10
66.87948
 20
786.5995
 30
0.0
 11
67.50295
 21
786.4835
 31
0.0
  0
LINE
  5
379
330
1E
100
AcDbEntity
  8
0
100
AcDbLine
 10
67.50295
 20
786.4835
 30
0.0
 11
68.0243
 21
786.2885
 31
0.0
  0
LINE
  5
37A
330
1E
100
AcDbEntity
  8
0
100
AcDbLine
 10
68.0243
 20
786.2885
 30
0.0
 11
68.4409
 21
786.0154999999999
 31
0.0
  0
LINE
  5
37B
330
1E
100
AcDbEntity
  8
0
100
AcDbLine
 10
69.792
 20
786.8565
 30
0.0
 11
70.75199999999999
 21
786.2214999999999
 31
0.0
  0
LINE
  5
37C
330
1E
100
AcDbEntity
  8
0
100
AcDbLine
 10
69.21600000000001
 20
787.5774999999999
 30
0.0
 11
69.792
 21
786.8565
 31
0.0
  0
LINE
  5
37D
330
1E
100
AcDbEntity
  8
0
100
AcDbLine
 10
79.24800000000001
 20
786.2214999999999
 30
0.0
 11
80.20799999999999
 21
786.8565
 31
0.0
  0
LINE
  5
37E
330
1E
100
AcDbEntity
  8
0
100
AcDbLine
 10
82.50100000000001
 20
784.2714999999999
 30
0.0
 11
83.1338
 21
784.1395
 31
0.0
  0
LINE
  5
37F
330
1E
100
AcDbEntity
  8
0
100
AcDbLine
 10
83.1338
 20
784.1395
 30
0.0
 11
83.7817
 21
784.1005
 31
0.0
  0
LINE
  5
380
330
1E
100
AcDbEntity
  8
0
100
AcDbLine
 10
83.7817
 20
784.1005
 30
0.0
 11
84.43700000000001
 21
784.1565000000001
 31
0.0
  0
LINE
  5
381
330
1E
100
AcDbEntity
  8
0
100
AcDbLine
 10
84.43700000000001
 20
784.1565000000001
 30
0.0
 11
85.06059999999999
 21
784.2714999999999
 31
0.0
  0
LINE
  5
382
330
1E
100
AcDbEntity
  8
0
100
AcDbLine
 10
81.2221
 20
785.3794999999999
 30
0.0
 11
81.30070000000001
 21
785.7034999999999
 31
0.0
  0
LINE
  5
383
330
1E
100
AcDbEntity
  8
0
100
AcDbLine
 10
81.2221
 20
785.3794999999999
 30
0.0
 11
81.3335
 21
785.0515
 31
0.0
  0
LINE
  5
384
330
1E
100
AcDbEntity
  8
0
100
AcDbLine
 10
81.9561
 20
784.4795
 30
0.0
 11
82.50100000000001
 21
784.2714999999999
 31
0.0
  0
LINE
  5
385
330
1E
100
AcDbEntity
  8
0
100
AcDbLine
 10
81.56489999999999
 20
784.7405
 30
0.0
 11
81.9561
 21
784.4795
 31
0.0
  0
LINE
  5
386
330
1E
100
AcDbEntity
  8
0
100
AcDbLine
 10
81.3335
 20
785.0515
 30
0.0
 11
81.56489999999999
 21
784.7405
 31
0.0
  0
LINE
  5
387
330
1E
100
AcDbEntity
  8
0
100
AcDbLine
 10
81.30070000000001
 20
785.7034999999999
 30
0.0
 11
81.5642
 21
786.0204999999999
 31
0.0
  0
LINE
  5
388
330
1E
100
AcDbEntity
  8
0
100
AcDbLine
 10
85.06059999999999
 20
784.2714999999999
 30
0.0
 11
85.58190000000001
 21
784.4674999999999
 31
0.0
  0
LINE
  5
389
330
1E
100
AcDbEntity
  8
0
100
AcDbLine
 10
85.58190000000001
 20
784.4674999999999
 30
0.0
 11
85.99850000000001
 21
784.7395
 31
0.0
  0
LINE
  5
38A
330
1E
100
AcDbEntity
  8
0
100
AcDbLine
 10
85.99760000000001
 20
786.0195
 30
0.0
 11
86.22899999999999
 21
785.7075
 31
0.0
  0
LINE
  5
38B
330
1E
100
AcDbEntity
  8
0
100
AcDbLine
 10
94.02700000000001
 20
784.2995
 30
0.0
 11
94.7924
 21
785.2234999999999
 31
0.0
  0
LINE
  5
38C
330
1E
100
AcDbEntity
  8
0
100
AcDbLine
 10
94.02700000000001
 20
784.2995
 30
0.0
 11
95.87299999999999
 21
783.9925
 31
0.0
  0
LINE
  5
38D
330
1E
100
AcDbEntity
  8
0
100
AcDbLine
 10
117.17392486968
 20
784.002994817552
 30
0.0
 11
117.334
 21
783.2555
 31
0.0
  0
LINE
  5
38E
330
1E
100
AcDbEntity
  8
0
100
AcDbLine
 10
118.8775654973019
 20
784.4733921257519
 30
0.0
 11
119.1423
 21
783.2374999999999
 31
0.0
  0
LINE
  5
38F
330
1E
100
AcDbEntity
  8
0
100
AcDbLine
 10
107.3101
 20
785.0304999999999
 30
0.0
 11
107.8276999999999
 21
785.9955
 31
0.0
  0
LINE
  5
390
330
1E
100
AcDbEntity
  8
0
100
AcDbLine
 10
107.3101
 20
785.0304999999999
 30
0.0
 11
109.2273
 21
784.9854999999999
 31
0.0
  0
LINE
  5
391
330
1E
100
AcDbEntity
  8
0
100
AcDbLine
 10
109.2273
 20
784.9854999999999
 30
0.0
 11
109.745
 21
785.9515
 31
0.0
  0
LINE
  5
392
330
1E
100
AcDbEntity
  8
0
100
AcDbLine
 10
95.87299999999999
 20
783.9925
 30
0.0
 11
96.6384
 21
784.9165
 31
0.0
  0
LINE
  5
393
330
1E
100
AcDbEntity
  8
0
100
AcDbLine
 10
93.96676842569641
 20
785.606637395135
 30
0.0
 11
94.02700000000001
 21
784.2995
 31
0.0
  0
LINE
  5
394
330
1E
100
AcDbEntity
  8
0
100
AcDbLine
 10
129.9989999999999
 20
785.8244999999999
 30
0.0
 11
130.5166999999999
 21
786.7904999999999
 31
0.0
  0
LINE
  5
395
330
1E
100
AcDbEntity
  8
0
100
AcDbLine
 10
129.9989999999999
 20
785.8244999999999
 30
0.0
 11
131.8448999999999
 21
786.0884999999999
 31
0.0
  0
LINE
  5
396
330
1E
100
AcDbEntity
  8
0
100
AcDbLine
 10
107.216809544622
 20
785.71877275258
 30
0.0
 11
107.3101
 21
785.0304999999999
 31
0.0
  0
LINE
  5
397
330
1E
100
AcDbEntity
  8
0
100
AcDbLine
 10
107.8276999999999
 20
785.9955
 30
0.0
 11
109.745
 21
785.9515
 31
0.0
  0
LINE
  5
398
330
1E
100
AcDbEntity
  8
0
100
AcDbLine
 10
94.76223876266898
 20
785.8780550511458
 30
0.0
 11
94.7924
 21
785.2234999999999
 31
0.0
  0
LINE
  5
399
330
1E
100
AcDbEntity
  8
0
100
AcDbLine
 10
94.7924
 20
785.2234999999999
 30
0.0
 11
96.6384
 21
784.9165
 31
0.0
  0
LINE
  5
39A
330
1E
100
AcDbEntity
  8
0
100
AcDbLine
 10
86.22899999999999
 20
785.7075
 30
0.0
 11
86.34059999999999
 21
785.3805
 31
0.0
  0
LINE
  5
39B
330
1E
100
AcDbEntity
  8
0
100
AcDbLine
 10
86.26179999999999
 20
785.0565
 30
0.0
 11
86.9354280257831
 21
786.2469101386099
 31
0.0
  0
LINE
  5
39C
330
1E
100
AcDbEntity
  8
0
100
AcDbLine
 10
86.26179999999999
 20
785.0565
 30
0.0
 11
86.34059999999999
 21
785.3805
 31
0.0
  0
LINE
  5
39D
330
1E
100
AcDbEntity
  8
0
100
AcDbLine
 10
85.99850000000001
 20
784.7395
 30
0.0
 11
86.26179999999999
 21
785.0565
 31
0.0
  0
LINE
  5
39E
330
1E
100
AcDbEntity
  8
0
100
AcDbLine
 10
80.7381192607999
 20
786.0952538884739
 30
0.0
 11
81.3335
 21
785.0515
 31
0.0
  0
LINE
  5
39F
330
1E
100
AcDbEntity
  8
0
100
AcDbLine
 10
85.0609
 20
786.4885000000001
 30
0.0
 11
85.6057
 21
786.2804999999999
 31
0.0
  0
LINE
  5
3A0
330
1E
100
AcDbEntity
  8
0
100
AcDbLine
 10
107.7704548013699
 20
786.418081546376
 30
0.0
 11
107.8276999999999
 21
785.9955
 31
0.0
  0
LINE
  5
3A1
330
1E
100
AcDbEntity
  8
0
100
AcDbLine
 10
131.8448999999999
 20
786.0884999999999
 30
0.0
 11
132.3625
 21
787.0544999999999
 31
0.0
  0
LINE
  5
3A2
330
1E
100
AcDbEntity
  8
0
100
AcDbLine
 10
109.6862578251309
 20
786.384949423495
 30
0.0
 11
109.745
 21
785.9515
 31
0.0
  0
LINE
  5
3A3
330
1E
100
AcDbEntity
  8
0
100
AcDbLine
 10
96.5873386010773
 20
786.024627502086
 30
0.0
 11
96.6384
 21
784.9165
 31
0.0
  0
LINE
  5
3A4
330
1E
100
AcDbEntity
  8
0
100
AcDbLine
 10
85.6057
 20
786.2804999999999
 30
0.0
 11
85.99760000000001
 21
786.0195
 31
0.0
  0
LINE
  5
3A5
330
1E
100
AcDbEntity
  8
0
100
AcDbLine
 10
84.42809999999999
 20
786.6204999999999
 30
0.0
 11
85.0609
 21
786.4885000000001
 31
0.0
  0
LINE
  5
3A6
330
1E
100
AcDbEntity
  8
0
100
AcDbLine
 10
129.510768593542
 20
787.307441857483
 30
0.0
 11
129.9989999999999
 21
785.8244999999999
 31
0.0
  0
LINE
  5
3A7
330
1E
100
AcDbEntity
  8
0
100
AcDbLine
 10
130.33671987526
 20
787.337071220922
 30
0.0
 11
130.5166999999999
 21
786.7904999999999
 31
0.0
  0
LINE
  5
3A8
330
1E
100
AcDbEntity
  8
0
100
AcDbLine
 10
130.5166999999999
 20
786.7904999999999
 30
0.0
 11
132.3625
 21
787.0544999999999
 31
0.0
  0
LINE
  5
3A9
330
1E
100
AcDbEntity
  8
0
100
AcDbLine
 10
132.246908266371
 20
787.4055954393969
 30
0.0
 11
132.3625
 21
787.0544999999999
 31
0.0
  0
LINE
  5
3AA
330
1E
100
AcDbEntity
  8
0
100
AcDbLine
 10
83.7809
 20
786.6595
 30
0.0
 11
84.42809999999999
 21
786.6204999999999
 31
0.0
  0
LINE
  5
3AB
330
1E
100
AcDbEntity
  8
0
100
AcDbLine
 10
83.12549999999999
 20
786.6035
 30
0.0
 11
83.7809
 21
786.6595
 31
0.0
  0
LINE
  5
3AC
330
1E
100
AcDbEntity
  8
0
100
AcDbLine
 10
82.5021
 20
786.4885000000001
 30
0.0
 11
83.12549999999999
 21
786.6035
 31
0.0
  0
LINE
  5
3AD
330
1E
100
AcDbEntity
  8
0
100
AcDbLine
 10
81.98059999999999
 20
786.2925
 30
0.0
 11
82.5021
 21
786.4885000000001
 31
0.0
  0
LINE
  5
3AE
330
1E
100
AcDbEntity
  8
0
100
AcDbLine
 10
81.5642
 20
786.0204999999999
 30
0.0
 11
81.98059999999999
 21
786.2925
 31
0.0
  0
LINE
  5
3AF
330
1E
100
AcDbEntity
  8
0
100
AcDbLine
 10
80.20799999999999
 20
786.8565
 30
0.0
 11
80.784
 21
787.5774999999999
 31
0.0
  0
LINE
  5
3B0
330
1E
100
AcDbEntity
  8
0
100
AcDbLine
 10
119.8887999999999
 20
788.0225
 30
0.0
 11
120.1497999999999
 21
789.0145
 31
0.0
  0
LINE
  5
3B1
330
1E
100
AcDbEntity
  8
0
100
AcDbLine
 10
119.8887999999999
 20
788.0225
 30
0.0
 11
121.8293
 21
788.2514999999999
 31
0.0
  0
LINE
  5
3B2
330
1E
100
AcDbEntity
  8
0
100
AcDbLine
 10
80.784
 20
787.5774999999999
 30
0.0
 11
81.0
 21
788.3445
 31
0.0
  0
LINE
  5
3B3
330
1E
100
AcDbEntity
  8
0
100
AcDbLine
 10
134.8999999999999
 20
784.2165
 30
0.0
 11
137.7
 21
788.2165
 31
0.0
  0
LINE
  5
3B4
330
1E
100
AcDbEntity
  8
0
100
AcDbLine
 10
69.0
 20
788.9284183673469
 30
0.0
 11
69.0
 21
788.3445
 31
0.0
  0
LINE
  5
3B5
330
1E
100
AcDbEntity
  8
0
100
AcDbLine
 10
121.8293
 20
788.2514999999999
 30
0.0
 11
122.0903999999999
 21
789.2424999999999
 31
0.0
  0
LINE
  5
3B6
330
1E
100
AcDbEntity
  8
0
100
AcDbLine
 10
120.1497999999999
 20
789.0145
 30
0.0
 11
122.0903999999999
 21
789.2424999999999
 31
0.0
  0
LINE
  5
3B7
330
1E
100
AcDbEntity
  8
0
100
AcDbLine
 10
81.0
 20
788.9284183673469
 30
0.0
 11
81.0
 21
788.3445
 31
0.0
  0
LINE
  5
3B8
330
1E
100
AcDbEntity
  8
0
100
AcDbLine
 10
81.0
 20
788.3445
 30
0.0
 11
81.0
 21
788.9284183673469
 31
0.0
  0
LINE
  5
3B9
330
1E
100
AcDbEntity
  8
0
100
AcDbLine
 10
80.784
 20
789.1135
 30
0.0
 11
81.0
 21
788.3445
 31
0.0
  0
LINE
  5
3BA
330
1E
100
AcDbEntity
  8
0
100
AcDbLine
 10
79.24800000000001
 20
790.4684999999999
 30
0.0
 11
80.20799999999999
 21
789.8334999999999
 31
0.0
  0
LINE
  5
3BB
330
1E
100
AcDbEntity
  8
0
100
AcDbLine
 10
119.579829214034
 20
789.3274980216659
 30
0.0
 11
119.8887999999999
 21
788.0225
 31
0.0
  0
LINE
  5
3BC
330
1E
100
AcDbEntity
  8
0
100
AcDbLine
 10
120.034142081307
 20
789.50300364481
 30
0.0
 11
120.1497999999999
 21
789.0145
 31
0.0
  0
LINE
  5
3BD
330
1E
100
AcDbEntity
  8
0
100
AcDbLine
 10
108.7177999999999
 20
789.3765
 30
0.0
 11
110.7026999999999
 21
789.5895
 31
0.0
  0
LINE
  5
3BE
330
1E
100
AcDbEntity
  8
0
100
AcDbLine
 10
108.7177999999999
 20
789.3765
 30
0.0
 11
108.7177999999999
 21
790.3764999999999
 31
0.0
  0
LINE
  5
3BF
330
1E
100
AcDbEntity
  8
0
100
AcDbLine
 10
108.6288739007249
 20
789.9989102795309
 30
0.0
 11
108.7177999999999
 21
789.3765
 31
0.0
  0
LINE
  5
3C0
330
1E
100
AcDbEntity
  8
0
100
AcDbLine
 10
110.7026999999999
 20
789.5895
 30
0.0
 11
110.7026999999999
 21
790.5895000000001
 31
0.0
  0
LINE
  5
3C1
330
1E
100
AcDbEntity
  8
0
100
AcDbLine
 10
95.95969999999999
 20
789.6565
 30
0.0
 11
97.94070000000001
 21
789.8625
 31
0.0
  0
LINE
  5
3C2
330
1E
100
AcDbEntity
  8
0
100
AcDbLine
 10
108.7177999999999
 20
790.3764999999999
 30
0.0
 11
108.7177999999999
 21
789.3765
 31
0.0
  0
LINE
  5
3C3
330
1E
100
AcDbEntity
  8
0
100
AcDbLine
 10
108.7177999999999
 20
790.3764999999999
 30
0.0
 11
110.7026999999999
 21
790.5895000000001
 31
0.0
  0
LINE
  5
3C4
330
1E
100
AcDbEntity
  8
0
100
AcDbLine
 10
80.20799999999999
 20
789.8334999999999
 30
0.0
 11
80.784
 21
789.1135
 31
0.0
  0
LINE
  5
3C5
330
1E
100
AcDbEntity
  8
0
100
AcDbLine
 10
71.2663
 20
799.1304999999999
 30
0.0
 11
73.2492
 21
799.2614999999999
 31
0.0
  0
LINE
  5
3C6
330
1E
100
AcDbEntity
  8
0
100
AcDbLine
 10
71.0055
 20
800.1965
 30
0.0
 11
72.9884
 21
800.3275
 31
0.0
  0
LINE
  5
3C7
330
1E
100
AcDbEntity
  8
0
100
AcDbLine
 10
71.0055
 20
800.1965
 30
0.0
 11
71.00785162456221
 21
800.544705461491
 31
0.0
  0
LINE
  5
3C8
330
1E
100
AcDbEntity
  8
0
100
AcDbLine
 10
71.0055
 20
800.1965
 30
0.0
 11
71.2663
 21
799.1304999999999
 31
0.0
  0
LINE
  5
3C9
330
1E
100
AcDbEntity
  8
0
100
AcDbLine
 10
71.97563077833979
 20
793.6081051297231
 30
0.0
 11
72.5231
 21
792.6404999999999
 31
0.0
  0
LINE
  5
3CA
330
1E
100
AcDbEntity
  8
0
100
AcDbLine
 10
76.536
 20
791.2374999999999
 30
0.0
 11
77.976
 21
790.9485
 31
0.0
  0
LINE
  5
3CB
330
1E
100
AcDbEntity
  8
0
100
AcDbLine
 10
95.6986
 20
790.6484999999999
 30
0.0
 11
95.95969999999999
 21
789.6565
 31
0.0
  0
LINE
  5
3CC
330
1E
100
AcDbEntity
  8
0
100
AcDbLine
 10
95.6986
 20
790.6484999999999
 30
0.0
 11
97.6796
 21
790.8545
 31
0.0
  0
LINE
  5
3CD
330
1E
100
AcDbEntity
  8
0
100
AcDbLine
 10
121.799058519064
 20
790.4727354835
 30
0.0
 11
122.0903999999999
 21
789.2424999999999
 31
0.0
  0
LINE
  5
3CE
330
1E
100
AcDbEntity
  8
0
100
AcDbLine
 10
110.7026999999999
 20
790.5895000000001
 30
0.0
 11
110.7026999999999
 21
789.5895
 31
0.0
  0
LINE
  5
3CF
330
1E
100
AcDbEntity
  8
0
100
AcDbLine
 10
97.90913777837861
 20
790.492648521956
 30
0.0
 11
97.94070000000001
 21
789.8625
 31
0.0
  0
LINE
  5
3D0
330
1E
100
AcDbEntity
  8
0
100
AcDbLine
 10
97.6796
 20
790.8545
 30
0.0
 11
97.94070000000001
 21
789.8625
 31
0.0
  0
LINE
  5
3D1
330
1E
100
AcDbEntity
  8
0
100
AcDbLine
 10
77.976
 20
790.9485
 30
0.0
 11
79.24800000000001
 21
790.4684999999999
 31
0.0
  0
LINE
  5
3D2
330
1E
100
AcDbEntity
  8
0
100
AcDbLine
 10
74.99500000000001
 20
791.7005
 30
0.0
 11
75.67499999999999
 21
791.7445
 31
0.0
  0
LINE
  5
3D3
330
1E
100
AcDbEntity
  8
0
100
AcDbLine
 10
72.5231
 20
793.3205
 30
0.0
 11
72.77899999999999
 21
793.6205
 31
0.0
  0
LINE
  5
3D4
330
1E
100
AcDbEntity
  8
0
100
AcDbLine
 10
72.77899999999999
 20
793.6205
 30
0.0
 11
73.203
 21
793.8765
 31
0.0
  0
LINE
  5
3D5
330
1E
100
AcDbEntity
  8
0
100
AcDbLine
 10
72.435
 20
792.9804999999999
 30
0.0
 11
72.5231
 21
792.6404999999999
 31
0.0
  0
LINE
  5
3D6
330
1E
100
AcDbEntity
  8
0
100
AcDbLine
 10
72.435
 20
792.9804999999999
 30
0.0
 11
72.5231
 21
793.3205
 31
0.0
  0
LINE
  5
3D7
330
1E
100
AcDbEntity
  8
0
100
AcDbLine
 10
72.5231
 20
792.6404999999999
 30
0.0
 11
72.77899999999999
 21
792.3405
 31
0.0
  0
LINE
  5
3D8
330
1E
100
AcDbEntity
  8
0
100
AcDbLine
 10
73.203
 20
793.8765
 30
0.0
 11
73.71500000000001
 21
794.0884999999999
 31
0.0
  0
LINE
  5
3D9
330
1E
100
AcDbEntity
  8
0
100
AcDbLine
 10
72.9884
 20
800.3275
 30
0.0
 11
72.99940045595329
 21
801.955374490639
 31
0.0
  0
LINE
  5
3DA
330
1E
100
AcDbEntity
  8
0
100
AcDbLine
 10
72.9884
 20
800.3275
 30
0.0
 11
73.2492
 21
799.2614999999999
 31
0.0
  0
LINE
  5
3DB
330
1E
100
AcDbEntity
  8
0
100
AcDbLine
 10
73.71500000000001
 20
794.0884999999999
 30
0.0
 11
74.3151
 21
794.2165
 31
0.0
  0
LINE
  5
3DC
330
1E
100
AcDbEntity
  8
0
100
AcDbLine
 10
72.77899999999999
 20
792.3405
 30
0.0
 11
73.20289999999999
 21
792.0845
 31
0.0
  0
LINE
  5
3DD
330
1E
100
AcDbEntity
  8
0
100
AcDbLine
 10
73.20289999999999
 20
792.0845
 30
0.0
 11
73.71500000000001
 21
791.8724999999999
 31
0.0
  0
LINE
  5
3DE
330
1E
100
AcDbEntity
  8
0
100
AcDbLine
 10
74.99500000000001
 20
794.2605
 30
0.0
 11
75.67499999999999
 21
794.2165
 31
0.0
  0
LINE
  5
3DF
330
1E
100
AcDbEntity
  8
0
100
AcDbLine
 10
74.3151
 20
794.2165
 30
0.0
 11
74.99500000000001
 21
794.2605
 31
0.0
  0
LINE
  5
3E0
330
1E
100
AcDbEntity
  8
0
100
AcDbLine
 10
73.71500000000001
 20
791.8724999999999
 30
0.0
 11
74.31499999999999
 21
791.7445
 31
0.0
  0
LINE
  5
3E1
330
1E
100
AcDbEntity
  8
0
100
AcDbLine
 10
74.31499999999999
 20
791.7445
 30
0.0
 11
74.99500000000001
 21
791.7005
 31
0.0
  0
LINE
  5
3E2
330
1E
100
AcDbEntity
  8
0
100
AcDbLine
 10
76.27500000000001
 20
791.8724999999999
 30
0.0
 11
76.78699999999999
 21
792.0845
 31
0.0
  0
LINE
  5
3E3
330
1E
100
AcDbEntity
  8
0
100
AcDbLine
 10
75.67499999999999
 20
791.7445
 30
0.0
 11
76.27500000000001
 21
791.8724999999999
 31
0.0
  0
LINE
  5
3E4
330
1E
100
AcDbEntity
  8
0
100
AcDbLine
 10
77.21099999999999
 20
792.3405
 30
0.0
 11
77.4669
 21
792.6404999999999
 31
0.0
  0
LINE
  5
3E5
330
1E
100
AcDbEntity
  8
0
100
AcDbLine
 10
76.78699999999999
 20
792.0845
 30
0.0
 11
77.21099999999999
 21
792.3405
 31
0.0
  0
LINE
  5
3E6
330
1E
100
AcDbEntity
  8
0
100
AcDbLine
 10
95.63326323432319
 20
791.9544782247109
 30
0.0
 11
95.6986
 21
790.6484999999999
 31
0.0
  0
LINE
  5
3E7
330
1E
100
AcDbEntity
  8
0
100
AcDbLine
 10
108.5515887506049
 20
791.5398433945829
 30
0.0
 11
108.7177999999999
 21
790.3764999999999
 31
0.0
  0
LINE
  5
3E8
330
1E
100
AcDbEntity
  8
0
100
AcDbLine
 10
110.595645591596
 20
791.3383577916849
 30
0.0
 11
110.7026999999999
 21
790.5895000000001
 31
0.0
  0
LINE
  5
3E9
330
1E
100
AcDbEntity
  8
0
100
AcDbLine
 10
97.62319874597121
 20
791.981217983149
 30
0.0
 11
97.6796
 21
790.8545
 31
0.0
  0
LINE
  5
3EA
330
1E
100
AcDbEntity
  8
0
100
AcDbLine
 10
132.2070999999999
 20
793.2105
 30
0.0
 11
134.1180999999999
 21
793.7215
 31
0.0
  0
LINE
  5
3EB
330
1E
100
AcDbEntity
  8
0
100
AcDbLine
 10
132.2070999999999
 20
793.2105
 30
0.0
 11
132.2070999999999
 21
794.2105
 31
0.0
  0
LINE
  5
3EC
330
1E
100
AcDbEntity
  8
0
100
AcDbLine
 10
77.4669
 20
792.6404999999999
 30
0.0
 11
78.015230957225
 21
793.609628173796
 31
0.0
  0
LINE
  5
3ED
330
1E
100
AcDbEntity
  8
0
100
AcDbLine
 10
77.4669
 20
792.6404999999999
 30
0.0
 11
77.5549
 21
792.9804999999999
 31
0.0
  0
LINE
  5
3EE
330
1E
100
AcDbEntity
  8
0
100
AcDbLine
 10
107.8276999999999
 20
793.7565
 30
0.0
 11
109.745
 21
794.2264999999999
 31
0.0
  0
LINE
  5
3EF
330
1E
100
AcDbEntity
  8
0
100
AcDbLine
 10
134.1180999999999
 20
793.7215
 30
0.0
 11
134.1180999999999
 21
794.7214999999999
 31
0.0
  0
LINE
  5
3F0
330
1E
100
AcDbEntity
  8
0
100
AcDbLine
 10
77.4669
 20
793.3205
 30
0.0
 11
77.5549
 21
792.9804999999999
 31
0.0
  0
LINE
  5
3F1
330
1E
100
AcDbEntity
  8
0
100
AcDbLine
 10
77.21099999999999
 20
793.6205
 30
0.0
 11
77.4669
 21
793.3205
 31
0.0
  0
LINE
  5
3F2
330
1E
100
AcDbEntity
  8
0
100
AcDbLine
 10
120.1497999999999
 20
793.9494999999999
 30
0.0
 11
122.0903999999999
 21
794.4334999999999
 31
0.0
  0
LINE
  5
3F3
330
1E
100
AcDbEntity
  8
0
100
AcDbLine
 10
132.2070999999999
 20
794.2105
 30
0.0
 11
132.2070999999999
 21
793.2105
 31
0.0
  0
LINE
  5
3F4
330
1E
100
AcDbEntity
  8
0
100
AcDbLine
 10
132.2070999999999
 20
794.2105
 30
0.0
 11
134.1180999999999
 21
794.7214999999999
 31
0.0
  0
LINE
  5
3F5
330
1E
100
AcDbEntity
  8
0
100
AcDbLine
 10
76.7869
 20
793.8765
 30
0.0
 11
77.21099999999999
 21
793.6205
 31
0.0
  0
LINE
  5
3F6
330
1E
100
AcDbEntity
  8
0
100
AcDbLine
 10
76.27500000000001
 20
794.0884999999999
 30
0.0
 11
76.7869
 21
793.8765
 31
0.0
  0
LINE
  5
3F7
330
1E
100
AcDbEntity
  8
0
100
AcDbLine
 10
91.0027823587376
 20
796.9514241781641
 30
0.0
 11
91.05870000000001
 21
795.5725
 31
0.0
  0
LINE
  5
3F8
330
1E
100
AcDbEntity
  8
0
100
AcDbLine
 10
92.27619999999999
 20
794.7795
 30
0.0
 11
93.86140000000001
 21
795.4634999999999
 31
0.0
  0
LINE
  5
3F9
330
1E
100
AcDbEntity
  8
0
100
AcDbLine
 10
91.05870000000001
 20
795.5725
 30
0.0
 11
92.6439
 21
796.2564999999999
 31
0.0
  0
LINE
  5
3FA
330
1E
100
AcDbEntity
  8
0
100
AcDbLine
 10
91.05870000000001
 20
795.5725
 30
0.0
 11
92.27619999999999
 21
794.7795
 31
0.0
  0
LINE
  5
3FB
330
1E
100
AcDbEntity
  8
0
100
AcDbLine
 10
92.5968300717637
 20
797.417240343193
 30
0.0
 11
92.6439
 21
796.2564999999999
 31
0.0
  0
LINE
  5
3FC
330
1E
100
AcDbEntity
  8
0
100
AcDbLine
 10
107.3101
 20
794.7224999999999
 30
0.0
 11
107.8276999999999
 21
793.7565
 31
0.0
  0
LINE
  5
3FD
330
1E
100
AcDbEntity
  8
0
100
AcDbLine
 10
107.3101
 20
794.7224999999999
 30
0.0
 11
109.2273
 21
795.1925
 31
0.0
  0
LINE
  5
3FE
330
1E
100
AcDbEntity
  8
0
100
AcDbLine
 10
107.153365420946
 20
795.8372185280979
 30
0.0
 11
107.3101
 21
794.7224999999999
 31
0.0
  0
LINE
  5
3FF
330
1E
100
AcDbEntity
  8
0
100
AcDbLine
 10
109.553626031333
 20
795.58700520498
 30
0.0
 11
109.745
 21
794.2264999999999
 31
0.0
  0
LINE
  5
400
330
1E
100
AcDbEntity
  8
0
100
AcDbLine
 10
109.2273
 20
795.1925
 30
0.0
 11
109.745
 21
794.2264999999999
 31
0.0
  0
LINE
  5
401
330
1E
100
AcDbEntity
  8
0
100
AcDbLine
 10
119.769463129832
 20
795.429736201718
 30
0.0
 11
119.8887999999999
 21
794.9415
 31
0.0
  0
LINE
  5
402
330
1E
100
AcDbEntity
  8
0
100
AcDbLine
 10
119.8887999999999
 20
794.9415
 30
0.0
 11
120.1497999999999
 21
793.9494999999999
 31
0.0
  0
LINE
  5
403
330
1E
100
AcDbEntity
  8
0
100
AcDbLine
 10
119.8887999999999
 20
794.9415
 30
0.0
 11
121.8293
 21
795.4255
 31
0.0
  0
LINE
  5
404
330
1E
100
AcDbEntity
  8
0
100
AcDbLine
 10
121.936879718835
 20
795.0614348430209
 30
0.0
 11
122.0903999999999
 21
794.4334999999999
 31
0.0
  0
LINE
  5
405
330
1E
100
AcDbEntity
  8
0
100
AcDbLine
 10
121.8293
 20
795.4255
 30
0.0
 11
122.0903999999999
 21
794.4334999999999
 31
0.0
  0
LINE
  5
406
330
1E
100
AcDbEntity
  8
0
100
AcDbLine
 10
109.1279769372069
 20
795.8988996919559
 30
0.0
 11
109.2273
 21
795.1925
 31
0.0
  0
LINE
  5
407
330
1E
100
AcDbEntity
  8
0
100
AcDbLine
 10
121.725807402
 20
795.8489134252251
 30
0.0
 11
121.8293
 21
795.4255
 31
0.0
  0
LINE
  5
408
330
1E
100
AcDbEntity
  8
0
100
AcDbLine
 10
132.050258911874
 20
794.650452543811
 30
0.0
 11
132.2070999999999
 21
794.2105
 31
0.0
  0
LINE
  5
409
330
1E
100
AcDbEntity
  8
0
100
AcDbLine
 10
131.714498649079
 20
794.5922885352099
 30
0.0
 11
132.2070999999999
 21
793.2105
 31
0.0
  0
LINE
  5
40A
330
1E
100
AcDbEntity
  8
0
100
AcDbLine
 10
134.1180999999999
 20
794.7214999999999
 30
0.0
 11
134.1180999999999
 21
793.7215
 31
0.0
  0
LINE
  5
40B
330
1E
100
AcDbEntity
  8
0
100
AcDbLine
 10
133.9443338171109
 20
795.208846267888
 30
0.0
 11
134.1180999999999
 21
794.7214999999999
 31
0.0
  0
LINE
  5
40C
330
1E
100
AcDbEntity
  8
0
100
AcDbLine
 10
104.7004999999999
 20
797.8724999999999
 30
0.0
 11
106.4194
 21
798.5815
 31
0.0
  0
LINE
  5
40D
330
1E
100
AcDbEntity
  8
0
100
AcDbLine
 10
93.83752687797899
 20
796.0522091161188
 30
0.0
 11
93.86140000000001
 21
795.4634999999999
 31
0.0
  0
LINE
  5
40E
330
1E
100
AcDbEntity
  8
0
100
AcDbLine
 10
92.6439
 20
796.2564999999999
 30
0.0
 11
93.86140000000001
 21
795.4634999999999
 31
0.0
  0
LINE
  5
40F
330
1E
100
AcDbEntity
  8
0
100
AcDbLine
 10
103.7005
 20
798.7385
 30
0.0
 11
104.7004999999999
 21
797.8724999999999
 31
0.0
  0
LINE
  5
410
330
1E
100
AcDbEntity
  8
0
100
AcDbLine
 10
103.7005
 20
798.7385
 30
0.0
 11
105.4194
 21
799.4475
 31
0.0
  0
LINE
  5
411
330
1E
100
AcDbEntity
  8
0
100
AcDbLine
 10
105.4194
 20
799.4475
 30
0.0
 11
106.4194
 21
798.5815
 31
0.0
  0
LINE
  5
412
330
1E
100
AcDbEntity
  8
0
100
AcDbLine
 10
83.96359999999999
 20
798.2954999999999
 30
0.0
 11
84.7283
 21
799.2935
 31
0.0
  0
LINE
  5
413
330
1E
100
AcDbEntity
  8
0
100
AcDbLine
 10
82.11589999999999
 20
798.6775
 30
0.0
 11
82.8805
 21
799.6765
 31
0.0
  0
LINE
  5
414
330
1E
100
AcDbEntity
  8
0
100
AcDbLine
 10
82.11589999999999
 20
798.6775
 30
0.0
 11
83.96359999999999
 21
798.2954999999999
 31
0.0
  0
LINE
  5
415
330
1E
100
AcDbEntity
  8
0
100
AcDbLine
 10
117.334
 20
799.7084999999999
 30
0.0
 11
119.1423
 21
800.4394999999998
 31
0.0
  0
LINE
  5
416
330
1E
100
AcDbEntity
  8
0
100
AcDbLine
 10
98.01209327958959
 20
803.3059788395521
 30
0.0
 11
98.13500000000001
 21
802.1504999999999
 31
0.0
  0
LINE
  5
417
330
1E
100
AcDbEntity
  8
0
100
AcDbLine
 10
98.13500000000001
 20
802.1504999999999
 30
0.0
 11
99.5385
 21
803.0644999999999
 31
0.0
  0
LINE
  5
418
330
1E
100
AcDbEntity
  8
0
100
AcDbLine
 10
98.13500000000001
 20
802.1504999999999
 30
0.0
 11
99.54920000000001
 21
801.4435
 31
0.0
  0
LINE
  5
419
330
1E
100
AcDbEntity
  8
0
100
AcDbLine
 10
92.72490000000001
 20
804.2265
 30
0.0
 11
93.7174
 21
805.2984999999999
 31
0.0
  0
LINE
  5
41A
330
1E
100
AcDbEntity
  8
0
100
AcDbLine
 10
90.99290000000001
 20
804.7264999999999
 30
0.0
 11
91.98529999999999
 21
805.7985
 31
0.0
  0
LINE
  5
41B
330
1E
100
AcDbEntity
  8
0
100
AcDbLine
 10
90.99290000000001
 20
804.7264999999999
 30
0.0
 11
92.72490000000001
 21
804.2265
 31
0.0
  0
LINE
  5
41C
330
1E
100
AcDbEntity
  8
0
100
AcDbLine
 10
99.46467600472571
 20
803.7585390574719
 30
0.0
 11
99.5385
 21
803.0644999999999
 31
0.0
  0
LINE
  5
41D
330
1E
100
AcDbEntity
  8
0
100
AcDbLine
 10
103.5584412115139
 20
799.845850593842
 30
0.0
 11
103.7005
 21
798.7385
 31
0.0
  0
LINE
  5
41E
330
1E
100
AcDbEntity
  8
0
100
AcDbLine
 10
106.2400820133869
 20
799.9792866563429
 30
0.0
 11
106.4194
 21
798.5815
 31
0.0
  0
LINE
  5
41F
330
1E
100
AcDbEntity
  8
0
100
AcDbLine
 10
105.3318949641609
 20
800.129603194266
 30
0.0
 11
105.4194
 21
799.4475
 31
0.0
  0
LINE
  5
420
330
1E
100
AcDbEntity
  8
0
100
AcDbLine
 10
116.260409410322
 20
801.943466025059
 30
0.0
 11
116.5685999999999
 21
800.6325
 31
0.0
  0
LINE
  5
421
330
1E
100
AcDbEntity
  8
0
100
AcDbLine
 10
116.5685999999999
 20
800.6325
 30
0.0
 11
117.334
 21
799.7084999999999
 31
0.0
  0
LINE
  5
422
330
1E
100
AcDbEntity
  8
0
100
AcDbLine
 10
116.5685999999999
 20
800.6325
 30
0.0
 11
118.3769
 21
801.3635
 31
0.0
  0
LINE
  5
423
330
1E
100
AcDbEntity
  8
0
100
AcDbLine
 10
130.5166999999999
 20
800.6304999999999
 30
0.0
 11
132.3625
 21
801.3894999999999
 31
0.0
  0
LINE
  5
424
330
1E
100
AcDbEntity
  8
0
100
AcDbLine
 10
129.9989999999999
 20
801.5964999999999
 30
0.0
 11
130.5166999999999
 21
800.6304999999999
 31
0.0
  0
LINE
  5
425
330
1E
100
AcDbEntity
  8
0
100
AcDbLine
 10
129.9989999999999
 20
801.5964999999999
 30
0.0
 11
131.8448999999999
 21
802.3554999999999
 31
0.0
  0
LINE
  5
426
330
1E
100
AcDbEntity
  8
0
100
AcDbLine
 10
131.9297731129539
 20
802.5884397344199
 30
0.0
 11
132.3625
 21
801.3894999999999
 31
0.0
  0
LINE
  5
427
330
1E
100
AcDbEntity
  8
0
100
AcDbLine
 10
131.8448999999999
 20
802.3554999999999
 30
0.0
 11
132.3625
 21
801.3894999999999
 31
0.0
  0
LINE
  5
428
330
1E
100
AcDbEntity
  8
0
100
AcDbLine
 10
131.683147100061
 20
802.8035839105321
 30
0.0
 11
131.8448999999999
 21
802.3554999999999
 31
0.0
  0
LINE
  5
429
330
1E
100
AcDbEntity
  8
0
100
AcDbLine
 10
118.9979454073009
 20
801.0533868994791
 30
0.0
 11
119.1423
 21
800.4394999999998
 31
0.0
  0
LINE
  5
42A
330
1E
100
AcDbEntity
  8
0
100
AcDbLine
 10
118.3769
 20
801.3635
 30
0.0
 11
119.1423
 21
800.4394999999998
 31
0.0
  0
LINE
  5
42B
330
1E
100
AcDbEntity
  8
0
100
AcDbLine
 10
129.436682865751
 20
803.1535037512639
 30
0.0
 11
129.9989999999999
 21
801.5964999999999
 31
0.0
  0
LINE
  5
42C
330
1E
100
AcDbEntity
  8
0
100
AcDbLine
 10
117.997
 20
802.9795
 30
0.0
 11
118.3769
 21
801.3635
 31
0.0
  0
LINE
  5
42D
330
1E
100
AcDbEntity
  8
0
100
AcDbLine
 10
99.54920000000001
 20
801.4435
 30
0.0
 11
100.9526999999999
 21
802.3574999999999
 31
0.0
  0
LINE
  5
42E
330
1E
100
AcDbEntity
  8
0
100
AcDbLine
 10
111.6332
 20
804.9065
 30
0.0
 11
113.186
 21
805.8585
 31
0.0
  0
LINE
  5
42F
330
1E
100
AcDbEntity
  8
0
100
AcDbLine
 10
100.7824803266889
 20
803.9577218136129
 30
0.0
 11
100.9526999999999
 21
802.3574999999999
 31
0.0
  0
LINE
  5
430
330
1E
100
AcDbEntity
  8
0
100
AcDbLine
 10
99.5385
 20
803.0644999999999
 30
0.0
 11
100.9526999999999
 21
802.3574999999999
 31
0.0
  0
LINE
  5
431
330
1E
100
AcDbEntity
  8
0
100
AcDbLine
 10
84.71793771763241
 20
799.8193936096449
 30
0.0
 11
84.7283
 21
799.2935
 31
0.0
  0
LINE
  5
432
330
1E
100
AcDbEntity
  8
0
100
AcDbLine
 10
82.854062684719
 20
801.018213598347
 30
0.0
 11
82.8805
 21
799.6765
 31
0.0
  0
LINE
  5
433
330
1E
100
AcDbEntity
  8
0
100
AcDbLine
 10
82.8805
 20
799.6765
 30
0.0
 11
84.7283
 21
799.2935
 31
0.0
  0
LINE
  5
434
330
1E
100
AcDbEntity
  8
0
100
AcDbLine
 10
75.67499999999999
 20
794.2165
 30
0.0
 11
76.27500000000001
 21
794.0884999999999
 31
0.0
  0
LINE
  5
435
330
1E
100
AcDbEntity
  8
0
100
AcDbLine
 10
75.0
 20
791.3445
 30
0.0
 11
76.536
 21
791.2374999999999
 31
0.0
  0
LINE
  5
436
330
1E
100
AcDbEntity
  8
0
100
AcDbLine
 10
73.464
 20
791.2374999999999
 30
0.0
 11
75.0
 21
791.3445
 31
0.0
  0
LINE
  5
437
330
1E
100
AcDbEntity
  8
0
100
AcDbLine
 10
72.024
 20
790.9485
 30
0.0
 11
73.464
 21
791.2374999999999
 31
0.0
  0
LINE
  5
438
330
1E
100
AcDbEntity
  8
0
100
AcDbLine
 10
70.75199999999999
 20
790.4684999999999
 30
0.0
 11
72.024
 21
790.9485
 31
0.0
  0
LINE
  5
439
330
1E
100
AcDbEntity
  8
0
100
AcDbLine
 10
69.792
 20
789.8334999999999
 30
0.0
 11
70.75199999999999
 21
790.4684999999999
 31
0.0
  0
LINE
  5
43A
330
1E
100
AcDbEntity
  8
0
100
AcDbLine
 10
69.21600000000001
 20
789.1135
 30
0.0
 11
69.792
 21
789.8334999999999
 31
0.0
  0
LINE
  5
43B
330
1E
100
AcDbEntity
  8
0
100
AcDbLine
 10
69.0
 20
788.3445
 30
0.0
 11
69.21600000000001
 21
789.1135
 31
0.0
  0
LINE
  5
43C
330
1E
100
AcDbEntity
  8
0
100
AcDbLine
 10
69.0
 20
788.3445
 30
0.0
 11
69.21600000000001
 21
787.5774999999999
 31
0.0
  0
LINE
  5
43D
330
1E
100
AcDbEntity
  8
0
100
AcDbLine
 10
69.0
 20
788.3445
 30
0.0
 11
69.0
 21
788.9284183673469
 31
0.0
  0
LINE
  5
43E
330
1E
100
AcDbEntity
  8
0
100
AcDbLine
 10
137.7
 20
788.2165
 30
0.0
 11
139.3
 21
792.3664999999999
 31
0.0
  0
LINE
  5
43F
330
1E
100
AcDbEntity
  8
0
100
AcDbLine
 10
139.3
 20
792.3664999999999
 30
0.0
 11
140.0
 21
796.6165
 31
0.0
  0
LINE
  5
440
330
1E
100
AcDbEntity
  8
0
100
AcDbLine
 10
110.4155999999999
 20
805.6994999999998
 30
0.0
 11
111.9685
 21
806.6515
 31
0.0
  0
LINE
  5
441
330
1E
100
AcDbEntity
  8
0
100
AcDbLine
 10
110.4155999999999
 20
805.6994999999998
 30
0.0
 11
111.6332
 21
804.9065
 31
0.0
  0
LINE
  5
442
330
1E
100
AcDbEntity
  8
0
100
AcDbLine
 10
91.98529999999999
 20
805.7985
 30
0.0
 11
93.7174
 21
805.2984999999999
 31
0.0
  0
LINE
  5
443
330
1E
100
AcDbEntity
  8
0
100
AcDbLine
 10
137.7
 20
805.0175000000001
 30
0.0
 11
139.3
 21
800.8665
 31
0.0
  0
LINE
  5
444
330
1E
100
AcDbEntity
  8
0
100
AcDbLine
 10
139.3
 20
800.8665
 30
0.0
 11
140.0
 21
796.6165
 31
0.0
  0
LINE
  5
445
330
1E
100
AcDbEntity
  8
0
100
AcDbLine
 10
67.23911
 20
806.2894999999999
 30
0.0
 11
67.2932582535189
 21
807.6532148636729
 31
0.0
  0
LINE
  5
446
330
1E
100
AcDbEntity
  8
0
100
AcDbLine
 10
66.72539
 20
807.4614999999999
 30
0.0
 11
66.7507331496907
 21
808.099464749924
 31
0.0
  0
LINE
  5
447
330
1E
100
AcDbEntity
  8
0
100
AcDbLine
 10
66.72539
 20
807.4614999999999
 30
0.0
 11
67.23911
 21
806.2894999999999
 31
0.0
  0
LINE
  5
448
330
1E
100
AcDbEntity
  8
0
100
AcDbLine
 10
76.0
 20
806.7344999999999
 30
0.0
 11
76.0
 21
807.9394999999999
 31
0.0
  0
LINE
  5
449
330
1E
100
AcDbEntity
  8
0
100
AcDbLine
 10
74.0
 20
806.7344999999999
 30
0.0
 11
74.0
 21
807.9394999999999
 31
0.0
  0
LINE
  5
44A
330
1E
100
AcDbEntity
  8
0
100
AcDbLine
 10
74.0
 20
806.7344999999999
 30
0.0
 11
74.0
 21
808.3305000000001
 31
0.0
  0
LINE
  5
44B
330
1E
100
AcDbEntity
  8
0
100
AcDbLine
 10
74.0
 20
806.7344999999999
 30
0.0
 11
76.0
 21
806.7344999999999
 31
0.0
  0
LINE
  5
44C
330
1E
100
AcDbEntity
  8
0
100
AcDbLine
 10
74.0
 20
808.3305000000001
 30
0.0
 11
74.0
 21
806.7344999999999
 31
0.0
  0
LINE
  5
44D
330
1E
100
AcDbEntity
  8
0
100
AcDbLine
 10
74.0
 20
807.9394999999999
 30
0.0
 11
76.0
 21
807.9394999999999
 31
0.0
  0
LINE
  5
44E
330
1E
100
AcDbEntity
  8
0
100
AcDbLine
 10
74.0
 20
807.9394999999999
 30
0.0
 11
74.0
 21
809.5365000000001
 31
0.0
  0
LINE
  5
44F
330
1E
100
AcDbEntity
  8
0
100
AcDbLine
 10
74.0
 20
807.9394999999999
 30
0.0
 11
74.0
 21
806.7344999999999
 31
0.0
  0
LINE
  5
450
330
1E
100
AcDbEntity
  8
0
100
AcDbLine
 10
84.69269999999999
 20
806.0304999999999
 30
0.0
 11
85.20650000000001
 21
807.2025
 31
0.0
  0
LINE
  5
451
330
1E
100
AcDbEntity
  8
0
100
AcDbLine
 10
82.76090000000001
 20
806.2894999999999
 30
0.0
 11
83.2746
 21
807.4614999999999
 31
0.0
  0
LINE
  5
452
330
1E
100
AcDbEntity
  8
0
100
AcDbLine
 10
82.76090000000001
 20
806.2894999999999
 30
0.0
 11
84.69269999999999
 21
806.0304999999999
 31
0.0
  0
LINE
  5
453
330
1E
100
AcDbEntity
  8
0
100
AcDbLine
 10
113.059927732577
 20
806.465486000984
 30
0.0
 11
113.186
 21
805.8585
 31
0.0
  0
LINE
  5
454
330
1E
100
AcDbEntity
  8
0
100
AcDbLine
 10
90.89784599708272
 20
805.9742773021389
 30
0.0
 11
90.99290000000001
 21
804.7264999999999
 31
0.0
  0
LINE
  5
455
330
1E
100
AcDbEntity
  8
0
100
AcDbLine
 10
82.7067266849438
 20
807.6532024749209
 30
0.0
 11
82.76090000000001
 21
806.2894999999999
 31
0.0
  0
LINE
  5
456
330
1E
100
AcDbEntity
  8
0
100
AcDbLine
 10
85.1429
 20
808.8025
 30
0.0
 11
85.20650000000001
 21
807.2025
 31
0.0
  0
LINE
  5
457
330
1E
100
AcDbEntity
  8
0
100
AcDbLine
 10
83.24928033382279
 20
808.0994758406848
 30
0.0
 11
83.2746
 21
807.4614999999999
 31
0.0
  0
LINE
  5
458
330
1E
100
AcDbEntity
  8
0
100
AcDbLine
 10
83.2746
 20
807.4614999999999
 30
0.0
 11
85.20650000000001
 21
807.2025
 31
0.0
  0
LINE
  5
459
330
1E
100
AcDbEntity
  8
0
100
AcDbLine
 10
110.178559942147
 20
806.8411000333771
 30
0.0
 11
110.4155999999999
 21
805.6994999999998
 31
0.0
  0
LINE
  5
45A
330
1E
100
AcDbEntity
  8
0
100
AcDbLine
 10
111.9685
 20
806.6515
 30
0.0
 11
113.186
 21
805.8585
 31
0.0
  0
LINE
  5
45B
330
1E
100
AcDbEntity
  8
0
100
AcDbLine
 10
124.0428
 20
808.4455
 30
0.0
 11
125.0428
 21
807.5784999999999
 31
0.0
  0
LINE
  5
45C
330
1E
100
AcDbEntity
  8
0
100
AcDbLine
 10
124.0428
 20
808.4455
 30
0.0
 11
125.6977999999999
 21
809.4345
 31
0.0
  0
LINE
  5
45D
330
1E
100
AcDbEntity
  8
0
100
AcDbLine
 10
125.0428
 20
807.5784999999999
 30
0.0
 11
126.6977999999999
 21
808.5675
 31
0.0
  0
LINE
  5
45E
330
1E
100
AcDbEntity
  8
0
100
AcDbLine
 10
111.6422
 20
808.2214999999999
 30
0.0
 11
111.9685
 21
806.6515
 31
0.0
  0
LINE
  5
45F
330
1E
100
AcDbEntity
  8
0
100
AcDbLine
 10
93.5946
 20
806.9105
 30
0.0
 11
93.7174
 21
805.2984999999999
 31
0.0
  0
LINE
  5
460
330
1E
100
AcDbEntity
  8
0
100
AcDbLine
 10
91.9314855886903
 20
806.5049237054671
 30
0.0
 11
91.98529999999999
 21
805.7985
 31
0.0
  0
LINE
  5
461
330
1E
100
AcDbEntity
  8
0
100
AcDbLine
 10
76.0
 20
807.9394999999999
 30
0.0
 11
76.0
 21
809.5365000000001
 31
0.0
  0
LINE
  5
462
330
1E
100
AcDbEntity
  8
0
100
AcDbLine
 10
76.0
 20
807.9394999999999
 30
0.0
 11
76.0
 21
806.7344999999999
 31
0.0
  0
LINE
  5
463
330
1E
100
AcDbEntity
  8
0
100
AcDbLine
 10
125.6977999999999
 20
809.4345
 30
0.0
 11
126.6977999999999
 21
808.5675
 31
0.0
  0
LINE
  5
464
330
1E
100
AcDbEntity
  8
0
100
AcDbLine
 10
103.4359
 20
809.1894999999999
 30
0.0
 11
104.6273999999999
 21
810.3225
 31
0.0
  0
LINE
  5
465
330
1E
100
AcDbEntity
  8
0
100
AcDbLine
 10
101.676020866436
 20
810.8578577012378
 30
0.0
 11
101.8491
 21
809.7984999999999
 31
0.0
  0
LINE
  5
466
330
1E
100
AcDbEntity
  8
0
100
AcDbLine
 10
101.8491
 20
809.7984999999999
 30
0.0
 11
103.0407
 21
810.9305
 31
0.0
  0
LINE
  5
467
330
1E
100
AcDbEntity
  8
0
100
AcDbLine
 10
101.8491
 20
809.7984999999999
 30
0.0
 11
103.4359
 21
809.1894999999999
 31
0.0
  0
LINE
  5
468
330
1E
100
AcDbEntity
  8
0
100
AcDbLine
 10
123.546289764124
 20
809.909767955899
 30
0.0
 11
124.0428
 21
808.4455
 31
0.0
  0
LINE
  5
469
330
1E
100
AcDbEntity
  8
0
100
AcDbLine
 10
126.2807094719269
 20
809.7983659810839
 30
0.0
 11
126.6977999999999
 21
808.5675
 31
0.0
  0
LINE
  5
46A
330
1E
100
AcDbEntity
  8
0
100
AcDbLine
 10
125.5491818831469
 20
809.8730834055091
 30
0.0
 11
125.6977999999999
 21
809.4345
 31
0.0
  0
LINE
  5
46B
330
1E
100
AcDbEntity
  8
0
100
AcDbLine
 10
104.5312632106389
 20
810.9103012161019
 30
0.0
 11
104.6273999999999
 21
810.3225
 31
0.0
  0
LINE
  5
46C
330
1E
100
AcDbEntity
  8
0
100
AcDbLine
 10
103.0407
 20
810.9305
 30
0.0
 11
104.6273999999999
 21
810.3225
 31
0.0
  0
LINE
  5
46D
330
1E
100
AcDbEntity
  8
0
100
AcDbLine
 10
76.0
 20
809.5365000000001
 30
0.0
 11
76.0
 21
807.9394999999999
 31
0.0
  0
LINE
  5
46E
330
1E
100
AcDbEntity
  8
0
100
AcDbLine
 10
74.0
 20
809.5365000000001
 30
0.0
 11
74.0
 21
807.9394999999999
 31
0.0
  0
LINE
  5
46F
330
1E
100
AcDbEntity
  8
0
100
AcDbLine
 10
134.8999999999999
 20
809.0175
 30
0.0
 11
137.7
 21
805.0175000000001
 31
0.0
  0
LINE
  5
470
330
1E
100
AcDbEntity
  8
0
100
AcDbLine
 10
134.8999999999999
 20
809.8825000000001
 30
0.0
 11
137.7
 21
805.8825
 31
0.0
  0
LINE
  5
471
330
1E
100
AcDbEntity
  8
0
100
AcDbLine
 10
137.7
 20
805.8825
 30
0.0
 11
139.3
 21
801.7324999999999
 31
0.0
  0
LINE
  5
472
330
1E
100
AcDbEntity
  8
0
100
AcDbLine
 10
140.0
 20
797.4825
 30
0.0
 11
140.0
 21
796.6165
 31
0.0
  0
LINE
  5
473
330
1E
100
AcDbEntity
  8
0
100
AcDbLine
 10
140.0
 20
796.6165
 30
0.0
 11
140.0
 21
797.4825
 31
0.0
  0
LINE
  5
474
330
1E
100
AcDbEntity
  8
0
100
AcDbLine
 10
139.3
 20
801.7324999999999
 30
0.0
 11
140.0
 21
797.4825
 31
0.0
  0
LINE
  5
475
330
1E
100
AcDbEntity
  8
0
100
AcDbLine
 10
137.4
 20
783.6894999999999
 30
0.0
 11
141.5
 21
787.8894999999999
 31
0.0
  0
LINE
  5
476
330
1E
100
AcDbEntity
  8
0
100
AcDbLine
 10
141.5
 20
787.8894999999999
 30
0.0
 11
144.5
 21
792.3395
 31
0.0
  0
LINE
  5
477
330
1E
100
AcDbEntity
  8
0
100
AcDbLine
 10
137.5999999999999
 20
783.6395
 30
0.0
 11
141.6999999999999
 21
787.8395
 31
0.0
  0
LINE
  5
478
330
1E
100
AcDbEntity
  8
0
100
AcDbLine
 10
141.6999999999999
 20
787.8395
 30
0.0
 11
144.6999999999999
 21
792.3395
 31
0.0
  0
LINE
  5
479
330
1E
100
AcDbEntity
  8
0
100
AcDbLine
 10
141.6999999999999
 20
787.8395
 30
0.0
 11
143.4
 21
789.7414999999999
 31
0.0
  0
LINE
  5
47A
330
1E
100
AcDbEntity
  8
0
100
AcDbLine
 10
144.5
 20
792.3395
 30
0.0
 11
146.4
 21
796.9394999999999
 31
0.0
  0
LINE
  5
47B
330
1E
100
AcDbEntity
  8
0
100
AcDbLine
 10
146.4
 20
796.9394999999999
 30
0.0
 11
147.0999999999999
 21
801.6384999999999
 31
0.0
  0
LINE
  5
47C
330
1E
100
AcDbEntity
  8
0
100
AcDbLine
 10
144.6999999999999
 20
792.3395
 30
0.0
 11
146.6
 21
796.9394999999999
 31
0.0
  0
LINE
  5
47D
330
1E
100
AcDbEntity
  8
0
100
AcDbLine
 10
143.4
 20
789.7414999999999
 30
0.0
 11
146.5
 21
794.3414999999999
 31
0.0
  0
LINE
  5
47E
330
1E
100
AcDbEntity
  8
0
100
AcDbLine
 10
144.5
 20
810.9394999999999
 30
0.0
 11
146.4
 21
806.3385
 31
0.0
  0
LINE
  5
47F
330
1E
100
AcDbEntity
  8
0
100
AcDbLine
 10
146.6
 20
796.9394999999999
 30
0.0
 11
147.3
 21
801.6384999999999
 31
0.0
  0
LINE
  5
480
330
1E
100
AcDbEntity
  8
0
100
AcDbLine
 10
146.5
 20
794.3414999999999
 30
0.0
 11
148.5
 21
799.0905
 31
0.0
  0
LINE
  5
481
330
1E
100
AcDbEntity
  8
0
100
AcDbLine
 10
146.4
 20
806.3385
 30
0.0
 11
147.0999999999999
 21
801.6384999999999
 31
0.0
  0
LINE
  5
482
330
1E
100
AcDbEntity
  8
0
100
AcDbLine
 10
144.6999999999999
 20
810.9394999999999
 30
0.0
 11
146.6
 21
806.3385
 31
0.0
  0
LINE
  5
483
330
1E
100
AcDbEntity
  8
0
100
AcDbLine
 10
148.5
 20
799.0905
 30
0.0
 11
149.1999999999999
 21
801.2425
 31
0.0
  0
LINE
  5
484
330
1E
100
AcDbEntity
  8
0
100
AcDbLine
 10
149.1999999999999
 20
801.2425
 30
0.0
 11
150.0
 21
806.1424999999999
 31
0.0
  0
LINE
  5
485
330
1E
100
AcDbEntity
  8
0
100
AcDbLine
 10
146.6
 20
806.3385
 30
0.0
 11
147.3
 21
801.6384999999999
 31
0.0
  0
LINE
  5
486
330
1E
100
AcDbEntity
  8
0
100
AcDbLine
 10
68.08159999999999
 20
813.9264999999999
 30
0.0
 11
70.0645
 21
814.0565
 31
0.0
  0
LINE
  5
487
330
1E
100
AcDbEntity
  8
0
100
AcDbLine
 10
70.0645
 20
814.0565
 30
0.0
 11
70.1003499799339
 21
815.0518877110139
 31
0.0
  0
LINE
  5
488
330
1E
100
AcDbEntity
  8
0
100
AcDbLine
 10
69.8091
 20
815.3825000000001
 30
0.0
 11
69.86270000000001
 21
816.8744999999999
 31
0.0
  0
LINE
  5
489
330
1E
100
AcDbEntity
  8
0
100
AcDbLine
 10
69.8091
 20
815.3825000000001
 30
0.0
 11
70.0645
 21
814.0565
 31
0.0
  0
LINE
  5
48A
330
1E
100
AcDbEntity
  8
0
100
AcDbLine
 10
67.82618000000001
 20
815.2525
 30
0.0
 11
69.8091
 21
815.3825000000001
 31
0.0
  0
LINE
  5
48B
330
1E
100
AcDbEntity
  8
0
100
AcDbLine
 10
67.82618000000001
 20
815.2525
 30
0.0
 11
67.84373244116349
 21
815.7404493612069
 31
0.0
  0
LINE
  5
48C
330
1E
100
AcDbEntity
  8
0
100
AcDbLine
 10
67.82618000000001
 20
815.2525
 30
0.0
 11
68.08159999999999
 21
813.9264999999999
 31
0.0
  0
LINE
  5
48D
330
1E
100
AcDbEntity
  8
0
100
AcDbLine
 10
74.0
 20
823.6734999999999
 30
0.0
 11
74.0
 21
822.3144999999998
 31
0.0
  0
LINE
  5
48E
330
1E
100
AcDbEntity
  8
0
100
AcDbLine
 10
74.0
 20
822.3144999999998
 30
0.0
 11
74.0
 21
823.7804999999999
 31
0.0
  0
LINE
  5
48F
330
1E
100
AcDbEntity
  8
0
100
AcDbLine
 10
74.0
 20
822.3144999999998
 30
0.0
 11
74.0
 21
823.6734999999999
 31
0.0
  0
LINE
  5
490
330
1E
100
AcDbEntity
  8
0
100
AcDbLine
 10
74.0
 20
822.3144999999998
 30
0.0
 11
76.0
 21
822.3144999999998
 31
0.0
  0
LINE
  5
491
330
1E
100
AcDbEntity
  8
0
100
AcDbLine
 10
79.89965002006609
 20
815.0518877110139
 30
0.0
 11
79.9355
 21
814.0565
 31
0.0
  0
LINE
  5
492
330
1E
100
AcDbEntity
  8
0
100
AcDbLine
 10
79.9355
 20
814.0565
 30
0.0
 11
80.1909
 21
815.3825000000001
 31
0.0
  0
LINE
  5
493
330
1E
100
AcDbEntity
  8
0
100
AcDbLine
 10
79.9355
 20
814.0565
 30
0.0
 11
81.9184
 21
813.9264999999999
 31
0.0
  0
LINE
  5
494
330
1E
100
AcDbEntity
  8
0
100
AcDbLine
 10
80.1373
 20
816.8744999999999
 30
0.0
 11
80.1909
 21
815.3825000000001
 31
0.0
  0
LINE
  5
495
330
1E
100
AcDbEntity
  8
0
100
AcDbLine
 10
91.3483365076294
 20
813.648297052209
 30
0.0
 11
91.45290000000001
 21
812.6485
 31
0.0
  0
LINE
  5
496
330
1E
100
AcDbEntity
  8
0
100
AcDbLine
 10
102.7903
 20
812.4624999999999
 30
0.0
 11
103.0407
 21
810.9305
 31
0.0
  0
LINE
  5
497
330
1E
100
AcDbEntity
  8
0
100
AcDbLine
 10
93.3007
 20
812.2654999999999
 30
0.0
 11
94.0497
 21
813.5265
 31
0.0
  0
LINE
  5
498
330
1E
100
AcDbEntity
  8
0
100
AcDbLine
 10
91.45290000000001
 20
812.6485
 30
0.0
 11
92.2019
 21
813.9084999999999
 31
0.0
  0
LINE
  5
499
330
1E
100
AcDbEntity
  8
0
100
AcDbLine
 10
91.45290000000001
 20
812.6485
 30
0.0
 11
93.3007
 21
812.2654999999999
 31
0.0
  0
LINE
  5
49A
330
1E
100
AcDbEntity
  8
0
100
AcDbLine
 10
114.3348420633909
 20
815.7099945692081
 30
0.0
 11
114.7443999999999
 21
814.2894999999999
 31
0.0
  0
LINE
  5
49B
330
1E
100
AcDbEntity
  8
0
100
AcDbLine
 10
93.99348017177679
 20
814.0640529954
 30
0.0
 11
94.0497
 21
813.5265
 31
0.0
  0
LINE
  5
49C
330
1E
100
AcDbEntity
  8
0
100
AcDbLine
 10
92.0446
 20
815.4144999999999
 30
0.0
 11
92.2019
 21
813.9084999999999
 31
0.0
  0
LINE
  5
49D
330
1E
100
AcDbEntity
  8
0
100
AcDbLine
 10
92.2019
 20
813.9084999999999
 30
0.0
 11
94.0497
 21
813.5265
 31
0.0
  0
LINE
  5
49E
330
1E
100
AcDbEntity
  8
0
100
AcDbLine
 10
81.9184
 20
813.9264999999999
 30
0.0
 11
82.1738
 21
815.2525
 31
0.0
  0
LINE
  5
49F
330
1E
100
AcDbEntity
  8
0
100
AcDbLine
 10
102.4424999999999
 20
820.1325
 30
0.0
 11
102.7374999999999
 21
818.7314999999999
 31
0.0
  0
LINE
  5
4A0
330
1E
100
AcDbEntity
  8
0
100
AcDbLine
 10
102.7374999999999
 20
818.7314999999999
 30
0.0
 11
103.6929999999999
 21
820.0705000000001
 31
0.0
  0
LINE
  5
4A1
330
1E
100
AcDbEntity
  8
0
100
AcDbLine
 10
102.7374999999999
 20
818.7314999999999
 30
0.0
 11
104.4696
 21
818.2314999999999
 31
0.0
  0
LINE
  5
4A2
330
1E
100
AcDbEntity
  8
0
100
AcDbLine
 10
103.490494536474
 20
821.0308564185499
 30
0.0
 11
103.6929999999999
 21
820.0705000000001
 31
0.0
  0
LINE
  5
4A3
330
1E
100
AcDbEntity
  8
0
100
AcDbLine
 10
104.4696
 20
818.2314999999999
 30
0.0
 11
105.4251
 21
819.5705
 31
0.0
  0
LINE
  5
4A4
330
1E
100
AcDbEntity
  8
0
100
AcDbLine
 10
105.2189044891929
 20
820.548024634427
 30
0.0
 11
105.4251
 21
819.5705
 31
0.0
  0
LINE
  5
4A5
330
1E
100
AcDbEntity
  8
0
100
AcDbLine
 10
103.6929999999999
 20
820.0705000000001
 30
0.0
 11
105.4251
 21
819.5705
 31
0.0
  0
LINE
  5
4A6
330
1E
100
AcDbEntity
  8
0
100
AcDbLine
 10
90.7722
 20
821.2105000000001
 30
0.0
 11
91.2668
 21
822.6435
 31
0.0
  0
LINE
  5
4A7
330
1E
100
AcDbEntity
  8
0
100
AcDbLine
 10
88.8404
 20
821.4684999999999
 30
0.0
 11
89.335
 21
822.9034999999999
 31
0.0
  0
LINE
  5
4A8
330
1E
100
AcDbEntity
  8
0
100
AcDbLine
 10
88.8404
 20
821.4684999999999
 30
0.0
 11
90.7722
 21
821.2105000000001
 31
0.0
  0
LINE
  5
4A9
330
1E
100
AcDbEntity
  8
0
100
AcDbLine
 10
82.1562383590143
 20
815.740432371521
 30
0.0
 11
82.1738
 21
815.2525
 31
0.0
  0
LINE
  5
4AA
330
1E
100
AcDbEntity
  8
0
100
AcDbLine
 10
80.1909
 20
815.3825000000001
 30
0.0
 11
82.1738
 21
815.2525
 31
0.0
  0
LINE
  5
4AB
330
1E
100
AcDbEntity
  8
0
100
AcDbLine
 10
88.68759999999999
 20
822.8384999999999
 30
0.0
 11
88.8404
 21
821.4684999999999
 31
0.0
  0
LINE
  5
4AC
330
1E
100
AcDbEntity
  8
0
100
AcDbLine
 10
91.16448292144708
 20
823.5614724794849
 30
0.0
 11
91.2668
 21
822.6435
 31
0.0
  0
LINE
  5
4AD
330
1E
100
AcDbEntity
  8
0
100
AcDbLine
 10
89.335
 20
822.9034999999999
 30
0.0
 11
91.2668
 21
822.6435
 31
0.0
  0
LINE
  5
4AE
330
1E
100
AcDbEntity
  8
0
100
AcDbLine
 10
76.0
 20
822.3144999999998
 30
0.0
 11
76.0
 21
823.7804999999999
 31
0.0
  0
LINE
  5
4AF
330
1E
100
AcDbEntity
  8
0
100
AcDbLine
 10
74.0
 20
823.7804999999999
 30
0.0
 11
76.0
 21
823.7804999999999
 31
0.0
  0
LINE
  5
4B0
330
1E
100
AcDbEntity
  8
0
100
AcDbLine
 10
74.0
 20
823.7804999999999
 30
0.0
 11
74.0
 21
824.718538961039
 31
0.0
  0
LINE
  5
4B1
330
1E
100
AcDbEntity
  8
0
100
AcDbLine
 10
74.0
 20
823.7804999999999
 30
0.0
 11
74.0
 21
822.3144999999998
 31
0.0
  0
LINE
  5
4B2
330
1E
100
AcDbEntity
  8
0
100
AcDbLine
 10
89.23351521701098
 20
823.812745208848
 30
0.0
 11
89.335
 21
822.9034999999999
 31
0.0
  0
LINE
  5
4B3
330
1E
100
AcDbEntity
  8
0
100
AcDbLine
 10
76.0
 20
824.718538961039
 30
0.0
 11
76.0
 21
823.7804999999999
 31
0.0
  0
LINE
  5
4B4
330
1E
100
AcDbEntity
  8
0
100
AcDbLine
 10
74.0
 20
824.718538961039
 30
0.0
 11
74.0
 21
823.7804999999999
 31
0.0
  0
LINE
  5
4B5
330
1E
100
AcDbEntity
  8
0
100
AcDbLine
 10
76.0
 20
823.7804999999999
 30
0.0
 11
76.0
 21
824.718538961039
 31
0.0
  0
LINE
  5
4B6
330
1E
100
AcDbEntity
  8
0
100
AcDbLine
 10
76.0
 20
823.7804999999999
 30
0.0
 11
76.0
 21
822.3144999999998
 31
0.0
  0
LINE
  5
4B7
330
1E
100
AcDbEntity
  8
0
100
AcDbLine
 10
114.5
 20
822.3665
 30
0.0
 11
120.9
 21
819.5655
 31
0.0
  0
LINE
  5
4B8
330
1E
100
AcDbEntity
  8
0
100
AcDbLine
 10
107.4
 20
824.7654999999999
 30
0.0
 11
114.5
 21
822.3665
 31
0.0
  0
LINE
  5
4B9
330
1E
100
AcDbEntity
  8
0
100
AcDbLine
 10
116.1586
 20
813.5825
 30
0.0
 11
117.5099
 21
814.7705
 31
0.0
  0
LINE
  5
4BA
330
1E
100
AcDbEntity
  8
0
100
AcDbLine
 10
114.7443999999999
 20
814.2894999999999
 30
0.0
 11
116.0957
 21
815.4764999999999
 31
0.0
  0
LINE
  5
4BB
330
1E
100
AcDbEntity
  8
0
100
AcDbLine
 10
114.7443999999999
 20
814.2894999999999
 30
0.0
 11
116.1586
 21
813.5825
 31
0.0
  0
LINE
  5
4BC
330
1E
100
AcDbEntity
  8
0
100
AcDbLine
 10
117.2023998899279
 20
815.8355471214131
 30
0.0
 11
117.5099
 21
814.7705
 31
0.0
  0
LINE
  5
4BD
330
1E
100
AcDbEntity
  8
0
100
AcDbLine
 10
115.8033918344269
 20
816.4896294521049
 30
0.0
 11
116.0957
 21
815.4764999999999
 31
0.0
  0
LINE
  5
4BE
330
1E
100
AcDbEntity
  8
0
100
AcDbLine
 10
116.0957
 20
815.4764999999999
 30
0.0
 11
117.5099
 21
814.7705
 31
0.0
  0
LINE
  5
4BF
330
1E
100
AcDbEntity
  8
0
100
AcDbLine
 10
120.9
 20
819.5655
 30
0.0
 11
126.5
 21
816.3664999999999
 31
0.0
  0
LINE
  5
4C0
330
1E
100
AcDbEntity
  8
0
100
AcDbLine
 10
120.9
 20
820.4325
 30
0.0
 11
126.5
 21
817.2324999999998
 31
0.0
  0
LINE
  5
4C1
330
1E
100
AcDbEntity
  8
0
100
AcDbLine
 10
114.5
 20
823.2324999999999
 30
0.0
 11
120.9
 21
820.4325
 31
0.0
  0
LINE
  5
4C2
330
1E
100
AcDbEntity
  8
0
100
AcDbLine
 10
99.8
 20
826.5655
 30
0.0
 11
107.4
 21
824.7654999999999
 31
0.0
  0
LINE
  5
4C3
330
1E
100
AcDbEntity
  8
0
100
AcDbLine
 10
107.4
 20
825.6325
 30
0.0
 11
114.5
 21
823.2324999999999
 31
0.0
  0
LINE
  5
4C4
330
1E
100
AcDbEntity
  8
0
100
AcDbLine
 10
126.5
 20
816.3664999999999
 30
0.0
 11
131.3
 21
812.8155000000001
 31
0.0
  0
LINE
  5
4C5
330
1E
100
AcDbEntity
  8
0
100
AcDbLine
 10
126.5
 20
817.2324999999998
 30
0.0
 11
131.3
 21
813.6824999999999
 31
0.0
  0
LINE
  5
4C6
330
1E
100
AcDbEntity
  8
0
100
AcDbLine
 10
125.9
 20
827.0884999999999
 30
0.0
 11
132.0999999999999
 21
823.5385
 31
0.0
  0
LINE
  5
4C7
330
1E
100
AcDbEntity
  8
0
100
AcDbLine
 10
91.79999999999999
 20
827.9654999999999
 30
0.0
 11
99.8
 21
826.5655
 31
0.0
  0
LINE
  5
4C8
330
1E
100
AcDbEntity
  8
0
100
AcDbLine
 10
83.49999999999999
 20
828.7654999999999
 30
0.0
 11
91.79999999999999
 21
827.9654999999999
 31
0.0
  0
LINE
  5
4C9
330
1E
100
AcDbEntity
  8
0
100
AcDbLine
 10
75.0
 20
829.1164999999999
 30
0.0
 11
83.49999999999999
 21
828.7654999999999
 31
0.0
  0
LINE
  5
4CA
330
1E
100
AcDbEntity
  8
0
100
AcDbLine
 10
91.79999999999999
 20
828.8325
 30
0.0
 11
99.8
 21
827.4325000000001
 31
0.0
  0
LINE
  5
4CB
330
1E
100
AcDbEntity
  8
0
100
AcDbLine
 10
83.49999999999999
 20
829.6325000000001
 30
0.0
 11
91.79999999999999
 21
828.8325
 31
0.0
  0
LINE
  5
4CC
330
1E
100
AcDbEntity
  8
0
100
AcDbLine
 10
66.5
 20
828.7654999999999
 30
0.0
 11
75.0
 21
829.1164999999999
 31
0.0
  0
LINE
  5
4CD
330
1E
100
AcDbEntity
  8
0
100
AcDbLine
 10
75.0
 20
829.9825
 30
0.0
 11
83.49999999999999
 21
829.6325000000001
 31
0.0
  0
LINE
  5
4CE
330
1E
100
AcDbEntity
  8
0
100
AcDbLine
 10
66.5
 20
829.6325000000001
 30
0.0
 11
75.0
 21
829.9825
 31
0.0
  0
LINE
  5
4CF
330
1E
100
AcDbEntity
  8
0
100
AcDbLine
 10
93.59999999999999
 20
836.3884999999999
 30
0.0
 11
102.4999999999999
 21
834.8885
 31
0.0
  0
LINE
  5
4D0
330
1E
100
AcDbEntity
  8
0
100
AcDbLine
 10
84.40000000000001
 20
837.3384999999998
 30
0.0
 11
93.59999999999999
 21
836.3884999999999
 31
0.0
  0
LINE
  5
4D1
330
1E
100
AcDbEntity
  8
0
100
AcDbLine
 10
99.8
 20
827.4325000000001
 30
0.0
 11
107.4
 21
825.6325
 31
0.0
  0
LINE
  5
4D2
330
1E
100
AcDbEntity
  8
0
100
AcDbLine
 10
110.8999999999999
 20
832.8384999999999
 30
0.0
 11
118.7999999999999
 21
830.1895
 31
0.0
  0
LINE
  5
4D3
330
1E
100
AcDbEntity
  8
0
100
AcDbLine
 10
102.4999999999999
 20
834.8885
 30
0.0
 11
110.8999999999999
 21
832.8384999999999
 31
0.0
  0
LINE
  5
4D4
330
1E
100
AcDbEntity
  8
0
100
AcDbLine
 10
118.7999999999999
 20
830.1895
 30
0.0
 11
125.9
 21
827.0884999999999
 31
0.0
  0
LINE
  5
4D5
330
1E
100
AcDbEntity
  8
0
100
AcDbLine
 10
119.0
 20
830.2884999999999
 30
0.0
 11
126.0
 21
827.1385
 31
0.0
  0
LINE
  5
4D6
330
1E
100
AcDbEntity
  8
0
100
AcDbLine
 10
111.0
 20
832.9394999999999
 30
0.0
 11
119.0
 21
830.2884999999999
 31
0.0
  0
LINE
  5
4D7
330
1E
100
AcDbEntity
  8
0
100
AcDbLine
 10
102.6
 20
834.9885
 30
0.0
 11
111.0
 21
832.9394999999999
 31
0.0
  0
LINE
  5
4D8
330
1E
100
AcDbEntity
  8
0
100
AcDbLine
 10
93.59999999999999
 20
836.4885000000001
 30
0.0
 11
102.6
 21
834.9885
 31
0.0
  0
LINE
  5
4D9
330
1E
100
AcDbEntity
  8
0
100
AcDbLine
 10
84.40000000000001
 20
837.4394999999999
 30
0.0
 11
93.59999999999999
 21
836.4885000000001
 31
0.0
  0
LINE
  5
4DA
330
1E
100
AcDbEntity
  8
0
100
AcDbLine
 10
126.0
 20
836.1454999999999
 30
0.0
 11
132.3
 21
832.6454999999999
 31
0.0
  0
LINE
  5
4DC
330
1E
100
AcDbEntity
  8
0
100
AcDbLine
 10
126.0
 20
827.1385
 30
0.0
 11
132.3
 21
823.6385
 31
0.0
  0
LINE
  5
4DD
330
1E
100
AcDbEntity
  8
0
100
AcDbLine
 10
131.3
 20
812.8155000000001
 30
0.0
 11
134.8999999999999
 21
809.0175
 31
0.0
  0
LINE
  5
4DE
330
1E
100
AcDbEntity
  8
0
100
AcDbLine
 10
131.3
 20
813.6824999999999
 30
0.0
 11
134.8999999999999
 21
809.8825000000001
 31
0.0
  0
LINE
  5
4DF
330
1E
100
AcDbEntity
  8
0
100
AcDbLine
 10
148.5
 20
813.1935
 30
0.0
 11
149.1999999999999
 21
811.0425000000001
 31
0.0
  0
LINE
  5
4E0
330
1E
100
AcDbEntity
  8
0
100
AcDbLine
 10
141.5
 20
815.3885
 30
0.0
 11
144.5
 21
810.9394999999999
 31
0.0
  0
LINE
  5
4E1
330
1E
100
AcDbEntity
  8
0
100
AcDbLine
 10
132.0999999999999
 20
823.5385
 30
0.0
 11
137.4
 21
819.5885
 31
0.0
  0
LINE
  5
4E2
330
1E
100
AcDbEntity
  8
0
100
AcDbLine
 10
137.4
 20
819.5885
 30
0.0
 11
141.5
 21
815.3885
 31
0.0
  0
LINE
  5
4E3
330
1E
100
AcDbEntity
  8
0
100
AcDbLine
 10
132.3
 20
832.6454999999999
 30
0.0
 11
137.5999999999999
 21
828.6455
 31
0.0
  0
LINE
  5
4E4
330
1E
100
AcDbEntity
  8
0
100
AcDbLine
 10
137.5999999999999
 20
828.6455
 30
0.0
 11
141.6999999999999
 21
824.4455
 31
0.0
  0
LINE
  5
4E5
330
1E
100
AcDbEntity
  8
0
100
AcDbLine
 10
132.3
 20
823.6385
 30
0.0
 11
137.5999999999999
 21
819.6385000000001
 31
0.0
  0
LINE
  5
4E6
330
1E
100
AcDbEntity
  8
0
100
AcDbLine
 10
141.6999999999999
 20
824.4455
 30
0.0
 11
143.4
 21
822.5435
 31
0.0
  0
LINE
  5
4E7
330
1E
100
AcDbEntity
  8
0
100
AcDbLine
 10
143.4
 20
822.5435
 30
0.0
 11
146.5
 21
817.9434999999999
 31
0.0
  0
LINE
  5
4E8
330
1E
100
AcDbEntity
  8
0
100
AcDbLine
 10
146.5
 20
817.9434999999999
 30
0.0
 11
148.5
 21
813.1935
 31
0.0
  0
LINE
  5
4E9
330
1E
100
AcDbEntity
  8
0
100
AcDbLine
 10
137.5999999999999
 20
819.6385000000001
 30
0.0
 11
141.6999999999999
 21
815.4394999999999
 31
0.0
  0
LINE
  5
4EA
330
1E
100
AcDbEntity
  8
0
100
AcDbLine
 10
141.6999999999999
 20
815.4394999999999
 30
0.0
 11
144.6999999999999
 21
810.9394999999999
 31
0.0
  0
LINE
  5
4EC
330
1E
100
AcDbEntity
  8
0
100
AcDbLine
 10
149.1999999999999
 20
811.0425000000001
 30
0.0
 11
150.0
 21
806.1424999999999
 31
0.0
  0
LINE
  5
4ED
330
1E
100
AcDbEntity
  8
0
100
AcDbLine
 10
65.59999999999999
 20
837.3384999999998
 30
0.0
 11
75.0
 21
837.6894999999999
 31
0.0
  0
LINE
  5
4EE
330
1E
100
AcDbEntity
  8
0
100
AcDbLine
 10
75.0
 20
837.6894999999999
 30
0.0
 11
84.40000000000001
 21
837.3384999999998
 31
0.0
  0
LINE
  5
4EF
330
1E
100
AcDbEntity
  8
0
100
AcDbLine
 10
75.0
 20
837.7885
 30
0.0
 11
84.40000000000001
 21
837.4394999999999
 31
0.0
  0
LINE
  5
4F0
330
1E
100
AcDbEntity
  8
0
100
AcDbLine
 10
117.0
 20
840.0744999999998
 30
0.0
 11
119.0
 21
839.2965
 31
0.0
  0
LINE
  5
4F1
330
1E
100
AcDbEntity
  8
0
100
AcDbLine
 10
109.4
 20
842.6244999999999
 30
0.0
 11
117.0
 21
840.0744999999998
 31
0.0
  0
LINE
  5
4F2
330
1E
100
AcDbEntity
  8
0
100
AcDbLine
 10
101.4
 20
844.5744999999998
 30
0.0
 11
109.4
 21
842.6244999999999
 31
0.0
  0
LINE
  5
4F3
330
1E
100
AcDbEntity
  8
0
100
AcDbLine
 10
87.0
 20
846.618022727273
 30
0.0
 11
87.0
 21
877.0645
 31
0.0
  0
LINE
  5
4F4
330
1E
100
AcDbEntity
  8
0
100
AcDbLine
 10
63.0
 20
846.618022727273
 30
0.0
 11
63.0
 21
877.0645
 31
0.0
  0
LINE
  5
4F5
330
1E
100
AcDbEntity
  8
0
100
AcDbLine
 10
91.79999999999999
 20
846.1534999999999
 30
0.0
 11
92.79999999999999
 21
846.0255
 31
0.0
  0
LINE
  5
4F6
330
1E
100
AcDbEntity
  8
0
100
AcDbLine
 10
87.4157491288998
 20
846.5755501742179
 30
0.0
 11
91.79999999999999
 21
846.1534999999999
 31
0.0
  0
LINE
  5
4F7
330
1E
100
AcDbEntity
  8
0
100
AcDbLine
 10
92.79999999999999
 20
846.0255
 30
0.0
 11
101.4
 21
844.5744999999998
 31
0.0
  0
LINE
  5
4F8
330
1E
100
AcDbEntity
  8
0
100
AcDbLine
 10
119.0
 20
839.2965
 30
0.0
 11
126.0
 21
836.1454999999999
 31
0.0
  0
LINE
  5
4F9
330
1E
100
AcDbEntity
  8
0
100
AcDbLine
 10
65.59999999999999
 20
837.4394999999999
 30
0.0
 11
75.0
 21
837.7885
 31
0.0
  0
LINE
  5
4FA
330
1E
100
AcDbEntity
  8
0
100
AcDbLine
 10
58.2
 20
846.1534999999999
 30
0.0
 11
62.58425087110021
 21
846.5755501742179
 31
0.0
  0
LINE
  5
4FB
330
1E
100
AcDbEntity
  8
0
100
AcDbLine
 10
83.49999999999999
 20
846.9525
 30
0.0
 11
83.64843256890559
 21
846.9382111298129
 31
0.0
  0
LINE
  5
4FC
330
1E
100
AcDbEntity
  8
0
100
AcDbLine
 10
66.3515674310944
 20
846.9382111298129
 30
0.0
 11
66.5
 21
846.9525
 31
0.0
  0
LINE
  5
4FD
330
1E
100
AcDbEntity
  8
0
100
AcDbLine
 10
57.2
 20
846.0255
 30
0.0
 11
58.2
 21
846.1534999999999
 31
0.0
  0
LINE
  5
4FE
330
1E
100
AcDbEntity
  8
0
100
AcDbLine
 10
63.39999999999999
 20
877.0645
 30
0.0
 11
64.59999999999999
 21
877.0645
 31
0.0
  0
LINE
  5
4FF
330
1E
100
AcDbEntity
  8
0
100
AcDbLine
 10
63.0
 20
877.0645
 30
0.0
 11
63.0
 21
846.618022727273
 31
0.0
  0
LINE
  5
500
330
1E
100
AcDbEntity
  8
0
100
AcDbLine
 10
63.0
 20
877.0645
 30
0.0
 11
63.39999999999999
 21
877.0645
 31
0.0
  0
LINE
  5
501
330
1E
100
AcDbEntity
  8
0
100
AcDbLine
 10
63.0
 20
877.0645
 30
0.0
 11
64.0
 21
878.0644999999999
 31
0.0
  0
LINE
  5
502
330
1E
100
AcDbEntity
  8
0
100
AcDbLine
 10
63.39999999999999
 20
879.0644999999999
 30
0.0
 11
64.59999999999999
 21
879.0644999999999
 31
0.0
  0
LINE
  5
503
330
1E
100
AcDbEntity
  8
0
100
AcDbLine
 10
64.59999999999999
 20
877.0645
 30
0.0
 11
66.5
 21
877.0645
 31
0.0
  0
LINE
  5
504
330
1E
100
AcDbEntity
  8
0
100
AcDbLine
 10
69.0
 20
877.0645
 30
0.0
 11
71.90000000000001
 21
877.0645
 31
0.0
  0
LINE
  5
505
330
1E
100
AcDbEntity
  8
0
100
AcDbLine
 10
66.5
 20
877.0645
 30
0.0
 11
69.0
 21
877.0645
 31
0.0
  0
LINE
  5
506
330
1E
100
AcDbEntity
  8
0
100
AcDbLine
 10
75.0
 20
877.0645
 30
0.0
 11
78.09999999999999
 21
877.0645
 31
0.0
  0
LINE
  5
507
330
1E
100
AcDbEntity
  8
0
100
AcDbLine
 10
71.90000000000001
 20
877.0645
 30
0.0
 11
75.0
 21
877.0645
 31
0.0
  0
LINE
  5
508
330
1E
100
AcDbEntity
  8
0
100
AcDbLine
 10
72.2
 20
878.0644999999999
 30
0.0
 11
75.0
 21
878.0644999999999
 31
0.0
  0
LINE
  5
509
330
1E
100
AcDbEntity
  8
0
100
AcDbLine
 10
69.5
 20
878.0644999999999
 30
0.0
 11
72.2
 21
878.0644999999999
 31
0.0
  0
LINE
  5
50A
330
1E
100
AcDbEntity
  8
0
100
AcDbLine
 10
67.2
 20
878.0644999999999
 30
0.0
 11
69.5
 21
878.0644999999999
 31
0.0
  0
LINE
  5
50B
330
1E
100
AcDbEntity
  8
0
100
AcDbLine
 10
65.5
 20
878.0644999999999
 30
0.0
 11
67.2
 21
878.0644999999999
 31
0.0
  0
LINE
  5
50C
330
1E
100
AcDbEntity
  8
0
100
AcDbLine
 10
71.90000000000001
 20
879.0644999999999
 30
0.0
 11
75.0
 21
879.0644999999999
 31
0.0
  0
LINE
  5
50D
330
1E
100
AcDbEntity
  8
0
100
AcDbLine
 10
69.0
 20
879.0644999999999
 30
0.0
 11
71.90000000000001
 21
879.0644999999999
 31
0.0
  0
LINE
  5
50E
330
1E
100
AcDbEntity
  8
0
100
AcDbLine
 10
66.5
 20
879.0644999999999
 30
0.0
 11
69.0
 21
879.0644999999999
 31
0.0
  0
LINE
  5
50F
330
1E
100
AcDbEntity
  8
0
100
AcDbLine
 10
64.59999999999999
 20
879.0644999999999
 30
0.0
 11
66.5
 21
879.0644999999999
 31
0.0
  0
LINE
  5
510
330
1E
100
AcDbEntity
  8
0
100
AcDbLine
 10
64.40000000000001
 20
878.0644999999999
 30
0.0
 11
65.5
 21
878.0644999999999
 31
0.0
  0
LINE
  5
511
330
1E
100
AcDbEntity
  8
0
100
AcDbLine
 10
64.0
 20
878.0644999999999
 30
0.0
 11
64.40000000000001
 21
878.0644999999999
 31
0.0
  0
LINE
  5
512
330
1E
100
AcDbEntity
  8
0
100
AcDbLine
 10
63.0
 20
879.0644999999999
 30
0.0
 11
64.0
 21
878.0644999999999
 31
0.0
  0
LINE
  5
513
330
1E
100
AcDbEntity
  8
0
100
AcDbLine
 10
63.0
 20
879.0644999999999
 30
0.0
 11
63.0
 21
925.0645
 31
0.0
  0
LINE
  5
514
330
1E
100
AcDbEntity
  8
0
100
AcDbLine
 10
63.0
 20
879.0644999999999
 30
0.0
 11
63.39999999999999
 21
879.0644999999999
 31
0.0
  0
LINE
  5
515
330
1E
100
AcDbEntity
  8
0
100
AcDbLine
 10
75.0
 20
878.0644999999999
 30
0.0
 11
77.8
 21
878.0644999999999
 31
0.0
  0
LINE
  5
516
330
1E
100
AcDbEntity
  8
0
100
AcDbLine
 10
71.90000000000001
 20
925.0645
 30
0.0
 11
75.0
 21
925.0645
 31
0.0
  0
LINE
  5
517
330
1E
100
AcDbEntity
  8
0
100
AcDbLine
 10
69.0
 20
925.0645
 30
0.0
 11
71.90000000000001
 21
925.0645
 31
0.0
  0
LINE
  5
518
330
1E
100
AcDbEntity
  8
0
100
AcDbLine
 10
66.5
 20
925.0645
 30
0.0
 11
69.0
 21
925.0645
 31
0.0
  0
LINE
  5
519
330
1E
100
AcDbEntity
  8
0
100
AcDbLine
 10
64.59999999999999
 20
925.0645
 30
0.0
 11
66.5
 21
925.0645
 31
0.0
  0
LINE
  5
51A
330
1E
100
AcDbEntity
  8
0
100
AcDbLine
 10
63.39999999999999
 20
925.0645
 30
0.0
 11
64.59999999999999
 21
925.0645
 31
0.0
  0
LINE
  5
51B
330
1E
100
AcDbEntity
  8
0
100
AcDbLine
 10
68.0
 20
927.0645
 30
0.0
 11
75.0
 21
928.0644999999999
 31
0.0
  0
LINE
  5
51C
330
1E
100
AcDbEntity
  8
0
100
AcDbLine
 10
63.0
 20
925.0645
 30
0.0
 11
68.0
 21
927.0645
 31
0.0
  0
LINE
  5
51D
330
1E
100
AcDbEntity
  8
0
100
AcDbLine
 10
63.0
 20
925.0645
 30
0.0
 11
63.0
 21
879.0644999999999
 31
0.0
  0
LINE
  5
51E
330
1E
100
AcDbEntity
  8
0
100
AcDbLine
 10
63.0
 20
925.0645
 30
0.0
 11
63.39999999999999
 21
925.0645
 31
0.0
  0
LINE
  5
51F
330
1E
100
AcDbEntity
  8
0
100
AcDbLine
 10
75.0
 20
928.0644999999999
 30
0.0
 11
82.0
 21
927.0645
 31
0.0
  0
LINE
  5
520
330
1E
100
AcDbEntity
  8
0
100
AcDbLine
 10
75.0
 20
925.0645
 30
0.0
 11
78.09999999999999
 21
925.0645
 31
0.0
  0
LINE
  5
521
330
1E
100
AcDbEntity
  8
0
100
AcDbLine
 10
75.0
 20
879.0644999999999
 30
0.0
 11
78.09999999999999
 21
879.0644999999999
 31
0.0
  0
LINE
  5
522
330
1E
100
AcDbEntity
  8
0
100
AcDbLine
 10
78.09999999999999
 20
877.0645
 30
0.0
 11
81.0
 21
877.0645
 31
0.0
  0
LINE
  5
523
330
1E
100
AcDbEntity
  8
0
100
AcDbLine
 10
77.8
 20
878.0644999999999
 30
0.0
 11
80.5
 21
878.0644999999999
 31
0.0
  0
LINE
  5
524
330
1E
100
AcDbEntity
  8
0
100
AcDbLine
 10
81.0
 20
877.0645
 30
0.0
 11
83.49999999999999
 21
877.0645
 31
0.0
  0
LINE
  5
525
330
1E
100
AcDbEntity
  8
0
100
AcDbLine
 10
83.49999999999999
 20
877.0645
 30
0.0
 11
85.4
 21
877.0645
 31
0.0
  0
LINE
  5
526
330
1E
100
AcDbEntity
  8
0
100
AcDbLine
 10
80.5
 20
878.0644999999999
 30
0.0
 11
82.79999999999999
 21
878.0644999999999
 31
0.0
  0
LINE
  5
527
330
1E
100
AcDbEntity
  8
0
100
AcDbLine
 10
82.79999999999999
 20
878.0644999999999
 30
0.0
 11
84.50000000000001
 21
878.0644999999999
 31
0.0
  0
LINE
  5
528
330
1E
100
AcDbEntity
  8
0
100
AcDbLine
 10
85.4
 20
877.0645
 30
0.0
 11
86.6
 21
877.0645
 31
0.0
  0
LINE
  5
529
330
1E
100
AcDbEntity
  8
0
100
AcDbLine
 10
84.50000000000001
 20
878.0644999999999
 30
0.0
 11
85.6
 21
878.0644999999999
 31
0.0
  0
LINE
  5
52A
330
1E
100
AcDbEntity
  8
0
100
AcDbLine
 10
78.09999999999999
 20
879.0644999999999
 30
0.0
 11
81.0
 21
879.0644999999999
 31
0.0
  0
LINE
  5
52B
330
1E
100
AcDbEntity
  8
0
100
AcDbLine
 10
81.0
 20
879.0644999999999
 30
0.0
 11
83.49999999999999
 21
879.0644999999999
 31
0.0
  0
LINE
  5
52C
330
1E
100
AcDbEntity
  8
0
100
AcDbLine
 10
83.49999999999999
 20
879.0644999999999
 30
0.0
 11
85.4
 21
879.0644999999999
 31
0.0
  0
LINE
  5
52D
330
1E
100
AcDbEntity
  8
0
100
AcDbLine
 10
85.4
 20
879.0644999999999
 30
0.0
 11
86.6
 21
879.0644999999999
 31
0.0
  0
LINE
  5
52E
330
1E
100
AcDbEntity
  8
0
100
AcDbLine
 10
85.6
 20
878.0644999999999
 30
0.0
 11
86.0
 21
878.0644999999999
 31
0.0
  0
LINE
  5
52F
330
1E
100
AcDbEntity
  8
0
100
AcDbLine
 10
86.6
 20
877.0645
 30
0.0
 11
87.0
 21
877.0645
 31
0.0
  0
LINE
  5
530
330
1E
100
AcDbEntity
  8
0
100
AcDbLine
 10
87.0
 20
877.0645
 30
0.0
 11
87.0
 21
846.618022727273
 31
0.0
  0
LINE
  5
531
330
1E
100
AcDbEntity
  8
0
100
AcDbLine
 10
87.0
 20
879.0644999999999
 30
0.0
 11
87.0
 21
925.0645
 31
0.0
  0
LINE
  5
532
330
1E
100
AcDbEntity
  8
0
100
AcDbLine
 10
86.0
 20
878.0644999999999
 30
0.0
 11
87.0
 21
879.0644999999999
 31
0.0
  0
LINE
  5
533
330
1E
100
AcDbEntity
  8
0
100
AcDbLine
 10
86.0
 20
878.0644999999999
 30
0.0
 11
87.0
 21
877.0645
 31
0.0
  0
LINE
  5
534
330
1E
100
AcDbEntity
  8
0
100
AcDbLine
 10
78.09999999999999
 20
925.0645
 30
0.0
 11
81.0
 21
925.0645
 31
0.0
  0
LINE
  5
535
330
1E
100
AcDbEntity
  8
0
100
AcDbLine
 10
81.0
 20
925.0645
 30
0.0
 11
83.49999999999999
 21
925.0645
 31
0.0
  0
LINE
  5
536
330
1E
100
AcDbEntity
  8
0
100
AcDbLine
 10
83.49999999999999
 20
925.0645
 30
0.0
 11
85.4
 21
925.0645
 31
0.0
  0
LINE
  5
537
330
1E
100
AcDbEntity
  8
0
100
AcDbLine
 10
82.0
 20
927.0645
 30
0.0
 11
87.0
 21
925.0645
 31
0.0
  0
LINE
  5
538
330
1E
100
AcDbEntity
  8
0
100
AcDbLine
 10
85.4
 20
925.0645
 30
0.0
 11
86.6
 21
925.0645
 31
0.0
  0
LINE
  5
539
330
1E
100
AcDbEntity
  8
0
100
AcDbLine
 10
87.0
 20
925.0645
 30
0.0
 11
87.0
 21
879.0644999999999
 31
0.0
  0
LINE
  5
53A
330
1E
100
AcDbEntity
  8
0
100
AcDbLine
 10
86.6
 20
925.0645
 30
0.0
 11
87.0
 21
925.0645
 31
0.0
  0
LINE
  5
53B
330
1E
100
AcDbEntity
  8
0
100
AcDbLine
 10
86.6
 20
879.0644999999999
 30
0.0
 11
87.0
 21
879.0644999999999
 31
0.0
  0
LINE
  5
53C
330
1E
100
AcDbEntity
  8
0
100
AcDbLine
 10
75.0
 20
847.3024999999999
 30
0.0
 11
83.49999999999999
 21
846.9525
 31
0.0
  0
LINE
  5
53D
330
1E
100
AcDbEntity
  8
0
100
AcDbLine
 10
66.5
 20
846.9525
 30
0.0
 11
75.0
 21
847.3024999999999
 31
0.0
  0
LINE
  5
53E
330
1E
100
AcDbEntity
  8
0
100
AcDbLine
 10
48.6
 20
844.5744999999998
 30
0.0
 11
57.2
 21
846.0255
 31
0.0
  0
LINE
  5
53F
330
1E
100
AcDbEntity
  8
0
100
AcDbLine
 10
24.1
 20
776.1894999999999
 30
0.0
 11
25.2257974605145
 21
775.6979546299159
 31
0.0
  0
LINE
  5
540
330
1E
100
AcDbEntity
  8
0
100
AcDbLine
 10
24.1
 20
776.1894999999999
 30
0.0
 11
26.2
 21
775.1604999999999
 31
0.0
  0
LINE
  5
541
330
1E
100
AcDbEntity
  8
0
100
AcDbLine
 10
24.1
 20
776.1894999999999
 30
0.0
 11
25.2257974605145
 21
775.6979546299159
 31
0.0
  0
LINE
  5
542
330
1E
100
AcDbEntity
  8
0
100
AcDbLine
 10
24.0
 20
776.1395
 30
0.0
 11
27.6341176470583
 21
774.504147058824
 31
0.0
  0
LINE
  5
543
330
1E
100
AcDbEntity
  8
0
100
AcDbLine
 10
24.0
 20
776.1395
 30
0.0
 11
27.6341176470583
 21
774.504147058824
 31
0.0
  0
LINE
  5
548
330
1E
100
AcDbEntity
  8
0
100
AcDbLine
 10
62.58425087110021
 20
846.5755501742179
 30
0.0
 11
66.3515674310944
 21
846.9382111298129
 31
0.0
  0
LINE
  5
549
330
1E
100
AcDbEntity
  8
0
100
AcDbLine
 10
83.49999999999999
 20
846.9525
 30
0.0
 11
87.4157491288998
 21
846.5755501742179
 31
0.0
  0
ENDSEC
  0
SECTION
  2
OBJECTS
  0
DICTIONARY
  5
C
330
0
100
AcDbDictionary
  3
ACAD_GROUP
350
D
  3
ACAD_LAYOUT
350
19
  3
ACAD_MLINESTYLE
350
16
  3
ACAD_PLOTSETTINGS
350
18
  3
ACAD_PLOTSTYLENAME
350
E
  3
ACDBHEADERROUNDTRIPXREC
350
54E
  3
ACDBVARIABLEDICTIONARY
350
54B
  0
DICTIONARY
  5
570
330
1E
100
AcDbDictionary
280
     1
  3
ACAD_LAYOUTSELFREF
360
571
  0
DICTIONARY
  5
56E
330
1A
100
AcDbDictionary
280
     1
  3
ACAD_LAYOUTSELFREF
360
56F
  0
DICTIONARY
  5
D
102
{ACAD_REACTORS
330
C
102
}
330
C
100
AcDbDictionary
  0
DICTIONARY
  5
19
102
{ACAD_REACTORS
330
C
102
}
330
C
100
AcDbDictionary
  0
DICTIONARY
  5
16
102
{ACAD_REACTORS
330
C
102
}
330
C
100
AcDbDictionary
  3
STANDARD
350
17
  0
DICTIONARY
  5
18
102
{ACAD_REACTORS
330
C
102
}
330
C
100
AcDbDictionary
  0
ACDBDICTIONARYWDFLT
  5
E
102
{ACAD_REACTORS
330
C
102
}
330
C
100
AcDbDictionary
281
     1
  3
Normal
350
F
100
AcDbDictionaryWithDefault
340
F
  0
DICTIONARY
  5
54E
102
{ACAD_REACTORS
330
C
102
}
330
C
100
AcDbDictionary
  3
CEPSNTYPE
350
558
  3
FINGERPRINTGUID
350
559
  3
HYPERLINKBASE
350
551
  3
INSUNITS
350
557
  3
LAYOUTDICT
350
553
  3
LWETCUNION
350
556
  3
PLOTSETDICT
350
554
  3
PLOTSTYLNAMDICT
350
555
  3
PSVPSCALE
350
55B
  3
PUCSBASE
350
55E
  3
PUCSORGBACK
350
564
  3
PUCSORGBOTTOM
350
560
  3
PUCSORGFRONT
350
563
  3
PUCSORGLEFT
350
561
  3
PUCSORGRIGHT
350
562
  3
PUCSORGTOP
350
55F
  3
PUCSORTHOREF
350
55C
  3
PUCSORTHOVIEW
350
55D
  3
STYLESHEET
350
552
  3
TSTACKALIGN
350
54F
  3
TSTACKSIZE
350
550
  3
UCSBASE
350
567
  3
UCSORGBACK
350
56D
  3
UCSORGBOTTOM
350
569
  3
UCSORGFRONT
350
56C
  3
UCSORGLEFT
350
56A
  3
UCSORGRIGHT
350
56B
  3
UCSORGTOP
350
568
  3
UCSORTHOREF
350
565
  3
UCSORTHOVIEW
350
566
  3
VERSIONGUID
350
55A
  0
DICTIONARY
  5
54B
102
{ACAD_REACTORS
330
C
102
}
330
C
100
AcDbDictionary
  3
DIMASSOC
350
54C
  0
XRECORD
  5
571
102
{ACAD_REACTORS
330
570
102
}
330
570
100
AcDbXrecord
340
1E
  0
XRECORD
  5
56F
102
{ACAD_REACTORS
330
56E
102
}
330
56E
100
AcDbXrecord
340
1A
  0
MLINESTYLE
  5
17
102
{ACAD_REACTORS
330
16
102
}
330
16
100
AcDbMlineStyle
  2
STANDARD
 70
     0
  3

 62
   256
 51
90.0
 52
90.0
 71
     2
 49
0.5
 62
   256
  6
BYLAYER
 49
-0.5
 62
   256
  6
BYLAYER
  0
ACDBPLACEHOLDER
  5
F
102
{ACAD_REACTORS
330
E
102
}
330
E
100
AcDbPlaceHolder
280
     0
  0
XRECORD
  5
558
102
{ACAD_REACTORS
330
54E
102
}
330
54E
100
AcDbXrecord
 90
        0
  0
XRECORD
  5
559
102
{ACAD_REACTORS
330
54E
102
}
330
54E
100
AcDbXrecord
  1
{DD89158F-B584-4F6D-9F27-C95B887FCA28}
  0
XRECORD
  5
551
102
{ACAD_REACTORS
330
54E
102
}
330
54E
100
AcDbXrecord
  1

  0
XRECORD
  5
557
102
{ACAD_REACTORS
330
54E
102
}
330
54E
100
AcDbXrecord
 90
        0
  0
XRECORD
  5
553
102
{ACAD_REACTORS
330
54E
102
}
330
54E
100
AcDbXrecord
340
19
  0
XRECORD
  5
556
102
{ACAD_REACTORS
330
54E
102
}
330
54E
100
AcDbXrecord
 90
    10781
  0
XRECORD
  5
554
102
{ACAD_REACTORS
330
54E
102
}
330
54E
100
AcDbXrecord
340
18
  0
XRECORD
  5
555
102
{ACAD_REACTORS
330
54E
102
}
330
54E
100
AcDbXrecord
340
E
  0
XRECORD
  5
55B
102
{ACAD_REACTORS
330
54E
102
}
330
54E
100
AcDbXrecord
 40
0.0
  0
XRECORD
  5
55E
102
{ACAD_REACTORS
330
54E
102
}
330
54E
100
AcDbXrecord
340
0
  0
XRECORD
  5
564
102
{ACAD_REACTORS
330
54E
102
}
330
54E
100
AcDbXrecord
 10
0.0
 20
0.0
 30
0.0
  0
XRECORD
  5
560
102
{ACAD_REACTORS
330
54E
102
}
330
54E
100
AcDbXrecord
 10
0.0
 20
0.0
 30
0.0
  0
XRECORD
  5
563
102
{ACAD_REACTORS
330
54E
102
}
330
54E
100
AcDbXrecord
 10
0.0
 20
0.0
 30
0.0
  0
XRECORD
  5
561
102
{ACAD_REACTORS
330
54E
102
}
330
54E
100
AcDbXrecord
 10
0.0
 20
0.0
 30
0.0
  0
XRECORD
  5
562
102
{ACAD_REACTORS
330
54E
102
}
330
54E
100
AcDbXrecord
 10
0.0
 20
0.0
 30
0.0
  0
XRECORD
  5
55F
102
{ACAD_REACTORS
330
54E
102
}
330
54E
100
AcDbXrecord
 10
0.0
 20
0.0
 30
0.0
  0
XRECORD
  5
55C
102
{ACAD_REACTORS
330
54E
102
}
330
54E
100
AcDbXrecord
340
0
  0
XRECORD
  5
55D
102
{ACAD_REACTORS
330
54E
102
}
330
54E
100
AcDbXrecord
 70
     0
  0
XRECORD
  5
552
102
{ACAD_REACTORS
330
54E
102
}
330
54E
100
AcDbXrecord
  1

  0
XRECORD
  5
54F
102
{ACAD_REACTORS
330
54E
102
}
330
54E
100
AcDbXrecord
 90
        1
  0
XRECORD
  5
550
102
{ACAD_REACTORS
330
54E
102
}
330
54E
100
AcDbXrecord
 90
       70
  0
XRECORD
  5
567
102
{ACAD_REACTORS
330
54E
102
}
330
54E
100
AcDbXrecord
340
0
  0
XRECORD
  5
56D
102
{ACAD_REACTORS
330
54E
102
}
330
54E
100
AcDbXrecord
 10
0.0
 20
0.0
 30
0.0
  0
XRECORD
  5
569
102
{ACAD_REACTORS
330
54E
102
}
330
54E
100
AcDbXrecord
 10
0.0
 20
0.0
 30
0.0
  0
XRECORD
  5
56C
102
{ACAD_REACTORS
330
54E
102
}
330
54E
100
AcDbXrecord
 10
0.0
 20
0.0
 30
0.0
  0
XRECORD
  5
56A
102
{ACAD_REACTORS
330
54E
102
}
330
54E
100
AcDbXrecord
 10
0.0
 20
0.0
 30
0.0
  0
XRECORD
  5
56B
102
{ACAD_REACTORS
330
54E
102
}
330
54E
100
AcDbXrecord
 10
0.0
 20
0.0
 30
0.0
  0
XRECORD
  5
568
102
{ACAD_REACTORS
330
54E
102
}
330
54E
100
AcDbXrecord
 10
0.0
 20
0.0
 30
0.0
  0
XRECORD
  5
565
102
{ACAD_REACTORS
330
54E
102
}
330
54E
100
AcDbXrecord
340
0
  0
XRECORD
  5
566
102
{ACAD_REACTORS
330
54E
102
}
330
54E
100
AcDbXrecord
 70
     1
  0
XRECORD
  5
55A
102
{ACAD_REACTORS
330
54E
102
}
330
54E
100
AcDbXrecord
  1
{AAA7DEE7-4C71-4FB0-B4D5-633CE0297D5F}
  0
DICTIONARYVAR
  5
54C
102
{ACAD_REACTORS
330
54B
102
}
330
54B
100
DictionaryVariables
280
     0
  1
1
  0
ENDSEC
  0
EOF
