  0
SECTION
  2
HEADER
  9
$ACADVER
  1
AC1014
  9
$ACADMAINTVER
 70
     9
  9
$DWGCODEPAGE
  3
ANSI_1252
  9
$INSBASE
 10
0.0
 20
0.0
 30
0.0
  9
$EXTMIN
 10
-0.1385
 20
-0.0644999999999518
 30
0.0
  9
$EXTMAX
 10
319.1385
 20
928.0644999999999
 30
0.0
  9
$LIMMIN
 10
0.0
 20
0.0
  9
$LIMMAX
 10
12.0
 20
9.0
  9
$ORTHOMODE
 70
     0
  9
$REGENMODE
 70
     1
  9
$FILLMODE
 70
     1
  9
$QTEXTMODE
 70
     0
  9
$MIRRTEXT
 70
     1
  9
$DRAGMODE
 70
     2
  9
$LTSCALE
 40
1.0
  9
$OSMODE
 70
    37
  9
$ATTMODE
 70
     1
  9
$TEXTSIZE
 40
0.2
  9
$TRACEWID
 40
0.05
  9
$TEXTSTYLE
  7
STANDARD
  9
$CLAYER
  8
0
  9
$CELTYPE
  6
CONTINUOUS
  9
$CECOLOR
 62
   256
  9
$CELTSCALE
 40
1.0
  9
$DELOBJ
 70
     1
  9
$DISPSILH
 70
     0
  9
$DIMSCALE
 40
1.0
  9
$DIMASZ
 40
0.18
  9
$DIMEXO
 40
0.0625
  9
$DIMDLI
 40
0.38
  9
$DIMRND
 40
0.0
  9
$DIMDLE
 40
0.0
  9
$DIMEXE
 40
0.18
  9
$DIMTP
 40
0.0
  9
$DIMTM
 40
0.0
  9
$DIMTXT
 40
0.18
  9
$DIMCEN
 40
0.09
  9
$DIMTSZ
 40
0.0
  9
$DIMTOL
 70
     0
  9
$DIMLIM
 70
     0
  9
$DIMTIH
 70
     1
  9
$DIMTOH
 70
     1
  9
$DIMSE1
 70
     0
  9
$DIMSE2
 70
     0
  9
$DIMTAD
 70
     0
  9
$DIMZIN
 70
     0
  9
$DIMBLK
  1

  9
$DIMASO
 70
     1
  9
$DIMSHO
 70
     1
  9
$DIMPOST
  1

  9
$DIMAPOST
  1

  9
$DIMALT
 70
     0
  9
$DIMALTD
 70
     2
  9
$DIMALTF
 40
25.4
  9
$DIMLFAC
 40
1.0
  9
$DIMTOFL
 70
     0
  9
$DIMTVP
 40
0.0
  9
$DIMTIX
 70
     0
  9
$DIMSOXD
 70
     0
  9
$DIMSAH
 70
     0
  9
$DIMBLK1
  1

  9
$DIMBLK2
  1

  9
$DIMSTYLE
  2
STANDARD
  9
$DIMCLRD
 70
     0
  9
$DIMCLRE
 70
     0
  9
$DIMCLRT
 70
     0
  9
$DIMTFAC
 40
1.0
  9
$DIMGAP
 40
0.09
  9
$DIMJUST
 70
     0
  9
$DIMSD1
 70
     0
  9
$DIMSD2
 70
     0
  9
$DIMTOLJ
 70
     1
  9
$DIMTZIN
 70
     0
  9
$DIMALTZ
 70
     0
  9
$DIMALTTZ
 70
     0
  9
$DIMFIT
 70
     3
  9
$DIMUPT
 70
     0
  9
$DIMUNIT
 70
     2
  9
$DIMDEC
 70
     4
  9
$DIMTDEC
 70
     4
  9
$DIMALTU
 70
     2
  9
$DIMALTTD
 70
     2
  9
$DIMTXSTY
  7
STANDARD
  9
$DIMAUNIT
 70
     0
  9
$LUNITS
 70
     2
  9
$LUPREC
 70
     4
  9
$SKETCHINC
 40
0.1
  9
$FILLETRAD
 40
0.0
  9
$AUNITS
 70
     0
  9
$AUPREC
 70
     0
  9
$MENU
  1
.
  9
$ELEVATION
 40
0.0
  9
$PELEVATION
 40
0.0
  9
$THICKNESS
 40
0.0
  9
$LIMCHECK
 70
     0
  9
$BLIPMODE
 70
     0
  9
$CHAMFERA
 40
0.0
  9
$CHAMFERB
 40
0.0
  9
$CHAMFERC
 40
0.0
  9
$CHAMFERD
 40
0.0
  9
$SKPOLY
 70
     0
  9
$TDCREATE
 40
2455239.933262256
  9
$TDUPDATE
 40
2455239.936986400
  9
$TDINDWG
 40
0.0037243171
  9
$TDUSRTIMER
 40
0.0037243171
  9
$USRTIMER
 70
     1
  9
$ANGBASE
 50
0.0
  9
$ANGDIR
 70
     0
  9
$PDMODE
 70
     0
  9
$PDSIZE
 40
0.0
  9
$PLINEWID
 40
0.0
  9
$COORDS
 70
     1
  9
$SPLFRAME
 70
     0
  9
$SPLINETYPE
 70
     6
  9
$SPLINESEGS
 70
     8
  9
$ATTDIA
 70
     0
  9
$ATTREQ
 70
     1
  9
$HANDLING
 70
 22529
  9
$HANDSEED
  5
3B1
  9
$SURFTAB1
 70
     6
  9
$SURFTAB2
 70
     6
  9
$SURFTYPE
 70
     6
  9
$SURFU
 70
     6
  9
$SURFV
 70
     6
  9
$UCSNAME
  2

  9
$UCSORG
 10
0.0
 20
0.0
 30
0.0
  9
$UCSXDIR
 10
1.0
 20
0.0
 30
0.0
  9
$UCSYDIR
 10
0.0
 20
1.0
 30
0.0
  9
$PUCSNAME
  2

  9
$PUCSORG
 10
0.0
 20
0.0
 30
0.0
  9
$PUCSXDIR
 10
1.0
 20
0.0
 30
0.0
  9
$PUCSYDIR
 10
0.0
 20
1.0
 30
0.0
  9
$USERI1
 70
     0
  9
$USERI2
 70
     0
  9
$USERI3
 70
     0
  9
$USERI4
 70
     0
  9
$USERI5
 70
     0
  9
$USERR1
 40
0.0
  9
$USERR2
 40
0.0
  9
$USERR3
 40
0.0
  9
$USERR4
 40
0.0
  9
$USERR5
 40
0.0
  9
$WORLDVIEW
 70
     1
  9
$SHADEDGE
 70
     3
  9
$SHADEDIF
 70
    70
  9
$TILEMODE
 70
     1
  9
$MAXACTVP
 70
    64
  9
$PINSBASE
 10
0.0
 20
0.0
 30
0.0
  9
$PLIMCHECK
 70
     0
  9
$PEXTMIN
 10
1.000000000000000E+20
 20
1.000000000000000E+20
 30
1.000000000000000E+20
  9
$PEXTMAX
 10
-1.000000000000000E+20
 20
-1.000000000000000E+20
 30
-1.000000000000000E+20
  9
$PLIMMIN
 10
0.0
 20
0.0
  9
$PLIMMAX
 10
12.0
 20
9.0
  9
$UNITMODE
 70
     0
  9
$VISRETAIN
 70
     1
  9
$PLINEGEN
 70
     0
  9
$PSLTSCALE
 70
     1
  9
$TREEDEPTH
 70
  3020
  9
$PICKSTYLE
 70
     1
  9
$CMLSTYLE
  2
STANDARD
  9
$CMLJUST
 70
     0
  9
$CMLSCALE
 40
1.0
  9
$PROXYGRAPHICS
 70
     1
  9
$MEASUREMENT
 70
     0
  0
ENDSEC
  0
SECTION
  2
CLASSES
  0
CLASS
  1
ACDBDICTIONARYWDFLT
  2
AcDbDictionaryWithDefault
  3
AutoCAD 2000
 90
        0
280
     0
281
     0
  0
CLASS
  1
ACDBPLACEHOLDER
  2
AcDbPlaceHolder
  3
AutoCAD 2000
 90
        0
280
     0
281
     0
  0
CLASS
  1
LAYOUT
  2
AcDbLayout
  3
AutoCAD 2000
 90
        0
280
     0
281
     0
  0
CLASS
  1
DICTIONARYVAR
  2
AcDbDictionaryVar
  3
AutoCAD 2000
 90
        0
280
     0
281
     0
  0
CLASS
  1
LONG_TRANSACTION
  2
AcDbLongTransaction
  3
AutoCAD 2000
 90
        0
280
     0
281
     0
  0
CLASS
  1
LWPOLYLINE
  2
AcDbPolyline
  3
AutoCAD 2000
 90
        0
280
     0
281
     1
  0
CLASS
  1
HATCH
  2
AcDbHatch
  3
AutoCAD 2000
 90
        0
280
     0
281
     1
  0
CLASS
  1
XRECORD
  2
AcDbXrecord
  3
AutoCAD 2000
 90
        0
280
     0
281
     0
  0
ENDSEC
  0
SECTION
  2
TABLES
  0
TABLE
  2
VPORT
  5
8
330
0
100
AcDbSymbolTable
 70
     3
  0
VPORT
  5
38C
330
8
100
AcDbSymbolTableRecord
100
AcDbViewportTableRecord
  2
*ACTIVE
 70
     0
 10
0.0
 20
0.0
 11
1.0
 21
1.0
 12
159.5
 22
464.0
 13
0.0
 23
0.0
 14
1.0
 24
1.0
 15
0.0
 25
0.0
 16
0.0
 26
0.0
 36
1.0
 17
0.0
 27
0.0
 37
0.0
 40
934.2217505470458
 41
2.041621029572836
 42
50.0
 43
0.0
 44
0.0
 50
0.0
 51
0.0
 71
     0
 72
   100
 73
     1
 74
     3
 75
     0
 76
     0
 77
     0
 78
     0
  0
ENDTAB
  0
TABLE
  2
LTYPE
  5
5
330
0
100
AcDbSymbolTable
 70
     1
  0
LTYPE
  5
13
330
5
100
AcDbSymbolTableRecord
100
AcDbLinetypeTableRecord
  2
BYBLOCK
 70
     0
  3

 72
    65
 73
     0
 40
0.0
  0
LTYPE
  5
14
330
5
100
AcDbSymbolTableRecord
100
AcDbLinetypeTableRecord
  2
BYLAYER
 70
     0
  3

 72
    65
 73
     0
 40
0.0
  0
LTYPE
  5
15
330
5
100
AcDbSymbolTableRecord
100
AcDbLinetypeTableRecord
  2
CONTINUOUS
 70
     0
  3
Solid line
 72
    65
 73
     0
 40
0.0
  0
ENDTAB
  0
TABLE
  2
LAYER
  5
2
330
0
100
AcDbSymbolTable
 70
     1
  0
LAYER
  5
10
330
2
100
AcDbSymbolTableRecord
100
AcDbLayerTableRecord
  2
0
 70
     0
 62
     7
  6
CONTINUOUS
  0
ENDTAB
  0
TABLE
  2
STYLE
  5
3
330
0
100
AcDbSymbolTable
 70
     1
  0
STYLE
  5
11
330
3
100
AcDbSymbolTableRecord
100
AcDbTextStyleTableRecord
  2
STANDARD
 70
     0
 40
0.0
 41
1.0
 50
0.0
 71
     0
 42
0.2
  3
txt
  4

  0
ENDTAB
  0
TABLE
  2
VIEW
  5
6
330
0
100
AcDbSymbolTable
 70
     0
  0
ENDTAB
  0
TABLE
  2
UCS
  5
7
330
0
100
AcDbSymbolTable
 70
     0
  0
ENDTAB
  0
TABLE
  2
APPID
  5
9
330
0
100
AcDbSymbolTable
 70
     1
  0
APPID
  5
12
330
9
100
AcDbSymbolTableRecord
100
AcDbRegAppTableRecord
  2
ACAD
 70
     0
  0
ENDTAB
  0
TABLE
  2
DIMSTYLE
  5
A
330
0
100
AcDbSymbolTable
 70
     1
  0
DIMSTYLE
105
385
330
A
100
AcDbSymbolTableRecord
100
AcDbDimStyleTableRecord
  2
STANDARD
 70
     0
  3

  4

  5

  6

  7

 40
1.0
 41
0.18
 42
0.0625
 43
0.38
 44
0.18
 45
0.0
 46
0.0
 47
0.0
 48
0.0
140
0.18
141
0.09
142
0.0
143
25.4
144
1.0
145
0.0
146
1.0
147
0.09
 71
     0
 72
     0
 73
     1
 74
     1
 75
     0
 76
     0
 77
     0
 78
     0
170
     0
171
     2
172
     0
173
     0
174
     0
175
     0
176
     0
177
     0
178
     0
270
     2
271
     4
272
     4
273
     2
274
     2
340
11
275
     0
280
     0
281
     0
282
     0
283
     1
284
     0
285
     0
286
     0
287
     3
288
     0
  0
ENDTAB
  0
TABLE
  2
BLOCK_RECORD
  5
1
330
0
100
AcDbSymbolTable
 70
     0
  0
BLOCK_RECORD
  5
1E
102
{ACAD_XDICTIONARY
360
3AF
102
}
330
1
100
AcDbSymbolTableRecord
100
AcDbBlockTableRecord
  2
*MODEL_SPACE
  0
BLOCK_RECORD
  5
1A
102
{ACAD_XDICTIONARY
360
3AD
102
}
330
1
100
AcDbSymbolTableRecord
100
AcDbBlockTableRecord
  2
*PAPER_SPACE
  0
ENDTAB
  0
ENDSEC
  0
SECTION
  2
BLOCKS
  0
BLOCK
  5
1F
330
1E
100
AcDbEntity
  8
0
100
AcDbBlockBegin
  2
*MODEL_SPACE
 70
     0
 10
0.0
 20
0.0
 30
0.0
  3
*MODEL_SPACE
  1

  0
ENDBLK
  5
20
330
1E
100
AcDbEntity
  8
0
100
AcDbBlockEnd
  0
BLOCK
  5
1B
330
1A
100
AcDbEntity
 67
     1
  8
0
100
AcDbBlockBegin
  2
*PAPER_SPACE
 70
     0
 10
0.0
 20
0.0
 30
0.0
  3
*PAPER_SPACE
  1

  0
ENDBLK
  5
1C
330
1A
100
AcDbEntity
 67
     1
  8
0
100
AcDbBlockEnd
  0
ENDSEC
  0
SECTION
  2
ENTITIES
  0
LINE
  5
22
330
1E
100
AcDbEntity
  8
0
100
AcDbLine
 10
87.07210000000001
 20
772.2374999999999
 30
0.0
 11
87.48722221913402
 21
773.218078517113
 31
0.0
  0
LINE
  5
23
330
1E
100
AcDbEntity
  8
0
100
AcDbLine
 10
86.2427
 20
772.7165
 30
0.0
 11
86.66648657027099
 21
773.7062328032499
 31
0.0
  0
LINE
  5
24
330
1E
100
AcDbEntity
  8
0
100
AcDbLine
 10
85.23039999999999
 20
773.0175
 30
0.0
 11
87.07210000000001
 21
772.2374999999999
 31
0.0
  0
LINE
  5
25
330
1E
100
AcDbEntity
  8
0
100
AcDbLine
 10
85.23039999999999
 20
773.0175
 30
0.0
 11
85.27446657610139
 21
773.1216049546989
 31
0.0
  0
LINE
  5
26
330
1E
100
AcDbEntity
  8
0
100
AcDbLine
 10
85.79439999999999
 20
772.9754999999999
 30
0.0
 11
86.26273577748859
 21
774.0686802074289
 31
0.0
  0
LINE
  5
27
330
1E
100
AcDbEntity
  8
0
100
AcDbLine
 10
85.79439999999999
 20
772.9754999999999
 30
0.0
 11
86.2427
 21
772.7165
 31
0.0
  0
LINE
  5
28
330
1E
100
AcDbEntity
  8
0
100
AcDbLine
 10
88.68219999999999
 20
773.1654999999999
 30
0.0
 11
90.2326
 21
772.7454999999999
 31
0.0
  0
LINE
  5
29
330
1E
100
AcDbEntity
  8
0
100
AcDbLine
 10
80.8857
 20
775.5265
 30
0.0
 11
81.75169999999999
 21
775.0265
 31
0.0
  0
LINE
  5
2A
330
1E
100
AcDbEntity
  8
0
100
AcDbLine
 10
80.8857
 20
775.5265
 30
0.0
 11
81.3131070322794
 21
776.491868606324
 31
0.0
  0
LINE
  5
2B
330
1E
100
AcDbEntity
  8
0
100
AcDbLine
 10
80.8857
 20
775.5265
 30
0.0
 11
82.4967
 21
774.8795
 31
0.0
  0
LINE
  5
2C
330
1E
100
AcDbEntity
  8
0
100
AcDbLine
 10
80.8857
 20
775.5265
 30
0.0
 11
81.04420385204759
 21
775.884506844043
 31
0.0
  0
LINE
  5
2D
330
1E
100
AcDbEntity
  8
0
100
AcDbLine
 10
81.75169999999999
 20
775.0265
 30
0.0
 11
83.3627
 21
774.3795
 31
0.0
  0
LINE
  5
2E
330
1E
100
AcDbEntity
  8
0
100
AcDbLine
 10
81.75169999999999
 20
775.0265
 30
0.0
 11
81.78807030228369
 21
775.1086482693909
 31
0.0
  0
LINE
  5
2F
330
1E
100
AcDbEntity
  8
0
100
AcDbLine
 10
83.3627
 20
774.3795
 30
0.0
 11
83.8017489586894
 21
775.3711637990201
 31
0.0
  0
LINE
  5
30
330
1E
100
AcDbEntity
  8
0
100
AcDbLine
 10
82.4967
 20
774.8795
 30
0.0
 11
82.90392108099979
 21
775.7992753376539
 31
0.0
  0
LINE
  5
31
330
1E
100
AcDbEntity
  8
0
100
AcDbLine
 10
82.4967
 20
774.8795
 30
0.0
 11
83.3627
 21
774.3795
 31
0.0
  0
LINE
  5
32
330
1E
100
AcDbEntity
  8
0
100
AcDbLine
 10
82.4967
 20
774.8795
 30
0.0
 11
82.90392108099979
 21
775.7992753376539
 31
0.0
  0
LINE
  5
33
330
1E
100
AcDbEntity
  8
0
100
AcDbLine
 10
75.3085
 20
777.3864999999999
 30
0.0
 11
75.80967422802349
 21
778.348711126097
 31
0.0
  0
LINE
  5
34
330
1E
100
AcDbEntity
  8
0
100
AcDbLine
 10
71.8755
 20
779.2685
 30
0.0
 11
72.53849999999999
 21
778.8854999999999
 31
0.0
  0
LINE
  5
35
330
1E
100
AcDbEntity
  8
0
100
AcDbLine
 10
71.8755
 20
779.2685
 30
0.0
 11
72.21773700154759
 21
779.920555428137
 31
0.0
  0
LINE
  5
36
330
1E
100
AcDbEntity
  8
0
100
AcDbLine
 10
71.8755
 20
779.2685
 30
0.0
 11
72.21773700154759
 21
779.920555428137
 31
0.0
  0
LINE
  5
37
330
1E
100
AcDbEntity
  8
0
100
AcDbLine
 10
72.53849999999999
 20
778.8854999999999
 30
0.0
 11
72.91138507987991
 21
779.5963498132049
 31
0.0
  0
LINE
  5
38
330
1E
100
AcDbEntity
  8
0
100
AcDbLine
 10
72.53849999999999
 20
778.8854999999999
 30
0.0
 11
73.34304274987291
 21
778.469999237581
 31
0.0
  0
LINE
  5
39
330
1E
100
AcDbEntity
  8
0
100
AcDbLine
 10
73.32349999999999
 20
778.4324999999999
 30
0.0
 11
73.54949999999999
 21
778.3015
 31
0.0
  0
LINE
  5
3A
330
1E
100
AcDbEntity
  8
0
100
AcDbLine
 10
73.32349999999999
 20
778.4324999999999
 30
0.0
 11
73.78704564066651
 21
779.3219658234869
 31
0.0
  0
LINE
  5
3B
330
1E
100
AcDbEntity
  8
0
100
AcDbLine
 10
73.32349999999999
 20
778.4324999999999
 30
0.0
 11
75.0825
 21
777.5175
 31
0.0
  0
LINE
  5
3C
330
1E
100
AcDbEntity
  8
0
100
AcDbLine
 10
73.54949999999999
 20
778.3015
 30
0.0
 11
75.3085
 21
777.3864999999999
 31
0.0
  0
LINE
  5
3D
330
1E
100
AcDbEntity
  8
0
100
AcDbLine
 10
75.0825
 20
777.5175
 30
0.0
 11
75.59059376944119
 21
778.492446161493
 31
0.0
  0
LINE
  5
3E
330
1E
100
AcDbEntity
  8
0
100
AcDbLine
 10
75.0825
 20
777.5175
 30
0.0
 11
75.3085
 21
777.3864999999999
 31
0.0
  0
LINE
  5
3F
330
1E
100
AcDbEntity
  8
0
100
AcDbLine
 10
71.7755
 20
779.4265
 30
0.0
 11
72.28378778691871
 21
780.381907820992
 31
0.0
  0
LINE
  5
40
330
1E
100
AcDbEntity
  8
0
100
AcDbLine
 10
65.7865
 20
782.7835
 30
0.0
 11
67.1605
 21
781.9905
 31
0.0
  0
LINE
  5
41
330
1E
100
AcDbEntity
  8
0
100
AcDbLine
 10
65.7865
 20
782.7835
 30
0.0
 11
65.9616996879766
 21
783.1065071896901
 31
0.0
  0
LINE
  5
42
330
1E
100
AcDbEntity
  8
0
100
AcDbLine
 10
67.1605
 20
781.9905
 30
0.0
 11
67.37534259763821
 21
782.3865949045649
 31
0.0
  0
LINE
  5
43
330
1E
100
AcDbEntity
  8
0
100
AcDbLine
 10
67.1605
 20
781.9905
 30
0.0
 11
68.25749999999999
 21
781.4574999999999
 31
0.0
  0
LINE
  5
44
330
1E
100
AcDbEntity
  8
0
100
AcDbLine
 10
67.1605
 20
781.9905
 30
0.0
 11
67.37534259763821
 21
782.3865949045649
 31
0.0
  0
LINE
  5
45
330
1E
100
AcDbEntity
  8
0
100
AcDbLine
 10
68.25749999999999
 20
781.4574999999999
 30
0.0
 11
68.46143755491709
 21
781.8334898048159
 31
0.0
  0
LINE
  5
46
330
1E
100
AcDbEntity
  8
0
100
AcDbLine
 10
69.87949999999999
 20
781.8795
 30
0.0
 11
70.86249999999999
 21
781.5965
 31
0.0
  0
LINE
  5
47
330
1E
100
AcDbEntity
  8
0
100
AcDbLine
 10
69.87949999999999
 20
781.8795
 30
0.0
 11
70.37132689837699
 21
782.867035181521
 31
0.0
  0
LINE
  5
48
330
1E
100
AcDbEntity
  8
0
100
AcDbLine
 10
69.87949999999999
 20
781.8795
 30
0.0
 11
71.3795
 21
781.0135
 31
0.0
  0
LINE
  5
49
330
1E
100
AcDbEntity
  8
0
100
AcDbLine
 10
69.3045
 20
780.7525
 30
0.0
 11
70.35949999999999
 21
780.1435
 31
0.0
  0
LINE
  5
4A
330
1E
100
AcDbEntity
  8
0
100
AcDbLine
 10
69.3045
 20
780.7525
 30
0.0
 11
69.7650728651847
 21
781.6172990500541
 31
0.0
  0
LINE
  5
4B
330
1E
100
AcDbEntity
  8
0
100
AcDbLine
 10
69.3045
 20
780.7525
 30
0.0
 11
70.7215
 21
780.0354999999999
 31
0.0
  0
LINE
  5
4C
330
1E
100
AcDbEntity
  8
0
100
AcDbLine
 10
71.3795
 20
781.0135
 30
0.0
 11
71.44906905575159
 21
781.1531871344909
 31
0.0
  0
LINE
  5
4D
330
1E
100
AcDbEntity
  8
0
100
AcDbLine
 10
71.3795
 20
781.0135
 30
0.0
 11
72.3625
 21
780.7305
 31
0.0
  0
LINE
  5
4E
330
1E
100
AcDbEntity
  8
0
100
AcDbLine
 10
71.2055
 20
783.2555
 30
0.0
 11
72.0595
 21
783.2374999999999
 31
0.0
  0
LINE
  5
4F
330
1E
100
AcDbEntity
  8
0
100
AcDbLine
 10
71.2055
 20
783.2555
 30
0.0
 11
71.69097553396859
 21
784.278342752091
 31
0.0
  0
LINE
  5
50
330
1E
100
AcDbEntity
  8
0
100
AcDbLine
 10
71.2055
 20
783.2555
 30
0.0
 11
72.80549999999999
 21
782.3315
 31
0.0
  0
LINE
  5
51
330
1E
100
AcDbEntity
  8
0
100
AcDbLine
 10
72.0595
 20
783.2374999999999
 30
0.0
 11
73.65949999999999
 21
782.3134999999999
 31
0.0
  0
LINE
  5
52
330
1E
100
AcDbEntity
  8
0
100
AcDbLine
 10
72.0595
 20
783.2374999999999
 30
0.0
 11
72.36826050410279
 21
783.887252235206
 31
0.0
  0
LINE
  5
53
330
1E
100
AcDbEntity
  8
0
100
AcDbLine
 10
72.0595
 20
783.2374999999999
 30
0.0
 11
72.36826050410279
 21
783.887252235206
 31
0.0
  0
LINE
  5
54
330
1E
100
AcDbEntity
  8
0
100
AcDbLine
 10
70.86249999999999
 20
781.5965
 30
0.0
 11
72.3625
 21
780.7305
 31
0.0
  0
LINE
  5
55
330
1E
100
AcDbEntity
  8
0
100
AcDbLine
 10
70.86249999999999
 20
781.5965
 30
0.0
 11
71.3078438834158
 21
782.4912089305639
 31
0.0
  0
LINE
  5
56
330
1E
100
AcDbEntity
  8
0
100
AcDbLine
 10
70.35949999999999
 20
780.1435
 30
0.0
 11
71.7755
 21
779.4265
 31
0.0
  0
LINE
  5
57
330
1E
100
AcDbEntity
  8
0
100
AcDbLine
 10
70.35949999999999
 20
780.1435
 30
0.0
 11
70.3910097534297
 21
780.2027275983
 31
0.0
  0
LINE
  5
58
330
1E
100
AcDbEntity
  8
0
100
AcDbLine
 10
70.7215
 20
780.0354999999999
 30
0.0
 11
71.21489283641449
 21
780.9629103900661
 31
0.0
  0
LINE
  5
59
330
1E
100
AcDbEntity
  8
0
100
AcDbLine
 10
70.7215
 20
780.0354999999999
 30
0.0
 11
71.7755
 21
779.4265
 31
0.0
  0
LINE
  5
5A
330
1E
100
AcDbEntity
  8
0
100
AcDbLine
 10
72.80549999999999
 20
782.3315
 30
0.0
 11
73.65949999999999
 21
782.3134999999999
 31
0.0
  0
LINE
  5
5B
330
1E
100
AcDbEntity
  8
0
100
AcDbLine
 10
73.65949999999999
 20
782.3134999999999
 30
0.0
 11
74.09731171835559
 21
783.2348262020911
 31
0.0
  0
LINE
  5
5C
330
1E
100
AcDbEntity
  8
0
100
AcDbLine
 10
72.3625
 20
780.7305
 30
0.0
 11
72.91481105183591
 21
781.840109110912
 31
0.0
  0
LINE
  5
5D
330
1E
100
AcDbEntity
  8
0
100
AcDbLine
 10
72.07175664176929
 20
779.983361525796
 30
0.0
 11
72.5715
 21
779.7285
 31
0.0
  0
LINE
  5
5E
330
1E
100
AcDbEntity
  8
0
100
AcDbLine
 10
72.5715
 20
779.7285
 30
0.0
 11
73.72585071272959
 21
779.204543088387
 31
0.0
  0
LINE
  5
5F
330
1E
100
AcDbEntity
  8
0
100
AcDbLine
 10
77.28950000000001
 20
777.6015
 30
0.0
 11
78.6285
 21
777.1124999999999
 31
0.0
  0
LINE
  5
60
330
1E
100
AcDbEntity
  8
0
100
AcDbLine
 10
77.28950000000001
 20
777.6015
 30
0.0
 11
77.3415122846583
 21
777.713060791084
 31
0.0
  0
LINE
  5
61
330
1E
100
AcDbEntity
  8
0
100
AcDbLine
 10
81.58269999999999
 20
777.2644999999999
 30
0.0
 11
82.8207
 21
777.0245
 31
0.0
  0
LINE
  5
62
330
1E
100
AcDbEntity
  8
0
100
AcDbLine
 10
82.8207
 20
777.0245
 30
0.0
 11
83.22245824378891
 21
777.984080057344
 31
0.0
  0
LINE
  5
63
330
1E
100
AcDbEntity
  8
0
100
AcDbLine
 10
81.44670000000001
 20
777.8175
 30
0.0
 11
82.8207
 21
777.0245
 31
0.0
  0
LINE
  5
64
330
1E
100
AcDbEntity
  8
0
100
AcDbLine
 10
81.44670000000001
 20
777.8175
 30
0.0
 11
81.7608885021308
 21
778.568336302336
 31
0.0
  0
LINE
  5
65
330
1E
100
AcDbEntity
  8
0
100
AcDbLine
 10
78.6285
 20
777.1124999999999
 30
0.0
 11
79.11229959366029
 21
778.1499519902049
 31
0.0
  0
LINE
  5
66
330
1E
100
AcDbEntity
  8
0
100
AcDbLine
 10
82.2647
 20
779.8415
 30
0.0
 11
83.3877
 21
779.8754999999999
 31
0.0
  0
LINE
  5
67
330
1E
100
AcDbEntity
  8
0
100
AcDbLine
 10
82.2647
 20
779.8415
 30
0.0
 11
82.73012341927801
 21
781.04029774994
 31
0.0
  0
LINE
  5
68
330
1E
100
AcDbEntity
  8
0
100
AcDbLine
 10
82.2647
 20
779.8415
 30
0.0
 11
83.76470000000001
 21
778.9755
 31
0.0
  0
LINE
  5
69
330
1E
100
AcDbEntity
  8
0
100
AcDbLine
 10
83.3877
 20
779.8754999999999
 30
0.0
 11
84.8876
 21
779.0094999999999
 31
0.0
  0
LINE
  5
6A
330
1E
100
AcDbEntity
  8
0
100
AcDbLine
 10
83.3877
 20
779.8754999999999
 30
0.0
 11
83.74115961806451
 21
780.78540604536
 31
0.0
  0
LINE
  5
6B
330
1E
100
AcDbEntity
  8
0
100
AcDbLine
 10
80.2087
 20
778.0574999999999
 30
0.0
 11
81.58269999999999
 21
777.2644999999999
 31
0.0
  0
LINE
  5
6C
330
1E
100
AcDbEntity
  8
0
100
AcDbLine
 10
80.2087
 20
778.0574999999999
 30
0.0
 11
80.6480834930109
 21
779.106946138163
 31
0.0
  0
LINE
  5
6D
330
1E
100
AcDbEntity
  8
0
100
AcDbLine
 10
80.2087
 20
778.0574999999999
 30
0.0
 11
81.44670000000001
 21
777.8175
 31
0.0
  0
LINE
  5
6E
330
1E
100
AcDbEntity
  8
0
100
AcDbLine
 10
76.0655
 20
778.3084999999999
 30
0.0
 11
77.28950000000001
 21
777.6015
 31
0.0
  0
LINE
  5
6F
330
1E
100
AcDbEntity
  8
0
100
AcDbLine
 10
76.0655
 20
778.3084999999999
 30
0.0
 11
76.5203898234673
 21
779.2841900489098
 31
0.0
  0
LINE
  5
70
330
1E
100
AcDbEntity
  8
0
100
AcDbLine
 10
76.0655
 20
778.3084999999999
 30
0.0
 11
77.40349999999999
 21
777.8194999999999
 31
0.0
  0
LINE
  5
71
330
1E
100
AcDbEntity
  8
0
100
AcDbLine
 10
77.40349999999999
 20
777.8194999999999
 30
0.0
 11
77.8273786432069
 21
778.728674381985
 31
0.0
  0
LINE
  5
72
330
1E
100
AcDbEntity
  8
0
100
AcDbLine
 10
77.40349999999999
 20
777.8194999999999
 30
0.0
 11
78.6285
 21
777.1124999999999
 31
0.0
  0
LINE
  5
73
330
1E
100
AcDbEntity
  8
0
100
AcDbLine
 10
75.77175615421791
 20
778.2759117073401
 30
0.0
 11
80.98969999999999
 21
775.9075
 31
0.0
  0
LINE
  5
74
330
1E
100
AcDbEntity
  8
0
100
AcDbLine
 10
80.98969999999999
 20
775.9075
 30
0.0
 11
81.04420385204759
 21
775.884506844043
 31
0.0
  0
LINE
  5
75
330
1E
100
AcDbEntity
  8
0
100
AcDbLine
 10
84.0117
 20
773.7214999999999
 30
0.0
 11
84.4597
 21
773.4625
 31
0.0
  0
LINE
  5
76
330
1E
100
AcDbEntity
  8
0
100
AcDbLine
 10
84.0117
 20
773.7214999999999
 30
0.0
 11
84.47389926966879
 21
774.801042350136
 31
0.0
  0
LINE
  5
77
330
1E
100
AcDbEntity
  8
0
100
AcDbLine
 10
84.0117
 20
773.7214999999999
 30
0.0
 11
85.79439999999999
 21
772.9754999999999
 31
0.0
  0
LINE
  5
78
330
1E
100
AcDbEntity
  8
0
100
AcDbLine
 10
84.0117
 20
773.7214999999999
 30
0.0
 11
84.34211564479671
 21
774.4932400374969
 31
0.0
  0
LINE
  5
79
330
1E
100
AcDbEntity
  8
0
100
AcDbLine
 10
84.4597
 20
773.4625
 30
0.0
 11
86.2427
 21
772.7165
 31
0.0
  0
LINE
  5
7A
330
1E
100
AcDbEntity
  8
0
100
AcDbLine
 10
84.4597
 20
773.4625
 30
0.0
 11
84.4856672453098
 21
773.5231606467709
 31
0.0
  0
LINE
  5
7B
330
1E
100
AcDbEntity
  8
0
100
AcDbLine
 10
84.4597
 20
773.4625
 30
0.0
 11
85.27446657610139
 21
773.1216049546989
 31
0.0
  0
LINE
  5
7C
330
1E
100
AcDbEntity
  8
0
100
AcDbLine
 10
83.76470000000001
 20
778.9755
 30
0.0
 11
84.8876
 21
779.0094999999999
 31
0.0
  0
LINE
  5
7D
330
1E
100
AcDbEntity
  8
0
100
AcDbLine
 10
84.8876
 20
779.0094999999999
 30
0.0
 11
85.2410420961713
 21
779.9194909377059
 31
0.0
  0
LINE
  5
7E
330
1E
100
AcDbEntity
  8
0
100
AcDbLine
 10
87.62779999999999
 20
773.7745
 30
0.0
 11
88.68219999999999
 21
773.1654999999999
 31
0.0
  0
LINE
  5
7F
330
1E
100
AcDbEntity
  8
0
100
AcDbLine
 10
87.62779999999999
 20
773.7745
 30
0.0
 11
88.02913883064439
 21
774.8457362409669
 31
0.0
  0
LINE
  5
80
330
1E
100
AcDbEntity
  8
0
100
AcDbLine
 10
87.62779999999999
 20
773.7745
 30
0.0
 11
89.1782
 21
773.3545
 31
0.0
  0
LINE
  5
81
330
1E
100
AcDbEntity
  8
0
100
AcDbLine
 10
87.98050000000001
 20
780.4165
 30
0.0
 11
94.12919999999999
 21
776.8664999999999
 31
0.0
  0
LINE
  5
82
330
1E
100
AcDbEntity
  8
0
100
AcDbLine
 10
88.4805
 20
781.2825
 30
0.0
 11
94.6292
 21
777.7324999999999
 31
0.0
  0
LINE
  5
83
330
1E
100
AcDbEntity
  8
0
100
AcDbLine
 10
83.55927304223008
 20
774.823492329295
 30
0.0
 11
84.34211564479671
 21
774.4932400374969
 31
0.0
  0
LINE
  5
84
330
1E
100
AcDbEntity
  8
0
100
AcDbLine
 10
87.46867254457191
 20
773.174261512056
 30
0.0
 11
89.16059999999999
 21
772.4605
 31
0.0
  0
LINE
  5
85
330
1E
100
AcDbEntity
  8
0
100
AcDbLine
 10
92.9565
 20
770.6974999999999
 30
0.0
 11
93.61929999999999
 21
770.3155
 31
0.0
  0
LINE
  5
86
330
1E
100
AcDbEntity
  8
0
100
AcDbLine
 10
92.9565
 20
770.6974999999999
 30
0.0
 11
93.3311429023626
 21
771.784633422034
 31
0.0
  0
LINE
  5
87
330
1E
100
AcDbEntity
  8
0
100
AcDbLine
 10
92.9565
 20
770.6974999999999
 30
0.0
 11
94.7281
 21
770.1495
 31
0.0
  0
LINE
  5
88
330
1E
100
AcDbEntity
  8
0
100
AcDbLine
 10
92.9565
 20
770.6974999999999
 30
0.0
 11
93.08195701292341
 21
771.061549367858
 31
0.0
  0
LINE
  5
89
330
1E
100
AcDbEntity
  8
0
100
AcDbLine
 10
93.61929999999999
 20
770.3155
 30
0.0
 11
95.39089999999999
 21
769.7675
 31
0.0
  0
LINE
  5
8A
330
1E
100
AcDbEntity
  8
0
100
AcDbLine
 10
93.61929999999999
 20
770.3155
 30
0.0
 11
93.6585209904617
 21
770.4293109098219
 31
0.0
  0
LINE
  5
8B
330
1E
100
AcDbEntity
  8
0
100
AcDbLine
 10
92.66330000000001
 20
773.8385
 30
0.0
 11
93.88809999999999
 21
773.1314999999999
 31
0.0
  0
LINE
  5
8C
330
1E
100
AcDbEntity
  8
0
100
AcDbLine
 10
92.66330000000001
 20
773.8385
 30
0.0
 11
93.04574438744859
 21
775.03822456783
 31
0.0
  0
LINE
  5
8D
330
1E
100
AcDbEntity
  8
0
100
AcDbLine
 10
92.66330000000001
 20
773.8385
 30
0.0
 11
94.1286
 21
773.6735
 31
0.0
  0
LINE
  5
8E
330
1E
100
AcDbEntity
  8
0
100
AcDbLine
 10
93.88809999999999
 20
773.1314999999999
 30
0.0
 11
95.3533
 21
772.9664999999999
 31
0.0
  0
LINE
  5
8F
330
1E
100
AcDbEntity
  8
0
100
AcDbLine
 10
90.2326
 20
772.7454999999999
 30
0.0
 11
90.683084679361
 21
773.9479142138381
 31
0.0
  0
LINE
  5
90
330
1E
100
AcDbEntity
  8
0
100
AcDbLine
 10
89.1782
 20
773.3545
 30
0.0
 11
90.2326
 21
772.7454999999999
 31
0.0
  0
LINE
  5
91
330
1E
100
AcDbEntity
  8
0
100
AcDbLine
 10
89.1782
 20
773.3545
 30
0.0
 11
89.50760312249091
 21
774.2337285613968
 31
0.0
  0
LINE
  5
92
330
1E
100
AcDbEntity
  8
0
100
AcDbLine
 10
93.95347055237969
 20
783.665266871031
 30
0.0
 11
100.7527
 21
779.7395
 31
0.0
  0
LINE
  5
93
330
1E
100
AcDbEntity
  8
0
100
AcDbLine
 10
89.16059999999999
 20
772.4605
 30
0.0
 11
93.08195701292341
 21
771.061549367858
 31
0.0
  0
LINE
  5
94
330
1E
100
AcDbEntity
  8
0
100
AcDbLine
 10
63.8665
 20
783.9925
 30
0.0
 11
64.3354415333618
 21
784.8370782049309
 31
0.0
  0
LINE
  5
95
330
1E
100
AcDbEntity
  8
0
100
AcDbLine
 10
61.5045
 20
784.0964999999999
 30
0.0
 11
62.4180314432507
 21
784.728275591523
 31
0.0
  0
LINE
  5
96
330
1E
100
AcDbEntity
  8
0
100
AcDbLine
 10
61.4975
 20
784.1005
 30
0.0
 11
62.4110649322067
 21
784.732298751651
 31
0.0
  0
LINE
  5
97
330
1E
100
AcDbEntity
  8
0
100
AcDbLine
 10
59.2815
 20
785.3794999999999
 30
0.0
 11
59.8495
 21
785.0515
 31
0.0
  0
LINE
  5
98
330
1E
100
AcDbEntity
  8
0
100
AcDbLine
 10
57.72149999999999
 20
786.2804999999999
 30
0.0
 11
58.1735
 21
786.0195
 31
0.0
  0
LINE
  5
99
330
1E
100
AcDbEntity
  8
0
100
AcDbLine
 10
58.1735
 20
786.0195
 30
0.0
 11
58.7135
 21
785.7075
 31
0.0
  0
LINE
  5
9A
330
1E
100
AcDbEntity
  8
0
100
AcDbLine
 10
58.76563793111179
 20
785.677431034438
 30
0.0
 11
59.2815
 21
785.3794999999999
 31
0.0
  0
LINE
  5
9B
330
1E
100
AcDbEntity
  8
0
100
AcDbLine
 10
58.7135
 20
785.7075
 30
0.0
 11
59.2805
 21
785.3805
 31
0.0
  0
LINE
  5
9C
330
1E
100
AcDbEntity
  8
0
100
AcDbLine
 10
59.2805
 20
785.3805
 30
0.0
 11
59.8415
 21
785.0565
 31
0.0
  0
LINE
  5
9D
330
1E
100
AcDbEntity
  8
0
100
AcDbLine
 10
60.8405
 20
784.4795
 30
0.0
 11
61.20049999999999
 21
784.2714999999999
 31
0.0
  0
LINE
  5
9E
330
1E
100
AcDbEntity
  8
0
100
AcDbLine
 10
61.4085
 20
784.1515000000001
 30
0.0
 11
61.480500000164
 21
784.1102499999061
 31
0.0
  0
LINE
  5
9F
330
1E
100
AcDbEntity
  8
0
100
AcDbLine
 10
61.42949999999999
 20
784.1395
 30
0.0
 11
61.4975
 21
784.1005
 31
0.0
  0
LINE
  5
A0
330
1E
100
AcDbEntity
  8
0
100
AcDbLine
 10
61.4015
 20
784.1565000000001
 30
0.0
 11
61.4975
 21
784.1005
 31
0.0
  0
LINE
  5
A1
330
1E
100
AcDbEntity
  8
0
100
AcDbLine
 10
63.1605
 20
784.2995
 30
0.0
 11
63.2027427026554
 21
784.375580413958
 31
0.0
  0
LINE
  5
A2
330
1E
100
AcDbEntity
  8
0
100
AcDbLine
 10
63.1605
 20
784.2995
 30
0.0
 11
63.8665
 21
783.9925
 31
0.0
  0
LINE
  5
A3
330
1E
100
AcDbEntity
  8
0
100
AcDbLine
 10
61.20049999999999
 20
784.2714999999999
 30
0.0
 11
61.4015
 21
784.1565000000001
 31
0.0
  0
LINE
  5
A4
330
1E
100
AcDbEntity
  8
0
100
AcDbLine
 10
61.20049999999999
 20
784.2714999999999
 30
0.0
 11
61.42949999999999
 21
784.1395
 31
0.0
  0
LINE
  5
A5
330
1E
100
AcDbEntity
  8
0
100
AcDbLine
 10
60.86149999999999
 20
784.4674999999999
 30
0.0
 11
61.20049999999999
 21
784.2714999999999
 31
0.0
  0
LINE
  5
A6
330
1E
100
AcDbEntity
  8
0
100
AcDbLine
 10
62.7505
 20
785.9955
 30
0.0
 11
63.3185
 21
785.9515
 31
0.0
  0
LINE
  5
A7
330
1E
100
AcDbEntity
  8
0
100
AcDbLine
 10
62.7505
 20
785.9955
 30
0.0
 11
63.28601494483789
 21
786.9951659577949
 31
0.0
  0
LINE
  5
A8
330
1E
100
AcDbEntity
  8
0
100
AcDbLine
 10
62.7505
 20
785.9955
 30
0.0
 11
64.42350000000001
 21
785.0304999999999
 31
0.0
  0
LINE
  5
A9
330
1E
100
AcDbEntity
  8
0
100
AcDbLine
 10
63.3185
 20
785.9515
 30
0.0
 11
64.9915
 21
784.9854999999999
 31
0.0
  0
LINE
  5
AA
330
1E
100
AcDbEntity
  8
0
100
AcDbLine
 10
63.3185
 20
785.9515
 30
0.0
 11
63.78311712975571
 21
786.81974396393
 31
0.0
  0
LINE
  5
AB
330
1E
100
AcDbEntity
  8
0
100
AcDbLine
 10
61.5605
 20
785.2234999999999
 30
0.0
 11
62.2655
 21
784.9165
 31
0.0
  0
LINE
  5
AC
330
1E
100
AcDbEntity
  8
0
100
AcDbLine
 10
61.5605
 20
785.2234999999999
 30
0.0
 11
62.0784875054189
 21
786.156411517492
 31
0.0
  0
LINE
  5
AD
330
1E
100
AcDbEntity
  8
0
100
AcDbLine
 10
61.5605
 20
785.2234999999999
 30
0.0
 11
63.1605
 21
784.2995
 31
0.0
  0
LINE
  5
AE
330
1E
100
AcDbEntity
  8
0
100
AcDbLine
 10
62.2655
 20
784.9165
 30
0.0
 11
63.8665
 21
783.9925
 31
0.0
  0
LINE
  5
AF
330
1E
100
AcDbEntity
  8
0
100
AcDbLine
 10
62.2655
 20
784.9165
 30
0.0
 11
62.79838971568779
 21
785.8752624441879
 31
0.0
  0
LINE
  5
B0
330
1E
100
AcDbEntity
  8
0
100
AcDbLine
 10
59.8495
 20
785.0515
 30
0.0
 11
59.9959893617434
 21
784.9671329787
 31
0.0
  0
LINE
  5
B1
330
1E
100
AcDbEntity
  8
0
100
AcDbLine
 10
60.38949999999999
 20
784.7395
 30
0.0
 11
60.86149999999999
 21
784.4674999999999
 31
0.0
  0
LINE
  5
B2
330
1E
100
AcDbEntity
  8
0
100
AcDbLine
 10
59.8415
 20
785.0565
 30
0.0
 11
60.38949999999999
 21
784.7395
 31
0.0
  0
LINE
  5
B3
330
1E
100
AcDbEntity
  8
0
100
AcDbLine
 10
57.1803235293541
 20
786.5926764706211
 30
0.0
 11
57.3695
 21
786.4835
 31
0.0
  0
LINE
  5
B4
330
1E
100
AcDbEntity
  8
0
100
AcDbLine
 10
57.1325
 20
786.6204999999999
 30
0.0
 11
57.3615
 21
786.4885000000001
 31
0.0
  0
LINE
  5
B5
330
1E
100
AcDbEntity
  8
0
100
AcDbLine
 10
57.0655
 20
786.6595
 30
0.0
 11
57.16149999999999
 21
786.6035
 31
0.0
  0
LINE
  5
B6
330
1E
100
AcDbEntity
  8
0
100
AcDbLine
 10
57.0655
 20
786.6595
 30
0.0
 11
57.1850828121706
 21
788.124610898742
 31
0.0
  0
LINE
  5
B7
330
1E
100
AcDbEntity
  8
0
100
AcDbLine
 10
57.0655
 20
786.6595
 30
0.0
 11
57.1325
 21
786.6204999999999
 31
0.0
  0
LINE
  5
B8
330
1E
100
AcDbEntity
  8
0
100
AcDbLine
 10
57.16149999999999
 20
786.6035
 30
0.0
 11
57.3615
 21
786.4885000000001
 31
0.0
  0
LINE
  5
B9
330
1E
100
AcDbEntity
  8
0
100
AcDbLine
 10
57.3695
 20
786.4835
 30
0.0
 11
57.49649999998321
 21
786.4104469026649
 31
0.0
  0
LINE
  5
BA
330
1E
100
AcDbEntity
  8
0
100
AcDbLine
 10
57.3615
 20
786.4885000000001
 30
0.0
 11
57.7005
 21
786.2925
 31
0.0
  0
LINE
  5
BB
330
1E
100
AcDbEntity
  8
0
100
AcDbLine
 10
57.3615
 20
786.4885000000001
 30
0.0
 11
57.72149999999999
 21
786.2804999999999
 31
0.0
  0
LINE
  5
BC
330
1E
100
AcDbEntity
  8
0
100
AcDbLine
 10
57.7005
 20
786.2925
 30
0.0
 11
57.8089838709705
 21
786.229983870966
 31
0.0
  0
LINE
  5
BD
330
1E
100
AcDbEntity
  8
0
100
AcDbLine
 10
56.47549999999999
 20
787.5774999999999
 30
0.0
 11
57.11046239362221
 21
787.2103725855639
 31
0.0
  0
LINE
  5
BE
330
1E
100
AcDbEntity
  8
0
100
AcDbLine
 10
63.94354161937251
 20
784.1312543392199
 30
0.0
 11
64.0085
 21
784.0955
 31
0.0
  0
LINE
  5
BF
330
1E
100
AcDbEntity
  8
0
100
AcDbLine
 10
71.9025
 20
785.8244999999999
 30
0.0
 11
72.6255
 21
786.0884999999999
 31
0.0
  0
LINE
  5
C0
330
1E
100
AcDbEntity
  8
0
100
AcDbLine
 10
70.2295
 20
786.7904999999999
 30
0.0
 11
70.9525
 21
787.0544999999999
 31
0.0
  0
LINE
  5
C1
330
1E
100
AcDbEntity
  8
0
100
AcDbLine
 10
70.2295
 20
786.7904999999999
 30
0.0
 11
70.7951240771754
 21
787.9801661939129
 31
0.0
  0
LINE
  5
C2
330
1E
100
AcDbEntity
  8
0
100
AcDbLine
 10
70.2295
 20
786.7904999999999
 30
0.0
 11
71.9025
 21
785.8244999999999
 31
0.0
  0
LINE
  5
C3
330
1E
100
AcDbEntity
  8
0
100
AcDbLine
 10
72.6255
 20
786.0884999999999
 30
0.0
 11
73.0416854233151
 21
786.9627924366
 31
0.0
  0
LINE
  5
C4
330
1E
100
AcDbEntity
  8
0
100
AcDbLine
 10
70.9525
 20
787.0544999999999
 30
0.0
 11
72.6255
 21
786.0884999999999
 31
0.0
  0
LINE
  5
C5
330
1E
100
AcDbEntity
  8
0
100
AcDbLine
 10
70.9525
 20
787.0544999999999
 30
0.0
 11
71.36865981337091
 21
787.9287386370689
 31
0.0
  0
LINE
  5
C6
330
1E
100
AcDbEntity
  8
0
100
AcDbLine
 10
64.42350000000001
 20
785.0304999999999
 30
0.0
 11
64.9915
 21
784.9854999999999
 31
0.0
  0
LINE
  5
C7
330
1E
100
AcDbEntity
  8
0
100
AcDbLine
 10
64.9915
 20
784.9854999999999
 30
0.0
 11
65.57559407132979
 21
786.0770141076829
 31
0.0
  0
LINE
  5
C8
330
1E
100
AcDbEntity
  8
0
100
AcDbLine
 10
81.8987
 20
785.0825
 30
0.0
 11
88.4805
 21
781.2825
 31
0.0
  0
LINE
  5
C9
330
1E
100
AcDbEntity
  8
0
100
AcDbLine
 10
81.3987
 20
784.2165
 30
0.0
 11
87.98050000000001
 21
780.4165
 31
0.0
  0
LINE
  5
CA
330
1E
100
AcDbEntity
  8
0
100
AcDbLine
 10
64.0085
 20
784.0955
 30
0.0
 11
69.57343468878571
 21
781.257467793305
 31
0.0
  0
LINE
  5
CB
330
1E
100
AcDbEntity
  8
0
100
AcDbLine
 10
93.9534705523628
 20
783.6652668710408
 30
0.0
 11
100.7527
 21
779.7395
 31
0.0
  0
LINE
  5
CC
330
1E
100
AcDbEntity
  8
0
100
AcDbLine
 10
95.8318
 20
769.0375
 30
0.0
 11
96.0579
 21
768.9075
 31
0.0
  0
LINE
  5
CD
330
1E
100
AcDbEntity
  8
0
100
AcDbLine
 10
95.8318
 20
769.0375
 30
0.0
 11
96.19251499514929
 21
770.132620344986
 31
0.0
  0
LINE
  5
CE
330
1E
100
AcDbEntity
  8
0
100
AcDbLine
 10
95.8318
 20
769.0375
 30
0.0
 11
97.71799999999998
 21
768.4235
 31
0.0
  0
LINE
  5
CF
330
1E
100
AcDbEntity
  8
0
100
AcDbLine
 10
95.8318
 20
769.0375
 30
0.0
 11
96.13923398354321
 21
769.9708607270159
 31
0.0
  0
LINE
  5
D0
330
1E
100
AcDbEntity
  8
0
100
AcDbLine
 10
96.0579
 20
768.9075
 30
0.0
 11
97.94400000000001
 21
768.2935
 31
0.0
  0
LINE
  5
D1
330
1E
100
AcDbEntity
  8
0
100
AcDbLine
 10
96.0579
 20
768.9075
 30
0.0
 11
96.0746780864301
 21
768.958437787579
 31
0.0
  0
LINE
  5
D2
330
1E
100
AcDbEntity
  8
0
100
AcDbLine
 10
100.716
 20
769.1894999999999
 30
0.0
 11
101.582
 21
768.6894999999999
 31
0.0
  0
LINE
  5
D3
330
1E
100
AcDbEntity
  8
0
100
AcDbLine
 10
100.716
 20
769.1894999999999
 30
0.0
 11
101.0351358192849
 21
770.377937151168
 31
0.0
  0
LINE
  5
D4
330
1E
100
AcDbEntity
  8
0
100
AcDbLine
 10
100.716
 20
769.1894999999999
 30
0.0
 11
102.4442
 21
768.8724999999999
 31
0.0
  0
LINE
  5
D5
330
1E
100
AcDbEntity
  8
0
100
AcDbLine
 10
101.582
 20
768.6894999999999
 30
0.0
 11
103.3103
 21
768.3724999999999
 31
0.0
  0
LINE
  5
D6
330
1E
100
AcDbEntity
  8
0
100
AcDbLine
 10
103.3103
 20
768.3724999999999
 30
0.0
 11
103.5693060862409
 21
769.3375236514059
 31
0.0
  0
LINE
  5
D7
330
1E
100
AcDbEntity
  8
0
100
AcDbLine
 10
102.4442
 20
768.8724999999999
 30
0.0
 11
103.3103
 21
768.3724999999999
 31
0.0
  0
LINE
  5
D8
330
1E
100
AcDbEntity
  8
0
100
AcDbLine
 10
102.4442
 20
768.8724999999999
 30
0.0
 11
102.703273994799
 21
769.8375885069411
 31
0.0
  0
LINE
  5
D9
330
1E
100
AcDbEntity
  8
0
100
AcDbLine
 10
97.94400000000001
 20
768.2935
 30
0.0
 11
98.3038063768385
 21
769.3856871956779
 31
0.0
  0
LINE
  5
DA
330
1E
100
AcDbEntity
  8
0
100
AcDbLine
 10
97.71799999999998
 20
768.4235
 30
0.0
 11
97.94400000000001
 21
768.2935
 31
0.0
  0
LINE
  5
DB
330
1E
100
AcDbEntity
  8
0
100
AcDbLine
 10
97.71799999999998
 20
768.4235
 30
0.0
 11
98.1135369964058
 21
769.6243389387279
 31
0.0
  0
LINE
  5
DC
330
1E
100
AcDbEntity
  8
0
100
AcDbLine
 10
94.1286
 20
773.6735
 30
0.0
 11
95.3533
 21
772.9664999999999
 31
0.0
  0
LINE
  5
DD
330
1E
100
AcDbEntity
  8
0
100
AcDbLine
 10
94.1286
 20
773.6735
 30
0.0
 11
94.4286774241049
 21
774.614998600457
 31
0.0
  0
LINE
  5
DE
330
1E
100
AcDbEntity
  8
0
100
AcDbLine
 10
95.39089999999999
 20
769.7675
 30
0.0
 11
95.78735797740121
 21
770.9179360951379
 31
0.0
  0
LINE
  5
DF
330
1E
100
AcDbEntity
  8
0
100
AcDbLine
 10
95.3533
 20
772.9664999999999
 30
0.0
 11
95.65340303140031
 21
773.907920482212
 31
0.0
  0
LINE
  5
E0
330
1E
100
AcDbEntity
  8
0
100
AcDbLine
 10
94.7281
 20
770.1495
 30
0.0
 11
95.39089999999999
 21
769.7675
 31
0.0
  0
LINE
  5
E1
330
1E
100
AcDbEntity
  8
0
100
AcDbLine
 10
94.7281
 20
770.1495
 30
0.0
 11
95.18524712924101
 21
771.4760430089591
 31
0.0
  0
LINE
  5
E2
330
1E
100
AcDbEntity
  8
0
100
AcDbLine
 10
94.12919999999999
 20
776.8664999999999
 30
0.0
 11
99.67170000000001
 21
773.6665
 31
0.0
  0
LINE
  5
E3
330
1E
100
AcDbEntity
  8
0
100
AcDbLine
 10
94.6292
 20
777.7324999999999
 30
0.0
 11
100.1716999999999
 21
774.5325
 31
0.0
  0
LINE
  5
E4
330
1E
100
AcDbEntity
  8
0
100
AcDbLine
 10
99.67170000000001
 20
773.6665
 30
0.0
 11
104.5217
 21
770.8664999999999
 31
0.0
  0
LINE
  5
E5
330
1E
100
AcDbEntity
  8
0
100
AcDbLine
 10
100.1716999999999
 20
774.5325
 30
0.0
 11
105.0216999999999
 21
771.7324999999999
 31
0.0
  0
LINE
  5
E6
330
1E
100
AcDbEntity
  8
0
100
AcDbLine
 10
95.535237801025
 20
770.186337369046
 30
0.0
 11
96.13923398354321
 21
769.9708607270159
 31
0.0
  0
LINE
  5
E7
330
1E
100
AcDbEntity
  8
0
100
AcDbLine
 10
98.2683184283061
 20
769.2779640270989
 30
0.0
 11
104.1837
 21
767.4814999999999
 31
0.0
  0
LINE
  5
E8
330
1E
100
AcDbEntity
  8
0
100
AcDbLine
 10
104.5217
 20
770.8664999999999
 30
0.0
 11
108.6787
 21
768.4664999999999
 31
0.0
  0
LINE
  5
E9
330
1E
100
AcDbEntity
  8
0
100
AcDbLine
 10
104.1837
 20
767.4814999999999
 30
0.0
 11
106.028035518766
 21
766.857615839806
 31
0.0
  0
LINE
  5
EA
330
1E
100
AcDbEntity
  8
0
100
AcDbLine
 10
100.7527
 20
779.7395
 30
0.0
 11
106.9017
 21
776.1894999999999
 31
0.0
  0
LINE
  5
EB
330
1E
100
AcDbEntity
  8
0
100
AcDbLine
 10
100.9266999999999
 20
779.6395
 30
0.0
 11
106.9887
 21
776.1395
 31
0.0
  0
LINE
  5
EC
330
1E
100
AcDbEntity
  8
0
100
AcDbLine
 10
93.9981
 20
783.6395
 30
0.0
 11
100.9266999999999
 21
779.6395
 31
0.0
  0
LINE
  5
ED
330
1E
100
AcDbEntity
  8
0
100
AcDbLine
 10
62.9485
 20
788.0225
 30
0.0
 11
63.3755
 21
788.2514999999999
 31
0.0
  0
LINE
  5
EE
330
1E
100
AcDbEntity
  8
0
100
AcDbLine
 10
63.3755
 20
788.2514999999999
 30
0.0
 11
63.84967551725051
 21
789.127605408482
 31
0.0
  0
LINE
  5
EF
330
1E
100
AcDbEntity
  8
0
100
AcDbLine
 10
61.23149999999999
 20
789.0145
 30
0.0
 11
61.6575
 21
789.2424999999999
 31
0.0
  0
LINE
  5
F0
330
1E
100
AcDbEntity
  8
0
100
AcDbLine
 10
61.23149999999999
 20
789.0145
 30
0.0
 11
61.768685444054
 21
790.0070250371901
 31
0.0
  0
LINE
  5
F1
330
1E
100
AcDbEntity
  8
0
100
AcDbLine
 10
61.23149999999999
 20
789.0145
 30
0.0
 11
62.9485
 21
788.0225
 31
0.0
  0
LINE
  5
F2
330
1E
100
AcDbEntity
  8
0
100
AcDbLine
 10
55.14549999999999
 20
788.3445
 30
0.0
 11
56.47549999999999
 21
787.5774999999999
 31
0.0
  0
LINE
  5
F3
330
1E
100
AcDbEntity
  8
0
100
AcDbLine
 10
74.4705
 20
788.2165
 30
0.0
 11
81.3987
 21
784.2165
 31
0.0
  0
LINE
  5
F4
330
1E
100
AcDbEntity
  8
0
100
AcDbLine
 10
47.6685
 20
792.0845
 30
0.0
 11
48.0355
 21
791.8724999999999
 31
0.0
  0
LINE
  5
F5
330
1E
100
AcDbEntity
  8
0
100
AcDbLine
 10
48.0355
 20
791.8724999999999
 30
0.0
 11
48.2575
 21
791.7445
 31
0.0
  0
LINE
  5
F6
330
1E
100
AcDbEntity
  8
0
100
AcDbLine
 10
48.3335
 20
791.7005
 30
0.0
 11
49.478637464279
 21
792.4830939439289
 31
0.0
  0
LINE
  5
F7
330
1E
100
AcDbEntity
  8
0
100
AcDbLine
 10
48.2575
 20
791.7445
 30
0.0
 11
48.3335
 21
791.7005
 31
0.0
  0
LINE
  5
F8
330
1E
100
AcDbEntity
  8
0
100
AcDbLine
 10
49.9495
 20
791.3445
 30
0.0
 11
50.1365
 21
791.2374999999999
 31
0.0
  0
LINE
  5
F9
330
1E
100
AcDbEntity
  8
0
100
AcDbLine
 10
49.9495
 20
791.3445
 30
0.0
 11
50.3107114432794
 21
791.9704794312029
 31
0.0
  0
LINE
  5
FA
330
1E
100
AcDbEntity
  8
0
100
AcDbLine
 10
50.1365
 20
791.2374999999999
 30
0.0
 11
50.6355
 21
790.9485
 31
0.0
  0
LINE
  5
FB
330
1E
100
AcDbEntity
  8
0
100
AcDbLine
 10
50.6355
 20
790.9485
 30
0.0
 11
51.46650000000001
 21
790.4684999999999
 31
0.0
  0
LINE
  5
FC
330
1E
100
AcDbEntity
  8
0
100
AcDbLine
 10
52.1645
 20
790.6484999999999
 30
0.0
 11
53.8815
 21
789.6565
 31
0.0
  0
LINE
  5
FD
330
1E
100
AcDbEntity
  8
0
100
AcDbLine
 10
52.1645
 20
790.6484999999999
 30
0.0
 11
52.20322148340209
 21
790.7146987699389
 31
0.0
  0
LINE
  5
FE
330
1E
100
AcDbEntity
  8
0
100
AcDbLine
 10
53.6995
 20
789.8625
 30
0.0
 11
54.2788196092496
 21
790.852912612444
 31
0.0
  0
LINE
  5
FF
330
1E
100
AcDbEntity
  8
0
100
AcDbLine
 10
53.6995
 20
789.8625
 30
0.0
 11
53.8815
 21
789.6565
 31
0.0
  0
LINE
  5
100
330
1E
100
AcDbEntity
  8
0
100
AcDbLine
 10
51.9815
 20
790.8545
 30
0.0
 11
52.4528099917496
 21
791.6597908085
 31
0.0
  0
LINE
  5
101
330
1E
100
AcDbEntity
  8
0
100
AcDbLine
 10
51.9815
 20
790.8545
 30
0.0
 11
53.6995
 21
789.8625
 31
0.0
  0
LINE
  5
102
330
1E
100
AcDbEntity
  8
0
100
AcDbLine
 10
51.9815
 20
790.8545
 30
0.0
 11
52.1645
 21
790.6484999999999
 31
0.0
  0
LINE
  5
103
330
1E
100
AcDbEntity
  8
0
100
AcDbLine
 10
51.46650000000001
 20
790.4684999999999
 30
0.0
 11
52.5685
 21
789.8334999999999
 31
0.0
  0
LINE
  5
104
330
1E
100
AcDbEntity
  8
0
100
AcDbLine
 10
52.5685
 20
789.8334999999999
 30
0.0
 11
53.8155
 21
789.1135
 31
0.0
  0
LINE
  5
105
330
1E
100
AcDbEntity
  8
0
100
AcDbLine
 10
56.8955
 20
789.3765
 30
0.0
 11
57.0185
 21
789.5895
 31
0.0
  0
LINE
  5
106
330
1E
100
AcDbEntity
  8
0
100
AcDbLine
 10
56.8955
 20
789.3765
 30
0.0
 11
57.63706852275929
 21
790.6602424880389
 31
0.0
  0
LINE
  5
107
330
1E
100
AcDbEntity
  8
0
100
AcDbLine
 10
61.6575
 20
789.2424999999999
 30
0.0
 11
63.3755
 21
788.2514999999999
 31
0.0
  0
LINE
  5
108
330
1E
100
AcDbEntity
  8
0
100
AcDbLine
 10
61.6575
 20
789.2424999999999
 30
0.0
 11
61.99952496760229
 21
789.873761515768
 31
0.0
  0
LINE
  5
109
330
1E
100
AcDbEntity
  8
0
100
AcDbLine
 10
57.0185
 20
789.5895
 30
0.0
 11
57.6368396925112
 21
790.6603745884418
 31
0.0
  0
LINE
  5
10A
330
1E
100
AcDbEntity
  8
0
100
AcDbLine
 10
55.1635
 20
790.3764999999999
 30
0.0
 11
56.8955
 21
789.3765
 31
0.0
  0
LINE
  5
10B
330
1E
100
AcDbEntity
  8
0
100
AcDbLine
 10
55.1635
 20
790.3764999999999
 30
0.0
 11
55.28649999999999
 21
790.5895000000001
 31
0.0
  0
LINE
  5
10C
330
1E
100
AcDbEntity
  8
0
100
AcDbLine
 10
55.28649999999999
 20
790.5895000000001
 30
0.0
 11
55.9048294738182
 21
791.660356891149
 31
0.0
  0
LINE
  5
10D
330
1E
100
AcDbEntity
  8
0
100
AcDbLine
 10
55.28649999999999
 20
790.5895000000001
 30
0.0
 11
57.0185
 21
789.5895
 31
0.0
  0
LINE
  5
10E
330
1E
100
AcDbEntity
  8
0
100
AcDbLine
 10
53.8815
 20
789.6565
 30
0.0
 11
54.47295371204139
 21
790.6676572381281
 31
0.0
  0
LINE
  5
10F
330
1E
100
AcDbEntity
  8
0
100
AcDbLine
 10
53.8155
 20
789.1135
 30
0.0
 11
55.14549999999999
 21
788.3445
 31
0.0
  0
LINE
  5
110
330
1E
100
AcDbEntity
  8
0
100
AcDbLine
 10
74.9705
 20
789.0825
 30
0.0
 11
81.8987
 21
785.0825
 31
0.0
  0
LINE
  5
111
330
1E
100
AcDbEntity
  8
0
100
AcDbLine
 10
86.72349999999999
 20
787.8395
 30
0.0
 11
93.9981
 21
783.6395
 31
0.0
  0
LINE
  5
112
330
1E
100
AcDbEntity
  8
0
100
AcDbLine
 10
116.0347
 20
758.9595
 30
0.0
 11
116.5307
 21
759.7364999999999
 31
0.0
  0
LINE
  5
113
330
1E
100
AcDbEntity
  8
0
100
AcDbLine
 10
115.3936999999999
 20
758.6604999999999
 30
0.0
 11
116.0347
 21
758.9595
 31
0.0
  0
LINE
  5
114
330
1E
100
AcDbEntity
  8
0
100
AcDbLine
 10
114.4197
 20
758.9084999999999
 30
0.0
 11
115.3936999999999
 21
758.6604999999999
 31
0.0
  0
LINE
  5
115
330
1E
100
AcDbEntity
  8
0
100
AcDbLine
 10
112.2026999999999
 20
761.3025
 30
0.0
 11
113.6767
 21
759.4974999999999
 31
0.0
  0
LINE
  5
116
330
1E
100
AcDbEntity
  8
0
100
AcDbLine
 10
113.6767
 20
759.4974999999999
 30
0.0
 11
114.4197
 21
758.9084999999999
 31
0.0
  0
LINE
  5
117
330
1E
100
AcDbEntity
  8
0
100
AcDbLine
 10
112.1617
 20
761.3535
 30
0.0
 11
113.6767
 21
759.4974999999999
 31
0.0
  0
LINE
  5
118
330
1E
100
AcDbEntity
  8
0
100
AcDbLine
 10
109.7363999999999
 20
764.6625
 30
0.0
 11
109.960937696438
 21
765.6475360136199
 31
0.0
  0
LINE
  5
119
330
1E
100
AcDbEntity
  8
0
100
AcDbLine
 10
109.397903514035
 20
764.7397505955459
 30
0.0
 11
112.2026999999999
 21
761.3025
 31
0.0
  0
LINE
  5
11A
330
1E
100
AcDbEntity
  8
0
100
AcDbLine
 10
116.120262631004
 20
764.169887919387
 30
0.0
 11
116.6847
 21
760.7445
 31
0.0
  0
LINE
  5
11B
330
1E
100
AcDbEntity
  8
0
100
AcDbLine
 10
115.6066999999999
 20
764.4664999999999
 30
0.0
 11
116.2126999999999
 21
764.1164999999999
 31
0.0
  0
LINE
  5
11C
330
1E
100
AcDbEntity
  8
0
100
AcDbLine
 10
116.125975663142
 20
764.135217374268
 30
0.0
 11
116.2126999999999
 21
764.1164999999999
 31
0.0
  0
LINE
  5
11D
330
1E
100
AcDbEntity
  8
0
100
AcDbLine
 10
116.5307
 20
759.7364999999999
 30
0.0
 11
116.6847
 21
760.7445
 31
0.0
  0
LINE
  5
11E
330
1E
100
AcDbEntity
  8
0
100
AcDbLine
 10
116.2126999999999
 20
764.1164999999999
 30
0.0
 11
116.7127
 21
764.9824999999999
 31
0.0
  0
LINE
  5
11F
330
1E
100
AcDbEntity
  8
0
100
AcDbLine
 10
106.3225
 20
765.9525
 30
0.0
 11
108.2160999999999
 21
765.5405
 31
0.0
  0
LINE
  5
120
330
1E
100
AcDbEntity
  8
0
100
AcDbLine
 10
106.3225
 20
765.9525
 30
0.0
 11
106.351598737154
 21
766.074715956006
 31
0.0
  0
LINE
  5
121
330
1E
100
AcDbEntity
  8
0
100
AcDbLine
 10
106.3225
 20
765.9525
 30
0.0
 11
107.900813025697
 21
765.609098560104
 31
0.0
  0
LINE
  5
122
330
1E
100
AcDbEntity
  8
0
100
AcDbLine
 10
107.7677999999999
 20
765.7994999999999
 30
0.0
 11
108.2160999999999
 21
765.5405
 31
0.0
  0
LINE
  5
123
330
1E
100
AcDbEntity
  8
0
100
AcDbLine
 10
107.7677999999999
 20
765.7994999999999
 30
0.0
 11
108.001042109169
 21
766.7791269577549
 31
0.0
  0
LINE
  5
124
330
1E
100
AcDbEntity
  8
0
100
AcDbLine
 10
108.2160999999999
 20
765.5405
 30
0.0
 11
108.441357519624
 21
766.486796206303
 31
0.0
  0
LINE
  5
125
330
1E
100
AcDbEntity
  8
0
100
AcDbLine
 10
107.7865
 20
765.1074999999999
 30
0.0
 11
109.398210712767
 21
764.7396804876239
 31
0.0
  0
LINE
  5
126
330
1E
100
AcDbEntity
  8
0
100
AcDbLine
 10
107.7865
 20
765.1074999999999
 30
0.0
 11
107.900813025697
 21
765.609098560104
 31
0.0
  0
LINE
  5
127
330
1E
100
AcDbEntity
  8
0
100
AcDbLine
 10
107.7865
 20
765.1074999999999
 30
0.0
 11
109.7363999999999
 21
764.6625
 31
0.0
  0
LINE
  5
128
330
1E
100
AcDbEntity
  8
0
100
AcDbLine
 10
108.335454996007
 20
766.0419047038829
 30
0.0
 11
112.1617
 21
761.3535
 31
0.0
  0
LINE
  5
129
330
1E
100
AcDbEntity
  8
0
100
AcDbLine
 10
114.2206999999999
 20
765.2664999999999
 30
0.0
 11
115.6066999999999
 21
764.4664999999999
 31
0.0
  0
LINE
  5
12A
330
1E
100
AcDbEntity
  8
0
100
AcDbLine
 10
105.8742
 20
766.2115
 30
0.0
 11
106.3225
 21
765.9525
 31
0.0
  0
LINE
  5
12B
330
1E
100
AcDbEntity
  8
0
100
AcDbLine
 10
105.8742
 20
766.2115
 30
0.0
 11
106.1522812054739
 21
767.3794531037449
 31
0.0
  0
LINE
  5
12C
330
1E
100
AcDbEntity
  8
0
100
AcDbLine
 10
105.8742
 20
766.2115
 30
0.0
 11
107.7677999999999
 21
765.7994999999999
 31
0.0
  0
LINE
  5
12D
330
1E
100
AcDbEntity
  8
0
100
AcDbLine
 10
105.8742
 20
766.2115
 30
0.0
 11
106.028035518766
 21
766.857615839806
 31
0.0
  0
LINE
  5
12E
330
1E
100
AcDbEntity
  8
0
100
AcDbLine
 10
111.7957
 20
766.6665
 30
0.0
 11
114.2206999999999
 21
765.2664999999999
 31
0.0
  0
LINE
  5
12F
330
1E
100
AcDbEntity
  8
0
100
AcDbLine
 10
114.7206999999999
 20
766.1325
 30
0.0
 11
116.1067
 21
765.3324999999999
 31
0.0
  0
LINE
  5
130
330
1E
100
AcDbEntity
  8
0
100
AcDbLine
 10
116.1067
 20
765.3324999999999
 30
0.0
 11
116.7127
 21
764.9824999999999
 31
0.0
  0
LINE
  5
131
330
1E
100
AcDbEntity
  8
0
100
AcDbLine
 10
116.7127
 20
764.9824999999999
 30
0.0
 11
121.4636999999999
 21
765.0104999999999
 31
0.0
  0
LINE
  5
132
330
1E
100
AcDbEntity
  8
0
100
AcDbLine
 10
121.4636999999999
 20
765.0104999999999
 30
0.0
 11
125.2615869759919
 21
765.589482769642
 31
0.0
  0
LINE
  5
133
330
1E
100
AcDbEntity
  8
0
100
AcDbLine
 10
108.6787
 20
768.4664999999999
 30
0.0
 11
111.7957
 21
766.6665
 31
0.0
  0
LINE
  5
134
330
1E
100
AcDbEntity
  8
0
100
AcDbLine
 10
109.1787
 20
769.3324999999999
 30
0.0
 11
112.2956999999999
 21
767.5325
 31
0.0
  0
LINE
  5
135
330
1E
100
AcDbEntity
  8
0
100
AcDbLine
 10
112.2956999999999
 20
767.5325
 30
0.0
 11
114.7206999999999
 21
766.1325
 31
0.0
  0
LINE
  5
136
330
1E
100
AcDbEntity
  8
0
100
AcDbLine
 10
105.0216999999999
 20
771.7324999999999
 30
0.0
 11
109.1787
 21
769.3324999999999
 31
0.0
  0
LINE
  5
137
330
1E
100
AcDbEntity
  8
0
100
AcDbLine
 10
106.9017
 20
776.1894999999999
 30
0.0
 11
110.434594737845
 21
774.1500263152099
 31
0.0
  0
LINE
  5
138
330
1E
100
AcDbEntity
  8
0
100
AcDbLine
 10
106.9017
 20
776.1894999999999
 30
0.0
 11
110.4345947378399
 21
774.150026315213
 31
0.0
  0
LINE
  5
139
330
1E
100
AcDbEntity
  8
0
100
AcDbLine
 10
106.9887
 20
776.1395
 30
0.0
 11
112.4446999999999
 21
772.9894999999999
 31
0.0
  0
LINE
  5
13A
330
1E
100
AcDbEntity
  8
0
100
AcDbLine
 10
112.4446999999999
 20
772.9894999999999
 30
0.0
 11
117.0347
 21
770.3395
 31
0.0
  0
LINE
  5
13B
330
1E
100
AcDbEntity
  8
0
100
AcDbLine
 10
117.0347
 20
770.3395
 30
0.0
 11
120.5847
 21
768.2895
 31
0.0
  0
LINE
  5
13C
330
1E
100
AcDbEntity
  8
0
100
AcDbLine
 10
120.5847
 20
768.2895
 30
0.0
 11
123.1827
 21
766.7894999999999
 31
0.0
  0
LINE
  5
13D
330
1E
100
AcDbEntity
  8
0
100
AcDbLine
 10
123.1827
 20
766.7894999999999
 30
0.0
 11
124.8286999999999
 21
765.8395
 31
0.0
  0
LINE
  5
13E
330
1E
100
AcDbEntity
  8
0
100
AcDbLine
 10
124.8286999999999
 20
765.8395
 30
0.0
 11
125.4347
 21
765.4895
 31
0.0
  0
LINE
  5
13F
330
1E
100
AcDbEntity
  8
0
100
AcDbLine
 10
123.2307
 20
791.4724999999999
 30
0.0
 11
134.4557
 21
782.9134999999999
 31
0.0
  0
LINE
  5
142
330
1E
100
AcDbEntity
  8
0
100
AcDbLine
 10
45.5285
 20
793.3205
 30
0.0
 11
46.11749999999999
 21
792.9804999999999
 31
0.0
  0
LINE
  5
143
330
1E
100
AcDbEntity
  8
0
100
AcDbLine
 10
45.00849999999999
 20
793.6205
 30
0.0
 11
45.5285
 21
793.3205
 31
0.0
  0
LINE
  5
144
330
1E
100
AcDbEntity
  8
0
100
AcDbLine
 10
44.5655
 20
793.8765
 30
0.0
 11
45.00849999999999
 21
793.6205
 31
0.0
  0
LINE
  5
145
330
1E
100
AcDbEntity
  8
0
100
AcDbLine
 10
44.19749999999999
 20
794.0884999999999
 30
0.0
 11
44.5655
 21
793.8765
 31
0.0
  0
LINE
  5
146
330
1E
100
AcDbEntity
  8
0
100
AcDbLine
 10
45.00849999999999
 20
794.7795
 30
0.0
 11
45.53803700580449
 21
795.6429746965461
 31
0.0
  0
LINE
  5
147
330
1E
100
AcDbEntity
  8
0
100
AcDbLine
 10
43.9765
 20
794.2165
 30
0.0
 11
44.19749999999999
 21
794.0884999999999
 31
0.0
  0
LINE
  5
148
330
1E
100
AcDbEntity
  8
0
100
AcDbLine
 10
43.8995
 20
794.2605
 30
0.0
 11
43.9765
 21
794.2165
 31
0.0
  0
LINE
  5
149
330
1E
100
AcDbEntity
  8
0
100
AcDbLine
 10
43.8995
 20
794.2605
 30
0.0
 11
43.9841534751839
 21
795.3706985401598
 31
0.0
  0
LINE
  5
14A
330
1E
100
AcDbEntity
  8
0
100
AcDbLine
 10
46.11749999999999
 20
792.9804999999999
 30
0.0
 11
46.7055
 21
792.6404999999999
 31
0.0
  0
LINE
  5
14B
330
1E
100
AcDbEntity
  8
0
100
AcDbLine
 10
49.3085
 20
793.7565
 30
0.0
 11
49.9068561160974
 21
794.7196934807789
 31
0.0
  0
LINE
  5
14C
330
1E
100
AcDbEntity
  8
0
100
AcDbLine
 10
47.6355
 20
794.7224999999999
 30
0.0
 11
49.3085
 21
793.7565
 31
0.0
  0
LINE
  5
14D
330
1E
100
AcDbEntity
  8
0
100
AcDbLine
 10
48.98649999999999
 20
794.2264999999999
 30
0.0
 11
49.50572238104711
 21
795.063107599643
 31
0.0
  0
LINE
  5
14E
330
1E
100
AcDbEntity
  8
0
100
AcDbLine
 10
48.98649999999999
 20
794.2264999999999
 30
0.0
 11
49.3085
 21
793.7565
 31
0.0
  0
LINE
  5
14F
330
1E
100
AcDbEntity
  8
0
100
AcDbLine
 10
46.7055
 20
792.6404999999999
 30
0.0
 11
47.2255
 21
792.3405
 31
0.0
  0
LINE
  5
150
330
1E
100
AcDbEntity
  8
0
100
AcDbLine
 10
47.2255
 20
792.3405
 30
0.0
 11
47.6685
 21
792.0845
 31
0.0
  0
LINE
  5
151
330
1E
100
AcDbEntity
  8
0
100
AcDbLine
 10
59.10949999999999
 20
793.2105
 30
0.0
 11
59.4045
 21
793.7215
 31
0.0
  0
LINE
  5
152
330
1E
100
AcDbEntity
  8
0
100
AcDbLine
 10
67.2825
 20
792.3664999999999
 30
0.0
 11
74.4705
 21
788.2165
 31
0.0
  0
LINE
  5
153
330
1E
100
AcDbEntity
  8
0
100
AcDbLine
 10
52.6825
 20
793.9494999999999
 30
0.0
 11
53.27347711726
 21
794.911783715812
 31
0.0
  0
LINE
  5
154
330
1E
100
AcDbEntity
  8
0
100
AcDbLine
 10
52.6665
 20
794.4334999999999
 30
0.0
 11
53.0426715348262
 21
795.045053723285
 31
0.0
  0
LINE
  5
155
330
1E
100
AcDbEntity
  8
0
100
AcDbLine
 10
52.6665
 20
794.4334999999999
 30
0.0
 11
52.6825
 21
793.9494999999999
 31
0.0
  0
LINE
  5
156
330
1E
100
AcDbEntity
  8
0
100
AcDbLine
 10
57.3775
 20
794.2105
 30
0.0
 11
59.10949999999999
 21
793.2105
 31
0.0
  0
LINE
  5
157
330
1E
100
AcDbEntity
  8
0
100
AcDbLine
 10
57.3775
 20
794.2105
 30
0.0
 11
58.1547666393444
 21
795.5574908776069
 31
0.0
  0
LINE
  5
158
330
1E
100
AcDbEntity
  8
0
100
AcDbLine
 10
57.3775
 20
794.2105
 30
0.0
 11
57.6725
 21
794.7214999999999
 31
0.0
  0
LINE
  5
159
330
1E
100
AcDbEntity
  8
0
100
AcDbLine
 10
59.4045
 20
793.7215
 30
0.0
 11
59.8868296349144
 21
794.5573696814481
 31
0.0
  0
LINE
  5
15A
330
1E
100
AcDbEntity
  8
0
100
AcDbLine
 10
57.6725
 20
794.7214999999999
 30
0.0
 11
58.15486634270691
 21
795.5574332954761
 31
0.0
  0
LINE
  5
15B
330
1E
100
AcDbEntity
  8
0
100
AcDbLine
 10
57.6725
 20
794.7214999999999
 30
0.0
 11
59.4045
 21
793.7215
 31
0.0
  0
LINE
  5
15C
330
1E
100
AcDbEntity
  8
0
100
AcDbLine
 10
67.78249999999999
 20
793.2324999999999
 30
0.0
 11
74.9705
 21
789.0825
 31
0.0
  0
LINE
  5
15D
330
1E
100
AcDbEntity
  8
0
100
AcDbLine
 10
49.3824966427068
 20
792.475110425894
 30
0.0
 11
50.2863821731456
 21
791.9283168060619
 31
0.0
  0
LINE
  5
15E
330
1E
100
AcDbEntity
  8
0
100
AcDbLine
 10
78.9295
 20
792.3395
 30
0.0
 11
86.63690001252822
 21
787.889499992767
 31
0.0
  0
LINE
  5
15F
330
1E
100
AcDbEntity
  8
0
100
AcDbLine
 10
78.9295
 20
792.3395
 30
0.0
 11
86.72349999999999
 21
787.8395
 31
0.0
  0
LINE
  5
160
330
1E
100
AcDbEntity
  8
0
100
AcDbLine
 10
78.9295
 20
792.3395
 30
0.0
 11
86.6369
 21
787.8894999999999
 31
0.0
  0
LINE
  5
161
330
1E
100
AcDbEntity
  8
0
100
AcDbLine
 10
125.4347
 20
765.4895
 30
0.0
 11
125.887436554807
 21
765.6895892716769
 31
0.0
  0
LINE
  5
162
330
1E
100
AcDbEntity
  8
0
100
AcDbLine
 10
125.2615869759919
 20
765.589482769642
 30
0.0
 11
125.4347
 21
765.4895
 31
0.0
  0
LINE
  5
163
330
1E
100
AcDbEntity
  8
0
100
AcDbLine
 10
31.17449999999999
 20
804.2265
 30
0.0
 11
31.7973294026954
 21
805.0802423445109
 31
0.0
  0
LINE
  5
164
330
1E
100
AcDbEntity
  8
0
100
AcDbLine
 10
43.6345
 20
795.5725
 30
0.0
 11
43.68028446053769
 21
795.6471571490491
 31
0.0
  0
LINE
  5
165
330
1E
100
AcDbEntity
  8
0
100
AcDbLine
 10
43.6345
 20
795.5725
 30
0.0
 11
45.00849999999999
 21
794.7795
 31
0.0
  0
LINE
  5
166
330
1E
100
AcDbEntity
  8
0
100
AcDbLine
 10
42.6245
 20
796.2564999999999
 30
0.0
 11
43.99849999999999
 21
795.4634999999999
 31
0.0
  0
LINE
  5
167
330
1E
100
AcDbEntity
  8
0
100
AcDbLine
 10
42.6245
 20
796.2564999999999
 30
0.0
 11
43.21934095749429
 21
797.226460757484
 31
0.0
  0
LINE
  5
168
330
1E
100
AcDbEntity
  8
0
100
AcDbLine
 10
42.6245
 20
796.2564999999999
 30
0.0
 11
43.6345
 21
795.5725
 31
0.0
  0
LINE
  5
169
330
1E
100
AcDbEntity
  8
0
100
AcDbLine
 10
47.31349999999999
 20
795.1925
 30
0.0
 11
48.98649999999999
 21
794.2264999999999
 31
0.0
  0
LINE
  5
16A
330
1E
100
AcDbEntity
  8
0
100
AcDbLine
 10
47.31349999999999
 20
795.1925
 30
0.0
 11
47.9661673949937
 21
796.244123586776
 31
0.0
  0
LINE
  5
16B
330
1E
100
AcDbEntity
  8
0
100
AcDbLine
 10
47.31349999999999
 20
795.1925
 30
0.0
 11
47.6355
 21
794.7224999999999
 31
0.0
  0
LINE
  5
16C
330
1E
100
AcDbEntity
  8
0
100
AcDbLine
 10
50.9655
 20
794.9415
 30
0.0
 11
52.6825
 21
793.9494999999999
 31
0.0
  0
LINE
  5
16D
330
1E
100
AcDbEntity
  8
0
100
AcDbLine
 10
50.9495
 20
795.4255
 30
0.0
 11
52.6665
 21
794.4334999999999
 31
0.0
  0
LINE
  5
16E
330
1E
100
AcDbEntity
  8
0
100
AcDbLine
 10
50.9495
 20
795.4255
 30
0.0
 11
51.47114835611301
 21
796.2743872760941
 31
0.0
  0
LINE
  5
16F
330
1E
100
AcDbEntity
  8
0
100
AcDbLine
 10
50.9495
 20
795.4255
 30
0.0
 11
50.9655
 21
794.9415
 31
0.0
  0
LINE
  5
170
330
1E
100
AcDbEntity
  8
0
100
AcDbLine
 10
43.99849999999999
 20
795.4634999999999
 30
0.0
 11
44.5566904048135
 21
796.373697559619
 31
0.0
  0
LINE
  5
171
330
1E
100
AcDbEntity
  8
0
100
AcDbLine
 10
43.99849999999999
 20
795.4634999999999
 30
0.0
 11
45.00849999999999
 21
794.7795
 31
0.0
  0
LINE
  5
172
330
1E
100
AcDbEntity
  8
0
100
AcDbLine
 10
41.49049999999999
 20
796.8105
 30
0.0
 11
41.79835206497979
 21
797.3035284251229
 31
0.0
  0
LINE
  5
173
330
1E
100
AcDbEntity
  8
0
100
AcDbLine
 10
40.43549999999999
 20
797.4194999999999
 30
0.0
 11
40.777323745284
 21
797.966934440039
 31
0.0
  0
LINE
  5
174
330
1E
100
AcDbEntity
  8
0
100
AcDbLine
 10
40.43549999999999
 20
797.4194999999999
 30
0.0
 11
41.49049999999999
 21
796.8105
 31
0.0
  0
LINE
  5
175
330
1E
100
AcDbEntity
  8
0
100
AcDbLine
 10
39.1065
 20
798.2875
 30
0.0
 11
39.4463286179324
 21
798.8317392219199
 31
0.0
  0
LINE
  5
176
330
1E
100
AcDbEntity
  8
0
100
AcDbLine
 10
39.1065
 20
798.2875
 30
0.0
 11
40.43549999999999
 21
797.4194999999999
 31
0.0
  0
LINE
  5
177
330
1E
100
AcDbEntity
  8
0
100
AcDbLine
 10
42.1795
 20
797.8724999999999
 30
0.0
 11
42.788928195735
 21
798.791910326232
 31
0.0
  0
LINE
  5
178
330
1E
100
AcDbEntity
  8
0
100
AcDbLine
 10
40.67949999999999
 20
798.7385
 30
0.0
 11
42.1795
 21
797.8724999999999
 31
0.0
  0
LINE
  5
179
330
1E
100
AcDbEntity
  8
0
100
AcDbLine
 10
40.67949999999999
 20
798.7385
 30
0.0
 11
40.765413533979
 21
798.868112956631
 31
0.0
  0
LINE
  5
17A
330
1E
100
AcDbEntity
  8
0
100
AcDbLine
 10
41.4425
 20
798.5815
 30
0.0
 11
41.9950723902407
 21
799.415135143784
 31
0.0
  0
LINE
  5
17B
330
1E
100
AcDbEntity
  8
0
100
AcDbLine
 10
41.4425
 20
798.5815
 30
0.0
 11
42.1795
 21
797.8724999999999
 31
0.0
  0
LINE
  5
17C
330
1E
100
AcDbEntity
  8
0
100
AcDbLine
 10
38.91949999999999
 20
798.2954999999999
 30
0.0
 11
39.4502077543151
 21
799.1345047752969
 31
0.0
  0
LINE
  5
17D
330
1E
100
AcDbEntity
  8
0
100
AcDbLine
 10
38.2565
 20
798.6775
 30
0.0
 11
38.91949999999999
 21
798.2954999999999
 31
0.0
  0
LINE
  5
17E
330
1E
100
AcDbEntity
  8
0
100
AcDbLine
 10
59.92049999999999
 20
796.6165
 30
0.0
 11
67.2825
 21
792.3664999999999
 31
0.0
  0
LINE
  5
17F
330
1E
100
AcDbEntity
  8
0
100
AcDbLine
 10
60.42049999999999
 20
797.4825
 30
0.0
 11
67.78249999999999
 21
793.2324999999999
 31
0.0
  0
LINE
  5
180
330
1E
100
AcDbEntity
  8
0
100
AcDbLine
 10
37.2465
 20
799.2614999999999
 30
0.0
 11
37.2757902031061
 21
799.3075508598689
 31
0.0
  0
LINE
  5
181
330
1E
100
AcDbEntity
  8
0
100
AcDbLine
 10
37.2465
 20
799.2614999999999
 30
0.0
 11
37.47249999999999
 21
799.1304999999999
 31
0.0
  0
LINE
  5
182
330
1E
100
AcDbEntity
  8
0
100
AcDbLine
 10
35.5735
 20
800.3275
 30
0.0
 11
36.1247306105942
 21
801.193352923717
 31
0.0
  0
LINE
  5
183
330
1E
100
AcDbEntity
  8
0
100
AcDbLine
 10
35.5735
 20
800.3275
 30
0.0
 11
37.2465
 21
799.2614999999999
 31
0.0
  0
LINE
  5
184
330
1E
100
AcDbEntity
  8
0
100
AcDbLine
 10
36.7015
 20
799.6765
 30
0.0
 11
37.3645
 21
799.2935
 31
0.0
  0
LINE
  5
185
330
1E
100
AcDbEntity
  8
0
100
AcDbLine
 10
36.7015
 20
799.6765
 30
0.0
 11
37.29470427856949
 21
800.6143065769709
 31
0.0
  0
LINE
  5
186
330
1E
100
AcDbEntity
  8
0
100
AcDbLine
 10
36.7015
 20
799.6765
 30
0.0
 11
38.2565
 21
798.6775
 31
0.0
  0
LINE
  5
187
330
1E
100
AcDbEntity
  8
0
100
AcDbLine
 10
39.9425
 20
799.4475
 30
0.0
 11
41.4425
 21
798.5815
 31
0.0
  0
LINE
  5
188
330
1E
100
AcDbEntity
  8
0
100
AcDbLine
 10
39.9425
 20
799.4475
 30
0.0
 11
40.62767334385021
 21
800.481182806282
 31
0.0
  0
LINE
  5
189
330
1E
100
AcDbEntity
  8
0
100
AcDbLine
 10
39.9425
 20
799.4475
 30
0.0
 11
40.67949999999999
 21
798.7385
 31
0.0
  0
LINE
  5
18A
330
1E
100
AcDbEntity
  8
0
100
AcDbLine
 10
42.7085
 20
799.7084999999999
 30
0.0
 11
43.3514828137183
 21
800.6403925802409
 31
0.0
  0
LINE
  5
18B
330
1E
100
AcDbEntity
  8
0
100
AcDbLine
 10
46.2575
 20
800.6304999999999
 30
0.0
 11
47.00495771856679
 21
801.715275494133
 31
0.0
  0
LINE
  5
18C
330
1E
100
AcDbEntity
  8
0
100
AcDbLine
 10
41.1075
 20
800.6325
 30
0.0
 11
42.7085
 21
799.7084999999999
 31
0.0
  0
LINE
  5
18D
330
1E
100
AcDbEntity
  8
0
100
AcDbLine
 10
42.2655
 20
800.4394999999998
 30
0.0
 11
42.67402324661179
 21
801.0315839161659
 31
0.0
  0
LINE
  5
18E
330
1E
100
AcDbEntity
  8
0
100
AcDbLine
 10
42.2655
 20
800.4394999999998
 30
0.0
 11
42.7085
 21
799.7084999999999
 31
0.0
  0
LINE
  5
18F
330
1E
100
AcDbEntity
  8
0
100
AcDbLine
 10
37.3645
 20
799.2935
 30
0.0
 11
37.95964051429729
 21
800.2343676044549
 31
0.0
  0
LINE
  5
190
330
1E
100
AcDbEntity
  8
0
100
AcDbLine
 10
37.3645
 20
799.2935
 30
0.0
 11
38.91949999999999
 21
798.2954999999999
 31
0.0
  0
LINE
  5
191
330
1E
100
AcDbEntity
  8
0
100
AcDbLine
 10
35.9945
 20
801.4435
 30
0.0
 11
36.6123482448458
 21
802.325677021512
 31
0.0
  0
LINE
  5
192
330
1E
100
AcDbEntity
  8
0
100
AcDbLine
 10
34.7695
 20
802.1504999999999
 30
0.0
 11
34.8398261325586
 21
802.2509746933231
 31
0.0
  0
LINE
  5
193
330
1E
100
AcDbEntity
  8
0
100
AcDbLine
 10
34.7695
 20
802.1504999999999
 30
0.0
 11
35.9945
 21
801.4435
 31
0.0
  0
LINE
  5
194
330
1E
100
AcDbEntity
  8
0
100
AcDbLine
 10
33.67649999999999
 20
803.0644999999999
 30
0.0
 11
34.90149999999999
 21
802.3574999999999
 31
0.0
  0
LINE
  5
195
330
1E
100
AcDbEntity
  8
0
100
AcDbLine
 10
33.67649999999999
 20
803.0644999999999
 30
0.0
 11
34.33352065034
 21
804.0031830463741
 31
0.0
  0
LINE
  5
196
330
1E
100
AcDbEntity
  8
0
100
AcDbLine
 10
33.67649999999999
 20
803.0644999999999
 30
0.0
 11
34.7695
 21
802.1504999999999
 31
0.0
  0
LINE
  5
197
330
1E
100
AcDbEntity
  8
0
100
AcDbLine
 10
34.90149999999999
 20
802.3574999999999
 30
0.0
 11
35.4774556544888
 21
803.179861879375
 31
0.0
  0
LINE
  5
198
330
1E
100
AcDbEntity
  8
0
100
AcDbLine
 10
34.90149999999999
 20
802.3574999999999
 30
0.0
 11
35.9945
 21
801.4435
 31
0.0
  0
LINE
  5
199
330
1E
100
AcDbEntity
  8
0
100
AcDbLine
 10
44.5845
 20
801.5964999999999
 30
0.0
 11
46.2575
 21
800.6304999999999
 31
0.0
  0
LINE
  5
19A
330
1E
100
AcDbEntity
  8
0
100
AcDbLine
 10
46.12449999999999
 20
801.3894999999999
 30
0.0
 11
46.67316344967949
 21
802.186500540059
 31
0.0
  0
LINE
  5
19B
330
1E
100
AcDbEntity
  8
0
100
AcDbLine
 10
46.12449999999999
 20
801.3894999999999
 30
0.0
 11
46.2575
 21
800.6304999999999
 31
0.0
  0
LINE
  5
19C
330
1E
100
AcDbEntity
  8
0
100
AcDbLine
 10
44.4505
 20
802.3554999999999
 30
0.0
 11
46.12449999999999
 21
801.3894999999999
 31
0.0
  0
LINE
  5
19D
330
1E
100
AcDbEntity
  8
0
100
AcDbLine
 10
44.4505
 20
802.3554999999999
 30
0.0
 11
44.99976704201929
 21
803.152643988372
 31
0.0
  0
LINE
  5
19E
330
1E
100
AcDbEntity
  8
0
100
AcDbLine
 10
44.4505
 20
802.3554999999999
 30
0.0
 11
44.5845
 21
801.5964999999999
 31
0.0
  0
LINE
  5
19F
330
1E
100
AcDbEntity
  8
0
100
AcDbLine
 10
40.66449999999999
 20
801.3635
 30
0.0
 11
42.2655
 21
800.4394999999998
 31
0.0
  0
LINE
  5
1A0
330
1E
100
AcDbEntity
  8
0
100
AcDbLine
 10
40.66449999999999
 20
801.3635
 30
0.0
 11
41.2438595520141
 21
802.203181646686
 31
0.0
  0
LINE
  5
1A1
330
1E
100
AcDbEntity
  8
0
100
AcDbLine
 10
40.66449999999999
 20
801.3635
 30
0.0
 11
41.1075
 21
800.6325
 31
0.0
  0
LINE
  5
1A2
330
1E
100
AcDbEntity
  8
0
100
AcDbLine
 10
52.5595
 20
800.8665
 30
0.0
 11
59.92049999999999
 21
796.6165
 31
0.0
  0
LINE
  5
1A3
330
1E
100
AcDbEntity
  8
0
100
AcDbLine
 10
53.0595
 20
801.7324999999999
 30
0.0
 11
60.42049999999999
 21
797.4825
 31
0.0
  0
LINE
  5
1A4
330
1E
100
AcDbEntity
  8
0
100
AcDbLine
 10
39.3074800395065
 20
798.9088641410339
 30
0.0
 11
42.84396261279379
 21
796.614360566699
 31
0.0
  0
LINE
  5
1A5
330
1E
100
AcDbEntity
  8
0
100
AcDbLine
 10
31.4525
 20
804.5075
 30
0.0
 11
37.16948045700629
 21
800.4163381406371
 31
0.0
  0
LINE
  5
1A6
330
1E
100
AcDbEntity
  8
0
100
AcDbLine
 10
33.7045
 20
804.9065
 30
0.0
 11
34.39425674952239
 21
805.811949913671
 31
0.0
  0
LINE
  5
1A7
330
1E
100
AcDbEntity
  8
0
100
AcDbLine
 10
30.3085
 20
804.7264999999999
 30
0.0
 11
30.3614745135363
 21
804.7991147243369
 31
0.0
  0
LINE
  5
1A8
330
1E
100
AcDbEntity
  8
0
100
AcDbLine
 10
30.3085
 20
804.7264999999999
 30
0.0
 11
31.17449999999999
 21
804.2265
 31
0.0
  0
LINE
  5
1A9
330
1E
100
AcDbEntity
  8
0
100
AcDbLine
 10
28.0485
 20
806.0304999999999
 30
0.0
 11
28.6755301319806
 21
806.8689826973558
 31
0.0
  0
LINE
  5
1AA
330
1E
100
AcDbEntity
  8
0
100
AcDbLine
 10
27.6005
 20
806.2894999999999
 30
0.0
 11
27.6397413832892
 21
806.3419857599381
 31
0.0
  0
LINE
  5
1AB
330
1E
100
AcDbEntity
  8
0
100
AcDbLine
 10
27.6005
 20
806.2894999999999
 30
0.0
 11
28.0485
 21
806.0304999999999
 31
0.0
  0
LINE
  5
1AC
330
1E
100
AcDbEntity
  8
0
100
AcDbLine
 10
28.94249999999999
 20
805.7985
 30
0.0
 11
29.8085
 21
805.2984999999999
 31
0.0
  0
LINE
  5
1AD
330
1E
100
AcDbEntity
  8
0
100
AcDbLine
 10
28.94249999999999
 20
805.7985
 30
0.0
 11
29.5825024253475
 21
806.6750368816141
 31
0.0
  0
LINE
  5
1AE
330
1E
100
AcDbEntity
  8
0
100
AcDbLine
 10
28.94249999999999
 20
805.7985
 30
0.0
 11
30.3085
 21
804.7264999999999
 31
0.0
  0
LINE
  5
1AF
330
1E
100
AcDbEntity
  8
0
100
AcDbLine
 10
28.94249999999999
 20
805.7985
 30
0.0
 11
29.2290929976141
 21
806.1910130944379
 31
0.0
  0
LINE
  5
1B0
330
1E
100
AcDbEntity
  8
0
100
AcDbLine
 10
32.3305
 20
805.6994999999998
 30
0.0
 11
33.7045
 21
804.9065
 31
0.0
  0
LINE
  5
1B1
330
1E
100
AcDbEntity
  8
0
100
AcDbLine
 10
32.8785
 20
805.8585
 30
0.0
 11
33.3712957391126
 21
806.5063511348499
 31
0.0
  0
LINE
  5
1B2
330
1E
100
AcDbEntity
  8
0
100
AcDbLine
 10
32.8785
 20
805.8585
 30
0.0
 11
33.7045
 21
804.9065
 31
0.0
  0
LINE
  5
1B3
330
1E
100
AcDbEntity
  8
0
100
AcDbLine
 10
29.8085
 20
805.2984999999999
 30
0.0
 11
30.40219822862489
 21
806.111619409128
 31
0.0
  0
LINE
  5
1B4
330
1E
100
AcDbEntity
  8
0
100
AcDbLine
 10
29.8085
 20
805.2984999999999
 30
0.0
 11
31.17449999999999
 21
804.2265
 31
0.0
  0
LINE
  5
1B5
330
1E
100
AcDbEntity
  8
0
100
AcDbLine
 10
45.37149999999999
 20
805.0175000000001
 30
0.0
 11
52.5595
 21
800.8665
 31
0.0
  0
LINE
  5
1B6
330
1E
100
AcDbEntity
  8
0
100
AcDbLine
 10
45.8715
 20
805.8825
 30
0.0
 11
53.0595
 21
801.7324999999999
 31
0.0
  0
LINE
  5
1B7
330
1E
100
AcDbEntity
  8
0
100
AcDbLine
 10
31.4054739048111
 20
804.5431070872069
 30
0.0
 11
31.4525
 21
804.5075
 31
0.0
  0
LINE
  5
1B8
330
1E
100
AcDbEntity
  8
0
100
AcDbLine
 10
70.9615
 20
796.9394999999999
 30
0.0
 11
78.9295
 21
792.3395
 31
0.0
  0
LINE
  5
1B9
330
1E
100
AcDbEntity
  8
0
100
AcDbLine
 10
62.8205
 20
801.6384999999999
 30
0.0
 11
70.9615
 21
796.9394999999999
 31
0.0
  0
LINE
  5
1BA
330
1E
100
AcDbEntity
  8
0
100
AcDbLine
 10
26.0625
 20
807.4614999999999
 30
0.0
 11
26.5105
 21
807.2025
 31
0.0
  0
LINE
  5
1BB
330
1E
100
AcDbEntity
  8
0
100
AcDbLine
 10
26.0625
 20
807.4614999999999
 30
0.0
 11
26.7078057537991
 21
808.3233440785299
 31
0.0
  0
LINE
  5
1BC
330
1E
100
AcDbEntity
  8
0
100
AcDbLine
 10
26.0625
 20
807.4614999999999
 30
0.0
 11
27.6005
 21
806.2894999999999
 31
0.0
  0
LINE
  5
1BD
330
1E
100
AcDbEntity
  8
0
100
AcDbLine
 10
26.5105
 20
807.2025
 30
0.0
 11
27.2236821569121
 21
808.1549970376119
 31
0.0
  0
LINE
  5
1BE
330
1E
100
AcDbEntity
  8
0
100
AcDbLine
 10
26.5105
 20
807.2025
 30
0.0
 11
28.0485
 21
806.0304999999999
 31
0.0
  0
LINE
  5
1BF
330
1E
100
AcDbEntity
  8
0
100
AcDbLine
 10
26.897807394435
 20
806.8249718684798
 30
0.0
 11
27.6005
 21
806.2894999999999
 31
0.0
  0
LINE
  5
1C0
330
1E
100
AcDbEntity
  8
0
100
AcDbLine
 10
26.82949999999999
 20
806.7344999999999
 30
0.0
 11
26.897807394435
 21
806.8249718684798
 31
0.0
  0
LINE
  5
1C1
330
1E
100
AcDbEntity
  8
0
100
AcDbLine
 10
26.2855
 20
809.1894999999999
 30
0.0
 11
27.0134079664263
 21
810.0731410495759
 31
0.0
  0
LINE
  5
1C2
330
1E
100
AcDbEntity
  8
0
100
AcDbLine
 10
25.2315
 20
809.7984999999999
 30
0.0
 11
26.2855
 21
809.1894999999999
 31
0.0
  0
LINE
  5
1C3
330
1E
100
AcDbEntity
  8
0
100
AcDbLine
 10
25.2335
 20
807.9394999999999
 30
0.0
 11
25.87512827385749
 21
808.7898571397099
 31
0.0
  0
LINE
  5
1C4
330
1E
100
AcDbEntity
  8
0
100
AcDbLine
 10
25.2335
 20
807.9394999999999
 30
0.0
 11
26.82949999999999
 21
806.7344999999999
 31
0.0
  0
LINE
  5
1C5
330
1E
100
AcDbEntity
  8
0
100
AcDbLine
 10
34.2225
 20
807.5784999999999
 30
0.0
 11
35.02765419883949
 21
808.5811197620559
 31
0.0
  0
LINE
  5
1C6
330
1E
100
AcDbEntity
  8
0
100
AcDbLine
 10
32.72249999999999
 20
808.4455
 30
0.0
 11
34.2225
 21
807.5784999999999
 31
0.0
  0
LINE
  5
1C7
330
1E
100
AcDbEntity
  8
0
100
AcDbLine
 10
33.6895
 20
808.5675
 30
0.0
 11
34.3014017904702
 21
809.3294718414769
 31
0.0
  0
LINE
  5
1C8
330
1E
100
AcDbEntity
  8
0
100
AcDbLine
 10
33.6895
 20
808.5675
 30
0.0
 11
34.2225
 21
807.5784999999999
 31
0.0
  0
LINE
  5
1C9
330
1E
100
AcDbEntity
  8
0
100
AcDbLine
 10
31.5045
 20
806.6515
 30
0.0
 11
32.8785
 21
805.8585
 31
0.0
  0
LINE
  5
1CA
330
1E
100
AcDbEntity
  8
0
100
AcDbLine
 10
31.5045
 20
806.6515
 30
0.0
 11
32.1349407148401
 21
807.4797777592461
 31
0.0
  0
LINE
  5
1CB
330
1E
100
AcDbEntity
  8
0
100
AcDbLine
 10
31.5045
 20
806.6515
 30
0.0
 11
32.3305
 21
805.6994999999998
 31
0.0
  0
LINE
  5
1CC
330
1E
100
AcDbEntity
  8
0
100
AcDbLine
 10
32.1895
 20
809.4345
 30
0.0
 11
33.6895
 21
808.5675
 31
0.0
  0
LINE
  5
1CD
330
1E
100
AcDbEntity
  8
0
100
AcDbLine
 10
32.1895
 20
809.4345
 30
0.0
 11
32.80076790964669
 21
810.1956825002041
 31
0.0
  0
LINE
  5
1CE
330
1E
100
AcDbEntity
  8
0
100
AcDbLine
 10
32.1895
 20
809.4345
 30
0.0
 11
32.72249999999999
 21
808.4455
 31
0.0
  0
LINE
  5
1CF
330
1E
100
AcDbEntity
  8
0
100
AcDbLine
 10
38.4435
 20
809.0175
 30
0.0
 11
45.37149999999999
 21
805.0175000000001
 31
0.0
  0
LINE
  5
1D0
330
1E
100
AcDbEntity
  8
0
100
AcDbLine
 10
28.5519512122028
 20
806.7037294173198
 30
0.0
 11
29.2290929976141
 21
806.1910130944379
 31
0.0
  0
LINE
  5
1D1
330
1E
100
AcDbEntity
  8
0
100
AcDbLine
 10
38.9435
 20
809.8825000000001
 30
0.0
 11
45.8715
 21
805.8825
 31
0.0
  0
LINE
  5
1D2
330
1E
100
AcDbEntity
  8
0
100
AcDbLine
 10
24.3815
 20
809.8615
 30
0.0
 11
25.8466534848738
 21
808.752119182858
 31
0.0
  0
LINE
  5
1D3
330
1E
100
AcDbEntity
  8
0
100
AcDbLine
 10
54.6805
 20
806.3385
 30
0.0
 11
62.8205
 21
801.6384999999999
 31
0.0
  0
LINE
  5
1D4
330
1E
100
AcDbEntity
  8
0
100
AcDbLine
 10
18.93449999999999
 20
813.9084999999999
 30
0.0
 11
19.59649999999999
 21
813.5265
 31
0.0
  0
LINE
  5
1D5
330
1E
100
AcDbEntity
  8
0
100
AcDbLine
 10
18.93449999999999
 20
813.9084999999999
 30
0.0
 11
19.7331085586728
 21
814.828702363704
 31
0.0
  0
LINE
  5
1D6
330
1E
100
AcDbEntity
  8
0
100
AcDbLine
 10
18.93449999999999
 20
813.9084999999999
 30
0.0
 11
19.7331085586728
 21
814.828702363704
 31
0.0
  0
LINE
  5
1D7
330
1E
100
AcDbEntity
  8
0
100
AcDbLine
 10
18.93449999999999
 20
813.9084999999999
 30
0.0
 11
20.2945
 21
812.6485
 31
0.0
  0
LINE
  5
1D8
330
1E
100
AcDbEntity
  8
0
100
AcDbLine
 10
18.93449999999999
 20
813.9084999999999
 30
0.0
 11
19.2255045181673
 21
814.243812015578
 31
0.0
  0
LINE
  5
1D9
330
1E
100
AcDbEntity
  8
0
100
AcDbLine
 10
20.9575
 20
812.2654999999999
 30
0.0
 11
21.71207241493199
 21
813.1349614054229
 31
0.0
  0
LINE
  5
1DA
330
1E
100
AcDbEntity
  8
0
100
AcDbLine
 10
20.2945
 20
812.6485
 30
0.0
 11
20.3737054310842
 21
812.7396346894359
 31
0.0
  0
LINE
  5
1DB
330
1E
100
AcDbEntity
  8
0
100
AcDbLine
 10
20.2945
 20
812.6485
 30
0.0
 11
20.9575
 21
812.2654999999999
 31
0.0
  0
LINE
  5
1DC
330
1E
100
AcDbEntity
  8
0
100
AcDbLine
 10
19.59649999999999
 20
813.5265
 30
0.0
 11
20.273907825732
 21
814.305933316305
 31
0.0
  0
LINE
  5
1DD
330
1E
100
AcDbEntity
  8
0
100
AcDbLine
 10
19.59649999999999
 20
813.5265
 30
0.0
 11
20.9575
 21
812.2654999999999
 31
0.0
  0
LINE
  5
1DE
330
1E
100
AcDbEntity
  8
0
100
AcDbLine
 10
18.08149999999999
 20
813.9264999999999
 30
0.0
 11
18.8499278086205
 21
814.7866545515409
 31
0.0
  0
LINE
  5
1DF
330
1E
100
AcDbEntity
  8
0
100
AcDbLine
 10
17.85549999999999
 20
814.0565
 30
0.0
 11
17.89180974433169
 21
814.097144015615
 31
0.0
  0
LINE
  5
1E0
330
1E
100
AcDbEntity
  8
0
100
AcDbLine
 10
17.85549999999999
 20
814.0565
 30
0.0
 11
18.08149999999999
 21
813.9264999999999
 31
0.0
  0
LINE
  5
1E1
330
1E
100
AcDbEntity
  8
0
100
AcDbLine
 10
15.7715
 20
818.2314999999999
 30
0.0
 11
16.64121162560079
 21
819.103077959561
 31
0.0
  0
LINE
  5
1E2
330
1E
100
AcDbEntity
  8
0
100
AcDbLine
 10
14.90549999999999
 20
818.7314999999999
 30
0.0
 11
15.7715
 21
818.2314999999999
 31
0.0
  0
LINE
  5
1E3
330
1E
100
AcDbEntity
  8
0
100
AcDbLine
 10
14.6325
 20
819.5705
 30
0.0
 11
15.3389134435908
 21
820.2774187464831
 31
0.0
  0
LINE
  5
1E4
330
1E
100
AcDbEntity
  8
0
100
AcDbLine
 10
14.6325
 20
819.5705
 30
0.0
 11
15.7715
 21
818.2314999999999
 31
0.0
  0
LINE
  5
1E5
330
1E
100
AcDbEntity
  8
0
100
AcDbLine
 10
16.3805
 20
815.3825000000001
 30
0.0
 11
16.6075
 21
815.2525
 31
0.0
  0
LINE
  5
1E6
330
1E
100
AcDbEntity
  8
0
100
AcDbLine
 10
16.3805
 20
815.3825000000001
 30
0.0
 11
17.147468093002
 21
816.2415963924621
 31
0.0
  0
LINE
  5
1E7
330
1E
100
AcDbEntity
  8
0
100
AcDbLine
 10
16.3805
 20
815.3825000000001
 30
0.0
 11
17.85549999999999
 21
814.0565
 31
0.0
  0
LINE
  5
1E8
330
1E
100
AcDbEntity
  8
0
100
AcDbLine
 10
16.3805
 20
815.3825000000001
 30
0.0
 11
17.0719049455366
 21
816.1569565906459
 31
0.0
  0
LINE
  5
1E9
330
1E
100
AcDbEntity
  8
0
100
AcDbLine
 10
16.3805
 20
815.3825000000001
 30
0.0
 11
17.0719049455366
 21
816.1569565906459
 31
0.0
  0
LINE
  5
1EA
330
1E
100
AcDbEntity
  8
0
100
AcDbLine
 10
16.6075
 20
815.2525
 30
0.0
 11
17.4495041395958
 21
816.196354377368
 31
0.0
  0
LINE
  5
1EB
330
1E
100
AcDbEntity
  8
0
100
AcDbLine
 10
16.6075
 20
815.2525
 30
0.0
 11
18.08149999999999
 21
813.9264999999999
 31
0.0
  0
LINE
  5
1EC
330
1E
100
AcDbEntity
  8
0
100
AcDbLine
 10
20.1705
 20
819.5655
 30
0.0
 11
25.7135
 21
816.3664999999999
 31
0.0
  0
LINE
  5
1ED
330
1E
100
AcDbEntity
  8
0
100
AcDbLine
 10
18.73637405276889
 20
814.6595459554641
 30
0.0
 11
19.2255045181673
 21
814.243812015578
 31
0.0
  0
LINE
  5
1EE
330
1E
100
AcDbEntity
  8
0
100
AcDbLine
 10
23.8235
 20
813.5825
 30
0.0
 11
24.67167337446789
 21
814.5137518598939
 31
0.0
  0
LINE
  5
1EF
330
1E
100
AcDbEntity
  8
0
100
AcDbLine
 10
23.8235
 20
813.5825
 30
0.0
 11
24.67167337446789
 21
814.5137518598939
 31
0.0
  0
LINE
  5
1F0
330
1E
100
AcDbEntity
  8
0
100
AcDbLine
 10
22.5985
 20
814.2894999999999
 30
0.0
 11
23.8235
 21
813.5825
 31
0.0
  0
LINE
  5
1F1
330
1E
100
AcDbEntity
  8
0
100
AcDbLine
 10
21.7235
 20
815.4764999999999
 30
0.0
 11
22.94849999999999
 21
814.7705
 31
0.0
  0
LINE
  5
1F2
330
1E
100
AcDbEntity
  8
0
100
AcDbLine
 10
21.7235
 20
815.4764999999999
 30
0.0
 11
22.38886668109399
 21
816.207039271725
 31
0.0
  0
LINE
  5
1F3
330
1E
100
AcDbEntity
  8
0
100
AcDbLine
 10
21.7235
 20
815.4764999999999
 30
0.0
 11
22.5985
 21
814.2894999999999
 31
0.0
  0
LINE
  5
1F4
330
1E
100
AcDbEntity
  8
0
100
AcDbLine
 10
22.94849999999999
 20
814.7705
 30
0.0
 11
23.6134299475921
 21
815.5000548779581
 31
0.0
  0
LINE
  5
1F5
330
1E
100
AcDbEntity
  8
0
100
AcDbLine
 10
22.94849999999999
 20
814.7705
 30
0.0
 11
23.8235
 21
813.5825
 31
0.0
  0
LINE
  5
1F6
330
1E
100
AcDbEntity
  8
0
100
AcDbLine
 10
24.0925
 20
810.9305
 30
0.0
 11
25.1465
 21
810.3225
 31
0.0
  0
LINE
  5
1F7
330
1E
100
AcDbEntity
  8
0
100
AcDbLine
 10
24.0925
 20
810.9305
 30
0.0
 11
24.9090692606498
 21
811.9225571826449
 31
0.0
  0
LINE
  5
1F8
330
1E
100
AcDbEntity
  8
0
100
AcDbLine
 10
24.0925
 20
810.9305
 30
0.0
 11
25.2315
 21
809.7984999999999
 31
0.0
  0
LINE
  5
1F9
330
1E
100
AcDbEntity
  8
0
100
AcDbLine
 10
25.1465
 20
810.3225
 30
0.0
 11
25.7438569490799
 21
811.0477604988428
 31
0.0
  0
LINE
  5
1FA
330
1E
100
AcDbEntity
  8
0
100
AcDbLine
 10
25.1465
 20
810.3225
 30
0.0
 11
26.2855
 21
809.1894999999999
 31
0.0
  0
LINE
  5
1FB
330
1E
100
AcDbEntity
  8
0
100
AcDbLine
 10
25.7135
 20
816.3664999999999
 30
0.0
 11
31.8615
 21
812.8155000000001
 31
0.0
  0
LINE
  5
1FC
330
1E
100
AcDbEntity
  8
0
100
AcDbLine
 10
26.2135
 20
817.2324999999998
 30
0.0
 11
32.3615
 21
813.6824999999999
 31
0.0
  0
LINE
  5
1FD
330
1E
100
AcDbEntity
  8
0
100
AcDbLine
 10
21.2103272938675
 20
812.5568220386869
 30
0.0
 11
24.3815
 21
809.8615
 31
0.0
  0
LINE
  5
1FE
330
1E
100
AcDbEntity
  8
0
100
AcDbLine
 10
10.6125
 20
821.2105000000001
 30
0.0
 11
11.4850449763984
 21
822.035473511157
 31
0.0
  0
LINE
  5
1FF
330
1E
100
AcDbEntity
  8
0
100
AcDbLine
 10
10.1645
 20
821.4684999999999
 30
0.0
 11
10.2560940892331
 21
821.5551003466179
 31
0.0
  0
LINE
  5
200
330
1E
100
AcDbEntity
  8
0
100
AcDbLine
 10
10.1645
 20
821.4684999999999
 30
0.0
 11
10.6125
 21
821.2105000000001
 31
0.0
  0
LINE
  5
201
330
1E
100
AcDbEntity
  8
0
100
AcDbLine
 10
13.7665
 20
820.0705000000001
 30
0.0
 11
14.6325
 21
819.5705
 31
0.0
  0
LINE
  5
202
330
1E
100
AcDbEntity
  8
0
100
AcDbLine
 10
13.7665
 20
820.0705000000001
 30
0.0
 11
14.47294280325809
 21
820.7774481271519
 31
0.0
  0
LINE
  5
203
330
1E
100
AcDbEntity
  8
0
100
AcDbLine
 10
13.7665
 20
820.0705000000001
 30
0.0
 11
14.90549999999999
 21
818.7314999999999
 31
0.0
  0
LINE
  5
204
330
1E
100
AcDbEntity
  8
0
100
AcDbLine
 10
20.6705
 20
820.4325
 30
0.0
 11
26.2135
 21
817.2324999999998
 31
0.0
  0
LINE
  5
205
330
1E
100
AcDbEntity
  8
0
100
AcDbLine
 10
12.5585
 20
820.3825
 30
0.0
 11
17.0719049455366
 21
816.1569565906459
 31
0.0
  0
LINE
  5
206
330
1E
100
AcDbEntity
  8
0
100
AcDbLine
 10
12.5585
 20
820.3825
 30
0.0
 11
17.0719049455366
 21
816.1569565906459
 31
0.0
  0
LINE
  5
207
330
1E
100
AcDbEntity
  8
0
100
AcDbLine
 10
8.700499999999969
 20
822.3144999999998
 30
0.0
 11
9.07842360991782
 21
822.6646010128689
 31
0.0
  0
LINE
  5
208
330
1E
100
AcDbEntity
  8
0
100
AcDbLine
 10
9.07842360991782
 20
822.6646010128689
 30
0.0
 11
10.1645
 21
821.4684999999999
 31
0.0
  0
LINE
  5
209
330
1E
100
AcDbEntity
  8
0
100
AcDbLine
 10
8.86150000000001
 20
822.9034999999999
 30
0.0
 11
9.309499999999991
 21
822.6435
 31
0.0
  0
LINE
  5
20A
330
1E
100
AcDbEntity
  8
0
100
AcDbLine
 10
8.86150000000001
 20
822.9034999999999
 30
0.0
 11
9.567967713854539
 21
823.570963285208
 31
0.0
  0
LINE
  5
20B
330
1E
100
AcDbEntity
  8
0
100
AcDbLine
 10
8.86150000000001
 20
822.9034999999999
 30
0.0
 11
10.1645
 21
821.4684999999999
 31
0.0
  0
LINE
  5
20C
330
1E
100
AcDbEntity
  8
0
100
AcDbLine
 10
9.309499999999991
 20
822.6435
 30
0.0
 11
10.04155543717159
 21
823.335643512026
 31
0.0
  0
LINE
  5
20D
330
1E
100
AcDbEntity
  8
0
100
AcDbLine
 10
9.309499999999991
 20
822.6435
 30
0.0
 11
10.6125
 21
821.2105000000001
 31
0.0
  0
LINE
  5
20E
330
1E
100
AcDbEntity
  8
0
100
AcDbLine
 10
15.32049999999999
 20
822.3665
 30
0.0
 11
20.1705
 21
819.5655
 31
0.0
  0
LINE
  5
20F
330
1E
100
AcDbEntity
  8
0
100
AcDbLine
 10
15.82049999999999
 20
823.2324999999999
 30
0.0
 11
20.6705
 21
820.4325
 31
0.0
  0
LINE
  5
210
330
1E
100
AcDbEntity
  8
0
100
AcDbLine
 10
11.09597009594169
 20
821.6676111328091
 30
0.0
 11
12.5585
 21
820.3825
 31
0.0
  0
LINE
  5
211
330
1E
100
AcDbEntity
  8
0
100
AcDbLine
 10
28.7105990990138
 20
821.3321936937429
 30
0.0
 11
31.73049999999999
 21
819.5885
 31
0.0
  0
LINE
  5
212
330
1E
100
AcDbEntity
  8
0
100
AcDbLine
 10
28.7105990990104
 20
821.332193693745
 30
0.0
 11
31.73049999999999
 21
819.5885
 31
0.0
  0
LINE
  5
213
330
1E
100
AcDbEntity
  8
0
100
AcDbLine
 10
31.6445
 20
819.6385000000001
 30
0.0
 11
38.9185
 21
815.4394999999999
 31
0.0
  0
LINE
  5
214
330
1E
100
AcDbEntity
  8
0
100
AcDbLine
 10
31.6445
 20
819.6385000000001
 30
0.0
 11
31.73049999999999
 21
819.5885
 31
0.0
  0
LINE
  5
215
330
1E
100
AcDbEntity
  8
0
100
AcDbLine
 10
31.8615
 20
812.8155000000001
 30
0.0
 11
38.4435
 21
809.0175
 31
0.0
  0
LINE
  5
216
330
1E
100
AcDbEntity
  8
0
100
AcDbLine
 10
32.3615
 20
813.6824999999999
 30
0.0
 11
38.9435
 21
809.8825000000001
 31
0.0
  0
LINE
  5
217
330
1E
100
AcDbEntity
  8
0
100
AcDbLine
 10
31.73049999999999
 20
819.5885
 30
0.0
 11
39.00549999999999
 21
815.3885
 31
0.0
  0
LINE
  5
218
330
1E
100
AcDbEntity
  8
0
100
AcDbLine
 10
39.00549999999999
 20
815.3885
 30
0.0
 11
46.7135
 21
810.9394999999999
 31
0.0
  0
LINE
  5
219
330
1E
100
AcDbEntity
  8
0
100
AcDbLine
 10
38.9185
 20
815.4394999999999
 30
0.0
 11
46.7135
 21
810.9394999999999
 31
0.0
  0
LINE
  5
21A
330
1E
100
AcDbEntity
  8
0
100
AcDbLine
 10
46.7135
 20
810.9394999999999
 30
0.0
 11
54.6805
 21
806.3385
 31
0.0
  0
LINE
  5
21B
330
1E
100
AcDbEntity
  8
0
100
AcDbLine
 10
0.380818641295866
 20
837.6886844788581
 30
0.0
 11
1.778499999999979
 21
834.1115
 31
0.0
  0
LINE
  5
21C
330
1E
100
AcDbEntity
  8
0
100
AcDbLine
 10
0.380818641295866
 20
837.6886844788581
 30
0.0
 11
1.778499999999979
 21
834.1115
 31
0.0
  0
LINE
  5
21D
330
1E
100
AcDbEntity
  8
0
100
AcDbLine
 10
0.207499999999972
 20
837.7885
 30
0.0
 11
0.380818641295866
 21
837.6886844788581
 31
0.0
  0
LINE
  5
21E
330
1E
100
AcDbEntity
  8
0
100
AcDbLine
 10
0.207499999999972
 20
837.7885
 30
0.0
 11
0.380818641295866
 21
837.6886844788581
 31
0.0
  0
LINE
  5
21F
330
1E
100
AcDbEntity
  8
0
100
AcDbLine
 10
0.207499999999972
 20
837.7885
 30
0.0
 11
0.81349999999998
 21
837.4394999999999
 31
0.0
  0
LINE
  5
220
330
1E
100
AcDbEntity
  8
0
100
AcDbLine
 10
-0.1385
 20
840.9914999999999
 30
0.0
 11
0.4695000000000161
 21
843.6424999999999
 31
0.0
  0
LINE
  5
221
330
1E
100
AcDbEntity
  8
0
100
AcDbLine
 10
-0.1385
 20
840.9914999999999
 30
0.0
 11
0.207499999999972
 21
837.7885
 31
0.0
  0
LINE
  5
222
330
1E
100
AcDbEntity
  8
0
100
AcDbLine
 10
0.571999999975061
 20
837.5785816831829
 30
0.0
 11
0.9864999999999659
 21
837.3384999999998
 31
0.0
  0
LINE
  5
223
330
1E
100
AcDbEntity
  8
0
100
AcDbLine
 10
0.571999999975053
 20
837.5785816831829
 30
0.0
 11
0.9864999999999659
 21
837.3384999999998
 31
0.0
  0
LINE
  5
224
330
1E
100
AcDbEntity
  8
0
100
AcDbLine
 10
0.571999999975053
 20
837.5785816831829
 30
0.0
 11
0.81349999999998
 21
837.4394999999999
 31
0.0
  0
LINE
  5
225
330
1E
100
AcDbEntity
  8
0
100
AcDbLine
 10
4.235500000000009
 20
828.7654999999999
 30
0.0
 11
5.621499999999969
 21
827.9654999999999
 31
0.0
  0
LINE
  5
226
330
1E
100
AcDbEntity
  8
0
100
AcDbLine
 10
4.73549999999999
 20
829.6325000000001
 30
0.0
 11
6.12149999999999
 21
828.8325
 31
0.0
  0
LINE
  5
227
330
1E
100
AcDbEntity
  8
0
100
AcDbLine
 10
4.129499999999979
 20
829.9825
 30
0.0
 11
4.73549999999999
 21
829.6325000000001
 31
0.0
  0
LINE
  5
228
330
1E
100
AcDbEntity
  8
0
100
AcDbLine
 10
3.6295
 20
829.1164999999999
 30
0.0
 11
4.129499999999979
 21
829.9825
 31
0.0
  0
LINE
  5
229
330
1E
100
AcDbEntity
  8
0
100
AcDbLine
 10
3.6295
 20
829.1164999999999
 30
0.0
 11
7.57949999999999
 21
824.7575000000001
 31
0.0
  0
LINE
  5
22A
330
1E
100
AcDbEntity
  8
0
100
AcDbLine
 10
3.6295
 20
829.1164999999999
 30
0.0
 11
4.235500000000009
 21
828.7654999999999
 31
0.0
  0
LINE
  5
22B
330
1E
100
AcDbEntity
  8
0
100
AcDbLine
 10
1.778499999999979
 20
834.1115
 30
0.0
 11
4.129499999999979
 21
829.9825
 31
0.0
  0
LINE
  5
22C
330
1E
100
AcDbEntity
  8
0
100
AcDbLine
 10
2.63249999999997
 20
836.3884999999999
 30
0.0
 11
5.230499999999949
 21
834.8885
 31
0.0
  0
LINE
  5
22D
330
1E
100
AcDbEntity
  8
0
100
AcDbLine
 10
7.34049999999997
 20
823.7804999999999
 30
0.0
 11
8.08141603487091
 21
824.4673751243519
 31
0.0
  0
LINE
  5
22E
330
1E
100
AcDbEntity
  8
0
100
AcDbLine
 10
7.34049999999997
 20
823.7804999999999
 30
0.0
 11
8.003508380796459
 21
824.3951498963079
 31
0.0
  0
LINE
  5
22F
330
1E
100
AcDbEntity
  8
0
100
AcDbLine
 10
7.34049999999997
 20
823.7804999999999
 30
0.0
 11
8.700499999999969
 21
822.3144999999998
 31
0.0
  0
LINE
  5
230
330
1E
100
AcDbEntity
  8
0
100
AcDbLine
 10
11.1635
 20
824.7654999999999
 30
0.0
 11
15.32049999999999
 21
822.3665
 31
0.0
  0
LINE
  5
231
330
1E
100
AcDbEntity
  8
0
100
AcDbLine
 10
8.046499999999969
 20
826.5655
 30
0.0
 11
11.1635
 21
824.7654999999999
 31
0.0
  0
LINE
  5
232
330
1E
100
AcDbEntity
  8
0
100
AcDbLine
 10
11.6635
 20
825.6325
 30
0.0
 11
15.82049999999999
 21
823.2324999999999
 31
0.0
  0
LINE
  5
233
330
1E
100
AcDbEntity
  8
0
100
AcDbLine
 10
7.57949999999999
 20
824.7575000000001
 30
0.0
 11
7.997847564987941
 21
824.3899019689051
 31
0.0
  0
LINE
  5
234
330
1E
100
AcDbEntity
  8
0
100
AcDbLine
 10
5.621499999999969
 20
827.9654999999999
 30
0.0
 11
8.046499999999969
 21
826.5655
 31
0.0
  0
LINE
  5
235
330
1E
100
AcDbEntity
  8
0
100
AcDbLine
 10
8.546499999999959
 20
827.4325000000001
 30
0.0
 11
11.6635
 21
825.6325
 31
0.0
  0
LINE
  5
236
330
1E
100
AcDbEntity
  8
0
100
AcDbLine
 10
6.12149999999999
 20
828.8325
 30
0.0
 11
8.546499999999959
 21
827.4325000000001
 31
0.0
  0
LINE
  5
237
330
1E
100
AcDbEntity
  8
0
100
AcDbLine
 10
8.78149999999996
 20
832.8384999999999
 30
0.0
 11
10.4093333585567
 21
831.8988332824551
 31
0.0
  0
LINE
  5
238
330
1E
100
AcDbEntity
  8
0
100
AcDbLine
 10
8.78149999999996
 20
832.8384999999999
 30
0.0
 11
10.40933335855599
 21
831.8988332824551
 31
0.0
  0
LINE
  5
239
330
1E
100
AcDbEntity
  8
0
100
AcDbLine
 10
13.19749999999999
 20
830.2884999999999
 30
0.0
 11
18.6535
 21
827.1385
 31
0.0
  0
LINE
  5
23A
330
1E
100
AcDbEntity
  8
0
100
AcDbLine
 10
18.6535
 20
827.1385
 30
0.0
 11
24.7155
 21
823.6385
 31
0.0
  0
LINE
  5
23B
330
1E
100
AcDbEntity
  8
0
100
AcDbLine
 10
24.7155
 20
823.6385
 30
0.0
 11
31.6445
 21
819.6385000000001
 31
0.0
  0
LINE
  5
23D
330
1E
100
AcDbEntity
  8
0
100
AcDbLine
 10
5.230499999999949
 20
834.8885
 30
0.0
 11
8.78149999999996
 21
832.8384999999999
 31
0.0
  0
LINE
  5
23F
330
1E
100
AcDbEntity
  8
0
100
AcDbLine
 10
8.607499999999969
 20
832.9394999999999
 30
0.0
 11
8.78149999999996
 21
832.8384999999999
 31
0.0
  0
LINE
  5
240
330
1E
100
AcDbEntity
  8
0
100
AcDbLine
 10
8.607499999999969
 20
832.9394999999999
 30
0.0
 11
13.19749999999999
 21
830.2884999999999
 31
0.0
  0
LINE
  5
241
330
1E
100
AcDbEntity
  8
0
100
AcDbLine
 10
5.057499999999969
 20
834.9885
 30
0.0
 11
8.607499999999969
 21
832.9394999999999
 31
0.0
  0
LINE
  5
242
330
1E
100
AcDbEntity
  8
0
100
AcDbLine
 10
0.9864999999999659
 20
837.3384999999998
 30
0.0
 11
2.63249999999997
 21
836.3884999999999
 31
0.0
  0
LINE
  5
243
330
1E
100
AcDbEntity
  8
0
100
AcDbLine
 10
2.459500000000019
 20
836.4885000000001
 30
0.0
 11
5.057499999999969
 21
834.9885
 31
0.0
  0
LINE
  5
244
330
1E
100
AcDbEntity
  8
0
100
AcDbLine
 10
0.81349999999998
 20
837.4394999999999
 30
0.0
 11
2.459500000000019
 21
836.4885000000001
 31
0.0
  0
LINE
  5
245
330
1E
100
AcDbEntity
  8
0
100
AcDbLine
 10
0.5719999999750601
 20
837.5785816831829
 30
0.0
 11
0.81349999999998
 21
837.4394999999999
 31
0.0
  0
LINE
  5
246
330
1E
100
AcDbEntity
  8
0
100
AcDbLine
 10
58.27049999999999
 20
832.5565
 30
0.0
 11
66.8335
 21
828.1895
 31
0.0
  0
LINE
  5
247
330
1E
100
AcDbEntity
  8
0
100
AcDbLine
 10
49.8525
 20
836.3775
 30
0.0
 11
58.27049999999999
 21
832.5565
 31
0.0
  0
LINE
  5
248
330
1E
100
AcDbEntity
  8
0
100
AcDbLine
 10
41.68149999999999
 20
839.8244999999999
 30
0.0
 11
49.8525
 21
836.3775
 31
0.0
  0
LINE
  5
249
330
1E
100
AcDbEntity
  8
0
100
AcDbLine
 10
33.8305
 20
842.6254999999999
 30
0.0
 11
41.68149999999999
 21
839.8244999999999
 31
0.0
  0
LINE
  5
24A
330
1E
100
AcDbEntity
  8
0
100
AcDbLine
 10
26.6585
 20
844.8045
 30
0.0
 11
33.8305
 21
842.6254999999999
 31
0.0
  0
LINE
  5
24B
330
1E
100
AcDbEntity
  8
0
100
AcDbLine
 10
20.0795
 20
846.4085
 30
0.0
 11
26.6585
 21
844.8045
 31
0.0
  0
LINE
  5
24C
330
1E
100
AcDbEntity
  8
0
100
AcDbLine
 10
14.1295
 20
847.3024999999999
 30
0.0
 11
20.0795
 21
846.4085
 31
0.0
  0
LINE
  5
24D
330
1E
100
AcDbEntity
  8
0
100
AcDbLine
 10
9.3785
 20
847.2754999999999
 30
0.0
 11
14.1295
 21
847.3024999999999
 31
0.0
  0
LINE
  5
24E
330
1E
100
AcDbEntity
  8
0
100
AcDbLine
 10
5.40749999999999
 20
846.7965000000001
 30
0.0
 11
9.3785
 21
847.2754999999999
 31
0.0
  0
LINE
  5
24F
330
1E
100
AcDbEntity
  8
0
100
AcDbLine
 10
2.46149999999999
 20
845.4945
 30
0.0
 11
5.40749999999999
 21
846.7965000000001
 31
0.0
  0
LINE
  5
250
330
1E
100
AcDbEntity
  8
0
100
AcDbLine
 10
0.4695000000000161
 20
843.6424999999999
 30
0.0
 11
2.46149999999999
 21
845.4945
 31
0.0
  0
LINE
  5
251
330
1E
100
AcDbEntity
  8
0
100
AcDbLine
 10
66.8335
 20
828.1895
 30
0.0
 11
83.80869999999999
 21
818.3904999999999
 31
0.0
  0
LINE
  5
252
330
1E
100
AcDbEntity
  8
0
100
AcDbLine
 10
89.83949318527178
 20
814.436541521138
 30
0.0
 11
89.89369999999999
 21
814.5305
 31
0.0
  0
LINE
  5
253
330
1E
100
AcDbEntity
  8
0
100
AcDbLine
 10
89.89369999999999
 20
814.5305
 30
0.0
 11
107.3797
 21
802.8175
 31
0.0
  0
LINE
  5
254
330
1E
100
AcDbEntity
  8
0
100
AcDbLine
 10
89.81868762434608
 20
814.4004785488659
 30
0.0
 11
89.89369999999999
 21
814.5305
 31
0.0
  0
LINE
  5
255
330
1E
100
AcDbEntity
  8
0
100
AcDbLine
 10
83.80869999999999
 20
818.3904999999999
 30
0.0
 11
91.8721
 21
813.1565
 31
0.0
  0
LINE
  5
256
330
1E
100
AcDbEntity
  8
0
100
AcDbLine
 10
107.3797
 20
802.8175
 30
0.0
 11
123.2307
 21
791.4724999999999
 31
0.0
  0
LINE
  5
257
330
1E
100
AcDbEntity
  8
0
100
AcDbLine
 10
174.50346
 20
696.7005
 30
0.0
 11
174.8498699999999
 21
696.9005
 31
0.0
  0
LINE
  5
258
330
1E
100
AcDbEntity
  8
0
100
AcDbLine
 10
174.50346
 20
696.7005
 30
0.0
 11
179.5648462737509
 21
688.8654473175709
 31
0.0
  0
LINE
  5
259
330
1E
100
AcDbEntity
  8
0
100
AcDbLine
 10
179.1385
 20
688.0644999999999
 30
0.0
 11
179.5648462737509
 21
688.8654473175709
 31
0.0
  0
LINE
  5
25A
330
1E
100
AcDbEntity
  8
0
100
AcDbLine
 10
179.1385
 20
688.0644999999999
 30
0.0
 11
184.6776399999999
 21
677.6584999999999
 31
0.0
  0
LINE
  5
25B
330
1E
100
AcDbEntity
  8
0
100
AcDbLine
 10
179.1385
 20
688.0644999999999
 30
0.0
 11
184.6776399999999
 21
698.4704999999999
 31
0.0
  0
LINE
  5
25C
330
1E
100
AcDbEntity
  8
0
100
AcDbLine
 10
175.8025
 20
697.4505
 30
0.0
 11
177.4479499999999
 21
698.4004999999999
 31
0.0
  0
LINE
  5
25D
330
1E
100
AcDbEntity
  8
0
100
AcDbLine
 10
174.8498699999999
 20
696.9005
 30
0.0
 11
175.70217647
 21
697.3925783079469
 31
0.0
  0
LINE
  5
25E
330
1E
100
AcDbEntity
  8
0
100
AcDbLine
 10
174.8498699999999
 20
696.9005
 30
0.0
 11
175.8025
 21
697.4505
 31
0.0
  0
LINE
  5
25F
330
1E
100
AcDbEntity
  8
0
100
AcDbLine
 10
172.72672
 20
698.0014999999999
 30
0.0
 11
175.70217647
 21
697.3925783079469
 31
0.0
  0
LINE
  5
260
330
1E
100
AcDbEntity
  8
0
100
AcDbLine
 10
177.4479499999999
 20
698.4004999999999
 30
0.0
 11
179.526412
 21
699.6005
 31
0.0
  0
LINE
  5
261
330
1E
100
AcDbEntity
  8
0
100
AcDbLine
 10
179.526412
 20
699.6005
 30
0.0
 11
181.8646799999999
 21
700.9505
 31
0.0
  0
LINE
  5
262
330
1E
100
AcDbEntity
  8
0
100
AcDbLine
 10
180.16652
 20
692.4684999999999
 30
0.0
 11
180.7645899999999
 21
697.4325
 31
0.0
  0
LINE
  5
263
330
1E
100
AcDbEntity
  8
0
100
AcDbLine
 10
180.16652
 20
692.4684999999999
 30
0.0
 11
180.446897821633
 21
690.5224966803349
 31
0.0
  0
LINE
  5
264
330
1E
100
AcDbEntity
  8
0
100
AcDbLine
 10
180.7645899999999
 20
697.4325
 30
0.0
 11
181.99305
 21
700.1045
 31
0.0
  0
LINE
  5
265
330
1E
100
AcDbEntity
  8
0
100
AcDbLine
 10
184.6776399999999
 20
698.4704999999999
 30
0.0
 11
192.6384999999999
 21
705.0644999999999
 31
0.0
  0
LINE
  5
266
330
1E
100
AcDbEntity
  8
0
100
AcDbLine
 10
184.6776399999999
 20
677.6584999999999
 30
0.0
 11
189.252188792583
 21
673.869389936729
 31
0.0
  0
LINE
  5
267
330
1E
100
AcDbEntity
  8
0
100
AcDbLine
 10
184.6776399999999
 20
677.6584999999999
 30
0.0
 11
192.6384999999999
 21
671.0644999999999
 31
0.0
  0
LINE
  5
268
330
1E
100
AcDbEntity
  8
0
100
AcDbLine
 10
189.252188792583
 20
673.869389936729
 30
0.0
 11
190.8025
 21
671.4695
 31
0.0
  0
LINE
  5
269
330
1E
100
AcDbEntity
  8
0
100
AcDbLine
 10
181.99305
 20
700.1045
 30
0.0
 11
183.6384999999999
 21
701.0544999999999
 31
0.0
  0
LINE
  5
26A
330
1E
100
AcDbEntity
  8
0
100
AcDbLine
 10
183.6384999999999
 20
701.0544999999999
 30
0.0
 11
186.75619
 21
702.8545
 31
0.0
  0
LINE
  5
26B
330
1E
100
AcDbEntity
  8
0
100
AcDbLine
 10
181.8646799999999
 20
700.9505
 30
0.0
 11
184.4627499999999
 21
702.4505
 31
0.0
  0
LINE
  5
26C
330
1E
100
AcDbEntity
  8
0
100
AcDbLine
 10
186.9743018650549
 20
702.980425933549
 30
0.0
 11
188.83465
 21
704.0544999999999
 31
0.0
  0
LINE
  5
26D
330
1E
100
AcDbEntity
  8
0
100
AcDbLine
 10
186.9743018650859
 20
702.980425933567
 30
0.0
 11
188.83465
 21
704.0544999999999
 31
0.0
  0
LINE
  5
26E
330
1E
100
AcDbEntity
  8
0
100
AcDbLine
 10
186.75619
 20
702.8545
 30
0.0
 11
189.7007
 21
704.5544999999999
 31
0.0
  0
LINE
  5
26F
330
1E
100
AcDbEntity
  8
0
100
AcDbLine
 10
184.4627499999999
 20
702.4505
 30
0.0
 11
187.06086
 21
703.9505
 31
0.0
  0
LINE
  5
270
330
1E
100
AcDbEntity
  8
0
100
AcDbLine
 10
189.3990999999999
 20
705.3005
 30
0.0
 11
191.4775999999999
 21
706.5005
 31
0.0
  0
LINE
  5
271
330
1E
100
AcDbEntity
  8
0
100
AcDbLine
 10
187.06086
 20
703.9505
 30
0.0
 11
189.3990999999999
 21
705.3005
 31
0.0
  0
LINE
  5
272
330
1E
100
AcDbEntity
  8
0
100
AcDbLine
 10
192.6384999999999
 20
671.0644999999999
 30
0.0
 11
203.0384999999999
 21
664.5645
 31
0.0
  0
LINE
  5
275
330
1E
100
AcDbEntity
  8
0
100
AcDbLine
 10
192.334789721758
 20
671.316063973582
 30
0.0
 11
201.4860999999999
 21
649.9765
 31
0.0
  0
LINE
  5
276
330
1E
100
AcDbEntity
  8
0
100
AcDbLine
 10
190.8025
 20
671.4695
 30
0.0
 11
191.1488999999999
 21
671.6694999999999
 31
0.0
  0
LINE
  5
277
330
1E
100
AcDbEntity
  8
0
100
AcDbLine
 10
189.7007
 20
704.5544999999999
 30
0.0
 11
192.2122
 21
706.0045
 31
0.0
  0
LINE
  5
278
330
1E
100
AcDbEntity
  8
0
100
AcDbLine
 10
192.2122
 20
706.0045
 30
0.0
 11
194.1174
 21
707.1045
 31
0.0
  0
LINE
  5
279
330
1E
100
AcDbEntity
  8
0
100
AcDbLine
 10
192.6384999999999
 20
705.0644999999999
 30
0.0
 11
203.0384999999999
 21
711.5644999999999
 31
0.0
  0
LINE
  5
27A
330
1E
100
AcDbEntity
  8
0
100
AcDbLine
 10
191.596282843383
 20
671.9277710449289
 30
0.0
 11
192.334789721758
 21
671.316063973582
 31
0.0
  0
LINE
  5
27B
330
1E
100
AcDbEntity
  8
0
100
AcDbLine
 10
191.1488999999999
 20
671.6694999999999
 30
0.0
 11
191.596282843383
 21
671.9277710449289
 31
0.0
  0
LINE
  5
27C
330
1E
100
AcDbEntity
  8
0
100
AcDbLine
 10
193.123
 20
707.4505
 30
0.0
 11
194.0756999999999
 21
708.0004999999999
 31
0.0
  0
LINE
  5
27D
330
1E
100
AcDbEntity
  8
0
100
AcDbLine
 10
191.4775999999999
 20
706.5005
 30
0.0
 11
193.123
 21
707.4505
 31
0.0
  0
LINE
  5
27E
330
1E
100
AcDbEntity
  8
0
100
AcDbLine
 10
209.3871
 20
627.1805
 30
0.0
 11
215.5870999999999
 21
602.7835
 31
0.0
  0
LINE
  5
27F
330
1E
100
AcDbEntity
  8
0
100
AcDbLine
 10
224.8861
 20
525.2785
 30
0.0
 11
225.2880999999999
 21
3.37350000000002
 31
0.0
  0
LINE
  5
280
330
1E
100
AcDbEntity
  8
0
100
AcDbLine
 10
224.8861
 20
525.2785
 30
0.0
 11
225.2880999999999
 21
3.373499999999999
 31
0.0
  0
LINE
  5
281
330
1E
100
AcDbEntity
  8
0
100
AcDbLine
 10
234.2041
 20
-0.0644999999999518
 30
0.0
 11
237.1100999999999
 21
0.444500000000023
 31
0.0
  0
LINE
  5
282
330
1E
100
AcDbEntity
  8
0
100
AcDbLine
 10
239.5021
 20
1.395500000000039
 30
0.0
 11
240.9310999999999
 21
2.768500000000029
 31
0.0
  0
LINE
  5
283
330
1E
100
AcDbEntity
  8
0
100
AcDbLine
 10
237.1100999999999
 20
0.444500000000023
 30
0.0
 11
239.5021
 21
1.395500000000039
 31
0.0
  0
LINE
  5
284
330
1E
100
AcDbEntity
  8
0
100
AcDbLine
 10
231.0611
 20
0.0645000000000291
 30
0.0
 11
234.2041
 21
-0.0644999999999518
 31
0.0
  0
LINE
  5
285
330
1E
100
AcDbEntity
  8
0
100
AcDbLine
 10
228.2621
 20
0.7675000000000301
 30
0.0
 11
231.0611
 21
0.0645000000000291
 31
0.0
  0
LINE
  5
286
330
1E
100
AcDbEntity
  8
0
100
AcDbLine
 10
240.1641
 20
5.7385
 30
0.0
 11
241.1941
 21
4.31050000000004
 31
0.0
  0
LINE
  5
287
330
1E
100
AcDbEntity
  8
0
100
AcDbLine
 10
238.2281
 20
6.914500000000018
 30
0.0
 11
240.1641
 21
5.7385
 31
0.0
  0
LINE
  5
288
330
1E
100
AcDbEntity
  8
0
100
AcDbLine
 10
235.4341
 20
7.618500000000018
 30
0.0
 11
238.2281
 21
6.914500000000018
 31
0.0
  0
LINE
  5
289
330
1E
100
AcDbEntity
  8
0
100
AcDbLine
 10
232.2910999999999
 20
7.74950000000005
 30
0.0
 11
235.4341
 21
7.618500000000018
 31
0.0
  0
LINE
  5
28A
330
1E
100
AcDbEntity
  8
0
100
AcDbLine
 10
229.3811
 20
7.2445
 30
0.0
 11
232.2910999999999
 21
7.74950000000005
 31
0.0
  0
LINE
  5
28B
330
1E
100
AcDbEntity
  8
0
100
AcDbLine
 10
226.9861
 20
6.29150000000007
 30
0.0
 11
229.3811
 21
7.2445
 31
0.0
  0
LINE
  5
28C
330
1E
100
AcDbEntity
  8
0
100
AcDbLine
 10
225.5530999999999
 20
4.91850000000005
 30
0.0
 11
226.9861
 21
6.29150000000007
 31
0.0
  0
LINE
  5
28D
330
1E
100
AcDbEntity
  8
0
100
AcDbLine
 10
240.8860999999999
 20
525.2825
 30
0.0
 11
241.1941
 21
4.310500000000089
 31
0.0
  0
LINE
  5
28E
330
1E
100
AcDbEntity
  8
0
100
AcDbLine
 10
240.8860999999999
 20
525.2825
 30
0.0
 11
241.1941
 21
4.31050000000004
 31
0.0
  0
LINE
  5
28F
330
1E
100
AcDbEntity
  8
0
100
AcDbLine
 10
286.1385
 20
203.0645
 30
0.0
 11
293.1385
 21
204.0645
 31
0.0
  0
LINE
  5
290
330
1E
100
AcDbEntity
  8
0
100
AcDbLine
 10
293.1385
 20
204.0645
 30
0.0
 11
298.1385
 21
206.0645
 31
0.0
  0
LINE
  5
291
330
1E
100
AcDbEntity
  8
0
100
AcDbLine
 10
274.5385
 20
206.0645
 30
0.0
 11
275.7384999999999
 21
206.0645
 31
0.0
  0
LINE
  5
292
330
1E
100
AcDbEntity
  8
0
100
AcDbLine
 10
275.7384999999999
 20
206.0645
 30
0.0
 11
277.6385
 21
206.0645
 31
0.0
  0
LINE
  5
293
330
1E
100
AcDbEntity
  8
0
100
AcDbLine
 10
277.6385
 20
206.0645
 30
0.0
 11
280.1385
 21
206.0645
 31
0.0
  0
LINE
  5
294
330
1E
100
AcDbEntity
  8
0
100
AcDbLine
 10
280.1385
 20
206.0645
 30
0.0
 11
283.0385
 21
206.0645
 31
0.0
  0
LINE
  5
295
330
1E
100
AcDbEntity
  8
0
100
AcDbLine
 10
283.0385
 20
206.0645
 30
0.0
 11
286.1385
 21
206.0645
 31
0.0
  0
LINE
  5
296
330
1E
100
AcDbEntity
  8
0
100
AcDbLine
 10
289.2384999999999
 20
206.0645
 30
0.0
 11
292.1385
 21
206.0645
 31
0.0
  0
LINE
  5
297
330
1E
100
AcDbEntity
  8
0
100
AcDbLine
 10
274.5385
 20
252.0645
 30
0.0
 11
275.7384999999999
 21
252.0645
 31
0.0
  0
LINE
  5
298
330
1E
100
AcDbEntity
  8
0
100
AcDbLine
 10
275.7384999999999
 20
252.0645
 30
0.0
 11
277.6385
 21
252.0645
 31
0.0
  0
LINE
  5
299
330
1E
100
AcDbEntity
  8
0
100
AcDbLine
 10
277.6385
 20
252.0645
 30
0.0
 11
280.1385
 21
252.0645
 31
0.0
  0
LINE
  5
29A
330
1E
100
AcDbEntity
  8
0
100
AcDbLine
 10
280.1385
 20
252.0645
 30
0.0
 11
283.0385
 21
252.0645
 31
0.0
  0
LINE
  5
29B
330
1E
100
AcDbEntity
  8
0
100
AcDbLine
 10
283.0385
 20
252.0645
 30
0.0
 11
286.1385
 21
252.0645
 31
0.0
  0
LINE
  5
29C
330
1E
100
AcDbEntity
  8
0
100
AcDbLine
 10
286.1385
 20
206.0645
 30
0.0
 11
289.2384999999999
 21
206.0645
 31
0.0
  0
LINE
  5
29D
330
1E
100
AcDbEntity
  8
0
100
AcDbLine
 10
297.7384999999999
 20
206.0645
 30
0.0
 11
298.1385
 21
206.0645
 31
0.0
  0
LINE
  5
29E
330
1E
100
AcDbEntity
  8
0
100
AcDbLine
 10
298.1385
 20
206.0645
 30
0.0
 11
298.1385
 21
228.0645
 31
0.0
  0
LINE
  5
29F
330
1E
100
AcDbEntity
  8
0
100
AcDbLine
 10
296.5384999999999
 20
206.0645
 30
0.0
 11
297.7384999999999
 21
206.0645
 31
0.0
  0
LINE
  5
2A0
330
1E
100
AcDbEntity
  8
0
100
AcDbLine
 10
293.9384999999999
 20
252.0645
 30
0.0
 11
319.1385
 21
252.0645
 31
0.0
  0
LINE
  5
2A1
330
1E
100
AcDbEntity
  8
0
100
AcDbLine
 10
293.9384999999999
 20
252.0645
 30
0.0
 11
294.9384999999999
 21
253.0645
 31
0.0
  0
LINE
  5
2A2
330
1E
100
AcDbEntity
  8
0
100
AcDbLine
 10
294.6385
 20
206.0645
 30
0.0
 11
296.5384999999999
 21
206.0645
 31
0.0
  0
LINE
  5
2A3
330
1E
100
AcDbEntity
  8
0
100
AcDbLine
 10
292.1385
 20
206.0645
 30
0.0
 11
294.6385
 21
206.0645
 31
0.0
  0
LINE
  5
2A4
330
1E
100
AcDbEntity
  8
0
100
AcDbLine
 10
292.1385
 20
252.0645
 30
0.0
 11
293.9384999999999
 21
252.0645
 31
0.0
  0
LINE
  5
2A5
330
1E
100
AcDbEntity
  8
0
100
AcDbLine
 10
289.2384999999999
 20
252.0645
 30
0.0
 11
292.1385
 21
252.0645
 31
0.0
  0
LINE
  5
2A6
330
1E
100
AcDbEntity
  8
0
100
AcDbLine
 10
286.1385
 20
252.0645
 30
0.0
 11
289.2384999999999
 21
252.0645
 31
0.0
  0
LINE
  5
2A7
330
1E
100
AcDbEntity
  8
0
100
AcDbLine
 10
319.1385
 20
252.0645
 30
0.0
 11
319.1385
 21
253.0645
 31
0.0
  0
LINE
  5
2A8
330
1E
100
AcDbEntity
  8
0
100
AcDbLine
 10
319.1385
 20
237.0645
 30
0.0
 11
319.1385
 21
252.0645
 31
0.0
  0
LINE
  5
2A9
330
1E
100
AcDbEntity
  8
0
100
AcDbLine
 10
319.1385
 20
234.7644999999999
 30
0.0
 11
319.1385
 21
237.0645
 31
0.0
  0
LINE
  5
2AA
330
1E
100
AcDbEntity
  8
0
100
AcDbLine
 10
319.1385
 20
232.5645
 30
0.0
 11
319.1385
 21
234.7644999999999
 31
0.0
  0
LINE
  5
2AB
330
1E
100
AcDbEntity
  8
0
100
AcDbLine
 10
319.1385
 20
230.6645
 30
0.0
 11
319.1385
 21
232.5645
 31
0.0
  0
LINE
  5
2AC
330
1E
100
AcDbEntity
  8
0
100
AcDbLine
 10
319.1385
 20
229.2644999999999
 30
0.0
 11
319.1385
 21
230.6645
 31
0.0
  0
LINE
  5
2AD
330
1E
100
AcDbEntity
  8
0
100
AcDbLine
 10
319.1385
 20
228.3644999999999
 30
0.0
 11
319.1385
 21
229.2644999999999
 31
0.0
  0
LINE
  5
2AE
330
1E
100
AcDbEntity
  8
0
100
AcDbLine
 10
319.1385
 20
228.0645
 30
0.0
 11
319.1385
 21
228.3644999999999
 31
0.0
  0
LINE
  5
2AF
330
1E
100
AcDbEntity
  8
0
100
AcDbLine
 10
298.1385
 20
228.0645
 30
0.0
 11
298.1385
 21
206.0645
 31
0.0
  0
LINE
  5
2B0
330
1E
100
AcDbEntity
  8
0
100
AcDbLine
 10
298.1385
 20
228.0645
 30
0.0
 11
319.1385
 21
228.0645
 31
0.0
  0
LINE
  5
2B1
330
1E
100
AcDbEntity
  8
0
100
AcDbLine
 10
279.1385
 20
204.0645
 30
0.0
 11
286.1385
 21
203.0645
 31
0.0
  0
LINE
  5
2B2
330
1E
100
AcDbEntity
  8
0
100
AcDbLine
 10
274.1385
 20
206.0645
 30
0.0
 11
274.1385
 21
252.0645
 31
0.0
  0
LINE
  5
2B3
330
1E
100
AcDbEntity
  8
0
100
AcDbLine
 10
274.1385
 20
206.0645
 30
0.0
 11
279.1385
 21
204.0645
 31
0.0
  0
LINE
  5
2B4
330
1E
100
AcDbEntity
  8
0
100
AcDbLine
 10
274.1385
 20
206.0645
 30
0.0
 11
274.5385
 21
206.0645
 31
0.0
  0
LINE
  5
2B5
330
1E
100
AcDbEntity
  8
0
100
AcDbLine
 10
275.1385
 20
253.0645
 30
0.0
 11
275.5384999999999
 21
253.0645
 31
0.0
  0
LINE
  5
2B6
330
1E
100
AcDbEntity
  8
0
100
AcDbLine
 10
275.5384999999999
 20
253.0645
 30
0.0
 11
276.6385
 21
253.0645
 31
0.0
  0
LINE
  5
2B7
330
1E
100
AcDbEntity
  8
0
100
AcDbLine
 10
276.6385
 20
253.0645
 30
0.0
 11
278.3384999999999
 21
253.0645
 31
0.0
  0
LINE
  5
2B8
330
1E
100
AcDbEntity
  8
0
100
AcDbLine
 10
278.3384999999999
 20
253.0645
 30
0.0
 11
280.6385
 21
253.0645
 31
0.0
  0
LINE
  5
2B9
330
1E
100
AcDbEntity
  8
0
100
AcDbLine
 10
280.6385
 20
253.0645
 30
0.0
 11
283.3385
 21
253.0645
 31
0.0
  0
LINE
  5
2BA
330
1E
100
AcDbEntity
  8
0
100
AcDbLine
 10
274.5385
 20
254.0645
 30
0.0
 11
275.7384999999999
 21
254.0645
 31
0.0
  0
LINE
  5
2BB
330
1E
100
AcDbEntity
  8
0
100
AcDbLine
 10
275.7384999999999
 20
254.0645
 30
0.0
 11
277.6385
 21
254.0645
 31
0.0
  0
LINE
  5
2BC
330
1E
100
AcDbEntity
  8
0
100
AcDbLine
 10
277.6385
 20
254.0645
 30
0.0
 11
280.1385
 21
254.0645
 31
0.0
  0
LINE
  5
2BD
330
1E
100
AcDbEntity
  8
0
100
AcDbLine
 10
280.1385
 20
254.0645
 30
0.0
 11
283.0385
 21
254.0645
 31
0.0
  0
LINE
  5
2BE
330
1E
100
AcDbEntity
  8
0
100
AcDbLine
 10
283.0385
 20
254.0645
 30
0.0
 11
286.1385
 21
254.0645
 31
0.0
  0
LINE
  5
2BF
330
1E
100
AcDbEntity
  8
0
100
AcDbLine
 10
286.1385
 20
254.0645
 30
0.0
 11
289.2384999999999
 21
254.0645
 31
0.0
  0
LINE
  5
2C0
330
1E
100
AcDbEntity
  8
0
100
AcDbLine
 10
274.1385
 20
254.0645
 30
0.0
 11
275.1385
 21
253.0645
 31
0.0
  0
LINE
  5
2C1
330
1E
100
AcDbEntity
  8
0
100
AcDbLine
 10
274.1385
 20
254.0645
 30
0.0
 11
274.1385
 21
653.0644999999999
 31
0.0
  0
LINE
  5
2C2
330
1E
100
AcDbEntity
  8
0
100
AcDbLine
 10
274.1385
 20
254.0645
 30
0.0
 11
274.5385
 21
254.0645
 31
0.0
  0
LINE
  5
2C3
330
1E
100
AcDbEntity
  8
0
100
AcDbLine
 10
283.3385
 20
253.0645
 30
0.0
 11
286.1385
 21
253.0645
 31
0.0
  0
LINE
  5
2C4
330
1E
100
AcDbEntity
  8
0
100
AcDbLine
 10
294.9384999999999
 20
253.0645
 30
0.0
 11
319.1385
 21
253.0645
 31
0.0
  0
LINE
  5
2C5
330
1E
100
AcDbEntity
  8
0
100
AcDbLine
 10
297.1385
 20
253.0645
 30
0.0
 11
298.1385
 21
254.0645
 31
0.0
  0
LINE
  5
2C6
330
1E
100
AcDbEntity
  8
0
100
AcDbLine
 10
293.9384999999999
 20
253.0645
 30
0.0
 11
294.9384999999999
 21
253.0645
 31
0.0
  0
LINE
  5
2C7
330
1E
100
AcDbEntity
  8
0
100
AcDbLine
 10
291.6385
 20
253.0645
 30
0.0
 11
293.9384999999999
 21
253.0645
 31
0.0
  0
LINE
  5
2C8
330
1E
100
AcDbEntity
  8
0
100
AcDbLine
 10
297.7384999999999
 20
254.0645
 30
0.0
 11
298.1385
 21
254.0645
 31
0.0
  0
LINE
  5
2C9
330
1E
100
AcDbEntity
  8
0
100
AcDbLine
 10
296.5384999999999
 20
254.0645
 30
0.0
 11
297.7384999999999
 21
254.0645
 31
0.0
  0
LINE
  5
2CA
330
1E
100
AcDbEntity
  8
0
100
AcDbLine
 10
294.6385
 20
254.0645
 30
0.0
 11
296.5384999999999
 21
254.0645
 31
0.0
  0
LINE
  5
2CB
330
1E
100
AcDbEntity
  8
0
100
AcDbLine
 10
292.1385
 20
254.0645
 30
0.0
 11
294.6385
 21
254.0645
 31
0.0
  0
LINE
  5
2CC
330
1E
100
AcDbEntity
  8
0
100
AcDbLine
 10
289.2384999999999
 20
254.0645
 30
0.0
 11
292.1385
 21
254.0645
 31
0.0
  0
LINE
  5
2CD
330
1E
100
AcDbEntity
  8
0
100
AcDbLine
 10
298.1385
 20
254.0645
 30
0.0
 11
298.1385
 21
653.0644999999999
 31
0.0
  0
LINE
  5
2CE
330
1E
100
AcDbEntity
  8
0
100
AcDbLine
 10
288.9384999999999
 20
253.0645
 30
0.0
 11
291.6385
 21
253.0645
 31
0.0
  0
LINE
  5
2CF
330
1E
100
AcDbEntity
  8
0
100
AcDbLine
 10
286.1385
 20
253.0645
 30
0.0
 11
288.9384999999999
 21
253.0645
 31
0.0
  0
LINE
  5
2D0
330
1E
100
AcDbEntity
  8
0
100
AcDbLine
 10
274.1385
 20
252.0645
 30
0.0
 11
275.1385
 21
253.0645
 31
0.0
  0
LINE
  5
2D1
330
1E
100
AcDbEntity
  8
0
100
AcDbLine
 10
274.1385
 20
252.0645
 30
0.0
 11
274.5385
 21
252.0645
 31
0.0
  0
LINE
  5
2D2
330
1E
100
AcDbEntity
  8
0
100
AcDbLine
 10
274.1385
 20
252.0645
 30
0.0
 11
274.1385
 21
206.0645
 31
0.0
  0
LINE
  5
2D3
330
1E
100
AcDbEntity
  8
0
100
AcDbLine
 10
240.9310999999999
 20
2.768500000000029
 30
0.0
 11
241.1941
 21
4.31050000000004
 31
0.0
  0
LINE
  5
2D4
330
1E
100
AcDbEntity
  8
0
100
AcDbLine
 10
226.3221
 20
1.943500000000019
 30
0.0
 11
228.2621
 21
0.7675000000000301
 31
0.0
  0
LINE
  5
2D5
330
1E
100
AcDbEntity
  8
0
100
AcDbLine
 10
225.2880999999999
 20
3.37350000000002
 30
0.0
 11
226.3221
 21
1.943500000000019
 31
0.0
  0
LINE
  5
2D6
330
1E
100
AcDbEntity
  8
0
100
AcDbLine
 10
225.2880999999999
 20
3.37350000000002
 30
0.0
 11
225.5530999999999
 21
4.91850000000005
 31
0.0
  0
LINE
  5
2D7
330
1E
100
AcDbEntity
  8
0
100
AcDbLine
 10
238.8860999999999
 20
559.6834999999999
 30
0.0
 11
240.8860999999999
 21
525.2825
 31
0.0
  0
LINE
  5
2D8
330
1E
100
AcDbEntity
  8
0
100
AcDbLine
 10
223.0851
 20
556.8795
 30
0.0
 11
224.8861
 21
525.2785
 31
0.0
  0
LINE
  5
2D9
330
1E
100
AcDbEntity
  8
0
100
AcDbLine
 10
235.1860999999999
 20
584.0815
 30
0.0
 11
238.8860999999999
 21
559.6834999999999
 31
0.0
  0
LINE
  5
2DA
330
1E
100
AcDbEntity
  8
0
100
AcDbLine
 10
220.1861
 20
578.5765
 30
0.0
 11
223.0851
 21
556.8795
 31
0.0
  0
LINE
  5
2DB
330
1E
100
AcDbEntity
  8
0
100
AcDbLine
 10
230.0860999999999
 20
609.4785
 30
0.0
 11
235.1860999999999
 21
584.0815
 31
0.0
  0
LINE
  5
2DC
330
1E
100
AcDbEntity
  8
0
100
AcDbLine
 10
215.5870999999999
 20
602.7835
 30
0.0
 11
220.1861
 21
578.5765
 31
0.0
  0
LINE
  5
2DD
330
1E
100
AcDbEntity
  8
0
100
AcDbLine
 10
223.2861
 20
635.1865
 30
0.0
 11
230.0860999999999
 21
609.4785
 31
0.0
  0
LINE
  5
2DE
330
1E
100
AcDbEntity
  8
0
100
AcDbLine
 10
203.0384999999999
 20
664.5645
 30
0.0
 11
215.5384999999999
 21
660.2644999999999
 31
0.0
  0
LINE
  5
2DF
330
1E
100
AcDbEntity
  8
0
100
AcDbLine
 10
286.1385
 20
653.0644999999999
 30
0.0
 11
301.1385
 21
653.0644999999999
 31
0.0
  0
LINE
  5
2E0
330
1E
100
AcDbEntity
  8
0
100
AcDbLine
 10
301.1385
 20
653.0644999999999
 30
0.0
 11
303.1385
 21
653.0644999999999
 31
0.0
  0
LINE
  5
2E1
330
1E
100
AcDbEntity
  8
0
100
AcDbLine
 10
301.1385
 20
653.0644999999999
 30
0.0
 11
301.1385
 21
688.0644999999999
 31
0.0
  0
LINE
  5
2E2
330
1E
100
AcDbEntity
  8
0
100
AcDbLine
 10
298.1385
 20
653.0644999999999
 30
0.0
 11
301.1385
 21
653.0644999999999
 31
0.0
  0
LINE
  5
2E3
330
1E
100
AcDbEntity
  8
0
100
AcDbLine
 10
303.1385
 20
653.0644999999999
 30
0.0
 11
303.1385
 21
688.0644999999999
 31
0.0
  0
LINE
  5
2E4
330
1E
100
AcDbEntity
  8
0
100
AcDbLine
 10
215.5384999999999
 20
660.2644999999999
 30
0.0
 11
229.5385
 21
656.9645
 31
0.0
  0
LINE
  5
2E5
330
1E
100
AcDbEntity
  8
0
100
AcDbLine
 10
229.5385
 20
656.9645
 30
0.0
 11
240.7385
 21
655.0644999999999
 31
0.0
  0
LINE
  5
2E6
330
1E
100
AcDbEntity
  8
0
100
AcDbLine
 10
240.7385
 20
655.0644999999999
 30
0.0
 11
253.5385
 21
653.9645
 31
0.0
  0
LINE
  5
2E7
330
1E
100
AcDbEntity
  8
0
100
AcDbLine
 10
241.3385
 20
660.7644999999999
 30
0.0
 11
253.5385
 21
658.4645
 31
0.0
  0
LINE
  5
2E8
330
1E
100
AcDbEntity
  8
0
100
AcDbLine
 10
253.5385
 20
653.9645
 30
0.0
 11
267.1385
 21
653.0644999999999
 31
0.0
  0
LINE
  5
2E9
330
1E
100
AcDbEntity
  8
0
100
AcDbLine
 10
267.1385
 20
657.3644999999999
 30
0.0
 11
271.4384999999999
 21
657.3644999999999
 31
0.0
  0
LINE
  5
2EA
330
1E
100
AcDbEntity
  8
0
100
AcDbLine
 10
277.6385
 20
655.5644999999999
 30
0.0
 11
281.7384999999999
 21
654.3645
 31
0.0
  0
LINE
  5
2EB
330
1E
100
AcDbEntity
  8
0
100
AcDbLine
 10
274.1385
 20
656.5644999999999
 30
0.0
 11
277.6385
 21
655.5644999999999
 31
0.0
  0
LINE
  5
2EC
330
1E
100
AcDbEntity
  8
0
100
AcDbLine
 10
271.4384999999999
 20
657.3644999999999
 30
0.0
 11
274.1385
 21
656.5644999999999
 31
0.0
  0
LINE
  5
2ED
330
1E
100
AcDbEntity
  8
0
100
AcDbLine
 10
269.1385
 20
658.0644999999999
 30
0.0
 11
269.7385
 21
657.8645
 31
0.0
  0
LINE
  5
2EE
330
1E
100
AcDbEntity
  8
0
100
AcDbLine
 10
269.1385
 20
658.0644999999999
 30
0.0
 11
269.1385
 21
688.0644999999999
 31
0.0
  0
LINE
  5
2EF
330
1E
100
AcDbEntity
  8
0
100
AcDbLine
 10
269.7385
 20
657.8645
 30
0.0
 11
271.4384999999999
 21
657.3644999999999
 31
0.0
  0
LINE
  5
2F0
330
1E
100
AcDbEntity
  8
0
100
AcDbLine
 10
253.5385
 20
658.4645
 30
0.0
 11
267.1385
 21
657.3644999999999
 31
0.0
  0
LINE
  5
2F1
330
1E
100
AcDbEntity
  8
0
100
AcDbLine
 10
267.1385
 20
653.0644999999999
 30
0.0
 11
274.1385
 21
653.0644999999999
 31
0.0
  0
LINE
  5
2F2
330
1E
100
AcDbEntity
  8
0
100
AcDbLine
 10
267.1385
 20
653.0644999999999
 30
0.0
 11
286.1385
 21
653.0644999999999
 31
0.0
  0
LINE
  5
2F3
330
1E
100
AcDbEntity
  8
0
100
AcDbLine
 10
214.8871
 20
658.6725
 30
0.0
 11
223.2861
 21
635.1865
 31
0.0
  0
LINE
  5
2F4
330
1E
100
AcDbEntity
  8
0
100
AcDbLine
 10
222.3384999999999
 20
668.8645
 30
0.0
 11
232.0384999999999
 21
663.8645
 31
0.0
  0
LINE
  5
2F5
330
1E
100
AcDbEntity
  8
0
100
AcDbLine
 10
232.0384999999999
 20
663.8645
 30
0.0
 11
241.3385
 21
660.7644999999999
 31
0.0
  0
LINE
  5
2F6
330
1E
100
AcDbEntity
  8
0
100
AcDbLine
 10
213.8919979828689
 20
660.8308966938929
 30
0.0
 11
214.8871
 21
658.6725
 31
0.0
  0
LINE
  5
2F7
330
1E
100
AcDbEntity
  8
0
100
AcDbLine
 10
201.4860999999999
 20
649.9765
 30
0.0
 11
209.3871
 21
627.1805
 31
0.0
  0
LINE
  5
2F8
330
1E
100
AcDbEntity
  8
0
100
AcDbLine
 10
210.621216948588
 20
681.992715740353
 30
0.0
 11
210.7629
 21
682.0744999999999
 31
0.0
  0
LINE
  5
2F9
330
1E
100
AcDbEntity
  8
0
100
AcDbLine
 10
210.4106381390219
 20
682.684617543215
 30
0.0
 11
210.7629
 21
682.0744999999999
 31
0.0
  0
LINE
  5
2FA
330
1E
100
AcDbEntity
  8
0
100
AcDbLine
 10
209.8384999999999
 20
684.5644999999999
 30
0.0
 11
211.2384999999999
 21
679.9645
 31
0.0
  0
LINE
  5
2FB
330
1E
100
AcDbEntity
  8
0
100
AcDbLine
 10
211.2384999999999
 20
679.9645
 30
0.0
 11
215.9384999999999
 21
673.9645
 31
0.0
  0
LINE
  5
2FC
330
1E
100
AcDbEntity
  8
0
100
AcDbLine
 10
209.1384999999999
 20
688.0644999999999
 30
0.0
 11
211.3385
 21
691.2645
 31
0.0
  0
LINE
  5
2FD
330
1E
100
AcDbEntity
  8
0
100
AcDbLine
 10
209.1384999999999
 20
688.0644999999999
 30
0.0
 11
209.8384999999999
 21
684.5644999999999
 31
0.0
  0
LINE
  5
2FE
330
1E
100
AcDbEntity
  8
0
100
AcDbLine
 10
215.9384999999999
 20
673.9645
 30
0.0
 11
222.3384999999999
 21
668.8645
 31
0.0
  0
LINE
  5
2FF
330
1E
100
AcDbEntity
  8
0
100
AcDbLine
 10
211.3385
 20
691.2645
 30
0.0
 11
213.0384999999999
 21
695.4645
 31
0.0
  0
LINE
  5
300
330
1E
100
AcDbEntity
  8
0
100
AcDbLine
 10
213.0384999999999
 20
695.4645
 30
0.0
 11
217.3385
 21
701.1644999999999
 31
0.0
  0
LINE
  5
301
330
1E
100
AcDbEntity
  8
0
100
AcDbLine
 10
217.3385
 20
701.1644999999999
 30
0.0
 11
223.3385
 21
706.0645
 31
0.0
  0
LINE
  5
302
330
1E
100
AcDbEntity
  8
0
100
AcDbLine
 10
194.1174
 20
707.1045
 30
0.0
 11
195.3298
 21
707.8044999999999
 31
0.0
  0
LINE
  5
303
330
1E
100
AcDbEntity
  8
0
100
AcDbLine
 10
194.785995623693
 20
707.4905251868901
 30
0.0
 11
195.3298
 21
707.8044999999999
 31
0.0
  0
LINE
  5
304
330
1E
100
AcDbEntity
  8
0
100
AcDbLine
 10
196.2029721255829
 20
707.29229507849
 30
0.0
 11
203.0384999999999
 21
711.5644999999999
 31
0.0
  0
LINE
  5
305
330
1E
100
AcDbEntity
  8
0
100
AcDbLine
 10
223.3385
 20
706.0645
 30
0.0
 11
232.4384999999999
 21
711.1645
 31
0.0
  0
LINE
  5
306
330
1E
100
AcDbEntity
  8
0
100
AcDbLine
 10
301.1385
 20
688.0644999999999
 30
0.0
 11
301.1385
 21
653.0644999999999
 31
0.0
  0
LINE
  5
307
330
1E
100
AcDbEntity
  8
0
100
AcDbLine
 10
301.1385
 20
688.0644999999999
 30
0.0
 11
301.1385
 21
723.0644999999999
 31
0.0
  0
LINE
  5
308
330
1E
100
AcDbEntity
  8
0
100
AcDbLine
 10
303.1385
 20
688.0644999999999
 30
0.0
 11
303.1385
 21
653.0644999999999
 31
0.0
  0
LINE
  5
309
330
1E
100
AcDbEntity
  8
0
100
AcDbLine
 10
303.1385
 20
688.0644999999999
 30
0.0
 11
303.1385
 21
723.0644999999999
 31
0.0
  0
LINE
  5
30A
330
1E
100
AcDbEntity
  8
0
100
AcDbLine
 10
269.1385
 20
688.0644999999999
 30
0.0
 11
269.1385
 21
718.0644999999999
 31
0.0
  0
LINE
  5
30B
330
1E
100
AcDbEntity
  8
0
100
AcDbLine
 10
269.1385
 20
688.0644999999999
 30
0.0
 11
269.1385
 21
658.0644999999999
 31
0.0
  0
LINE
  5
30C
330
1E
100
AcDbEntity
  8
0
100
AcDbLine
 10
194.0756999999999
 20
708.0004999999999
 30
0.0
 11
194.4220999999999
 21
708.2005
 31
0.0
  0
LINE
  5
30D
330
1E
100
AcDbEntity
  8
0
100
AcDbLine
 10
195.3298
 20
707.8044999999999
 30
0.0
 11
195.7629
 21
708.0544999999999
 31
0.0
  0
LINE
  5
30E
330
1E
100
AcDbEntity
  8
0
100
AcDbLine
 10
195.7629
 20
708.0544999999999
 30
0.0
 11
196.2029721255829
 21
707.29229507849
 31
0.0
  0
LINE
  5
30F
330
1E
100
AcDbEntity
  8
0
100
AcDbLine
 10
203.0384999999999
 20
711.5644999999999
 30
0.0
 11
215.5384999999999
 21
715.8644999999999
 31
0.0
  0
LINE
  5
310
330
1E
100
AcDbEntity
  8
0
100
AcDbLine
 10
232.4384999999999
 20
711.1645
 30
0.0
 11
241.3385
 21
714.5645
 31
0.0
  0
LINE
  5
311
330
1E
100
AcDbEntity
  8
0
100
AcDbLine
 10
194.4220999999999
 20
708.2005
 30
0.0
 11
194.785995623693
 21
707.4905251868901
 31
0.0
  0
LINE
  5
312
330
1E
100
AcDbEntity
  8
0
100
AcDbLine
 10
193.210183210084
 20
707.5008314427901
 30
0.0
 11
194.3026999999999
 21
710.3715
 31
0.0
  0
LINE
  5
313
330
1E
100
AcDbEntity
  8
0
100
AcDbLine
 10
193.210183210084
 20
707.5008314427901
 30
0.0
 11
194.0756999999999
 21
708.0004999999999
 31
0.0
  0
LINE
  5
314
330
1E
100
AcDbEntity
  8
0
100
AcDbLine
 10
169.91872
 20
699.7385
 30
0.0
 11
172.72672
 21
698.0014999999999
 31
0.0
  0
LINE
  5
315
330
1E
100
AcDbEntity
  8
0
100
AcDbLine
 10
215.5384999999999
 20
715.8644999999999
 30
0.0
 11
229.5385
 21
719.1645
 31
0.0
  0
LINE
  5
316
330
1E
100
AcDbEntity
  8
0
100
AcDbLine
 10
241.3385
 20
714.5645
 30
0.0
 11
253.5385
 21
716.9645
 31
0.0
  0
LINE
  5
317
330
1E
100
AcDbEntity
  8
0
100
AcDbLine
 10
229.5385
 20
719.1645
 30
0.0
 11
240.7385
 21
721.0644999999999
 31
0.0
  0
LINE
  5
318
330
1E
100
AcDbEntity
  8
0
100
AcDbLine
 10
240.7385
 20
721.0644999999999
 30
0.0
 11
253.5385
 21
722.1644999999999
 31
0.0
  0
LINE
  5
319
330
1E
100
AcDbEntity
  8
0
100
AcDbLine
 10
253.5385
 20
722.1644999999999
 30
0.0
 11
267.1385
 21
723.0644999999999
 31
0.0
  0
LINE
  5
31A
330
1E
100
AcDbEntity
  8
0
100
AcDbLine
 10
253.5385
 20
716.9645
 30
0.0
 11
267.1385
 21
718.0644999999999
 31
0.0
  0
LINE
  5
31B
330
1E
100
AcDbEntity
  8
0
100
AcDbLine
 10
277.6385
 20
720.5644999999999
 30
0.0
 11
281.7384999999999
 21
721.7645
 31
0.0
  0
LINE
  5
31C
330
1E
100
AcDbEntity
  8
0
100
AcDbLine
 10
274.1385
 20
719.5644999999999
 30
0.0
 11
277.6385
 21
720.5644999999999
 31
0.0
  0
LINE
  5
31D
330
1E
100
AcDbEntity
  8
0
100
AcDbLine
 10
271.4384999999999
 20
718.7644999999999
 30
0.0
 11
274.1385
 21
719.5644999999999
 31
0.0
  0
LINE
  5
31E
330
1E
100
AcDbEntity
  8
0
100
AcDbLine
 10
269.7385
 20
718.2644999999999
 30
0.0
 11
271.4384999999999
 21
718.7644999999999
 31
0.0
  0
LINE
  5
31F
330
1E
100
AcDbEntity
  8
0
100
AcDbLine
 10
269.1385
 20
718.0644999999999
 30
0.0
 11
269.7385
 21
718.2644999999999
 31
0.0
  0
LINE
  5
320
330
1E
100
AcDbEntity
  8
0
100
AcDbLine
 10
269.1385
 20
718.0644999999999
 30
0.0
 11
269.1385
 21
688.0644999999999
 31
0.0
  0
LINE
  5
321
330
1E
100
AcDbEntity
  8
0
100
AcDbLine
 10
267.1385
 20
718.0644999999999
 30
0.0
 11
269.1385
 21
718.0644999999999
 31
0.0
  0
LINE
  5
322
330
1E
100
AcDbEntity
  8
0
100
AcDbLine
 10
194.1437
 20
713.6965
 30
0.0
 11
194.3026999999999
 21
710.3715
 31
0.0
  0
LINE
  5
323
330
1E
100
AcDbEntity
  8
0
100
AcDbLine
 10
164.0387
 20
707.7525
 30
0.0
 11
169.91872
 21
699.7385
 31
0.0
  0
LINE
  5
324
330
1E
100
AcDbEntity
  8
0
100
AcDbLine
 10
274.1385
 20
723.0644999999999
 30
0.0
 11
274.1385
 21
877.0645
 31
0.0
  0
LINE
  5
325
330
1E
100
AcDbEntity
  8
0
100
AcDbLine
 10
298.1385
 20
723.0644999999999
 30
0.0
 11
298.1385
 21
877.0645
 31
0.0
  0
LINE
  5
326
330
1E
100
AcDbEntity
  8
0
100
AcDbLine
 10
303.1385
 20
723.0644999999999
 30
0.0
 11
303.1385
 21
688.0644999999999
 31
0.0
  0
LINE
  5
327
330
1E
100
AcDbEntity
  8
0
100
AcDbLine
 10
286.1385
 20
723.0644999999999
 30
0.0
 11
301.1385
 21
723.0644999999999
 31
0.0
  0
LINE
  5
328
330
1E
100
AcDbEntity
  8
0
100
AcDbLine
 10
301.1385
 20
723.0644999999999
 30
0.0
 11
303.1385
 21
723.0644999999999
 31
0.0
  0
LINE
  5
329
330
1E
100
AcDbEntity
  8
0
100
AcDbLine
 10
301.1385
 20
723.0644999999999
 30
0.0
 11
301.1385
 21
688.0644999999999
 31
0.0
  0
LINE
  5
32A
330
1E
100
AcDbEntity
  8
0
100
AcDbLine
 10
267.1385
 20
723.0644999999999
 30
0.0
 11
286.1385
 21
723.0644999999999
 31
0.0
  0
LINE
  5
32B
330
1E
100
AcDbEntity
  8
0
100
AcDbLine
 10
189.9787
 20
722.6824999999999
 30
0.0
 11
194.1437
 21
713.6965
 31
0.0
  0
LINE
  5
32C
330
1E
100
AcDbEntity
  8
0
100
AcDbLine
 10
159.2697
 20
714.8935
 30
0.0
 11
164.0387
 21
707.7525
 31
0.0
  0
LINE
  5
32D
330
1E
100
AcDbEntity
  8
0
100
AcDbLine
 10
185.21072
 20
729.8235
 30
0.0
 11
189.9787
 21
722.6824999999999
 31
0.0
  0
LINE
  5
32E
330
1E
100
AcDbEntity
  8
0
100
AcDbLine
 10
153.3597
 20
724.6565
 30
0.0
 11
159.2697
 21
714.8935
 31
0.0
  0
LINE
  5
32F
330
1E
100
AcDbEntity
  8
0
100
AcDbLine
 10
178.466724
 20
739.1435
 30
0.0
 11
185.21072
 21
729.8235
 31
0.0
  0
LINE
  5
330
330
1E
100
AcDbEntity
  8
0
100
AcDbLine
 10
148.4987
 20
733.2365
 30
0.0
 11
153.3597
 21
724.6565
 31
0.0
  0
LINE
  5
331
330
1E
100
AcDbEntity
  8
0
100
AcDbLine
 10
172.2627199999999
 20
746.9974999999999
 30
0.0
 11
178.466724
 21
739.1435
 31
0.0
  0
LINE
  5
332
330
1E
100
AcDbEntity
  8
0
100
AcDbLine
 10
144.4497
 20
740.4234999999999
 30
0.0
 11
148.4987
 21
733.2365
 31
0.0
  0
LINE
  5
333
330
1E
100
AcDbEntity
  8
0
100
AcDbLine
 10
165.2657
 20
755.0795
 30
0.0
 11
172.2627199999999
 21
746.9974999999999
 31
0.0
  0
LINE
  5
334
330
1E
100
AcDbEntity
  8
0
100
AcDbLine
 10
141.3936999999999
 20
747.7305
 30
0.0
 11
144.4497
 21
740.4234999999999
 31
0.0
  0
LINE
  5
335
330
1E
100
AcDbEntity
  8
0
100
AcDbLine
 10
158.2386999999999
 20
761.9075
 30
0.0
 11
165.2657
 21
755.0795
 31
0.0
  0
LINE
  5
336
330
1E
100
AcDbEntity
  8
0
100
AcDbLine
 10
137.6647
 20
754.2714999999999
 30
0.0
 11
141.3936999999999
 21
747.7305
 31
0.0
  0
LINE
  5
337
330
1E
100
AcDbEntity
  8
0
100
AcDbLine
 10
151.8177
 20
768.3855
 30
0.0
 11
158.2386999999999
 21
761.9075
 31
0.0
  0
LINE
  5
338
330
1E
100
AcDbEntity
  8
0
100
AcDbLine
 10
131.2337
 20
761.3334999999999
 30
0.0
 11
137.6647
 21
754.2714999999999
 31
0.0
  0
LINE
  5
339
330
1E
100
AcDbEntity
  8
0
100
AcDbLine
 10
143.2316999999999
 20
776.1144999999999
 30
0.0
 11
151.8177
 21
768.3855
 31
0.0
  0
LINE
  5
33A
330
1E
100
AcDbEntity
  8
0
100
AcDbLine
 10
125.7997735999579
 20
765.6508461735049
 30
0.0
 11
131.2337
 21
761.3334999999999
 31
0.0
  0
LINE
  5
33B
330
1E
100
AcDbEntity
  8
0
100
AcDbLine
 10
274.5385
 20
877.0645
 30
0.0
 11
275.7384999999999
 21
877.0645
 31
0.0
  0
LINE
  5
33C
330
1E
100
AcDbEntity
  8
0
100
AcDbLine
 10
274.1385
 20
877.0645
 30
0.0
 11
275.1385
 21
878.0644999999999
 31
0.0
  0
LINE
  5
33D
330
1E
100
AcDbEntity
  8
0
100
AcDbLine
 10
274.1385
 20
877.0645
 30
0.0
 11
274.1385
 21
723.0644999999999
 31
0.0
  0
LINE
  5
33E
330
1E
100
AcDbEntity
  8
0
100
AcDbLine
 10
274.1385
 20
877.0645
 30
0.0
 11
274.5385
 21
877.0645
 31
0.0
  0
LINE
  5
33F
330
1E
100
AcDbEntity
  8
0
100
AcDbLine
 10
275.1385
 20
878.0644999999999
 30
0.0
 11
275.5384999999999
 21
878.0644999999999
 31
0.0
  0
LINE
  5
340
330
1E
100
AcDbEntity
  8
0
100
AcDbLine
 10
274.1385
 20
879.0644999999999
 30
0.0
 11
274.5385
 21
879.0644999999999
 31
0.0
  0
LINE
  5
341
330
1E
100
AcDbEntity
  8
0
100
AcDbLine
 10
274.1385
 20
879.0644999999999
 30
0.0
 11
275.1385
 21
878.0644999999999
 31
0.0
  0
LINE
  5
342
330
1E
100
AcDbEntity
  8
0
100
AcDbLine
 10
274.1385
 20
879.0644999999999
 30
0.0
 11
274.1385
 21
925.0645
 31
0.0
  0
LINE
  5
343
330
1E
100
AcDbEntity
  8
0
100
AcDbLine
 10
275.7384999999999
 20
877.0645
 30
0.0
 11
277.6385
 21
877.0645
 31
0.0
  0
LINE
  5
344
330
1E
100
AcDbEntity
  8
0
100
AcDbLine
 10
275.5384999999999
 20
878.0644999999999
 30
0.0
 11
276.6385
 21
878.0644999999999
 31
0.0
  0
LINE
  5
345
330
1E
100
AcDbEntity
  8
0
100
AcDbLine
 10
274.5385
 20
879.0644999999999
 30
0.0
 11
275.7384999999999
 21
879.0644999999999
 31
0.0
  0
LINE
  5
346
330
1E
100
AcDbEntity
  8
0
100
AcDbLine
 10
277.6385
 20
877.0645
 30
0.0
 11
280.1385
 21
877.0645
 31
0.0
  0
LINE
  5
347
330
1E
100
AcDbEntity
  8
0
100
AcDbLine
 10
276.6385
 20
878.0644999999999
 30
0.0
 11
278.3384999999999
 21
878.0644999999999
 31
0.0
  0
LINE
  5
348
330
1E
100
AcDbEntity
  8
0
100
AcDbLine
 10
275.7384999999999
 20
879.0644999999999
 30
0.0
 11
277.6385
 21
879.0644999999999
 31
0.0
  0
LINE
  5
349
330
1E
100
AcDbEntity
  8
0
100
AcDbLine
 10
280.1385
 20
877.0645
 30
0.0
 11
283.0385
 21
877.0645
 31
0.0
  0
LINE
  5
34A
330
1E
100
AcDbEntity
  8
0
100
AcDbLine
 10
278.3384999999999
 20
878.0644999999999
 30
0.0
 11
280.6385
 21
878.0644999999999
 31
0.0
  0
LINE
  5
34B
330
1E
100
AcDbEntity
  8
0
100
AcDbLine
 10
277.6385
 20
879.0644999999999
 30
0.0
 11
280.1385
 21
879.0644999999999
 31
0.0
  0
LINE
  5
34C
330
1E
100
AcDbEntity
  8
0
100
AcDbLine
 10
283.0385
 20
877.0645
 30
0.0
 11
286.1385
 21
877.0645
 31
0.0
  0
LINE
  5
34D
330
1E
100
AcDbEntity
  8
0
100
AcDbLine
 10
280.6385
 20
878.0644999999999
 30
0.0
 11
283.3385
 21
878.0644999999999
 31
0.0
  0
LINE
  5
34E
330
1E
100
AcDbEntity
  8
0
100
AcDbLine
 10
280.1385
 20
879.0644999999999
 30
0.0
 11
283.0385
 21
879.0644999999999
 31
0.0
  0
LINE
  5
34F
330
1E
100
AcDbEntity
  8
0
100
AcDbLine
 10
286.1385
 20
877.0645
 30
0.0
 11
289.2384999999999
 21
877.0645
 31
0.0
  0
LINE
  5
350
330
1E
100
AcDbEntity
  8
0
100
AcDbLine
 10
289.2384999999999
 20
877.0645
 30
0.0
 11
292.1385
 21
877.0645
 31
0.0
  0
LINE
  5
351
330
1E
100
AcDbEntity
  8
0
100
AcDbLine
 10
294.6385
 20
877.0645
 30
0.0
 11
296.5384999999999
 21
877.0645
 31
0.0
  0
LINE
  5
352
330
1E
100
AcDbEntity
  8
0
100
AcDbLine
 10
294.9384999999999
 20
878.0644999999999
 30
0.0
 11
319.1385
 21
878.0644999999999
 31
0.0
  0
LINE
  5
353
330
1E
100
AcDbEntity
  8
0
100
AcDbLine
 10
294.9384999999999
 20
878.0644999999999
 30
0.0
 11
298.0385
 21
878.0644999999999
 31
0.0
  0
LINE
  5
354
330
1E
100
AcDbEntity
  8
0
100
AcDbLine
 10
292.1385
 20
877.0645
 30
0.0
 11
294.6385
 21
877.0645
 31
0.0
  0
LINE
  5
355
330
1E
100
AcDbEntity
  8
0
100
AcDbLine
 10
297.7384999999999
 20
877.0645
 30
0.0
 11
298.1385
 21
877.0645
 31
0.0
  0
LINE
  5
356
330
1E
100
AcDbEntity
  8
0
100
AcDbLine
 10
296.5384999999999
 20
877.0645
 30
0.0
 11
297.7384999999999
 21
877.0645
 31
0.0
  0
LINE
  5
357
330
1E
100
AcDbEntity
  8
0
100
AcDbLine
 10
297.1385
 20
878.0644999999999
 30
0.0
 11
298.1385
 21
877.0645
 31
0.0
  0
LINE
  5
358
330
1E
100
AcDbEntity
  8
0
100
AcDbLine
 10
297.1385
 20
878.0644999999999
 30
0.0
 11
319.1385
 21
878.0644999999999
 31
0.0
  0
LINE
  5
359
330
1E
100
AcDbEntity
  8
0
100
AcDbLine
 10
297.1385
 20
878.0644999999999
 30
0.0
 11
298.0385
 21
878.0644999999999
 31
0.0
  0
LINE
  5
35A
330
1E
100
AcDbEntity
  8
0
100
AcDbLine
 10
319.1385
 20
878.0644999999999
 30
0.0
 11
319.1385
 21
879.0644999999999
 31
0.0
  0
LINE
  5
35B
330
1E
100
AcDbEntity
  8
0
100
AcDbLine
 10
298.1385
 20
877.0645
 30
0.0
 11
298.1385
 21
723.0644999999999
 31
0.0
  0
LINE
  5
35C
330
1E
100
AcDbEntity
  8
0
100
AcDbLine
 10
296.7384999999999
 20
878.0644999999999
 30
0.0
 11
297.1385
 21
878.0644999999999
 31
0.0
  0
LINE
  5
35D
330
1E
100
AcDbEntity
  8
0
100
AcDbLine
 10
295.6385
 20
878.0644999999999
 30
0.0
 11
296.7384999999999
 21
878.0644999999999
 31
0.0
  0
LINE
  5
35E
330
1E
100
AcDbEntity
  8
0
100
AcDbLine
 10
319.1385
 20
879.0644999999999
 30
0.0
 11
319.1385
 21
894.0644999999999
 31
0.0
  0
LINE
  5
35F
330
1E
100
AcDbEntity
  8
0
100
AcDbLine
 10
293.9384999999999
 20
879.0644999999999
 30
0.0
 11
319.1385
 21
879.0644999999999
 31
0.0
  0
LINE
  5
360
330
1E
100
AcDbEntity
  8
0
100
AcDbLine
 10
293.9384999999999
 20
879.0644999999999
 30
0.0
 11
294.9384999999999
 21
878.0644999999999
 31
0.0
  0
LINE
  5
361
330
1E
100
AcDbEntity
  8
0
100
AcDbLine
 10
293.9384999999999
 20
878.0644999999999
 30
0.0
 11
295.6385
 21
878.0644999999999
 31
0.0
  0
LINE
  5
362
330
1E
100
AcDbEntity
  8
0
100
AcDbLine
 10
291.6385
 20
878.0644999999999
 30
0.0
 11
293.9384999999999
 21
878.0644999999999
 31
0.0
  0
LINE
  5
363
330
1E
100
AcDbEntity
  8
0
100
AcDbLine
 10
292.1385
 20
879.0644999999999
 30
0.0
 11
293.9384999999999
 21
879.0644999999999
 31
0.0
  0
LINE
  5
364
330
1E
100
AcDbEntity
  8
0
100
AcDbLine
 10
288.9384999999999
 20
878.0644999999999
 30
0.0
 11
291.6385
 21
878.0644999999999
 31
0.0
  0
LINE
  5
365
330
1E
100
AcDbEntity
  8
0
100
AcDbLine
 10
289.2384999999999
 20
879.0644999999999
 30
0.0
 11
292.1385
 21
879.0644999999999
 31
0.0
  0
LINE
  5
366
330
1E
100
AcDbEntity
  8
0
100
AcDbLine
 10
286.1385
 20
878.0644999999999
 30
0.0
 11
288.9384999999999
 21
878.0644999999999
 31
0.0
  0
LINE
  5
367
330
1E
100
AcDbEntity
  8
0
100
AcDbLine
 10
286.1385
 20
879.0644999999999
 30
0.0
 11
289.2384999999999
 21
879.0644999999999
 31
0.0
  0
LINE
  5
368
330
1E
100
AcDbEntity
  8
0
100
AcDbLine
 10
283.3385
 20
878.0644999999999
 30
0.0
 11
286.1385
 21
878.0644999999999
 31
0.0
  0
LINE
  5
369
330
1E
100
AcDbEntity
  8
0
100
AcDbLine
 10
274.1385
 20
925.0645
 30
0.0
 11
274.1385
 21
879.0644999999999
 31
0.0
  0
LINE
  5
36A
330
1E
100
AcDbEntity
  8
0
100
AcDbLine
 10
274.1385
 20
925.0645
 30
0.0
 11
274.5385
 21
925.0645
 31
0.0
  0
LINE
  5
36B
330
1E
100
AcDbEntity
  8
0
100
AcDbLine
 10
274.1385
 20
925.0645
 30
0.0
 11
279.1385
 21
927.0645
 31
0.0
  0
LINE
  5
36C
330
1E
100
AcDbEntity
  8
0
100
AcDbLine
 10
274.5385
 20
925.0645
 30
0.0
 11
275.7384999999999
 21
925.0645
 31
0.0
  0
LINE
  5
36D
330
1E
100
AcDbEntity
  8
0
100
AcDbLine
 10
275.7384999999999
 20
925.0645
 30
0.0
 11
277.6385
 21
925.0645
 31
0.0
  0
LINE
  5
36E
330
1E
100
AcDbEntity
  8
0
100
AcDbLine
 10
277.6385
 20
925.0645
 30
0.0
 11
280.1385
 21
925.0645
 31
0.0
  0
LINE
  5
36F
330
1E
100
AcDbEntity
  8
0
100
AcDbLine
 10
279.1385
 20
927.0645
 30
0.0
 11
286.1385
 21
928.0644999999999
 31
0.0
  0
LINE
  5
370
330
1E
100
AcDbEntity
  8
0
100
AcDbLine
 10
280.1385
 20
925.0645
 30
0.0
 11
283.0385
 21
925.0645
 31
0.0
  0
LINE
  5
371
330
1E
100
AcDbEntity
  8
0
100
AcDbLine
 10
298.1385
 20
925.0645
 30
0.0
 11
298.1385
 21
903.0644999999999
 31
0.0
  0
LINE
  5
372
330
1E
100
AcDbEntity
  8
0
100
AcDbLine
 10
297.7384999999999
 20
925.0645
 30
0.0
 11
298.1385
 21
925.0645
 31
0.0
  0
LINE
  5
373
330
1E
100
AcDbEntity
  8
0
100
AcDbLine
 10
319.1385
 20
894.0644999999999
 30
0.0
 11
319.1385
 21
896.3644999999999
 31
0.0
  0
LINE
  5
374
330
1E
100
AcDbEntity
  8
0
100
AcDbLine
 10
319.1385
 20
896.3644999999999
 30
0.0
 11
319.1385
 21
898.5644999999999
 31
0.0
  0
LINE
  5
375
330
1E
100
AcDbEntity
  8
0
100
AcDbLine
 10
319.1385
 20
898.5644999999999
 30
0.0
 11
319.1385
 21
900.4645
 31
0.0
  0
LINE
  5
376
330
1E
100
AcDbEntity
  8
0
100
AcDbLine
 10
319.1385
 20
900.4645
 30
0.0
 11
319.1385
 21
901.8645000000001
 31
0.0
  0
LINE
  5
377
330
1E
100
AcDbEntity
  8
0
100
AcDbLine
 10
319.1385
 20
901.8645000000001
 30
0.0
 11
319.1385
 21
902.7644999999999
 31
0.0
  0
LINE
  5
378
330
1E
100
AcDbEntity
  8
0
100
AcDbLine
 10
319.1385
 20
902.7644999999999
 30
0.0
 11
319.1385
 21
903.0644999999999
 31
0.0
  0
LINE
  5
379
330
1E
100
AcDbEntity
  8
0
100
AcDbLine
 10
298.1385
 20
903.0644999999999
 30
0.0
 11
298.1385
 21
925.0645
 31
0.0
  0
LINE
  5
37A
330
1E
100
AcDbEntity
  8
0
100
AcDbLine
 10
298.1385
 20
903.0644999999999
 30
0.0
 11
319.1385
 21
903.0644999999999
 31
0.0
  0
LINE
  5
37B
330
1E
100
AcDbEntity
  8
0
100
AcDbLine
 10
296.5384999999999
 20
925.0645
 30
0.0
 11
297.7384999999999
 21
925.0645
 31
0.0
  0
LINE
  5
37C
330
1E
100
AcDbEntity
  8
0
100
AcDbLine
 10
294.6385
 20
925.0645
 30
0.0
 11
296.5384999999999
 21
925.0645
 31
0.0
  0
LINE
  5
37D
330
1E
100
AcDbEntity
  8
0
100
AcDbLine
 10
292.1385
 20
925.0645
 30
0.0
 11
294.6385
 21
925.0645
 31
0.0
  0
LINE
  5
37E
330
1E
100
AcDbEntity
  8
0
100
AcDbLine
 10
289.2384999999999
 20
925.0645
 30
0.0
 11
292.1385
 21
925.0645
 31
0.0
  0
LINE
  5
37F
330
1E
100
AcDbEntity
  8
0
100
AcDbLine
 10
286.1385
 20
928.0644999999999
 30
0.0
 11
293.1385
 21
927.0645
 31
0.0
  0
LINE
  5
380
330
1E
100
AcDbEntity
  8
0
100
AcDbLine
 10
293.1385
 20
927.0645
 30
0.0
 11
298.1385
 21
925.0645
 31
0.0
  0
LINE
  5
381
330
1E
100
AcDbEntity
  8
0
100
AcDbLine
 10
286.1385
 20
925.0645
 30
0.0
 11
289.2384999999999
 21
925.0645
 31
0.0
  0
LINE
  5
382
330
1E
100
AcDbEntity
  8
0
100
AcDbLine
 10
283.0385
 20
925.0645
 30
0.0
 11
286.1385
 21
925.0645
 31
0.0
  0
LINE
  5
383
330
1E
100
AcDbEntity
  8
0
100
AcDbLine
 10
283.0385
 20
879.0644999999999
 30
0.0
 11
286.1385
 21
879.0644999999999
 31
0.0
  0
LINE
  5
384
330
1E
100
AcDbEntity
  8
0
100
AcDbLine
 10
134.4557
 20
782.9134999999999
 30
0.0
 11
143.2316999999999
 21
776.1144999999999
 31
0.0
  0
ENDSEC
  0
SECTION
  2
OBJECTS
  0
DICTIONARY
  5
C
330
0
100
AcDbDictionary
  3
ACAD_GROUP
350
D
  3
ACAD_LAYOUT
350
19
  3
ACAD_MLINESTYLE
350
16
  3
ACAD_PLOTSETTINGS
350
18
  3
ACAD_PLOTSTYLENAME
350
E
  3
ACDBHEADERROUNDTRIPXREC
350
38D
  3
ACDBVARIABLEDICTIONARY
350
38A
  0
DICTIONARY
  5
3AF
330
1E
100
AcDbDictionary
280
     1
  3
ACAD_LAYOUTSELFREF
360
3B0
  0
DICTIONARY
  5
3AD
330
1A
100
AcDbDictionary
280
     1
  3
ACAD_LAYOUTSELFREF
360
3AE
  0
DICTIONARY
  5
D
102
{ACAD_REACTORS
330
C
102
}
330
C
100
AcDbDictionary
  0
DICTIONARY
  5
19
102
{ACAD_REACTORS
330
C
102
}
330
C
100
AcDbDictionary
  0
DICTIONARY
  5
16
102
{ACAD_REACTORS
330
C
102
}
330
C
100
AcDbDictionary
  3
STANDARD
350
17
  0
DICTIONARY
  5
18
102
{ACAD_REACTORS
330
C
102
}
330
C
100
AcDbDictionary
  0
ACDBDICTIONARYWDFLT
  5
E
102
{ACAD_REACTORS
330
C
102
}
330
C
100
AcDbDictionary
281
     1
  3
Normal
350
F
100
AcDbDictionaryWithDefault
340
F
  0
DICTIONARY
  5
38D
102
{ACAD_REACTORS
330
C
102
}
330
C
100
AcDbDictionary
  3
CEPSNTYPE
350
397
  3
FINGERPRINTGUID
350
398
  3
HYPERLINKBASE
350
390
  3
INSUNITS
350
396
  3
LAYOUTDICT
350
392
  3
LWETCUNION
350
395
  3
PLOTSETDICT
350
393
  3
PLOTSTYLNAMDICT
350
394
  3
PSVPSCALE
350
39A
  3
PUCSBASE
350
39D
  3
PUCSORGBACK
350
3A3
  3
PUCSORGBOTTOM
350
39F
  3
PUCSORGFRONT
350
3A2
  3
PUCSORGLEFT
350
3A0
  3
PUCSORGRIGHT
350
3A1
  3
PUCSORGTOP
350
39E
  3
PUCSORTHOREF
350
39B
  3
PUCSORTHOVIEW
350
39C
  3
STYLESHEET
350
391
  3
TSTACKALIGN
350
38E
  3
TSTACKSIZE
350
38F
  3
UCSBASE
350
3A6
  3
UCSORGBACK
350
3AC
  3
UCSORGBOTTOM
350
3A8
  3
UCSORGFRONT
350
3AB
  3
UCSORGLEFT
350
3A9
  3
UCSORGRIGHT
350
3AA
  3
UCSORGTOP
350
3A7
  3
UCSORTHOREF
350
3A4
  3
UCSORTHOVIEW
350
3A5
  3
VERSIONGUID
350
399
  0
DICTIONARY
  5
38A
102
{ACAD_REACTORS
330
C
102
}
330
C
100
AcDbDictionary
  3
DIMASSOC
350
38B
  0
XRECORD
  5
3B0
102
{ACAD_REACTORS
330
3AF
102
}
330
3AF
100
AcDbXrecord
340
1E
  0
XRECORD
  5
3AE
102
{ACAD_REACTORS
330
3AD
102
}
330
3AD
100
AcDbXrecord
340
1A
  0
MLINESTYLE
  5
17
102
{ACAD_REACTORS
330
16
102
}
330
16
100
AcDbMlineStyle
  2
STANDARD
 70
     0
  3

 62
   256
 51
90.0
 52
90.0
 71
     2
 49
0.5
 62
   256
  6
BYLAYER
 49
-0.5
 62
   256
  6
BYLAYER
  0
ACDBPLACEHOLDER
  5
F
102
{ACAD_REACTORS
330
E
102
}
330
E
100
AcDbPlaceHolder
280
     0
  0
XRECORD
  5
397
102
{ACAD_REACTORS
330
38D
102
}
330
38D
100
AcDbXrecord
 90
        0
  0
XRECORD
  5
398
102
{ACAD_REACTORS
330
38D
102
}
330
38D
100
AcDbXrecord
  1
{BABDFAE3-EAC0-4DE6-8FA0-7B4B83A22DC6}
  0
XRECORD
  5
390
102
{ACAD_REACTORS
330
38D
102
}
330
38D
100
AcDbXrecord
  1

  0
XRECORD
  5
396
102
{ACAD_REACTORS
330
38D
102
}
330
38D
100
AcDbXrecord
 90
        0
  0
XRECORD
  5
392
102
{ACAD_REACTORS
330
38D
102
}
330
38D
100
AcDbXrecord
340
19
  0
XRECORD
  5
395
102
{ACAD_REACTORS
330
38D
102
}
330
38D
100
AcDbXrecord
 90
    10781
  0
XRECORD
  5
393
102
{ACAD_REACTORS
330
38D
102
}
330
38D
100
AcDbXrecord
340
18
  0
XRECORD
  5
394
102
{ACAD_REACTORS
330
38D
102
}
330
38D
100
AcDbXrecord
340
E
  0
XRECORD
  5
39A
102
{ACAD_REACTORS
330
38D
102
}
330
38D
100
AcDbXrecord
 40
0.0
  0
XRECORD
  5
39D
102
{ACAD_REACTORS
330
38D
102
}
330
38D
100
AcDbXrecord
340
0
  0
XRECORD
  5
3A3
102
{ACAD_REACTORS
330
38D
102
}
330
38D
100
AcDbXrecord
 10
0.0
 20
0.0
 30
0.0
  0
XRECORD
  5
39F
102
{ACAD_REACTORS
330
38D
102
}
330
38D
100
AcDbXrecord
 10
0.0
 20
0.0
 30
0.0
  0
XRECORD
  5
3A2
102
{ACAD_REACTORS
330
38D
102
}
330
38D
100
AcDbXrecord
 10
0.0
 20
0.0
 30
0.0
  0
XRECORD
  5
3A0
102
{ACAD_REACTORS
330
38D
102
}
330
38D
100
AcDbXrecord
 10
0.0
 20
0.0
 30
0.0
  0
XRECORD
  5
3A1
102
{ACAD_REACTORS
330
38D
102
}
330
38D
100
AcDbXrecord
 10
0.0
 20
0.0
 30
0.0
  0
XRECORD
  5
39E
102
{ACAD_REACTORS
330
38D
102
}
330
38D
100
AcDbXrecord
 10
0.0
 20
0.0
 30
0.0
  0
XRECORD
  5
39B
102
{ACAD_REACTORS
330
38D
102
}
330
38D
100
AcDbXrecord
340
0
  0
XRECORD
  5
39C
102
{ACAD_REACTORS
330
38D
102
}
330
38D
100
AcDbXrecord
 70
     0
  0
XRECORD
  5
391
102
{ACAD_REACTORS
330
38D
102
}
330
38D
100
AcDbXrecord
  1

  0
XRECORD
  5
38E
102
{ACAD_REACTORS
330
38D
102
}
330
38D
100
AcDbXrecord
 90
        1
  0
XRECORD
  5
38F
102
{ACAD_REACTORS
330
38D
102
}
330
38D
100
AcDbXrecord
 90
       70
  0
XRECORD
  5
3A6
102
{ACAD_REACTORS
330
38D
102
}
330
38D
100
AcDbXrecord
340
0
  0
XRECORD
  5
3AC
102
{ACAD_REACTORS
330
38D
102
}
330
38D
100
AcDbXrecord
 10
0.0
 20
0.0
 30
0.0
  0
XRECORD
  5
3A8
102
{ACAD_REACTORS
330
38D
102
}
330
38D
100
AcDbXrecord
 10
0.0
 20
0.0
 30
0.0
  0
XRECORD
  5
3AB
102
{ACAD_REACTORS
330
38D
102
}
330
38D
100
AcDbXrecord
 10
0.0
 20
0.0
 30
0.0
  0
XRECORD
  5
3A9
102
{ACAD_REACTORS
330
38D
102
}
330
38D
100
AcDbXrecord
 10
0.0
 20
0.0
 30
0.0
  0
XRECORD
  5
3AA
102
{ACAD_REACTORS
330
38D
102
}
330
38D
100
AcDbXrecord
 10
0.0
 20
0.0
 30
0.0
  0
XRECORD
  5
3A7
102
{ACAD_REACTORS
330
38D
102
}
330
38D
100
AcDbXrecord
 10
0.0
 20
0.0
 30
0.0
  0
XRECORD
  5
3A4
102
{ACAD_REACTORS
330
38D
102
}
330
38D
100
AcDbXrecord
340
0
  0
XRECORD
  5
3A5
102
{ACAD_REACTORS
330
38D
102
}
330
38D
100
AcDbXrecord
 70
     1
  0
XRECORD
  5
399
102
{ACAD_REACTORS
330
38D
102
}
330
38D
100
AcDbXrecord
  1
{E37F69E0-1339-42D7-9038-3576ED40F7F3}
  0
DICTIONARYVAR
  5
38B
102
{ACAD_REACTORS
330
38A
102
}
330
38A
100
DictionaryVariables
280
     0
  1
1
  0
ENDSEC
  0
EOF
