  0
SECTION
  2
HEADER
  9
$ACADVER
  1
AC1015
  9
$ACADMAINTVER
 70
    13
  9
$DWGCODEPAGE
  3
ANSI_1252
  9
$INSBASE
 10
0.0
 20
0.0
 30
0.0
  9
$EXTMIN
 10
-0.0000000000000053
 20
-0.0000000000000035
 30
0.0
  9
$EXTMAX
 10
255.0
 20
1003.0
 30
0.0
  9
$LIMMIN
 10
0.0
 20
0.0
  9
$LIMMAX
 10
12.0
 20
9.0
  9
$ORTHOMODE
 70
     0
  9
$REGENMODE
 70
     1
  9
$FILLMODE
 70
     1
  9
$QTEXTMODE
 70
     0
  9
$MIRRTEXT
 70
     1
  9
$LTSCALE
 40
1.0
  9
$ATTMODE
 70
     1
  9
$TEXTSIZE
 40
0.2
  9
$TRACEWID
 40
0.05
  9
$TEXTSTYLE
  7
Standard
  9
$CLAYER
  8
0
  9
$CELTYPE
  6
Continuous
  9
$CECOLOR
 62
   256
  9
$CELTSCALE
 40
1.0
  9
$DISPSILH
 70
     0
  9
$DIMSCALE
 40
1.0
  9
$DIMASZ
 40
0.18
  9
$DIMEXO
 40
0.0625
  9
$DIMDLI
 40
0.38
  9
$DIMRND
 40
0.0
  9
$DIMDLE
 40
0.0
  9
$DIMEXE
 40
0.18
  9
$DIMTP
 40
0.0
  9
$DIMTM
 40
0.0
  9
$DIMTXT
 40
0.18
  9
$DIMCEN
 40
0.09
  9
$DIMTSZ
 40
0.0
  9
$DIMTOL
 70
     0
  9
$DIMLIM
 70
     0
  9
$DIMTIH
 70
     1
  9
$DIMTOH
 70
     1
  9
$DIMSE1
 70
     0
  9
$DIMSE2
 70
     0
  9
$DIMTAD
 70
     0
  9
$DIMZIN
 70
     0
  9
$DIMBLK
  1

  9
$DIMASO
 70
     1
  9
$DIMSHO
 70
     1
  9
$DIMPOST
  1

  9
$DIMAPOST
  1

  9
$DIMALT
 70
     0
  9
$DIMALTD
 70
     2
  9
$DIMALTF
 40
25.4
  9
$DIMLFAC
 40
1.0
  9
$DIMTOFL
 70
     0
  9
$DIMTVP
 40
0.0
  9
$DIMTIX
 70
     0
  9
$DIMSOXD
 70
     0
  9
$DIMSAH
 70
     0
  9
$DIMBLK1
  1

  9
$DIMBLK2
  1

  9
$DIMSTYLE
  2
Standard
  9
$DIMCLRD
 70
     0
  9
$DIMCLRE
 70
     0
  9
$DIMCLRT
 70
     0
  9
$DIMTFAC
 40
1.0
  9
$DIMGAP
 40
0.09
  9
$DIMJUST
 70
     0
  9
$DIMSD1
 70
     0
  9
$DIMSD2
 70
     0
  9
$DIMTOLJ
 70
     1
  9
$DIMTZIN
 70
     0
  9
$DIMALTZ
 70
     0
  9
$DIMALTTZ
 70
     0
  9
$DIMUPT
 70
     0
  9
$DIMDEC
 70
     4
  9
$DIMTDEC
 70
     4
  9
$DIMALTU
 70
     2
  9
$DIMALTTD
 70
     2
  9
$DIMTXSTY
  7
Standard
  9
$DIMAUNIT
 70
     0
  9
$DIMADEC
 70
     0
  9
$DIMALTRND
 40
0.0
  9
$DIMAZIN
 70
     0
  9
$DIMDSEP
 70
    46
  9
$DIMATFIT
 70
     3
  9
$DIMFRAC
 70
     0
  9
$DIMLDRBLK
  1

  9
$DIMLUNIT
 70
     2
  9
$DIMLWD
 70
    -2
  9
$DIMLWE
 70
    -2
  9
$DIMTMOVE
 70
     0
  9
$LUNITS
 70
     2
  9
$LUPREC
 70
     4
  9
$SKETCHINC
 40
0.1
  9
$FILLETRAD
 40
0.0
  9
$AUNITS
 70
     0
  9
$AUPREC
 70
     0
  9
$MENU
  1
.
  9
$ELEVATION
 40
0.0
  9
$PELEVATION
 40
0.0
  9
$THICKNESS
 40
0.0
  9
$LIMCHECK
 70
     0
  9
$CHAMFERA
 40
0.0
  9
$CHAMFERB
 40
0.0
  9
$CHAMFERC
 40
0.0
  9
$CHAMFERD
 40
0.0
  9
$SKPOLY
 70
     0
  9
$TDCREATE
 40
2454740.415906030
  9
$TDUCREATE
 40
2454740.332572697
  9
$TDUPDATE
 40
2454740.461240046
  9
$TDUUPDATE
 40
2454740.377906713
  9
$TDINDWG
 40
0.0453342014
  9
$TDUSRTIMER
 40
0.0453342014
  9
$USRTIMER
 70
     1
  9
$ANGBASE
 50
0.0
  9
$ANGDIR
 70
     0
  9
$PDMODE
 70
     0
  9
$PDSIZE
 40
0.0
  9
$PLINEWID
 40
0.0
  9
$SPLFRAME
 70
     0
  9
$SPLINETYPE
 70
     6
  9
$SPLINESEGS
 70
     8
  9
$HANDSEED
  5
3D2
  9
$SURFTAB1
 70
     6
  9
$SURFTAB2
 70
     6
  9
$SURFTYPE
 70
     6
  9
$SURFU
 70
     6
  9
$SURFV
 70
     6
  9
$UCSBASE
  2

  9
$UCSNAME
  2

  9
$UCSORG
 10
0.0
 20
0.0
 30
0.0
  9
$UCSXDIR
 10
1.0
 20
0.0
 30
0.0
  9
$UCSYDIR
 10
0.0
 20
1.0
 30
0.0
  9
$UCSORTHOREF
  2

  9
$UCSORTHOVIEW
 70
     1
  9
$UCSORGTOP
 10
0.0
 20
0.0
 30
0.0
  9
$UCSORGBOTTOM
 10
0.0
 20
0.0
 30
0.0
  9
$UCSORGLEFT
 10
0.0
 20
0.0
 30
0.0
  9
$UCSORGRIGHT
 10
0.0
 20
0.0
 30
0.0
  9
$UCSORGFRONT
 10
0.0
 20
0.0
 30
0.0
  9
$UCSORGBACK
 10
0.0
 20
0.0
 30
0.0
  9
$PUCSBASE
  2

  9
$PUCSNAME
  2

  9
$PUCSORG
 10
0.0
 20
0.0
 30
0.0
  9
$PUCSXDIR
 10
1.0
 20
0.0
 30
0.0
  9
$PUCSYDIR
 10
0.0
 20
1.0
 30
0.0
  9
$PUCSORTHOREF
  2

  9
$PUCSORTHOVIEW
 70
     0
  9
$PUCSORGTOP
 10
0.0
 20
0.0
 30
0.0
  9
$PUCSORGBOTTOM
 10
0.0
 20
0.0
 30
0.0
  9
$PUCSORGLEFT
 10
0.0
 20
0.0
 30
0.0
  9
$PUCSORGRIGHT
 10
0.0
 20
0.0
 30
0.0
  9
$PUCSORGFRONT
 10
0.0
 20
0.0
 30
0.0
  9
$PUCSORGBACK
 10
0.0
 20
0.0
 30
0.0
  9
$USERI1
 70
     0
  9
$USERI2
 70
     0
  9
$USERI3
 70
     0
  9
$USERI4
 70
     0
  9
$USERI5
 70
     0
  9
$USERR1
 40
0.0
  9
$USERR2
 40
0.0
  9
$USERR3
 40
0.0
  9
$USERR4
 40
0.0
  9
$USERR5
 40
0.0
  9
$WORLDVIEW
 70
     1
  9
$SHADEDGE
 70
     3
  9
$SHADEDIF
 70
    70
  9
$TILEMODE
 70
     1
  9
$MAXACTVP
 70
    64
  9
$PINSBASE
 10
0.0
 20
0.0
 30
0.0
  9
$PLIMCHECK
 70
     0
  9
$PEXTMIN
 10
1.000000000000000E+20
 20
1.000000000000000E+20
 30
1.000000000000000E+20
  9
$PEXTMAX
 10
-1.000000000000000E+20
 20
-1.000000000000000E+20
 30
-1.000000000000000E+20
  9
$PLIMMIN
 10
0.0
 20
0.0
  9
$PLIMMAX
 10
12.0
 20
9.0
  9
$UNITMODE
 70
     0
  9
$VISRETAIN
 70
     1
  9
$PLINEGEN
 70
     0
  9
$PSLTSCALE
 70
     1
  9
$TREEDEPTH
 70
  3020
  9
$CMLSTYLE
  2
Standard
  9
$CMLJUST
 70
     0
  9
$CMLSCALE
 40
1.0
  9
$PROXYGRAPHICS
 70
     1
  9
$MEASUREMENT
 70
     0
  9
$CELWEIGHT
370
    -1
  9
$ENDCAPS
280
     0
  9
$JOINSTYLE
280
     0
  9
$LWDISPLAY
290
     0
  9
$INSUNITS
 70
     0
  9
$HYPERLINKBASE
  1

  9
$STYLESHEET
  1

  9
$XEDIT
290
     1
  9
$CEPSNTYPE
380
     0
  9
$PSTYLEMODE
290
     1
  9
$FINGERPRINTGUID
  2
{6655AE9E-8B70-4326-AD20-3941FA531969}
  9
$VERSIONGUID
  2
{FE3C6890-F3A8-4054-8E56-65A5CC27A018}
  9
$EXTNAMES
290
     1
  9
$PSVPSCALE
 40
0.0
  9
$OLESTARTUP
290
     0
  0
ENDSEC
  0
SECTION
  2
CLASSES
  0
CLASS
  1
ACDBDICTIONARYWDFLT
  2
AcDbDictionaryWithDefault
  3
AutoCAD 2000
 90
        0
280
     0
281
     0
  0
CLASS
  1
ACDBPLACEHOLDER
  2
AcDbPlaceHolder
  3
AutoCAD 2000
 90
        0
280
     0
281
     0
  0
CLASS
  1
LAYOUT
  2
AcDbLayout
  3
AutoCAD 2000
 90
        0
280
     0
281
     0
  0
CLASS
  1
DICTIONARYVAR
  2
AcDbDictionaryVar
  3
AutoCAD 2000
 90
        0
280
     0
281
     0
  0
ENDSEC
  0
SECTION
  2
TABLES
  0
TABLE
  2
VPORT
  5
8
330
0
100
AcDbSymbolTable
 70
     2
  0
VPORT
  5
3D1
330
8
100
AcDbSymbolTableRecord
100
AcDbViewportTableRecord
  2
*Active
 70
     0
 10
0.0
 20
0.0
 11
1.0
 21
1.0
 12
127.5
 22
501.4999999999999
 13
0.0
 23
0.0
 14
1.0
 24
1.0
 15
0.0
 25
0.0
 16
0.0
 26
0.0
 36
1.0
 17
0.0
 27
0.0
 37
0.0
 40
1010.695652173912
 41
2.078104993597951
 42
50.0
 43
0.0
 44
0.0
 50
0.0
 51
0.0
 71
     0
 72
   100
 73
     1
 74
     3
 75
     0
 76
     0
 77
     0
 78
     0
281
     0
 65
     1
110
0.0
120
0.0
130
0.0
111
1.0
121
0.0
131
0.0
112
0.0
122
1.0
132
0.0
 79
     1
146
0.0
  0
ENDTAB
  0
TABLE
  2
LTYPE
  5
5
330
0
100
AcDbSymbolTable
 70
     1
  0
LTYPE
  5
13
330
5
100
AcDbSymbolTableRecord
100
AcDbLinetypeTableRecord
  2
ByBlock
 70
     0
  3

 72
    65
 73
     0
 40
0.0
  0
LTYPE
  5
14
330
5
100
AcDbSymbolTableRecord
100
AcDbLinetypeTableRecord
  2
ByLayer
 70
     0
  3

 72
    65
 73
     0
 40
0.0
  0
LTYPE
  5
15
330
5
100
AcDbSymbolTableRecord
100
AcDbLinetypeTableRecord
  2
Continuous
 70
     0
  3
Solid line
 72
    65
 73
     0
 40
0.0
  0
ENDTAB
  0
TABLE
  2
LAYER
  5
2
330
0
100
AcDbSymbolTable
 70
     1
  0
LAYER
  5
10
330
2
100
AcDbSymbolTableRecord
100
AcDbLayerTableRecord
  2
0
 70
     0
 62
     7
  6
Continuous
370
    -3
390
F
  0
ENDTAB
  0
TABLE
  2
STYLE
  5
3
330
0
100
AcDbSymbolTable
 70
     1
  0
STYLE
  5
11
330
3
100
AcDbSymbolTableRecord
100
AcDbTextStyleTableRecord
  2
Standard
 70
     0
 40
0.0
 41
1.0
 50
0.0
 71
     0
 42
0.2
  3
txt
  4

  0
ENDTAB
  0
TABLE
  2
VIEW
  5
6
330
0
100
AcDbSymbolTable
 70
     0
  0
ENDTAB
  0
TABLE
  2
UCS
  5
7
330
0
100
AcDbSymbolTable
 70
     0
  0
ENDTAB
  0
TABLE
  2
APPID
  5
9
330
0
100
AcDbSymbolTable
 70
     1
  0
APPID
  5
12
330
9
100
AcDbSymbolTableRecord
100
AcDbRegAppTableRecord
  2
ACAD
 70
     0
  0
ENDTAB
  0
TABLE
  2
DIMSTYLE
  5
A
330
0
100
AcDbSymbolTable
 70
     1
100
AcDbDimStyleTable
 71
     0
  0
DIMSTYLE
105
3CB
330
A
100
AcDbSymbolTableRecord
100
AcDbDimStyleTableRecord
  2
Standard
 70
     0
340
11
  0
ENDTAB
  0
TABLE
  2
BLOCK_RECORD
  5
1
330
0
100
AcDbSymbolTable
 70
     0
  0
BLOCK_RECORD
  5
1E
330
1
100
AcDbSymbolTableRecord
100
AcDbBlockTableRecord
  2
*Model_Space
340
21
  0
BLOCK_RECORD
  5
1A
330
1
100
AcDbSymbolTableRecord
100
AcDbBlockTableRecord
  2
*Paper_Space
340
1D
  0
ENDTAB
  0
ENDSEC
  0
SECTION
  2
BLOCKS
  0
BLOCK
  5
1F
330
1E
100
AcDbEntity
  8
0
100
AcDbBlockBegin
  2
*Model_Space
 70
     0
 10
0.0
 20
0.0
 30
0.0
  3
*Model_Space
  1

  0
ENDBLK
  5
20
330
1E
100
AcDbEntity
  8
0
100
AcDbBlockEnd
  0
BLOCK
  5
1B
330
1A
100
AcDbEntity
 67
     1
  8
0
100
AcDbBlockBegin
  2
*Paper_Space
 70
     0
 10
0.0
 20
0.0
 30
0.0
  3
*Paper_Space
  1

  0
ENDBLK
  5
1C
330
1A
100
AcDbEntity
 67
     1
  8
0
100
AcDbBlockEnd
  0
ENDSEC
  0
SECTION
  2
ENTITIES
  0
LINE
  5
22
330
1E
100
AcDbEntity
  8
0
100
AcDbLine
 10
144.3106999999999
 20
15.92799999999989
 30
0.0
 11
158.9481
 21
541.07
 31
0.0
  0
LINE
  5
23
330
1E
100
AcDbEntity
  8
0
100
AcDbLine
 10
144.3106999999999
 20
15.92799999999999
 30
0.0
 11
144.5771
 21
16.05
 31
0.0
  0
LINE
  5
24
330
1E
100
AcDbEntity
  8
0
100
AcDbLine
 10
144.3106999999999
 20
15.92799999999999
 30
0.0
 11
158.9481
 21
541.07
 31
0.0
  0
LINE
  5
25
330
1E
100
AcDbEntity
  8
0
100
AcDbLine
 10
145.3596
 20
16.409
 30
0.0
 11
147.3217999999999
 21
17.309
 31
0.0
  0
LINE
  5
26
330
1E
100
AcDbEntity
  8
0
100
AcDbLine
 10
144.995574129863
 20
16.2420665997372
 30
0.0
 11
145.3596
 21
16.409
 31
0.0
  0
LINE
  5
27
330
1E
100
AcDbEntity
  8
0
100
AcDbLine
 10
144.5771
 20
16.05
 30
0.0
 11
146.026
 21
16.71499999999999
 31
0.0
  0
LINE
  5
28
330
1E
100
AcDbEntity
  8
0
100
AcDbLine
 10
75.0
 20
150.0
 30
0.0
 11
94.40000000000001
 21
150.0
 31
0.0
  0
LINE
  5
29
330
1E
100
AcDbEntity
  8
0
100
AcDbLine
 10
94.40000000000001
 20
150.0
 30
0.0
 11
112.4
 21
150.0
 31
0.0
  0
LINE
  5
2A
330
1E
100
AcDbEntity
  8
0
100
AcDbLine
 10
112.4
 20
150.0
 30
0.0
 11
128.0
 21
150.0
 31
0.0
  0
LINE
  5
2B
330
1E
100
AcDbEntity
  8
0
100
AcDbLine
 10
128.0
 20
150.0
 30
0.0
 11
140.0
 21
150.0
 31
0.0
  0
LINE
  5
2C
330
1E
100
AcDbEntity
  8
0
100
AcDbLine
 10
140.8503
 20
150.0
 30
0.0
 11
148.0477187355039
 21
150.0
 31
0.0
  0
LINE
  5
2D
330
1E
100
AcDbEntity
  8
0
100
AcDbLine
 10
140.0
 20
150.0
 30
0.0
 11
147.3
 21
150.0
 31
0.0
  0
LINE
  5
2F
330
1E
100
AcDbEntity
  8
0
100
AcDbLine
 10
140.0
 20
150.0
 30
0.0
 11
140.8503
 21
150.0
 31
0.0
  0
LINE
  5
30
330
1E
100
AcDbEntity
  8
0
100
AcDbLine
 10
147.3
 20
150.0
 30
0.0
 11
148.0477187355039
 21
150.0
 31
0.0
  0
LINE
  5
31
330
1E
100
AcDbEntity
  8
0
100
AcDbLine
 10
147.3
 20
150.0
 30
0.0
 11
147.3
 21
210.0
 31
0.0
  0
LINE
  5
32
330
1E
100
AcDbEntity
  8
0
100
AcDbLine
 10
55.6
 20
150.0
 30
0.0
 11
75.0
 21
150.0
 31
0.0
  0
LINE
  5
33
330
1E
100
AcDbEntity
  8
0
100
AcDbLine
 10
37.6
 20
150.0
 30
0.0
 11
55.6
 21
150.0
 31
0.0
  0
LINE
  5
34
330
1E
100
AcDbEntity
  8
0
100
AcDbLine
 10
22.0
 20
150.0
 30
0.0
 11
37.6
 21
150.0
 31
0.0
  0
LINE
  5
35
330
1E
100
AcDbEntity
  8
0
100
AcDbLine
 10
9.999999999999991
 20
150.0
 30
0.0
 11
22.0
 21
150.0
 31
0.0
  0
LINE
  5
37
330
1E
100
AcDbEntity
  8
0
100
AcDbLine
 10
2.7
 20
150.0
 30
0.0
 11
9.999999999999991
 21
150.0
 31
0.0
  0
LINE
  5
39
330
1E
100
AcDbEntity
  8
0
100
AcDbLine
 10
-0.0000000000000053
 20
210.0
 30
0.0
 11
2.7
 21
210.0
 31
0.0
  0
LINE
  5
3A
330
1E
100
AcDbEntity
  8
0
100
AcDbLine
 10
-0.0000000000000053
 20
210.0
 30
0.0
 11
-0.0000000000000053
 21
150.0
 31
0.0
  0
LINE
  5
3B
330
1E
100
AcDbEntity
  8
0
100
AcDbLine
 10
75.0
 20
210.0
 30
0.0
 11
94.40000000000001
 21
210.0
 31
0.0
  0
LINE
  5
3C
330
1E
100
AcDbEntity
  8
0
100
AcDbLine
 10
94.40000000000001
 20
210.0
 30
0.0
 11
112.4
 21
210.0
 31
0.0
  0
LINE
  5
3D
330
1E
100
AcDbEntity
  8
0
100
AcDbLine
 10
112.4
 20
210.0
 30
0.0
 11
128.0
 21
210.0
 31
0.0
  0
LINE
  5
3E
330
1E
100
AcDbEntity
  8
0
100
AcDbLine
 10
128.0
 20
210.0
 30
0.0
 11
140.0
 21
210.0
 31
0.0
  0
LINE
  5
3F
330
1E
100
AcDbEntity
  8
0
100
AcDbLine
 10
140.0
 20
210.0
 30
0.0
 11
147.3
 21
210.0
 31
0.0
  0
LINE
  5
41
330
1E
100
AcDbEntity
  8
0
100
AcDbLine
 10
147.3
 20
210.0
 30
0.0
 11
149.7201121072009
 21
210.0
 31
0.0
  0
LINE
  5
42
330
1E
100
AcDbEntity
  8
0
100
AcDbLine
 10
147.3
 20
210.0
 30
0.0
 11
147.3
 21
150.0
 31
0.0
  0
LINE
  5
43
330
1E
100
AcDbEntity
  8
0
100
AcDbLine
 10
55.6
 20
210.0
 30
0.0
 11
75.0
 21
210.0
 31
0.0
  0
LINE
  5
44
330
1E
100
AcDbEntity
  8
0
100
AcDbLine
 10
37.6
 20
210.0
 30
0.0
 11
55.6
 21
210.0
 31
0.0
  0
LINE
  5
45
330
1E
100
AcDbEntity
  8
0
100
AcDbLine
 10
22.0
 20
210.0
 30
0.0
 11
37.6
 21
210.0
 31
0.0
  0
LINE
  5
47
330
1E
100
AcDbEntity
  8
0
100
AcDbLine
 10
9.999999999999991
 20
210.0
 30
0.0
 11
22.0
 21
210.0
 31
0.0
  0
LINE
  5
49
330
1E
100
AcDbEntity
  8
0
100
AcDbLine
 10
2.7
 20
210.0
 30
0.0
 11
9.999999999999991
 21
210.0
 31
0.0
  0
LINE
  5
4A
330
1E
100
AcDbEntity
  8
0
100
AcDbLine
 10
-0.0000000000000053
 20
150.0
 30
0.0
 11
2.7
 21
150.0
 31
0.0
  0
LINE
  5
4B
330
1E
100
AcDbEntity
  8
0
100
AcDbLine
 10
-0.0000000000000053
 20
150.0
 30
0.0
 11
-0.0000000000000053
 21
210.0
 31
0.0
  0
LINE
  5
4C
330
1E
100
AcDbEntity
  8
0
100
AcDbLine
 10
147.3217999999999
 20
17.309
 30
0.0
 11
147.770469205755
 21
17.5148987459341
 31
0.0
  0
LINE
  5
4D
330
1E
100
AcDbEntity
  8
0
100
AcDbLine
 10
146.026
 20
16.71499999999999
 30
0.0
 11
148.4533
 21
17.82799999999999
 31
0.0
  0
LINE
  5
4E
330
1E
100
AcDbEntity
  8
0
100
AcDbLine
 10
147.5
 20
17.3907777463993
 30
0.0
 11
147.5
 21
-0.0000000000000035
 31
0.0
  0
LINE
  5
4F
330
1E
100
AcDbEntity
  8
0
100
AcDbLine
 10
147.5
 20
-0.0000000000000019
 30
0.0
 11
148.0
 21
-0.0000000000000021
 31
0.0
  0
LINE
  5
50
330
1E
100
AcDbEntity
  8
0
100
AcDbLine
 10
147.5
 20
-0.0000000000000019
 30
0.0
 11
147.5
 21
17.3907777463993
 31
0.0
  0
LINE
  5
51
330
1E
100
AcDbEntity
  8
0
100
AcDbLine
 10
147.5
 20
-0.0000000000000019
 30
0.0
 11
148.0
 21
-0.0000000000000017
 31
0.0
  0
LINE
  5
52
330
1E
100
AcDbEntity
  8
0
100
AcDbLine
 10
147.5
 20
150.0
 30
0.0
 11
147.5
 21
130.349644595352
 31
0.0
  0
LINE
  5
53
330
1E
100
AcDbEntity
  8
0
100
AcDbLine
 10
147.5
 20
210.0
 30
0.0
 11
147.5
 21
765.3278260869569
 31
0.0
  0
LINE
  5
54
330
1E
100
AcDbEntity
  8
0
100
AcDbLine
 10
148.0
 20
-0.0000000000000017
 30
0.0
 11
150.0
 21
-0.0000000000000016
 31
0.0
  0
LINE
  5
55
330
1E
100
AcDbEntity
  8
0
100
AcDbLine
 10
148.4533
 20
17.82799999999999
 30
0.0
 11
151.4024
 21
19.18099999999999
 31
0.0
  0
LINE
  5
56
330
1E
100
AcDbEntity
  8
0
100
AcDbLine
 10
150.0
 20
-0.0000000000000016
 30
0.0
 11
153.5
 21
-0.0000000000000014
 31
0.0
  0
LINE
  5
57
330
1E
100
AcDbEntity
  8
0
100
AcDbLine
 10
148.0
 20
-0.0000000000000021
 30
0.0
 11
150.0
 21
-0.0000000000000023
 31
0.0
  0
LINE
  5
58
330
1E
100
AcDbEntity
  8
0
100
AcDbLine
 10
150.0
 20
-0.0000000000000023
 30
0.0
 11
153.5
 21
-0.0000000000000025
 31
0.0
  0
LINE
  5
59
330
1E
100
AcDbEntity
  8
0
100
AcDbLine
 10
147.5
 20
130.349644595352
 30
0.0
 11
147.5
 21
150.0
 31
0.0
  0
LINE
  5
5A
330
1E
100
AcDbEntity
  8
0
100
AcDbLine
 10
149.8771
 20
740.5
 30
0.0
 11
149.9700999999999
 21
738.6
 31
0.0
  0
LINE
  5
5B
330
1E
100
AcDbEntity
  8
0
100
AcDbLine
 10
149.8172
 20
742.7
 30
0.0
 11
149.8771
 21
740.5
 31
0.0
  0
LINE
  5
5C
330
1E
100
AcDbEntity
  8
0
100
AcDbLine
 10
149.7972999999999
 20
745.0
 30
0.0
 11
149.8172
 21
747.2999999999999
 31
0.0
  0
LINE
  5
5D
330
1E
100
AcDbEntity
  8
0
100
AcDbLine
 10
149.7972999999999
 20
745.0
 30
0.0
 11
149.8172
 21
742.7
 31
0.0
  0
LINE
  5
5E
330
1E
100
AcDbEntity
  8
0
100
AcDbLine
 10
149.8172
 20
747.2999999999999
 30
0.0
 11
149.8771
 21
749.5
 31
0.0
  0
LINE
  5
5F
330
1E
100
AcDbEntity
  8
0
100
AcDbLine
 10
149.9700999999999
 20
738.6
 30
0.0
 11
150.0963999999999
 21
737.2
 31
0.0
  0
LINE
  5
60
330
1E
100
AcDbEntity
  8
0
100
AcDbLine
 10
149.8771
 20
749.5
 30
0.0
 11
149.9700999999999
 21
751.2999999999999
 31
0.0
  0
LINE
  5
61
330
1E
100
AcDbEntity
  8
0
100
AcDbLine
 10
100.4
 20
778.88
 30
0.0
 11
101.0999999999999
 21
778.88
 31
0.0
  0
LINE
  5
62
330
1E
100
AcDbEntity
  8
0
100
AcDbLine
 10
100.4
 20
778.88
 30
0.0
 11
103.4
 21
776.48
 31
0.0
  0
LINE
  5
63
330
1E
100
AcDbEntity
  8
0
100
AcDbLine
 10
103.4
 20
776.48
 30
0.0
 11
107.4999999999999
 21
774.081
 31
0.0
  0
LINE
  5
64
330
1E
100
AcDbEntity
  8
0
100
AcDbLine
 10
103.0
 20
778.88
 30
0.0
 11
106.0
 21
778.88
 31
0.0
  0
LINE
  5
65
330
1E
100
AcDbEntity
  8
0
100
AcDbLine
 10
101.0999999999999
 20
778.88
 30
0.0
 11
103.0
 21
778.88
 31
0.0
  0
LINE
  5
66
330
1E
100
AcDbEntity
  8
0
100
AcDbLine
 10
108.2
 20
773.08
 30
0.0
 11
109.8
 21
773.0809999999999
 31
0.0
  0
LINE
  5
67
330
1E
100
AcDbEntity
  8
0
100
AcDbLine
 10
109.8
 20
773.0809999999999
 30
0.0
 11
112.5999999999999
 21
773.0809999999999
 31
0.0
  0
LINE
  5
68
330
1E
100
AcDbEntity
  8
0
100
AcDbLine
 10
109.8
 20
774.081
 30
0.0
 11
112.5999999999999
 21
774.081
 31
0.0
  0
LINE
  5
69
330
1E
100
AcDbEntity
  8
0
100
AcDbLine
 10
108.2
 20
774.081
 30
0.0
 11
109.8
 21
774.081
 31
0.0
  0
LINE
  5
6A
330
1E
100
AcDbEntity
  8
0
100
AcDbLine
 10
107.4999999999999
 20
774.081
 30
0.0
 11
108.2
 21
774.081
 31
0.0
  0
LINE
  5
6B
330
1E
100
AcDbEntity
  8
0
100
AcDbLine
 10
107.4999999999999
 20
774.081
 30
0.0
 11
107.4999999999999
 21
773.08
 31
0.0
  0
LINE
  5
6C
330
1E
100
AcDbEntity
  8
0
100
AcDbLine
 10
107.4999999999999
 20
773.08
 30
0.0
 11
107.4999999999999
 21
774.081
 31
0.0
  0
LINE
  5
6D
330
1E
100
AcDbEntity
  8
0
100
AcDbLine
 10
107.4999999999999
 20
773.08
 30
0.0
 11
113.1
 21
771.2799999999999
 31
0.0
  0
LINE
  5
6E
330
1E
100
AcDbEntity
  8
0
100
AcDbLine
 10
107.4999999999999
 20
773.08
 30
0.0
 11
108.2
 21
773.08
 31
0.0
  0
LINE
  5
6F
330
1E
100
AcDbEntity
  8
0
100
AcDbLine
 10
115.1375
 20
770.315
 30
0.0
 11
115.6551
 21
770.315
 31
0.0
  0
LINE
  5
70
330
1E
100
AcDbEntity
  8
0
100
AcDbLine
 10
115.1375
 20
770.315
 30
0.0
 11
115.425283097855
 21
771.2799999999999
 31
0.0
  0
LINE
  5
71
330
1E
100
AcDbEntity
  8
0
100
AcDbLine
 10
115.1375
 20
770.315
 30
0.0
 11
116.9833
 21
769.725
 31
0.0
  0
LINE
  5
72
330
1E
100
AcDbEntity
  8
0
100
AcDbLine
 10
113.3819
 20
770.315
 30
0.0
 11
113.6798835164839
 21
771.2799999999999
 31
0.0
  0
LINE
  5
73
330
1E
100
AcDbEntity
  8
0
100
AcDbLine
 10
113.3819
 20
770.315
 30
0.0
 11
115.2929
 21
769.725
 31
0.0
  0
LINE
  5
74
330
1E
100
AcDbEntity
  8
0
100
AcDbLine
 10
112.5999999999999
 20
773.0809999999999
 30
0.0
 11
116.2
 21
773.08
 31
0.0
  0
LINE
  5
75
330
1E
100
AcDbEntity
  8
0
100
AcDbLine
 10
112.5999999999999
 20
774.081
 30
0.0
 11
116.2
 21
774.081
 31
0.0
  0
LINE
  5
76
330
1E
100
AcDbEntity
  8
0
100
AcDbLine
 10
113.1
 20
771.2799999999999
 30
0.0
 11
113.646154005382
 21
771.1707691989239
 31
0.0
  0
LINE
  5
77
330
1E
100
AcDbEntity
  8
0
100
AcDbLine
 10
110.0999999999999
 20
778.88
 30
0.0
 11
115.4
 21
778.88
 31
0.0
  0
LINE
  5
78
330
1E
100
AcDbEntity
  8
0
100
AcDbLine
 10
106.0
 20
778.88
 30
0.0
 11
110.0999999999999
 21
778.88
 31
0.0
  0
LINE
  5
79
330
1E
100
AcDbEntity
  8
0
100
AcDbLine
 10
117.501
 20
769.725
 30
0.0
 11
117.844133797721
 21
770.8756030662309
 31
0.0
  0
LINE
  5
7A
330
1E
100
AcDbEntity
  8
0
100
AcDbLine
 10
116.9833
 20
769.725
 30
0.0
 11
117.0191756145879
 21
769.845277718381
 31
0.0
  0
LINE
  5
7B
330
1E
100
AcDbEntity
  8
0
100
AcDbLine
 10
116.9833
 20
769.725
 30
0.0
 11
117.501
 21
769.725
 31
0.0
  0
LINE
  5
7C
330
1E
100
AcDbEntity
  8
0
100
AcDbLine
 10
115.444735843089
 20
770.216793722276
 30
0.0
 11
116.9833
 21
769.725
 31
0.0
  0
LINE
  5
7D
330
1E
100
AcDbEntity
  8
0
100
AcDbLine
 10
115.6551
 20
770.315
 30
0.0
 11
115.942933594976
 21
771.2799999999999
 31
0.0
  0
LINE
  5
7E
330
1E
100
AcDbEntity
  8
0
100
AcDbLine
 10
115.6551
 20
770.315
 30
0.0
 11
117.501
 21
769.725
 31
0.0
  0
LINE
  5
7F
330
1E
100
AcDbEntity
  8
0
100
AcDbLine
 10
115.2929
 20
769.725
 30
0.0
 11
115.444735843089
 21
770.216793722276
 31
0.0
  0
LINE
  5
80
330
1E
100
AcDbEntity
  8
0
100
AcDbLine
 10
120.8021999999999
 20
770.315
 30
0.0
 11
121.8021999999999
 21
770.315
 31
0.0
  0
LINE
  5
81
330
1E
100
AcDbEntity
  8
0
100
AcDbLine
 10
120.8021999999999
 20
770.315
 30
0.0
 11
121.0602402930399
 21
771.2799999999999
 31
0.0
  0
LINE
  5
82
330
1E
100
AcDbEntity
  8
0
100
AcDbLine
 10
120.8021999999999
 20
770.315
 30
0.0
 11
122.4571999999999
 21
769.725
 31
0.0
  0
LINE
  5
83
330
1E
100
AcDbEntity
  8
0
100
AcDbLine
 10
119.5999999999999
 20
769.98
 30
0.0
 11
125.621071029737
 21
768.5778327738969
 31
0.0
  0
LINE
  5
84
330
1E
100
AcDbEntity
  8
0
100
AcDbLine
 10
116.2
 20
773.08
 30
0.0
 11
121.0
 21
773.08
 31
0.0
  0
LINE
  5
85
330
1E
100
AcDbEntity
  8
0
100
AcDbLine
 10
121.0
 20
773.08
 30
0.0
 11
126.6
 21
773.08
 31
0.0
  0
LINE
  5
86
330
1E
100
AcDbEntity
  8
0
100
AcDbLine
 10
121.0
 20
774.081
 30
0.0
 11
126.6
 21
774.081
 31
0.0
  0
LINE
  5
87
330
1E
100
AcDbEntity
  8
0
100
AcDbLine
 10
116.2
 20
774.081
 30
0.0
 11
121.0
 21
774.081
 31
0.0
  0
LINE
  5
88
330
1E
100
AcDbEntity
  8
0
100
AcDbLine
 10
117.6909122559239
 20
770.3618175488149
 30
0.0
 11
119.5999999999999
 21
769.98
 31
0.0
  0
LINE
  5
89
330
1E
100
AcDbEntity
  8
0
100
AcDbLine
 10
127.6111999999999
 20
767.1519999999999
 30
0.0
 11
127.8462797176759
 21
768.2804057088341
 31
0.0
  0
LINE
  5
8A
330
1E
100
AcDbEntity
  8
0
100
AcDbLine
 10
127.6111999999999
 20
767.1519999999999
 30
0.0
 11
127.811460374153
 21
768.1132694437531
 31
0.0
  0
LINE
  5
8B
330
1E
100
AcDbEntity
  8
0
100
AcDbLine
 10
127.3502
 20
767.1519999999999
 30
0.0
 11
127.3612297674229
 21
767.204943965776
 31
0.0
  0
LINE
  5
8C
330
1E
100
AcDbEntity
  8
0
100
AcDbLine
 10
127.3502
 20
767.1519999999999
 30
0.0
 11
127.6111999999999
 21
767.1519999999999
 31
0.0
  0
LINE
  5
8D
330
1E
100
AcDbEntity
  8
0
100
AcDbLine
 10
125.4096
 20
767.5629999999999
 30
0.0
 11
125.6707
 21
767.5629999999999
 31
0.0
  0
LINE
  5
8E
330
1E
100
AcDbEntity
  8
0
100
AcDbLine
 10
125.4096
 20
767.5629999999999
 30
0.0
 11
125.6442115377429
 21
768.6888822446349
 31
0.0
  0
LINE
  5
8F
330
1E
100
AcDbEntity
  8
0
100
AcDbLine
 10
125.4096
 20
767.5629999999999
 30
0.0
 11
127.3502
 21
767.1519999999999
 31
0.0
  0
LINE
  5
90
330
1E
100
AcDbEntity
  8
0
100
AcDbLine
 10
125.4096
 20
767.5629999999999
 30
0.0
 11
125.621071029737
 21
768.5778327738969
 31
0.0
  0
LINE
  5
91
330
1E
100
AcDbEntity
  8
0
100
AcDbLine
 10
125.6707
 20
767.5629999999999
 30
0.0
 11
125.928630177553
 21
768.801090158135
 31
0.0
  0
LINE
  5
92
330
1E
100
AcDbEntity
  8
0
100
AcDbLine
 10
125.6707
 20
767.5629999999999
 30
0.0
 11
127.6111999999999
 21
767.1519999999999
 31
0.0
  0
LINE
  5
93
330
1E
100
AcDbEntity
  8
0
100
AcDbLine
 10
128.3576999999999
 20
767.5629999999999
 30
0.0
 11
129.1231
 21
767.5629999999999
 31
0.0
  0
LINE
  5
94
330
1E
100
AcDbEntity
  8
0
100
AcDbLine
 10
128.3576999999999
 20
767.5629999999999
 30
0.0
 11
128.5897914975899
 21
768.7582712125869
 31
0.0
  0
LINE
  5
95
330
1E
100
AcDbEntity
  8
0
100
AcDbLine
 10
128.3576999999999
 20
767.5629999999999
 30
0.0
 11
130.166
 21
767.1519999999999
 31
0.0
  0
LINE
  5
96
330
1E
100
AcDbEntity
  8
0
100
AcDbLine
 10
128.3576999999999
 20
767.5629999999999
 30
0.0
 11
128.442146604162
 21
767.9979000114339
 31
0.0
  0
LINE
  5
97
330
1E
100
AcDbEntity
  8
0
100
AcDbLine
 10
123.4572
 20
769.725
 30
0.0
 11
123.775119290284
 21
770.9139310444869
 31
0.0
  0
LINE
  5
98
330
1E
100
AcDbEntity
  8
0
100
AcDbLine
 10
122.4571999999999
 20
769.725
 30
0.0
 11
123.4572
 21
769.725
 31
0.0
  0
LINE
  5
99
330
1E
100
AcDbEntity
  8
0
100
AcDbLine
 10
121.8021999999999
 20
770.315
 30
0.0
 11
122.0602402930399
 21
771.2799999999999
 31
0.0
  0
LINE
  5
9A
330
1E
100
AcDbEntity
  8
0
100
AcDbLine
 10
121.8021999999999
 20
770.315
 30
0.0
 11
123.4572
 21
769.725
 31
0.0
  0
LINE
  5
9B
330
1E
100
AcDbEntity
  8
0
100
AcDbLine
 10
126.6
 20
773.08
 30
0.0
 11
133.0
 21
773.08
 31
0.0
  0
LINE
  5
9C
330
1E
100
AcDbEntity
  8
0
100
AcDbLine
 10
126.6
 20
774.081
 30
0.0
 11
133.0
 21
774.081
 31
0.0
  0
LINE
  5
9D
330
1E
100
AcDbEntity
  8
0
100
AcDbLine
 10
127.811460374153
 20
768.1132694437531
 30
0.0
 11
128.442146604162
 21
767.9979000114339
 31
0.0
  0
LINE
  5
9E
330
1E
100
AcDbEntity
  8
0
100
AcDbLine
 10
121.5999999999999
 20
778.88
 30
0.0
 11
128.6999999999999
 21
778.88
 31
0.0
  0
LINE
  5
9F
330
1E
100
AcDbEntity
  8
0
100
AcDbLine
 10
121.5
 20
778.88
 30
0.0
 11
128.4999999999999
 21
778.88
 31
0.0
  0
LINE
  5
A0
330
1E
100
AcDbEntity
  8
0
100
AcDbLine
 10
136.7973
 20
765.5429999999999
 30
0.0
 11
136.9296518376939
 21
766.612700316866
 31
0.0
  0
LINE
  5
A1
330
1E
100
AcDbEntity
  8
0
100
AcDbLine
 10
136.7973
 20
765.5429999999999
 30
0.0
 11
136.928012001943
 21
766.5994467583749
 31
0.0
  0
LINE
  5
A2
330
1E
100
AcDbEntity
  8
0
100
AcDbLine
 10
136.7973
 20
765.5429999999999
 30
0.0
 11
138.7821999999999
 21
765.297
 31
0.0
  0
LINE
  5
A3
330
1E
100
AcDbEntity
  8
0
100
AcDbLine
 10
137.755
 20
765.5429999999999
 30
0.0
 11
138.2726999999999
 21
765.5429999999999
 31
0.0
  0
LINE
  5
A4
330
1E
100
AcDbEntity
  8
0
100
AcDbLine
 10
137.755
 20
765.5429999999999
 30
0.0
 11
137.882777381398
 21
766.611849987677
 31
0.0
  0
LINE
  5
A5
330
1E
100
AcDbEntity
  8
0
100
AcDbLine
 10
137.755
 20
765.5429999999999
 30
0.0
 11
139.6723
 21
765.297
 31
0.0
  0
LINE
  5
A6
330
1E
100
AcDbEntity
  8
0
100
AcDbLine
 10
138.7821999999999
 20
765.297
 30
0.0
 11
138.796109497082
 21
765.40941999881
 31
0.0
  0
LINE
  5
A7
330
1E
100
AcDbEntity
  8
0
100
AcDbLine
 10
140.1899
 20
765.297
 30
0.0
 11
140.329396851116
 21
766.464374576163
 31
0.0
  0
LINE
  5
A8
330
1E
100
AcDbEntity
  8
0
100
AcDbLine
 10
139.6723
 20
765.297
 30
0.0
 11
139.680116416737
 21
765.36241141325
 31
0.0
  0
LINE
  5
A9
330
1E
100
AcDbEntity
  8
0
100
AcDbLine
 10
139.6723
 20
765.297
 30
0.0
 11
140.1899
 21
765.297
 31
0.0
  0
LINE
  5
AA
330
1E
100
AcDbEntity
  8
0
100
AcDbLine
 10
138.2726999999999
 20
765.5429999999999
 30
0.0
 11
138.413913280261
 21
766.724738454127
 31
0.0
  0
LINE
  5
AB
330
1E
100
AcDbEntity
  8
0
100
AcDbLine
 10
138.2726999999999
 20
765.5429999999999
 30
0.0
 11
140.1899
 21
765.297
 31
0.0
  0
LINE
  5
AC
330
1E
100
AcDbEntity
  8
0
100
AcDbLine
 10
141.0806
 20
765.5429999999999
 30
0.0
 11
142.0805999999999
 21
765.5429999999999
 31
0.0
  0
LINE
  5
AD
330
1E
100
AcDbEntity
  8
0
100
AcDbLine
 10
141.0806
 20
765.5429999999999
 30
0.0
 11
141.199878952824
 21
766.656158069375
 31
0.0
  0
LINE
  5
AE
330
1E
100
AcDbEntity
  8
0
100
AcDbLine
 10
141.0806
 20
765.5429999999999
 30
0.0
 11
142.7994999999999
 21
765.297
 31
0.0
  0
LINE
  5
AF
330
1E
100
AcDbEntity
  8
0
100
AcDbLine
 10
143.7994999999999
 20
765.297
 30
0.0
 11
143.9121507673779
 21
766.3483012376409
 31
0.0
  0
LINE
  5
B0
330
1E
100
AcDbEntity
  8
0
100
AcDbLine
 10
143.7994999999999
 20
765.297
 30
0.0
 11
143.8413257439709
 21
765.6873342820039
 31
0.0
  0
LINE
  5
B1
330
1E
100
AcDbEntity
  8
0
100
AcDbLine
 10
142.7994999999999
 20
765.297
 30
0.0
 11
142.809101932212
 21
765.386609005361
 31
0.0
  0
LINE
  5
B2
330
1E
100
AcDbEntity
  8
0
100
AcDbLine
 10
142.7994999999999
 20
765.297
 30
0.0
 11
143.7994999999999
 21
765.297
 31
0.0
  0
LINE
  5
B3
330
1E
100
AcDbEntity
  8
0
100
AcDbLine
 10
142.0805999999999
 20
765.5429999999999
 30
0.0
 11
142.2132562216619
 21
766.7810000000001
 31
0.0
  0
LINE
  5
B4
330
1E
100
AcDbEntity
  8
0
100
AcDbLine
 10
142.0805999999999
 20
765.5429999999999
 30
0.0
 11
143.7994999999999
 21
765.297
 31
0.0
  0
LINE
  5
B5
330
1E
100
AcDbEntity
  8
0
100
AcDbLine
 10
130.9314
 20
767.1519999999999
 30
0.0
 11
131.150565610629
 21
768.281
 31
0.0
  0
LINE
  5
B6
330
1E
100
AcDbEntity
  8
0
100
AcDbLine
 10
130.166
 20
767.1519999999999
 30
0.0
 11
130.189014001634
 21
767.2705533066509
 31
0.0
  0
LINE
  5
B7
330
1E
100
AcDbEntity
  8
0
100
AcDbLine
 10
130.166
 20
767.1519999999999
 30
0.0
 11
130.9314
 21
767.1519999999999
 31
0.0
  0
LINE
  5
B8
330
1E
100
AcDbEntity
  8
0
100
AcDbLine
 10
135.8668
 20
767.1519999999999
 30
0.0
 11
137.0843999999999
 21
767.1519999999999
 31
0.0
  0
LINE
  5
B9
330
1E
100
AcDbEntity
  8
0
100
AcDbLine
 10
135.8668
 20
767.1519999999999
 30
0.0
 11
135.896191268545
 21
767.328275551771
 31
0.0
  0
LINE
  5
BA
330
1E
100
AcDbEntity
  8
0
100
AcDbLine
 10
137.0843999999999
 20
767.1519999999999
 30
0.0
 11
137.272585896781
 21
768.281
 31
0.0
  0
LINE
  5
BB
330
1E
100
AcDbEntity
  8
0
100
AcDbLine
 10
135.0999999999999
 20
766.7799999999999
 30
0.0
 11
136.922169816937
 21
766.552228772883
 31
0.0
  0
LINE
  5
BC
330
1E
100
AcDbEntity
  8
0
100
AcDbLine
 10
140.28959576105
 20
766.1313005298689
 30
0.0
 11
141.13235051918
 21
766.025956185103
 31
0.0
  0
LINE
  5
BD
330
1E
100
AcDbEntity
  8
0
100
AcDbLine
 10
144.0641
 20
767.1519999999999
 30
0.0
 11
145.6509
 21
767.1519999999999
 31
0.0
  0
LINE
  5
BE
330
1E
100
AcDbEntity
  8
0
100
AcDbLine
 10
143.9
 20
765.6799999999999
 30
0.0
 11
150.8968750794539
 21
764.995523090053
 31
0.0
  0
LINE
  5
BF
330
1E
100
AcDbEntity
  8
0
100
AcDbLine
 10
143.8413257439709
 20
765.6873342820039
 30
0.0
 11
143.9
 21
765.6799999999999
 31
0.0
  0
LINE
  5
C0
330
1E
100
AcDbEntity
  8
0
100
AcDbLine
 10
135.5315
 20
767.5629999999999
 30
0.0
 11
135.686084500897
 21
768.4901280056861
 31
0.0
  0
LINE
  5
C1
330
1E
100
AcDbEntity
  8
0
100
AcDbLine
 10
135.5315
 20
767.5629999999999
 30
0.0
 11
137.0843999999999
 21
767.1519999999999
 31
0.0
  0
LINE
  5
C2
330
1E
100
AcDbEntity
  8
0
100
AcDbLine
 10
131.3413999999999
 20
769.725
 30
0.0
 11
132.7555999999999
 21
769.725
 31
0.0
  0
LINE
  5
C3
330
1E
100
AcDbEntity
  8
0
100
AcDbLine
 10
132.7555999999999
 20
769.725
 30
0.0
 11
133.024152275846
 21
770.955113612516
 31
0.0
  0
LINE
  5
C4
330
1E
100
AcDbEntity
  8
0
100
AcDbLine
 10
131.4043
 20
770.315
 30
0.0
 11
131.614973992674
 21
771.2799999999999
 31
0.0
  0
LINE
  5
C5
330
1E
100
AcDbEntity
  8
0
100
AcDbLine
 10
131.4043
 20
770.315
 30
0.0
 11
132.7555999999999
 21
769.725
 31
0.0
  0
LINE
  5
C6
330
1E
100
AcDbEntity
  8
0
100
AcDbLine
 10
129.9901
 20
770.315
 30
0.0
 11
131.4043
 21
770.315
 31
0.0
  0
LINE
  5
C7
330
1E
100
AcDbEntity
  8
0
100
AcDbLine
 10
129.9901
 20
770.315
 30
0.0
 11
130.200773992674
 21
771.2799999999999
 31
0.0
  0
LINE
  5
C8
330
1E
100
AcDbEntity
  8
0
100
AcDbLine
 10
129.9901
 20
770.315
 30
0.0
 11
131.3413999999999
 21
769.725
 31
0.0
  0
LINE
  5
C9
330
1E
100
AcDbEntity
  8
0
100
AcDbLine
 10
134.314
 20
767.5629999999999
 30
0.0
 11
134.525280265608
 21
768.830163591161
 31
0.0
  0
LINE
  5
CA
330
1E
100
AcDbEntity
  8
0
100
AcDbLine
 10
134.314
 20
767.5629999999999
 30
0.0
 11
135.5315
 21
767.5629999999999
 31
0.0
  0
LINE
  5
CB
330
1E
100
AcDbEntity
  8
0
100
AcDbLine
 10
134.314
 20
767.5629999999999
 30
0.0
 11
135.8668
 21
767.1519999999999
 31
0.0
  0
LINE
  5
CC
330
1E
100
AcDbEntity
  8
0
100
AcDbLine
 10
129.1231
 20
767.5629999999999
 30
0.0
 11
129.39048883853
 21
768.940414996058
 31
0.0
  0
LINE
  5
CD
330
1E
100
AcDbEntity
  8
0
100
AcDbLine
 10
129.1231
 20
767.5629999999999
 30
0.0
 11
130.9314
 21
767.1519999999999
 31
0.0
  0
LINE
  5
CE
330
1E
100
AcDbEntity
  8
0
100
AcDbLine
 10
133.0
 20
773.08
 30
0.0
 11
140.0999999999999
 21
773.08
 31
0.0
  0
LINE
  5
CF
330
1E
100
AcDbEntity
  8
0
100
AcDbLine
 10
140.0999999999999
 20
773.08
 30
0.0
 11
147.6999999999999
 21
773.08
 31
0.0
  0
LINE
  5
D0
330
1E
100
AcDbEntity
  8
0
100
AcDbLine
 10
133.0
 20
774.081
 30
0.0
 11
140.0999999999999
 21
774.081
 31
0.0
  0
LINE
  5
D1
330
1E
100
AcDbEntity
  8
0
100
AcDbLine
 10
144.4593
 20
767.5629999999999
 30
0.0
 11
144.5626355220469
 21
768.3706182773429
 31
0.0
  0
LINE
  5
D2
330
1E
100
AcDbEntity
  8
0
100
AcDbLine
 10
144.4593
 20
767.5629999999999
 30
0.0
 11
145.6509
 21
767.1519999999999
 31
0.0
  0
LINE
  5
D3
330
1E
100
AcDbEntity
  8
0
100
AcDbLine
 10
143.0303999999999
 20
769.725
 30
0.0
 11
144.7624999999999
 21
769.725
 31
0.0
  0
LINE
  5
D4
330
1E
100
AcDbEntity
  8
0
100
AcDbLine
 10
144.7624999999999
 20
769.725
 30
0.0
 11
144.9585955938059
 21
770.995300609367
 31
0.0
  0
LINE
  5
D5
330
1E
100
AcDbEntity
  8
0
100
AcDbLine
 10
143.807
 20
770.315
 30
0.0
 11
143.9559665096809
 21
771.2799999999999
 31
0.0
  0
LINE
  5
D6
330
1E
100
AcDbEntity
  8
0
100
AcDbLine
 10
143.807
 20
770.315
 30
0.0
 11
144.7624999999999
 21
769.725
 31
0.0
  0
LINE
  5
D7
330
1E
100
AcDbEntity
  8
0
100
AcDbLine
 10
142.0749
 20
770.315
 30
0.0
 11
142.2239170068029
 21
771.2799999999999
 31
0.0
  0
LINE
  5
D8
330
1E
100
AcDbEntity
  8
0
100
AcDbLine
 10
142.0749
 20
770.315
 30
0.0
 11
143.807
 21
770.315
 31
0.0
  0
LINE
  5
D9
330
1E
100
AcDbEntity
  8
0
100
AcDbLine
 10
142.0749
 20
770.315
 30
0.0
 11
143.0303999999999
 21
769.725
 31
0.0
  0
LINE
  5
DA
330
1E
100
AcDbEntity
  8
0
100
AcDbLine
 10
142.8726
 20
767.5629999999999
 30
0.0
 11
143.004703529973
 21
768.5954545054201
 31
0.0
  0
LINE
  5
DB
330
1E
100
AcDbEntity
  8
0
100
AcDbLine
 10
142.8726
 20
767.5629999999999
 30
0.0
 11
144.4593
 21
767.5629999999999
 31
0.0
  0
LINE
  5
DC
330
1E
100
AcDbEntity
  8
0
100
AcDbLine
 10
142.8726
 20
767.5629999999999
 30
0.0
 11
144.0641
 21
767.1519999999999
 31
0.0
  0
LINE
  5
DD
330
1E
100
AcDbEntity
  8
0
100
AcDbLine
 10
140.0999999999999
 20
774.081
 30
0.0
 11
147.6999999999999
 21
774.081
 31
0.0
  0
LINE
  5
DE
330
1E
100
AcDbEntity
  8
0
100
AcDbLine
 10
131.0046148670809
 20
767.5291558169971
 30
0.0
 11
135.0999999999999
 21
766.7799999999999
 31
0.0
  0
LINE
  5
DF
330
1E
100
AcDbEntity
  8
0
100
AcDbLine
 10
128.6999999999999
 20
778.88
 30
0.0
 11
136.5999999999999
 21
778.88
 31
0.0
  0
LINE
  5
E0
330
1E
100
AcDbEntity
  8
0
100
AcDbLine
 10
136.5999999999999
 20
778.88
 30
0.0
 11
145.0
 21
778.88
 31
0.0
  0
LINE
  5
E1
330
1E
100
AcDbEntity
  8
0
100
AcDbLine
 10
128.4999999999999
 20
778.88
 30
0.0
 11
136.4999999999999
 21
778.88
 31
0.0
  0
LINE
  5
E2
330
1E
100
AcDbEntity
  8
0
100
AcDbLine
 10
136.4999999999999
 20
778.88
 30
0.0
 11
144.9
 21
778.88
 31
0.0
  0
LINE
  5
E3
330
1E
100
AcDbEntity
  8
0
100
AcDbLine
 10
146.5473
 20
765.5429999999999
 30
0.0
 11
146.647074105529
 21
766.683850227389
 31
0.0
  0
LINE
  5
E4
330
1E
100
AcDbEntity
  8
0
100
AcDbLine
 10
146.5473
 20
765.5429999999999
 30
0.0
 11
147.9615
 21
765.5429999999999
 31
0.0
  0
LINE
  5
E5
330
1E
100
AcDbEntity
  8
0
100
AcDbLine
 10
146.5473
 20
765.5429999999999
 30
0.0
 11
147.9507999999999
 21
765.297
 31
0.0
  0
LINE
  5
E6
330
1E
100
AcDbEntity
  8
0
100
AcDbLine
 10
145.6509
 20
767.1519999999999
 30
0.0
 11
145.795298926929
 21
768.281
 31
0.0
  0
LINE
  5
E7
330
1E
100
AcDbEntity
  8
0
100
AcDbLine
 10
145.0
 20
778.88
 30
0.0
 11
153.9
 21
778.88
 31
0.0
  0
LINE
  5
E8
330
1E
100
AcDbEntity
  8
0
100
AcDbLine
 10
144.9
 20
778.88
 30
0.0
 11
153.9
 21
778.88
 31
0.0
  0
LINE
  5
E9
330
1E
100
AcDbEntity
  8
0
100
AcDbLine
 10
115.4
 20
778.88
 30
0.0
 11
121.5999999999999
 21
778.88
 31
0.0
  0
LINE
  5
EA
330
1E
100
AcDbEntity
  8
0
100
AcDbLine
 10
115.2
 20
778.88
 30
0.0
 11
121.5
 21
778.88
 31
0.0
  0
LINE
  5
EB
330
1E
100
AcDbEntity
  8
0
100
AcDbLine
 10
109.8999999999999
 20
778.88
 30
0.0
 11
115.2
 21
778.88
 31
0.0
  0
LINE
  5
EC
330
1E
100
AcDbEntity
  8
0
100
AcDbLine
 10
105.8
 20
778.88
 30
0.0
 11
109.8999999999999
 21
778.88
 31
0.0
  0
LINE
  5
ED
330
1E
100
AcDbEntity
  8
0
100
AcDbLine
 10
102.8
 20
778.88
 30
0.0
 11
105.8
 21
778.88
 31
0.0
  0
LINE
  5
EE
330
1E
100
AcDbEntity
  8
0
100
AcDbLine
 10
100.9
 20
778.88
 30
0.0
 11
102.8
 21
778.88
 31
0.0
  0
LINE
  5
F1
330
1E
100
AcDbEntity
  8
0
100
AcDbLine
 10
100.2
 20
778.88
 30
0.0
 11
100.4
 21
778.88
 31
0.0
  0
LINE
  5
F2
330
1E
100
AcDbEntity
  8
0
100
AcDbLine
 10
100.2
 20
778.88
 30
0.0
 11
100.9
 21
778.88
 31
0.0
  0
LINE
  5
F3
330
1E
100
AcDbEntity
  8
0
100
AcDbLine
 10
98.3
 20
781.4799999999999
 30
0.0
 11
100.2
 21
778.88
 31
0.0
  0
LINE
  5
F4
330
1E
100
AcDbEntity
  8
0
100
AcDbLine
 10
143.9
 20
802.48
 30
0.0
 11
153.0999999999999
 21
803.3799999999999
 31
0.0
  0
LINE
  5
F5
330
1E
100
AcDbEntity
  8
0
100
AcDbLine
 10
135.0999999999999
 20
801.3799999999999
 30
0.0
 11
143.9
 21
802.48
 31
0.0
  0
LINE
  5
F6
330
1E
100
AcDbEntity
  8
0
100
AcDbLine
 10
126.9
 20
799.88
 30
0.0
 11
135.0999999999999
 21
801.3799999999999
 31
0.0
  0
LINE
  5
F7
330
1E
100
AcDbEntity
  8
0
100
AcDbLine
 10
119.5999999999999
 20
798.1799999999999
 30
0.0
 11
126.9
 21
799.88
 31
0.0
  0
LINE
  5
F8
330
1E
100
AcDbEntity
  8
0
100
AcDbLine
 10
113.1
 20
796.2799999999999
 30
0.0
 11
119.5999999999999
 21
798.1799999999999
 31
0.0
  0
LINE
  5
F9
330
1E
100
AcDbEntity
  8
0
100
AcDbLine
 10
107.4999999999999
 20
794.08
 30
0.0
 11
113.1
 21
796.2799999999999
 31
0.0
  0
LINE
  5
FA
330
1E
100
AcDbEntity
  8
0
100
AcDbLine
 10
103.4
 20
791.681
 30
0.0
 11
107.4999999999999
 21
794.08
 31
0.0
  0
LINE
  5
FB
330
1E
100
AcDbEntity
  8
0
100
AcDbLine
 10
100.2
 20
789.28
 30
0.0
 11
103.4
 21
791.681
 31
0.0
  0
LINE
  5
FC
330
1E
100
AcDbEntity
  8
0
100
AcDbLine
 10
98.3
 20
786.6799999999999
 30
0.0
 11
100.2
 21
789.28
 31
0.0
  0
LINE
  5
FD
330
1E
100
AcDbEntity
  8
0
100
AcDbLine
 10
97.5
 20
784.08
 30
0.0
 11
98.3
 21
786.6799999999999
 31
0.0
  0
LINE
  5
FE
330
1E
100
AcDbEntity
  8
0
100
AcDbLine
 10
97.5
 20
784.08
 30
0.0
 11
98.3
 21
781.4799999999999
 31
0.0
  0
LINE
  5
FF
330
1E
100
AcDbEntity
  8
0
100
AcDbLine
 10
147.5
 20
765.3278260869569
 30
0.0
 11
147.5
 21
210.0
 31
0.0
  0
LINE
  5
100
330
1E
100
AcDbEntity
  8
0
100
AcDbLine
 10
147.5
 20
1003.0
 30
0.0
 11
148.0
 21
1003.0
 31
0.0
  0
LINE
  5
101
330
1E
100
AcDbEntity
  8
0
100
AcDbLine
 10
147.5
 20
1003.0
 30
0.0
 11
147.5
 21
983.0
 31
0.0
  0
LINE
  5
102
330
1E
100
AcDbEntity
  8
0
100
AcDbLine
 10
147.5
 20
983.0
 30
0.0
 11
147.5
 21
802.8321739130431
 31
0.0
  0
LINE
  5
103
330
1E
100
AcDbEntity
  8
0
100
AcDbLine
 10
147.5
 20
983.0
 30
0.0
 11
147.5
 21
1003.0
 31
0.0
  0
LINE
  5
104
330
1E
100
AcDbEntity
  8
0
100
AcDbLine
 10
147.9507999999999
 20
765.297
 30
0.0
 11
149.365
 21
765.297
 31
0.0
  0
LINE
  5
105
330
1E
100
AcDbEntity
  8
0
100
AcDbLine
 10
147.9507999999999
 20
765.297
 30
0.0
 11
147.9615222320009
 21
765.419530975948
 31
0.0
  0
LINE
  5
106
330
1E
100
AcDbEntity
  8
0
100
AcDbLine
 10
147.9615
 20
765.5429999999999
 30
0.0
 11
148.06983279597
 21
766.7810000000001
 31
0.0
  0
LINE
  5
107
330
1E
100
AcDbEntity
  8
0
100
AcDbLine
 10
147.9615
 20
765.5429999999999
 30
0.0
 11
149.365
 21
765.297
 31
0.0
  0
LINE
  5
108
330
1E
100
AcDbEntity
  8
0
100
AcDbLine
 10
147.6999999999999
 20
773.08
 30
0.0
 11
155.6999999999999
 21
773.08
 31
0.0
  0
LINE
  5
109
330
1E
100
AcDbEntity
  8
0
100
AcDbLine
 10
147.6999999999999
 20
774.081
 30
0.0
 11
155.6999999999999
 21
774.081
 31
0.0
  0
LINE
  5
10A
330
1E
100
AcDbEntity
  8
0
100
AcDbLine
 10
149.365
 20
765.297
 30
0.0
 11
149.4589025052869
 21
766.370094260187
 31
0.0
  0
LINE
  5
10B
330
1E
100
AcDbEntity
  8
0
100
AcDbLine
 10
149.5593
 20
764.12
 30
0.0
 11
149.603649109836
 21
765.1455731649609
 31
0.0
  0
LINE
  5
10C
330
1E
100
AcDbEntity
  8
0
100
AcDbLine
 10
149.5593
 20
764.12
 30
0.0
 11
151.5403
 21
764.033
 31
0.0
  0
LINE
  5
10D
330
1E
100
AcDbEntity
  8
0
100
AcDbLine
 10
148.0
 20
1003.0
 30
0.0
 11
150.0
 21
1003.0
 31
0.0
  0
LINE
  5
10E
330
1E
100
AcDbEntity
  8
0
100
AcDbLine
 10
150.0
 20
1003.0
 30
0.0
 11
153.5
 21
1003.0
 31
0.0
  0
LINE
  5
10F
330
1E
100
AcDbEntity
  8
0
100
AcDbLine
 10
147.5
 20
802.8321739130431
 30
0.0
 11
147.5
 21
983.0
 31
0.0
  0
LINE
  5
110
330
1E
100
AcDbEntity
  8
0
100
AcDbLine
 10
149.9700999999999
 20
751.2999999999999
 30
0.0
 11
150.0963999999999
 21
752.7999999999999
 31
0.0
  0
LINE
  5
111
330
1E
100
AcDbEntity
  8
0
100
AcDbLine
 10
150.0963999999999
 20
752.7999999999999
 30
0.0
 11
150.2425999999999
 21
753.7
 31
0.0
  0
LINE
  5
112
330
1E
100
AcDbEntity
  8
0
100
AcDbLine
 10
150.0963999999999
 20
737.2
 30
0.0
 11
152.1298999999999
 21
728.2999999999999
 31
0.0
  0
LINE
  5
113
330
1E
100
AcDbEntity
  8
0
100
AcDbLine
 10
151.4024
 20
19.18099999999999
 30
0.0
 11
154.5913999999999
 21
20.643
 31
0.0
  0
LINE
  5
114
330
1E
100
AcDbEntity
  8
0
100
AcDbLine
 10
151.29870310453
 20
19.1334255197956
 30
0.0
 11
153.3376
 21
20.06799999999999
 31
0.0
  0
LINE
  5
115
330
1E
100
AcDbEntity
  8
0
100
AcDbLine
 10
153.3376
 20
20.06799999999999
 30
0.0
 11
154.3949519819499
 21
20.55293822439979
 31
0.0
  0
LINE
  5
116
330
1E
100
AcDbEntity
  8
0
100
AcDbLine
 10
155.0
 20
210.0
 30
0.0
 11
155.0
 21
150.0
 31
0.0
  0
LINE
  5
117
330
1E
100
AcDbEntity
  8
0
100
AcDbLine
 10
155.0
 20
210.0
 30
0.0
 11
156.8
 21
210.0
 31
0.0
  0
LINE
  5
118
330
1E
100
AcDbEntity
  8
0
100
AcDbLine
 10
155.0
 20
150.0
 30
0.0
 11
156.8
 21
150.0
 31
0.0
  0
LINE
  5
119
330
1E
100
AcDbEntity
  8
0
100
AcDbLine
 10
155.0
 20
150.0
 30
0.0
 11
155.0
 21
210.0
 31
0.0
  0
LINE
  5
11A
330
1E
100
AcDbEntity
  8
0
100
AcDbLine
 10
155.037042307619
 20
20.8474230768895
 30
0.0
 11
156.2832999999999
 21
21.419
 31
0.0
  0
LINE
  5
11B
330
1E
100
AcDbEntity
  8
0
100
AcDbLine
 10
154.5913999999999
 20
20.643
 30
0.0
 11
157.4253999999999
 21
21.943
 31
0.0
  0
LINE
  5
11C
330
1E
100
AcDbEntity
  8
0
100
AcDbLine
 10
153.5
 20
-0.0000000000000014
 30
0.0
 11
157.5
 21
-0.0000000000000013
 31
0.0
  0
LINE
  5
11D
330
1E
100
AcDbEntity
  8
0
100
AcDbLine
 10
153.5
 20
-0.0000000000000025
 30
0.0
 11
157.5
 21
-0.0000000000000026
 31
0.0
  0
LINE
  5
11E
330
1E
100
AcDbEntity
  8
0
100
AcDbLine
 10
157.5
 20
-0.0000000000000013
 30
0.0
 11
163.4999999999999
 21
-0.0000000000000012
 31
0.0
  0
LINE
  5
11F
330
1E
100
AcDbEntity
  8
0
100
AcDbLine
 10
157.5
 20
-0.0000000000000026
 30
0.0
 11
163.4999999999999
 21
-0.0000000000000026
 31
0.0
  0
LINE
  5
120
330
1E
100
AcDbEntity
  8
0
100
AcDbLine
 10
156.2832999999999
 20
21.419
 30
0.0
 11
158.7093
 21
22.53199999999999
 31
0.0
  0
LINE
  5
121
330
1E
100
AcDbEntity
  8
0
100
AcDbLine
 10
156.8
 20
210.0
 30
0.0
 11
161.6999999999999
 21
210.0
 31
0.0
  0
LINE
  5
122
330
1E
100
AcDbEntity
  8
0
100
AcDbLine
 10
156.8
 20
150.0
 30
0.0
 11
160.5244150895179
 21
150.0
 31
0.0
  0
LINE
  5
123
330
1E
100
AcDbEntity
  8
0
100
AcDbLine
 10
156.8
 20
150.0
 30
0.0
 11
161.6999999999999
 21
150.0
 31
0.0
  0
LINE
  5
124
330
1E
100
AcDbEntity
  8
0
100
AcDbLine
 10
157.4253999999999
 20
21.943
 30
0.0
 11
159.389
 21
22.844
 31
0.0
  0
LINE
  5
125
330
1E
100
AcDbEntity
  8
0
100
AcDbLine
 10
157.5
 20
489.1169120062309
 30
0.0
 11
157.5
 21
666.830340003253
 31
0.0
  0
LINE
  5
126
330
1E
100
AcDbEntity
  8
0
100
AcDbLine
 10
157.5
 20
20.0
 30
0.0
 11
157.5
 21
21.977197485573
 31
0.0
  0
LINE
  5
127
330
1E
100
AcDbEntity
  8
0
100
AcDbLine
 10
157.5
 20
20.0
 30
0.0
 11
163.4999999999999
 21
20.0
 31
0.0
  0
LINE
  5
128
330
1E
100
AcDbEntity
  8
0
100
AcDbLine
 10
158.7093
 20
22.53199999999999
 30
0.0
 11
160.1619
 21
23.198
 31
0.0
  0
LINE
  5
129
330
1E
100
AcDbEntity
  8
0
100
AcDbLine
 10
159.389
 20
22.844
 30
0.0
 11
160.432
 21
23.32199999999999
 31
0.0
  0
LINE
  5
12A
330
1E
100
AcDbEntity
  8
0
100
AcDbLine
 10
158.9481
 20
541.07
 30
0.0
 11
159.7960999999999
 21
574.0599999999999
 31
0.0
  0
LINE
  5
12B
330
1E
100
AcDbEntity
  8
0
100
AcDbLine
 10
160.1619
 20
23.198
 30
0.0
 11
160.432
 21
23.32199999999999
 31
0.0
  0
LINE
  5
12C
330
1E
100
AcDbEntity
  8
0
100
AcDbLine
 10
161.6999999999999
 20
210.0
 30
0.0
 11
169.6999999999999
 21
210.0
 31
0.0
  0
LINE
  5
12D
330
1E
100
AcDbEntity
  8
0
100
AcDbLine
 10
161.6999999999999
 20
150.0
 30
0.0
 11
169.6999999999999
 21
150.0
 31
0.0
  0
LINE
  5
12E
330
1E
100
AcDbEntity
  8
0
100
AcDbLine
 10
160.432
 20
23.3220000000001
 30
0.0
 11
163.985256584604
 21
150.0
 31
0.0
  0
LINE
  5
12F
330
1E
100
AcDbEntity
  8
0
100
AcDbLine
 10
160.432
 20
23.32199999999999
 30
0.0
 11
163.985256584604
 21
150.0
 31
0.0
  0
LINE
  5
130
330
1E
100
AcDbEntity
  8
0
100
AcDbLine
 10
159.7960999999999
 20
574.0599999999999
 30
0.0
 11
160.37
 21
597.0499999999999
 31
0.0
  0
LINE
  5
131
330
1E
100
AcDbEntity
  8
0
100
AcDbLine
 10
160.37
 20
597.0499999999999
 30
0.0
 11
160.9772
 21
621.84
 31
0.0
  0
LINE
  5
132
330
1E
100
AcDbEntity
  8
0
100
AcDbLine
 10
163.4999999999999
 20
20.0
 30
0.0
 11
172.5
 21
20.0
 31
0.0
  0
LINE
  5
133
330
1E
100
AcDbEntity
  8
0
100
AcDbLine
 10
163.4999999999999
 20
-0.0000000000000012
 30
0.0
 11
172.5
 21
-0.0000000000000012
 31
0.0
  0
LINE
  5
134
330
1E
100
AcDbEntity
  8
0
100
AcDbLine
 10
163.985256584604
 20
150.0
 30
0.0
 11
169.6999999999999
 21
150.0
 31
0.0
  0
LINE
  5
135
330
1E
100
AcDbEntity
  8
0
100
AcDbLine
 10
163.985256584604
 20
150.0
 30
0.0
 11
187.5
 21
150.0
 31
0.0
  0
LINE
  5
136
330
1E
100
AcDbEntity
  8
0
100
AcDbLine
 10
163.985256584604
 20
150.0
 30
0.0
 11
192.5
 21
150.0
 31
0.0
  0
LINE
  5
137
330
1E
100
AcDbEntity
  8
0
100
AcDbLine
 10
169.6999999999999
 20
150.0
 30
0.0
 11
180.0999999999999
 21
150.0
 31
0.0
  0
LINE
  5
138
330
1E
100
AcDbEntity
  8
0
100
AcDbLine
 10
169.6999999999999
 20
150.0
 30
0.0
 11
180.0999999999999
 21
150.0
 31
0.0
  0
LINE
  5
139
330
1E
100
AcDbEntity
  8
0
100
AcDbLine
 10
172.5
 20
20.0
 30
0.0
 11
181.4999999999999
 21
20.0
 31
0.0
  0
LINE
  5
13A
330
1E
100
AcDbEntity
  8
0
100
AcDbLine
 10
172.5
 20
-0.0000000000000012
 30
0.0
 11
181.4999999999999
 21
-0.0000000000000012
 31
0.0
  0
LINE
  5
13B
330
1E
100
AcDbEntity
  8
0
100
AcDbLine
 10
187.5
 20
-0.0000000000000013
 30
0.0
 11
191.5
 21
-0.0000000000000014
 31
0.0
  0
LINE
  5
13C
330
1E
100
AcDbEntity
  8
0
100
AcDbLine
 10
181.0
 20
150.0
 30
0.0
 11
182.6003
 21
150.0
 31
0.0
  0
LINE
  5
13D
330
1E
100
AcDbEntity
  8
0
100
AcDbLine
 10
181.0
 20
150.0
 30
0.0
 11
192.5
 21
150.0
 31
0.0
  0
LINE
  5
13E
330
1E
100
AcDbEntity
  8
0
100
AcDbLine
 10
180.0999999999999
 20
150.0
 30
0.0
 11
192.1999999999999
 21
150.0
 31
0.0
  0
LINE
  5
140
330
1E
100
AcDbEntity
  8
0
100
AcDbLine
 10
180.0999999999999
 20
150.0
 30
0.0
 11
192.1999999999999
 21
150.0
 31
0.0
  0
LINE
  5
141
330
1E
100
AcDbEntity
  8
0
100
AcDbLine
 10
182.6003
 20
150.0
 30
0.0
 11
192.1999999999999
 21
150.0
 31
0.0
  0
LINE
  5
142
330
1E
100
AcDbEntity
  8
0
100
AcDbLine
 10
187.5
 20
150.0
 30
0.0
 11
187.5
 21
20.0
 31
0.0
  0
LINE
  5
143
330
1E
100
AcDbEntity
  8
0
100
AcDbLine
 10
181.4999999999999
 20
20.0
 30
0.0
 11
187.5
 21
20.0
 31
0.0
  0
LINE
  5
144
330
1E
100
AcDbEntity
  8
0
100
AcDbLine
 10
181.4999999999999
 20
-0.0000000000000012
 30
0.0
 11
187.5
 21
-0.0000000000000013
 31
0.0
  0
LINE
  5
145
330
1E
100
AcDbEntity
  8
0
100
AcDbLine
 10
195.0
 20
-0.0000000000000016
 30
0.0
 11
197.0
 21
-0.0000000000000017
 31
0.0
  0
LINE
  5
146
330
1E
100
AcDbEntity
  8
0
100
AcDbLine
 10
192.1999999999999
 20
150.0
 30
0.0
 11
205.0
 21
150.0
 31
0.0
  0
LINE
  5
148
330
1E
100
AcDbEntity
  8
0
100
AcDbLine
 10
192.6476
 20
150.0
 30
0.0
 11
195.5424999999999
 21
150.0
 31
0.0
  0
LINE
  5
149
330
1E
100
AcDbEntity
  8
0
100
AcDbLine
 10
192.5
 20
150.0
 30
0.0
 11
192.6476
 21
150.0
 31
0.0
  0
LINE
  5
14A
330
1E
100
AcDbEntity
  8
0
100
AcDbLine
 10
192.1999999999999
 20
150.0
 30
0.0
 11
205.0
 21
150.0
 31
0.0
  0
LINE
  5
14B
330
1E
100
AcDbEntity
  8
0
100
AcDbLine
 10
191.5
 20
-0.0000000000000014
 30
0.0
 11
195.0
 21
-0.0000000000000016
 31
0.0
  0
LINE
  5
14C
330
1E
100
AcDbEntity
  8
0
100
AcDbLine
 10
197.5
 20
-0.0000000000000019
 30
0.0
 11
197.5
 21
20.0
 31
0.0
  0
LINE
  5
14D
330
1E
100
AcDbEntity
  8
0
100
AcDbLine
 10
195.5424999999999
 20
150.0
 30
0.0
 11
204.15
 21
150.0
 31
0.0
  0
LINE
  5
14E
330
1E
100
AcDbEntity
  8
0
100
AcDbLine
 10
197.0
 20
-0.0000000000000017
 30
0.0
 11
197.5
 21
-0.0000000000000019
 31
0.0
  0
LINE
  5
14F
330
1E
100
AcDbEntity
  8
0
100
AcDbLine
 10
204.15
 20
150.0
 30
0.0
 11
205.0
 21
150.0
 31
0.0
  0
LINE
  5
150
330
1E
100
AcDbEntity
  8
0
100
AcDbLine
 10
255.0
 20
150.0
 30
0.0
 11
255.0
 21
210.0
 31
0.0
  0
LINE
  5
151
330
1E
100
AcDbEntity
  8
0
100
AcDbLine
 10
253.2
 20
150.0
 30
0.0
 11
255.0
 21
150.0
 31
0.0
  0
LINE
  5
152
330
1E
100
AcDbEntity
  8
0
100
AcDbLine
 10
248.3
 20
150.0
 30
0.0
 11
253.2
 21
150.0
 31
0.0
  0
LINE
  5
153
330
1E
100
AcDbEntity
  8
0
100
AcDbLine
 10
240.3
 20
150.0
 30
0.0
 11
248.3
 21
150.0
 31
0.0
  0
LINE
  5
154
330
1E
100
AcDbEntity
  8
0
100
AcDbLine
 10
229.8999999999999
 20
150.0
 30
0.0
 11
240.3
 21
150.0
 31
0.0
  0
LINE
  5
155
330
1E
100
AcDbEntity
  8
0
100
AcDbLine
 10
217.8
 20
150.0
 30
0.0
 11
229.8999999999999
 21
150.0
 31
0.0
  0
LINE
  5
157
330
1E
100
AcDbEntity
  8
0
100
AcDbLine
 10
205.0
 20
150.0
 30
0.0
 11
217.8
 21
150.0
 31
0.0
  0
LINE
  5
158
330
1E
100
AcDbEntity
  8
0
100
AcDbLine
 10
240.3
 20
150.0
 30
0.0
 11
248.3
 21
150.0
 31
0.0
  0
LINE
  5
159
330
1E
100
AcDbEntity
  8
0
100
AcDbLine
 10
229.8999999999999
 20
150.0
 30
0.0
 11
240.3
 21
150.0
 31
0.0
  0
LINE
  5
15B
330
1E
100
AcDbEntity
  8
0
100
AcDbLine
 10
217.8
 20
150.0
 30
0.0
 11
229.8999999999999
 21
150.0
 31
0.0
  0
LINE
  5
15D
330
1E
100
AcDbEntity
  8
0
100
AcDbLine
 10
205.0
 20
150.0
 30
0.0
 11
217.8
 21
150.0
 31
0.0
  0
LINE
  5
15E
330
1E
100
AcDbEntity
  8
0
100
AcDbLine
 10
197.5
 20
20.0
 30
0.0
 11
197.5
 21
-0.0000000000000035
 31
0.0
  0
LINE
  5
15F
330
1E
100
AcDbEntity
  8
0
100
AcDbLine
 10
197.5
 20
20.0
 30
0.0
 11
197.5
 21
150.0
 31
0.0
  0
LINE
  5
160
330
1E
100
AcDbEntity
  8
0
100
AcDbLine
 10
197.0
 20
-0.0000000000000021
 30
0.0
 11
197.5
 21
-0.0000000000000019
 31
0.0
  0
LINE
  5
161
330
1E
100
AcDbEntity
  8
0
100
AcDbLine
 10
195.0
 20
-0.0000000000000023
 30
0.0
 11
197.0
 21
-0.0000000000000021
 31
0.0
  0
LINE
  5
162
330
1E
100
AcDbEntity
  8
0
100
AcDbLine
 10
191.5
 20
-0.0000000000000025
 30
0.0
 11
195.0
 21
-0.0000000000000023
 31
0.0
  0
LINE
  5
163
330
1E
100
AcDbEntity
  8
0
100
AcDbLine
 10
187.5
 20
-0.0000000000000026
 30
0.0
 11
191.5
 21
-0.0000000000000025
 31
0.0
  0
LINE
  5
164
330
1E
100
AcDbEntity
  8
0
100
AcDbLine
 10
181.4999999999999
 20
-0.0000000000000026
 30
0.0
 11
187.5
 21
-0.0000000000000026
 31
0.0
  0
LINE
  5
165
330
1E
100
AcDbEntity
  8
0
100
AcDbLine
 10
172.5
 20
-0.0000000000000026
 30
0.0
 11
181.4999999999999
 21
-0.0000000000000026
 31
0.0
  0
LINE
  5
166
330
1E
100
AcDbEntity
  8
0
100
AcDbLine
 10
169.6999999999999
 20
210.0
 30
0.0
 11
180.0999999999999
 21
210.0
 31
0.0
  0
LINE
  5
167
330
1E
100
AcDbEntity
  8
0
100
AcDbLine
 10
165.668227543067
 20
210.0
 30
0.0
 11
174.9427999999999
 21
540.65
 31
0.0
  0
LINE
  5
168
330
1E
100
AcDbEntity
  8
0
100
AcDbLine
 10
165.668227543067
 20
210.0
 30
0.0
 11
174.9427999999999
 21
540.65
 31
0.0
  0
LINE
  5
169
330
1E
100
AcDbEntity
  8
0
100
AcDbLine
 10
174.9427999999999
 20
540.65
 30
0.0
 11
175.7905
 21
573.6399999999999
 31
0.0
  0
LINE
  5
16A
330
1E
100
AcDbEntity
  8
0
100
AcDbLine
 10
175.7905
 20
573.6399999999999
 30
0.0
 11
176.3636999999999
 21
596.64
 31
0.0
  0
LINE
  5
16C
330
1E
100
AcDbEntity
  8
0
100
AcDbLine
 10
180.0999999999999
 20
210.0
 30
0.0
 11
192.1999999999999
 21
210.0
 31
0.0
  0
LINE
  5
16D
330
1E
100
AcDbEntity
  8
0
100
AcDbLine
 10
176.3636999999999
 20
596.64
 30
0.0
 11
176.9719
 21
621.4299999999999
 31
0.0
  0
LINE
  5
16E
330
1E
100
AcDbEntity
  8
0
100
AcDbLine
 10
176.446134530052
 20
600.0
 30
0.0
 11
180.5111
 21
600.0
 31
0.0
  0
LINE
  5
170
330
1E
100
AcDbEntity
  8
0
100
AcDbLine
 10
192.1999999999999
 20
210.0
 30
0.0
 11
205.0
 21
210.0
 31
0.0
  0
LINE
  5
172
330
1E
100
AcDbEntity
  8
0
100
AcDbLine
 10
180.5111
 20
600.0
 30
0.0
 11
183.5045
 21
606.5
 31
0.0
  0
LINE
  5
173
330
1E
100
AcDbEntity
  8
0
100
AcDbLine
 10
185.5
 20
619.2
 30
0.0
 11
185.9121
 21
632.6
 31
0.0
  0
LINE
  5
174
330
1E
100
AcDbEntity
  8
0
100
AcDbLine
 10
183.5045
 20
606.5
 30
0.0
 11
185.5
 21
619.2
 31
0.0
  0
LINE
  5
175
330
1E
100
AcDbEntity
  8
0
100
AcDbLine
 10
253.2
 20
210.0
 30
0.0
 11
255.0
 21
210.0
 31
0.0
  0
LINE
  5
176
330
1E
100
AcDbEntity
  8
0
100
AcDbLine
 10
248.3
 20
210.0
 30
0.0
 11
253.2
 21
210.0
 31
0.0
  0
LINE
  5
177
330
1E
100
AcDbEntity
  8
0
100
AcDbLine
 10
240.3
 20
210.0
 30
0.0
 11
248.3
 21
210.0
 31
0.0
  0
LINE
  5
179
330
1E
100
AcDbEntity
  8
0
100
AcDbLine
 10
229.8999999999999
 20
210.0
 30
0.0
 11
240.3
 21
210.0
 31
0.0
  0
LINE
  5
17B
330
1E
100
AcDbEntity
  8
0
100
AcDbLine
 10
217.8
 20
210.0
 30
0.0
 11
229.8999999999999
 21
210.0
 31
0.0
  0
LINE
  5
17D
330
1E
100
AcDbEntity
  8
0
100
AcDbLine
 10
205.0
 20
210.0
 30
0.0
 11
217.8
 21
210.0
 31
0.0
  0
LINE
  5
17E
330
1E
100
AcDbEntity
  8
0
100
AcDbLine
 10
255.0
 20
210.0
 30
0.0
 11
255.0
 21
150.0
 31
0.0
  0
LINE
  5
17F
330
1E
100
AcDbEntity
  8
0
100
AcDbLine
 10
197.5
 20
210.0
 30
0.0
 11
197.5
 21
765.3278260869569
 31
0.0
  0
LINE
  5
180
330
1E
100
AcDbEntity
  8
0
100
AcDbLine
 10
197.5
 20
150.0
 30
0.0
 11
197.5
 21
20.0
 31
0.0
  0
LINE
  5
181
330
1E
100
AcDbEntity
  8
0
100
AcDbLine
 10
163.4999999999999
 20
-0.0000000000000026
 30
0.0
 11
172.5
 21
-0.0000000000000026
 31
0.0
  0
LINE
  5
182
330
1E
100
AcDbEntity
  8
0
100
AcDbLine
 10
176.9719
 20
621.4299999999999
 30
0.0
 11
177.574
 21
646.52
 31
0.0
  0
LINE
  5
183
330
1E
100
AcDbEntity
  8
0
100
AcDbLine
 10
177.574
 20
646.52
 30
0.0
 11
178.1087
 21
669.61
 31
0.0
  0
LINE
  5
184
330
1E
100
AcDbEntity
  8
0
100
AcDbLine
 10
160.9772
 20
621.84
 30
0.0
 11
161.5802999999999
 21
646.9299999999999
 31
0.0
  0
LINE
  5
185
330
1E
100
AcDbEntity
  8
0
100
AcDbLine
 10
161.5802999999999
 20
646.9299999999999
 30
0.0
 11
162.115
 21
670.0299999999999
 31
0.0
  0
LINE
  5
188
330
1E
100
AcDbEntity
  8
0
100
AcDbLine
 10
185.9121
 20
632.6
 30
0.0
 11
186.9754
 21
657.3999999999999
 31
0.0
  0
LINE
  5
189
330
1E
100
AcDbEntity
  8
0
100
AcDbLine
 10
162.115
 20
670.0299999999999
 30
0.0
 11
163.1485999999999
 21
693.6799999999999
 31
0.0
  0
LINE
  5
18A
330
1E
100
AcDbEntity
  8
0
100
AcDbLine
 10
178.1087
 20
669.61
 30
0.0
 11
179.1406
 21
693.1699999999999
 31
0.0
  0
LINE
  5
18B
330
1E
100
AcDbEntity
  8
0
100
AcDbLine
 10
177.8964297448459
 20
660.443513761908
 30
0.0
 11
178.6322999999999
 21
673.6
 31
0.0
  0
LINE
  5
18C
330
1E
100
AcDbEntity
  8
0
100
AcDbLine
 10
178.6322999999999
 20
673.6
 30
0.0
 11
180.0412
 21
693.0
 31
0.0
  0
LINE
  5
18E
330
1E
100
AcDbEntity
  8
0
100
AcDbLine
 10
186.9754
 20
657.3999999999999
 30
0.0
 11
188.2048
 21
679.4999999999999
 31
0.0
  0
LINE
  5
18F
330
1E
100
AcDbEntity
  8
0
100
AcDbLine
 10
187.5
 20
666.830340003253
 30
0.0
 11
187.5
 21
210.0
 31
0.0
  0
LINE
  5
190
330
1E
100
AcDbEntity
  8
0
100
AcDbLine
 10
188.2048
 20
679.4999999999999
 30
0.0
 11
189.6202999999999
 21
699.0
 31
0.0
  0
LINE
  5
192
330
1E
100
AcDbEntity
  8
0
100
AcDbLine
 10
159.0878999999999
 20
632.6
 30
0.0
 11
159.4999999999999
 21
619.2
 31
0.0
  0
LINE
  5
193
330
1E
100
AcDbEntity
  8
0
100
AcDbLine
 10
159.4999999999999
 20
619.2
 30
0.0
 11
160.722037863315
 21
611.422560328689
 31
0.0
  0
LINE
  5
194
330
1E
100
AcDbEntity
  8
0
100
AcDbLine
 10
158.0245999999999
 20
657.3999999999999
 30
0.0
 11
159.0878999999999
 21
632.6
 31
0.0
  0
LINE
  5
195
330
1E
100
AcDbEntity
  8
0
100
AcDbLine
 10
180.0412
 20
693.0
 30
0.0
 11
181.6228999999999
 21
709.7
 31
0.0
  0
LINE
  5
197
330
1E
100
AcDbEntity
  8
0
100
AcDbLine
 10
163.1485999999999
 20
693.6799999999999
 30
0.0
 11
163.5107
 21
708.6199999999999
 31
0.0
  0
LINE
  5
198
330
1E
100
AcDbEntity
  8
0
100
AcDbLine
 10
179.1406
 20
693.1699999999999
 30
0.0
 11
179.5028
 21
708.15
 31
0.0
  0
LINE
  5
199
330
1E
100
AcDbEntity
  8
0
100
AcDbLine
 10
179.5028
 20
708.15
 30
0.0
 11
179.9874
 21
728.75
 31
0.0
  0
LINE
  5
19A
330
1E
100
AcDbEntity
  8
0
100
AcDbLine
 10
163.5107
 20
708.6199999999999
 30
0.0
 11
163.9952
 21
729.22
 31
0.0
  0
LINE
  5
19B
330
1E
100
AcDbEntity
  8
0
100
AcDbLine
 10
181.6228999999999
 20
709.7
 30
0.0
 11
183.2908999999999
 21
722.2999999999999
 31
0.0
  0
LINE
  5
19D
330
1E
100
AcDbEntity
  8
0
100
AcDbLine
 10
189.6202999999999
 20
699.0
 30
0.0
 11
191.202
 21
715.6
 31
0.0
  0
LINE
  5
19E
330
1E
100
AcDbEntity
  8
0
100
AcDbLine
 10
191.202
 20
715.6
 30
0.0
 11
192.8701
 21
728.2999999999999
 31
0.0
  0
LINE
  5
19F
330
1E
100
AcDbEntity
  8
0
100
AcDbLine
 10
163.3771
 20
709.7
 30
0.0
 11
163.5043202434639
 21
708.356775579537
 31
0.0
  0
LINE
  5
1A2
330
1E
100
AcDbEntity
  8
0
100
AcDbLine
 10
156.7952
 20
679.4999999999999
 30
0.0
 11
158.0245999999999
 21
657.3999999999999
 31
0.0
  0
LINE
  5
1A3
330
1E
100
AcDbEntity
  8
0
100
AcDbLine
 10
155.3797
 20
699.0
 30
0.0
 11
156.7952
 21
679.4999999999999
 31
0.0
  0
LINE
  5
1A4
330
1E
100
AcDbEntity
  8
0
100
AcDbLine
 10
183.2908999999999
 20
722.2999999999999
 30
0.0
 11
185.1250999999999
 21
732.0
 31
0.0
  0
LINE
  5
1A6
330
1E
100
AcDbEntity
  8
0
100
AcDbLine
 10
161.7091
 20
722.2999999999999
 30
0.0
 11
163.3771
 21
709.7
 31
0.0
  0
LINE
  5
1A7
330
1E
100
AcDbEntity
  8
0
100
AcDbLine
 10
159.7845
 20
737.535
 30
0.0
 11
160.0722
 21
735.0419999999999
 31
0.0
  0
LINE
  5
1A8
330
1E
100
AcDbEntity
  8
0
100
AcDbLine
 10
159.7845
 20
737.535
 30
0.0
 11
159.7845
 21
745.035
 31
0.0
  0
LINE
  5
1A9
330
1E
100
AcDbEntity
  8
0
100
AcDbLine
 10
159.6689
 20
734.4
 30
0.0
 11
159.8748999999999
 21
732.0
 31
0.0
  0
LINE
  5
1AA
330
1E
100
AcDbEntity
  8
0
100
AcDbLine
 10
159.5094
 20
737.5
 30
0.0
 11
159.6689
 21
734.4
 31
0.0
  0
LINE
  5
1AB
330
1E
100
AcDbEntity
  8
0
100
AcDbLine
 10
159.7845
 20
745.035
 30
0.0
 11
159.7845
 21
737.535
 31
0.0
  0
LINE
  5
1AC
330
1E
100
AcDbEntity
  8
0
100
AcDbLine
 10
159.7845
 20
745.035
 30
0.0
 11
159.7845
 21
751.5549642857139
 31
0.0
  0
LINE
  5
1AD
330
1E
100
AcDbEntity
  8
0
100
AcDbLine
 10
159.4096999999999
 20
741.1
 30
0.0
 11
159.5094
 21
737.5
 31
0.0
  0
LINE
  5
1AE
330
1E
100
AcDbEntity
  8
0
100
AcDbLine
 10
159.3764999999999
 20
745.0
 30
0.0
 11
159.4096999999999
 21
748.8999999999999
 31
0.0
  0
LINE
  5
1AF
330
1E
100
AcDbEntity
  8
0
100
AcDbLine
 10
159.3764999999999
 20
745.0
 30
0.0
 11
159.4096999999999
 21
741.1
 31
0.0
  0
LINE
  5
1B0
330
1E
100
AcDbEntity
  8
0
100
AcDbLine
 10
159.7845
 20
751.5549642857139
 30
0.0
 11
159.7845
 21
745.035
 31
0.0
  0
LINE
  5
1B1
330
1E
100
AcDbEntity
  8
0
100
AcDbLine
 10
159.0
 20
753.1799999999999
 30
0.0
 11
160.4
 21
750.2799999999999
 31
0.0
  0
LINE
  5
1B2
330
1E
100
AcDbEntity
  8
0
100
AcDbLine
 10
158.4999999999999
 20
756.28
 30
0.0
 11
158.4999999999999
 21
761.1799999999999
 31
0.0
  0
LINE
  5
1B3
330
1E
100
AcDbEntity
  8
0
100
AcDbLine
 10
158.4999999999999
 20
756.28
 30
0.0
 11
159.0
 21
753.1799999999999
 31
0.0
  0
LINE
  5
1B4
330
1E
100
AcDbEntity
  8
0
100
AcDbLine
 10
159.4096999999999
 20
748.8999999999999
 30
0.0
 11
159.499573176109
 21
752.145169849488
 31
0.0
  0
LINE
  5
1B5
330
1E
100
AcDbEntity
  8
0
100
AcDbLine
 10
163.4283
 20
730.682
 30
0.0
 11
163.716
 21
732.045
 31
0.0
  0
LINE
  5
1B6
330
1E
100
AcDbEntity
  8
0
100
AcDbLine
 10
163.4283
 20
730.682
 30
0.0
 11
166.1133
 21
730.682
 31
0.0
  0
LINE
  5
1B7
330
1E
100
AcDbEntity
  8
0
100
AcDbLine
 10
163.4283
 20
734.982
 30
0.0
 11
163.716
 21
732.045
 31
0.0
  0
LINE
  5
1B8
330
1E
100
AcDbEntity
  8
0
100
AcDbLine
 10
161.7982
 20
730.807
 30
0.0
 11
163.4283
 21
730.682
 31
0.0
  0
LINE
  5
1B9
330
1E
100
AcDbEntity
  8
0
100
AcDbLine
 10
160.5516
 20
732.743
 30
0.0
 11
161.7982
 21
730.807
 31
0.0
  0
LINE
  5
1BA
330
1E
100
AcDbEntity
  8
0
100
AcDbLine
 10
160.0722
 20
735.0419999999999
 30
0.0
 11
160.5516
 21
732.743
 31
0.0
  0
LINE
  5
1BB
330
1E
100
AcDbEntity
  8
0
100
AcDbLine
 10
178.8866999999999
 20
730.682
 30
0.0
 11
181.5717
 21
730.682
 31
0.0
  0
LINE
  5
1BC
330
1E
100
AcDbEntity
  8
0
100
AcDbLine
 10
178.8866999999999
 20
734.982
 30
0.0
 11
180.8044999999999
 21
740.1069999999999
 31
0.0
  0
LINE
  5
1BD
330
1E
100
AcDbEntity
  8
0
100
AcDbLine
 10
178.2154999999999
 20
732.045
 30
0.0
 11
178.8866999999999
 21
730.682
 31
0.0
  0
LINE
  5
1BE
330
1E
100
AcDbEntity
  8
0
100
AcDbLine
 10
178.2154999999999
 20
732.045
 30
0.0
 11
178.8866999999999
 21
734.982
 31
0.0
  0
LINE
  5
1BF
330
1E
100
AcDbEntity
  8
0
100
AcDbLine
 10
166.1133
 20
734.982
 30
0.0
 11
166.7844999999999
 21
732.045
 31
0.0
  0
LINE
  5
1C0
330
1E
100
AcDbEntity
  8
0
100
AcDbLine
 10
166.1133
 20
730.682
 30
0.0
 11
166.7844999999999
 21
732.045
 31
0.0
  0
LINE
  5
1C1
330
1E
100
AcDbEntity
  8
0
100
AcDbLine
 10
163.9952
 20
729.22
 30
0.0
 11
164.0278094847649
 21
730.682
 31
0.0
  0
LINE
  5
1C2
330
1E
100
AcDbEntity
  8
0
100
AcDbLine
 10
164.1955
 20
740.1069999999999
 30
0.0
 11
166.1133
 21
734.982
 31
0.0
  0
LINE
  5
1C3
330
1E
100
AcDbEntity
  8
0
100
AcDbLine
 10
161.7982
 20
740.1069999999999
 30
0.0
 11
163.4283
 21
734.982
 31
0.0
  0
LINE
  5
1C4
330
1E
100
AcDbEntity
  8
0
100
AcDbLine
 10
162.8419891004039
 20
745.0355
 30
0.0
 11
163.420596839863
 21
747.1423675876759
 31
0.0
  0
LINE
  5
1C5
330
1E
100
AcDbEntity
  8
0
100
AcDbLine
 10
169.3
 20
744.38
 30
0.0
 11
172.5
 21
744.08
 31
0.0
  0
LINE
  5
1C6
330
1E
100
AcDbEntity
  8
0
100
AcDbLine
 10
166.3
 20
745.38
 30
0.0
 11
169.3
 21
744.38
 31
0.0
  0
LINE
  5
1C7
330
1E
100
AcDbEntity
  8
0
100
AcDbLine
 10
172.5
 20
744.08
 30
0.0
 11
175.6999999999999
 21
744.38
 31
0.0
  0
LINE
  5
1C8
330
1E
100
AcDbEntity
  8
0
100
AcDbLine
 10
175.6999999999999
 20
744.38
 30
0.0
 11
178.6999999999999
 21
745.38
 31
0.0
  0
LINE
  5
1C9
330
1E
100
AcDbEntity
  8
0
100
AcDbLine
 10
160.0722
 20
750.0419999999999
 30
0.0
 11
160.5516
 21
746.043
 31
0.0
  0
LINE
  5
1CA
330
1E
100
AcDbEntity
  8
0
100
AcDbLine
 10
159.9331288052499
 20
751.247090331982
 30
0.0
 11
160.0722
 21
750.0419999999999
 31
0.0
  0
LINE
  5
1CB
330
1E
100
AcDbEntity
  8
0
100
AcDbLine
 10
162.5652999999999
 20
746.043
 30
0.0
 11
164.1955
 21
740.1069999999999
 31
0.0
  0
LINE
  5
1CC
330
1E
100
AcDbEntity
  8
0
100
AcDbLine
 10
160.5516
 20
746.043
 30
0.0
 11
161.7982
 21
740.1069999999999
 31
0.0
  0
LINE
  5
1CD
330
1E
100
AcDbEntity
  8
0
100
AcDbLine
 10
165.5
 20
745.7799999999999
 30
0.0
 11
166.3
 21
745.38
 31
0.0
  0
LINE
  5
1CE
330
1E
100
AcDbEntity
  8
0
100
AcDbLine
 10
162.274450483565
 20
748.064740337605
 30
0.0
 11
162.5652999999999
 21
746.043
 31
0.0
  0
LINE
  5
1CF
330
1E
100
AcDbEntity
  8
0
100
AcDbLine
 10
162.5999999999999
 20
747.6799999999999
 30
0.0
 11
165.5
 21
745.7799999999999
 31
0.0
  0
LINE
  5
1D0
330
1E
100
AcDbEntity
  8
0
100
AcDbLine
 10
160.4
 20
750.2799999999999
 30
0.0
 11
162.5999999999999
 21
747.6799999999999
 31
0.0
  0
LINE
  5
1D1
330
1E
100
AcDbEntity
  8
0
100
AcDbLine
 10
178.6999999999999
 20
745.38
 30
0.0
 11
179.4999999999999
 21
745.7799999999999
 31
0.0
  0
LINE
  5
1D2
330
1E
100
AcDbEntity
  8
0
100
AcDbLine
 10
179.4999999999999
 20
745.7799999999999
 30
0.0
 11
182.4
 21
747.6799999999999
 31
0.0
  0
LINE
  5
1D3
330
1E
100
AcDbEntity
  8
0
100
AcDbLine
 10
164.235638866871
 20
739.999735586238
 30
0.0
 11
164.380919586804
 21
746.513190615542
 31
0.0
  0
LINE
  5
1D4
330
1E
100
AcDbEntity
  8
0
100
AcDbLine
 10
181.5717
 20
730.682
 30
0.0
 11
183.2017999999999
 21
730.807
 31
0.0
  0
LINE
  5
1D5
330
1E
100
AcDbEntity
  8
0
100
AcDbLine
 10
183.2017999999999
 20
730.807
 30
0.0
 11
184.4483999999999
 21
732.743
 31
0.0
  0
LINE
  5
1D6
330
1E
100
AcDbEntity
  8
0
100
AcDbLine
 10
179.9874
 20
728.75
 30
0.0
 11
180.0305890304709
 21
730.682
 31
0.0
  0
LINE
  5
1D7
330
1E
100
AcDbEntity
  8
0
100
AcDbLine
 10
181.284
 20
732.045
 30
0.0
 11
181.5717
 21
730.682
 31
0.0
  0
LINE
  5
1D8
330
1E
100
AcDbEntity
  8
0
100
AcDbLine
 10
181.284
 20
732.045
 30
0.0
 11
181.5717
 21
734.982
 31
0.0
  0
LINE
  5
1D9
330
1E
100
AcDbEntity
  8
0
100
AcDbLine
 10
181.5717
 20
734.982
 30
0.0
 11
183.2017999999999
 21
740.1069999999999
 31
0.0
  0
LINE
  5
1DA
330
1E
100
AcDbEntity
  8
0
100
AcDbLine
 10
184.4483999999999
 20
732.743
 30
0.0
 11
184.9277999999999
 21
735.0419999999999
 31
0.0
  0
LINE
  5
1DB
330
1E
100
AcDbEntity
  8
0
100
AcDbLine
 10
184.9277999999999
 20
735.0419999999999
 30
0.0
 11
185.2154999999999
 21
737.535
 31
0.0
  0
LINE
  5
1DC
330
1E
100
AcDbEntity
  8
0
100
AcDbLine
 10
185.1250999999999
 20
732.0
 30
0.0
 11
185.3310999999999
 21
734.4
 31
0.0
  0
LINE
  5
1DD
330
1E
100
AcDbEntity
  8
0
100
AcDbLine
 10
185.3310999999999
 20
734.4
 30
0.0
 11
185.4905999999999
 21
737.5
 31
0.0
  0
LINE
  5
1DE
330
1E
100
AcDbEntity
  8
0
100
AcDbLine
 10
185.2154999999999
 20
737.535
 30
0.0
 11
185.2154999999999
 21
745.035
 31
0.0
  0
LINE
  5
1DF
330
1E
100
AcDbEntity
  8
0
100
AcDbLine
 10
180.205497112591
 20
738.506264887908
 30
0.0
 11
180.381001573335
 21
746.357207927357
 31
0.0
  0
LINE
  5
1E0
330
1E
100
AcDbEntity
  8
0
100
AcDbLine
 10
185.4905999999999
 20
737.5
 30
0.0
 11
185.5902999999999
 21
741.1
 31
0.0
  0
LINE
  5
1E1
330
1E
100
AcDbEntity
  8
0
100
AcDbLine
 10
194.9036
 20
737.2
 30
0.0
 11
195.0299
 21
738.6
 31
0.0
  0
LINE
  5
1E2
330
1E
100
AcDbEntity
  8
0
100
AcDbLine
 10
180.8044999999999
 20
740.1069999999999
 30
0.0
 11
182.4346999999999
 21
746.043
 31
0.0
  0
LINE
  5
1E3
330
1E
100
AcDbEntity
  8
0
100
AcDbLine
 10
183.2017999999999
 20
740.1069999999999
 30
0.0
 11
184.4483999999999
 21
746.043
 31
0.0
  0
LINE
  5
1E4
330
1E
100
AcDbEntity
  8
0
100
AcDbLine
 10
185.5902999999999
 20
741.1
 30
0.0
 11
185.6235
 21
745.0
 31
0.0
  0
LINE
  5
1E5
330
1E
100
AcDbEntity
  8
0
100
AcDbLine
 10
195.0299
 20
738.6
 30
0.0
 11
195.1228999999999
 21
740.5
 31
0.0
  0
LINE
  5
1E6
330
1E
100
AcDbEntity
  8
0
100
AcDbLine
 10
195.1228999999999
 20
740.5
 30
0.0
 11
195.1827999999999
 21
742.7
 31
0.0
  0
LINE
  5
1E7
330
1E
100
AcDbEntity
  8
0
100
AcDbLine
 10
181.5794031601369
 20
747.1423675876759
 30
0.0
 11
182.1580108995959
 21
745.0355
 31
0.0
  0
LINE
  5
1E8
330
1E
100
AcDbEntity
  8
0
100
AcDbLine
 10
182.4346999999999
 20
746.043
 30
0.0
 11
182.725549516435
 21
748.064740337605
 31
0.0
  0
LINE
  5
1E9
330
1E
100
AcDbEntity
  8
0
100
AcDbLine
 10
184.4483999999999
 20
746.043
 30
0.0
 11
184.9277999999999
 21
750.0419999999999
 31
0.0
  0
LINE
  5
1EA
330
1E
100
AcDbEntity
  8
0
100
AcDbLine
 10
184.9277999999999
 20
750.0419999999999
 30
0.0
 11
185.0668711947499
 21
751.247090331982
 31
0.0
  0
LINE
  5
1EB
330
1E
100
AcDbEntity
  8
0
100
AcDbLine
 10
185.2154999999999
 20
745.035
 30
0.0
 11
185.2154999999999
 21
737.535
 31
0.0
  0
LINE
  5
1EC
330
1E
100
AcDbEntity
  8
0
100
AcDbLine
 10
185.2154999999999
 20
745.035
 30
0.0
 11
185.2154999999999
 21
751.5549642857139
 31
0.0
  0
LINE
  5
1ED
330
1E
100
AcDbEntity
  8
0
100
AcDbLine
 10
182.4
 20
747.6799999999999
 30
0.0
 11
184.6
 21
750.2799999999999
 31
0.0
  0
LINE
  5
1EE
330
1E
100
AcDbEntity
  8
0
100
AcDbLine
 10
184.6
 20
750.2799999999999
 30
0.0
 11
186.0
 21
753.1799999999999
 31
0.0
  0
LINE
  5
1EF
330
1E
100
AcDbEntity
  8
0
100
AcDbLine
 10
185.5902999999999
 20
748.8999999999999
 30
0.0
 11
185.6235
 21
745.0
 31
0.0
  0
LINE
  5
1F0
330
1E
100
AcDbEntity
  8
0
100
AcDbLine
 10
185.2154999999999
 20
751.5549642857139
 30
0.0
 11
185.2154999999999
 21
745.035
 31
0.0
  0
LINE
  5
1F1
330
1E
100
AcDbEntity
  8
0
100
AcDbLine
 10
186.0
 20
753.1799999999999
 30
0.0
 11
186.5
 21
756.28
 31
0.0
  0
LINE
  5
1F2
330
1E
100
AcDbEntity
  8
0
100
AcDbLine
 10
185.5004268238909
 20
752.145169849488
 30
0.0
 11
185.5902999999999
 21
748.8999999999999
 31
0.0
  0
LINE
  5
1F3
330
1E
100
AcDbEntity
  8
0
100
AcDbLine
 10
186.5
 20
756.28
 30
0.0
 11
186.5
 21
761.1799999999999
 31
0.0
  0
LINE
  5
1F4
330
1E
100
AcDbEntity
  8
0
100
AcDbLine
 10
194.7573999999999
 20
753.7
 30
0.0
 11
194.9036
 21
752.7999999999999
 31
0.0
  0
LINE
  5
1F5
330
1E
100
AcDbEntity
  8
0
100
AcDbLine
 10
194.9036
 20
752.7999999999999
 30
0.0
 11
195.0299
 21
751.2999999999999
 31
0.0
  0
LINE
  5
1F6
330
1E
100
AcDbEntity
  8
0
100
AcDbLine
 10
195.0299
 20
751.2999999999999
 30
0.0
 11
195.1228999999999
 21
749.5
 31
0.0
  0
LINE
  5
1F7
330
1E
100
AcDbEntity
  8
0
100
AcDbLine
 10
195.1228999999999
 20
749.5
 30
0.0
 11
195.1827999999999
 21
747.2999999999999
 31
0.0
  0
LINE
  5
1F8
330
1E
100
AcDbEntity
  8
0
100
AcDbLine
 10
195.1827999999999
 20
742.7
 30
0.0
 11
195.2027
 21
745.0
 31
0.0
  0
LINE
  5
1F9
330
1E
100
AcDbEntity
  8
0
100
AcDbLine
 10
195.1827999999999
 20
747.2999999999999
 30
0.0
 11
195.2027
 21
745.0
 31
0.0
  0
LINE
  5
1FA
330
1E
100
AcDbEntity
  8
0
100
AcDbLine
 10
192.8701
 20
728.2999999999999
 30
0.0
 11
194.9036
 21
737.2
 31
0.0
  0
LINE
  5
1FB
330
1E
100
AcDbEntity
  8
0
100
AcDbLine
 10
179.917935976935
 20
725.7971339761999
 30
0.0
 11
180.472618283465
 21
730.682
 31
0.0
  0
LINE
  5
1FC
330
1E
100
AcDbEntity
  8
0
100
AcDbLine
 10
192.609
 20
758.0
 30
0.0
 11
194.531022573363
 21
754.1474793077498
 31
0.0
  0
LINE
  5
1FD
330
1E
100
AcDbEntity
  8
0
100
AcDbLine
 10
159.8748999999999
 20
732.0
 30
0.0
 11
161.7091
 21
722.2999999999999
 31
0.0
  0
LINE
  5
200
330
1E
100
AcDbEntity
  8
0
100
AcDbLine
 10
153.798
 20
715.6
 30
0.0
 11
155.3797
 21
699.0
 31
0.0
  0
LINE
  5
201
330
1E
100
AcDbEntity
  8
0
100
AcDbLine
 10
152.1298999999999
 20
728.2999999999999
 30
0.0
 11
153.798
 21
715.6
 31
0.0
  0
LINE
  5
202
330
1E
100
AcDbEntity
  8
0
100
AcDbLine
 10
151.5403
 20
764.033
 30
0.0
 11
151.542674127865
 21
764.087901706867
 31
0.0
  0
LINE
  5
203
330
1E
100
AcDbEntity
  8
0
100
AcDbLine
 10
151.5403
 20
764.033
 30
0.0
 11
151.8013999999999
 21
764.033
 31
0.0
  0
LINE
  5
204
330
1E
100
AcDbEntity
  8
0
100
AcDbLine
 10
152.7076
 20
764.033
 30
0.0
 11
153.4729999999999
 21
764.033
 31
0.0
  0
LINE
  5
205
330
1E
100
AcDbEntity
  8
0
100
AcDbLine
 10
150.8616
 20
764.12
 30
0.0
 11
151.627
 21
764.12
 31
0.0
  0
LINE
  5
206
330
1E
100
AcDbEntity
  8
0
100
AcDbLine
 10
150.8616
 20
764.12
 30
0.0
 11
150.9062984316929
 21
765.2294095220289
 31
0.0
  0
LINE
  5
207
330
1E
100
AcDbEntity
  8
0
100
AcDbLine
 10
150.8616
 20
764.12
 30
0.0
 11
152.7076
 21
764.033
 31
0.0
  0
LINE
  5
208
330
1E
100
AcDbEntity
  8
0
100
AcDbLine
 10
151.627
 20
764.12
 30
0.0
 11
151.6718498173629
 21
765.2331668955469
 31
0.0
  0
LINE
  5
209
330
1E
100
AcDbEntity
  8
0
100
AcDbLine
 10
151.627
 20
764.12
 30
0.0
 11
153.4729999999999
 21
764.033
 31
0.0
  0
LINE
  5
20A
330
1E
100
AcDbEntity
  8
0
100
AcDbLine
 10
153.4502999999999
 20
767.5629999999999
 30
0.0
 11
153.532121161459
 21
768.5803063086161
 31
0.0
  0
LINE
  5
20B
330
1E
100
AcDbEntity
  8
0
100
AcDbLine
 10
153.4502999999999
 20
767.5629999999999
 30
0.0
 11
155.2981
 21
767.5629999999999
 31
0.0
  0
LINE
  5
20C
330
1E
100
AcDbEntity
  8
0
100
AcDbLine
 10
153.4502999999999
 20
767.5629999999999
 30
0.0
 11
154.1992999999999
 21
767.1519999999999
 31
0.0
  0
LINE
  5
20D
330
1E
100
AcDbEntity
  8
0
100
AcDbLine
 10
153.4729999999999
 20
764.033
 30
0.0
 11
153.513009725064
 21
765.0260364059299
 31
0.0
  0
LINE
  5
20E
330
1E
100
AcDbEntity
  8
0
100
AcDbLine
 10
155.2238
 20
764.033
 30
0.0
 11
156.4413
 21
764.033
 31
0.0
  0
LINE
  5
20F
330
1E
100
AcDbEntity
  8
0
100
AcDbLine
 10
155.2238
 20
764.033
 30
0.0
 11
155.246092327069
 21
764.677574088049
 31
0.0
  0
LINE
  5
210
330
1E
100
AcDbEntity
  8
0
100
AcDbLine
 10
154.7751
 20
765.297
 30
0.0
 11
156.5071
 21
765.297
 31
0.0
  0
LINE
  5
211
330
1E
100
AcDbEntity
  8
0
100
AcDbLine
 10
154.7751
 20
765.297
 30
0.0
 11
154.7847208823079
 21
765.452516705066
 31
0.0
  0
LINE
  5
212
330
1E
100
AcDbEntity
  8
0
100
AcDbLine
 10
153.7826
 20
765.5429999999999
 30
0.0
 11
153.859187607053
 21
766.7810000000001
 31
0.0
  0
LINE
  5
213
330
1E
100
AcDbEntity
  8
0
100
AcDbLine
 10
153.7826
 20
765.5429999999999
 30
0.0
 11
155.5147
 21
765.5429999999999
 31
0.0
  0
LINE
  5
214
330
1E
100
AcDbEntity
  8
0
100
AcDbLine
 10
153.7826
 20
765.5429999999999
 30
0.0
 11
154.7751
 21
765.297
 31
0.0
  0
LINE
  5
215
330
1E
100
AcDbEntity
  8
0
100
AcDbLine
 10
154.1992999999999
 20
767.1519999999999
 30
0.0
 11
156.0470999999999
 21
767.1519999999999
 31
0.0
  0
LINE
  5
216
330
1E
100
AcDbEntity
  8
0
100
AcDbLine
 10
155.2981
 20
767.5629999999999
 30
0.0
 11
155.35581149719
 21
768.281
 31
0.0
  0
LINE
  5
217
330
1E
100
AcDbEntity
  8
0
100
AcDbLine
 10
155.2981
 20
767.5629999999999
 30
0.0
 11
156.0470999999999
 21
767.1519999999999
 31
0.0
  0
LINE
  5
218
330
1E
100
AcDbEntity
  8
0
100
AcDbLine
 10
153.6386
 20
764.12
 30
0.0
 11
153.6607691389419
 21
764.761012150582
 31
0.0
  0
LINE
  5
219
330
1E
100
AcDbEntity
  8
0
100
AcDbLine
 10
153.6386
 20
764.12
 30
0.0
 11
155.2238
 21
764.033
 31
0.0
  0
LINE
  5
21A
330
1E
100
AcDbEntity
  8
0
100
AcDbLine
 10
153.5022527385339
 20
764.7590493365349
 30
0.0
 11
157.7120355656439
 21
764.5397898142889
 31
0.0
  0
LINE
  5
21B
330
1E
100
AcDbEntity
  8
0
100
AcDbLine
 10
153.9
 20
778.88
 30
0.0
 11
163.1
 21
778.88
 31
0.0
  0
LINE
  5
21C
330
1E
100
AcDbEntity
  8
0
100
AcDbLine
 10
153.0999999999999
 20
803.3799999999999
 30
0.0
 11
162.6999999999999
 21
803.88
 31
0.0
  0
LINE
  5
21D
330
1E
100
AcDbEntity
  8
0
100
AcDbLine
 10
153.5
 20
1003.0
 30
0.0
 11
157.5
 21
1003.0
 31
0.0
  0
LINE
  5
21E
330
1E
100
AcDbEntity
  8
0
100
AcDbLine
 10
186.5
 20
760.0
 30
0.0
 11
189.6155999999999
 21
760.0
 31
0.0
  0
LINE
  5
21F
330
1E
100
AcDbEntity
  8
0
100
AcDbLine
 10
189.6155999999999
 20
760.0
 30
0.0
 11
192.609
 21
758.0
 31
0.0
  0
LINE
  5
220
330
1E
100
AcDbEntity
  8
0
100
AcDbLine
 10
155.5147
 20
765.5429999999999
 30
0.0
 11
155.591287607053
 21
766.7810000000001
 31
0.0
  0
LINE
  5
221
330
1E
100
AcDbEntity
  8
0
100
AcDbLine
 10
155.5147
 20
765.5429999999999
 30
0.0
 11
156.5071
 21
765.297
 31
0.0
  0
LINE
  5
222
330
1E
100
AcDbEntity
  8
0
100
AcDbLine
 10
156.5071
 20
765.297
 30
0.0
 11
156.5752416388979
 21
766.398475189035
 31
0.0
  0
LINE
  5
223
330
1E
100
AcDbEntity
  8
0
100
AcDbLine
 10
156.7277999999999
 20
769.725
 30
0.0
 11
158.6596
 21
769.725
 31
0.0
  0
LINE
  5
224
330
1E
100
AcDbEntity
  8
0
100
AcDbLine
 10
156.2332
 20
770.315
 30
0.0
 11
156.310309105181
 21
771.2799999999999
 31
0.0
  0
LINE
  5
225
330
1E
100
AcDbEntity
  8
0
100
AcDbLine
 10
156.2332
 20
770.315
 30
0.0
 11
158.1649999999999
 21
770.315
 31
0.0
  0
LINE
  5
226
330
1E
100
AcDbEntity
  8
0
100
AcDbLine
 10
156.2332
 20
770.315
 30
0.0
 11
156.7277999999999
 21
769.725
 31
0.0
  0
LINE
  5
227
330
1E
100
AcDbEntity
  8
0
100
AcDbLine
 10
156.0470999999999
 20
767.1519999999999
 30
0.0
 11
156.1379045988759
 21
768.281
 31
0.0
  0
LINE
  5
228
330
1E
100
AcDbEntity
  8
0
100
AcDbLine
 10
156.4413
 20
764.033
 30
0.0
 11
156.461380209881
 21
764.6136115679009
 31
0.0
  0
LINE
  5
229
330
1E
100
AcDbEntity
  8
0
100
AcDbLine
 10
155.6999999999999
 20
773.08
 30
0.0
 11
164.0
 21
773.08
 31
0.0
  0
LINE
  5
22A
330
1E
100
AcDbEntity
  8
0
100
AcDbLine
 10
155.6999999999999
 20
774.081
 30
0.0
 11
164.0
 21
774.081
 31
0.0
  0
LINE
  5
22B
330
1E
100
AcDbEntity
  8
0
100
AcDbLine
 10
157.5
 20
983.0
 30
0.0
 11
163.4999999999999
 21
983.0
 31
0.0
  0
LINE
  5
22C
330
1E
100
AcDbEntity
  8
0
100
AcDbLine
 10
157.5
 20
1003.0
 30
0.0
 11
163.4999999999999
 21
1003.0
 31
0.0
  0
LINE
  5
22D
330
1E
100
AcDbEntity
  8
0
100
AcDbLine
 10
158.1649999999999
 20
770.315
 30
0.0
 11
158.2421596023019
 21
771.2799999999999
 31
0.0
  0
LINE
  5
22E
330
1E
100
AcDbEntity
  8
0
100
AcDbLine
 10
158.1649999999999
 20
770.315
 30
0.0
 11
158.6596
 21
769.725
 31
0.0
  0
LINE
  5
22F
330
1E
100
AcDbEntity
  8
0
100
AcDbLine
 10
157.7008999999999
 20
764.12
 30
0.0
 11
157.731064648245
 21
765.2571503243891
 31
0.0
  0
LINE
  5
230
330
1E
100
AcDbEntity
  8
0
100
AcDbLine
 10
157.7008999999999
 20
764.12
 30
0.0
 11
159.2875999999999
 21
764.12
 31
0.0
  0
LINE
  5
231
330
1E
100
AcDbEntity
  8
0
100
AcDbLine
 10
157.7008999999999
 20
764.12
 30
0.0
 11
158.9172
 21
764.033
 31
0.0
  0
LINE
  5
232
330
1E
100
AcDbEntity
  8
0
100
AcDbLine
 10
161.8993
 20
763.029
 30
0.0
 11
162.4441
 21
763.029
 31
0.0
  0
LINE
  5
233
330
1E
100
AcDbEntity
  8
0
100
AcDbLine
 10
161.5073999999999
 20
763.029
 30
0.0
 11
161.8993
 21
763.029
 31
0.0
  0
LINE
  5
234
330
1E
100
AcDbEntity
  8
0
100
AcDbLine
 10
161.276
 20
763.029
 30
0.0
 11
161.5073999999999
 21
763.029
 31
0.0
  0
LINE
  5
235
330
1E
100
AcDbEntity
  8
0
100
AcDbLine
 10
161.1644
 20
763.029
 30
0.0
 11
161.2430999999999
 21
763.029
 31
0.0
  0
LINE
  5
236
330
1E
100
AcDbEntity
  8
0
100
AcDbLine
 10
161.1644
 20
763.029
 30
0.0
 11
161.276
 21
763.029
 31
0.0
  0
LINE
  5
237
330
1E
100
AcDbEntity
  8
0
100
AcDbLine
 10
161.2430999999999
 20
763.029
 30
0.0
 11
161.5064999999999
 21
763.029
 31
0.0
  0
LINE
  5
238
330
1E
100
AcDbEntity
  8
0
100
AcDbLine
 10
162.4443999999999
 20
763.029
 30
0.0
 11
163.0679999999999
 21
763.029
 31
0.0
  0
LINE
  5
239
330
1E
100
AcDbEntity
  8
0
100
AcDbLine
 10
161.9231
 20
763.029
 30
0.0
 11
162.4443999999999
 21
763.029
 31
0.0
  0
LINE
  5
23A
330
1E
100
AcDbEntity
  8
0
100
AcDbLine
 10
158.9172
 20
764.033
 30
0.0
 11
160.5038999999999
 21
764.033
 31
0.0
  0
LINE
  5
23B
330
1E
100
AcDbEntity
  8
0
100
AcDbLine
 10
158.9172
 20
764.033
 30
0.0
 11
158.919512162162
 21
764.12
 31
0.0
  0
LINE
  5
23C
330
1E
100
AcDbEntity
  8
0
100
AcDbLine
 10
160.5038999999999
 20
764.033
 30
0.0
 11
160.5308016340959
 21
765.0452309778329
 31
0.0
  0
LINE
  5
23D
330
1E
100
AcDbEntity
  8
0
100
AcDbLine
 10
159.2875999999999
 20
764.12
 30
0.0
 11
159.3159099395419
 21
765.187231305768
 31
0.0
  0
LINE
  5
23E
330
1E
100
AcDbEntity
  8
0
100
AcDbLine
 10
159.2875999999999
 20
764.12
 30
0.0
 11
160.5038999999999
 21
764.033
 31
0.0
  0
LINE
  5
23F
330
1E
100
AcDbEntity
  8
0
100
AcDbLine
 10
162.4441
 20
763.029
 30
0.0
 11
163.0768999999999
 21
763.029
 31
0.0
  0
LINE
  5
240
330
1E
100
AcDbEntity
  8
0
100
AcDbLine
 10
161.5064999999999
 20
763.029
 30
0.0
 11
161.9231
 21
763.029
 31
0.0
  0
LINE
  5
241
330
1E
100
AcDbEntity
  8
0
100
AcDbLine
 10
163.0768999999999
 20
763.029
 30
0.0
 11
163.7240999999999
 21
763.029
 31
0.0
  0
LINE
  5
242
330
1E
100
AcDbEntity
  8
0
100
AcDbLine
 10
163.0679999999999
 20
763.029
 30
0.0
 11
163.7232999999999
 21
763.029
 31
0.0
  0
LINE
  5
243
330
1E
100
AcDbEntity
  8
0
100
AcDbLine
 10
162.6999999999999
 20
764.28
 30
0.0
 11
168.5057368756469
 21
764.161515573966
 31
0.0
  0
LINE
  5
244
330
1E
100
AcDbEntity
  8
0
100
AcDbLine
 10
158.6596
 20
769.725
 30
0.0
 11
158.7645741220249
 21
771.0378635287339
 31
0.0
  0
LINE
  5
245
330
1E
100
AcDbEntity
  8
0
100
AcDbLine
 10
162.8073
 20
765.297
 30
0.0
 11
164.7391
 21
765.297
 31
0.0
  0
LINE
  5
246
330
1E
100
AcDbEntity
  8
0
100
AcDbLine
 10
162.8073
 20
765.297
 30
0.0
 11
162.81349626261
 21
765.4906941934081
 31
0.0
  0
LINE
  5
247
330
1E
100
AcDbEntity
  8
0
100
AcDbLine
 10
162.2935
 20
765.5429999999999
 30
0.0
 11
162.333165894207
 21
766.7810000000001
 31
0.0
  0
LINE
  5
248
330
1E
100
AcDbEntity
  8
0
100
AcDbLine
 10
162.2935
 20
765.5429999999999
 30
0.0
 11
164.2254
 21
765.5429999999999
 31
0.0
  0
LINE
  5
249
330
1E
100
AcDbEntity
  8
0
100
AcDbLine
 10
162.2935
 20
765.5429999999999
 30
0.0
 11
162.8073
 21
765.297
 31
0.0
  0
LINE
  5
24A
330
1E
100
AcDbEntity
  8
0
100
AcDbLine
 10
160.513766696115
 20
764.40425534535
 30
0.0
 11
161.1644
 21
763.029
 31
0.0
  0
LINE
  5
24B
330
1E
100
AcDbEntity
  8
0
100
AcDbLine
 10
160.5134909729869
 20
764.3938806784899
 30
0.0
 11
162.6999999999999
 21
764.28
 31
0.0
  0
LINE
  5
24C
330
1E
100
AcDbEntity
  8
0
100
AcDbLine
 10
158.4999999999999
 20
764.062841650908
 30
0.0
 11
158.4999999999999
 21
761.1799999999999
 31
0.0
  0
LINE
  5
24D
330
1E
100
AcDbEntity
  8
0
100
AcDbLine
 10
158.4999999999999
 20
761.1799999999999
 30
0.0
 11
158.4999999999999
 21
764.062841650908
 31
0.0
  0
LINE
  5
24E
330
1E
100
AcDbEntity
  8
0
100
AcDbLine
 10
158.4999999999999
 20
761.1799999999999
 30
0.0
 11
158.4999999999999
 21
756.28
 31
0.0
  0
LINE
  5
24F
330
1E
100
AcDbEntity
  8
0
100
AcDbLine
 10
163.1
 20
778.88
 30
0.0
 11
172.5
 21
778.88
 31
0.0
  0
LINE
  5
250
330
1E
100
AcDbEntity
  8
0
100
AcDbLine
 10
162.6999999999999
 20
803.88
 30
0.0
 11
172.5
 21
804.08
 31
0.0
  0
LINE
  5
251
330
1E
100
AcDbEntity
  8
0
100
AcDbLine
 10
163.7240999999999
 20
763.029
 30
0.0
 11
164.3795
 21
763.029
 31
0.0
  0
LINE
  5
252
330
1E
100
AcDbEntity
  8
0
100
AcDbLine
 10
163.7232999999999
 20
763.029
 30
0.0
 11
164.3711999999999
 21
763.029
 31
0.0
  0
LINE
  5
253
330
1E
100
AcDbEntity
  8
0
100
AcDbLine
 10
165.5243
 20
763.029
 30
0.0
 11
165.9409
 21
763.029
 31
0.0
  0
LINE
  5
254
330
1E
100
AcDbEntity
  8
0
100
AcDbLine
 10
164.3711999999999
 20
763.029
 30
0.0
 11
165.004
 21
763.029
 31
0.0
  0
LINE
  5
255
330
1E
100
AcDbEntity
  8
0
100
AcDbLine
 10
165.004
 20
763.029
 30
0.0
 11
165.5488
 21
763.029
 31
0.0
  0
LINE
  5
256
330
1E
100
AcDbEntity
  8
0
100
AcDbLine
 10
165.5488
 20
763.029
 30
0.0
 11
165.9401
 21
763.029
 31
0.0
  0
LINE
  5
257
330
1E
100
AcDbEntity
  8
0
100
AcDbLine
 10
165.9401
 20
763.029
 30
0.0
 11
166.1715
 21
763.029
 31
0.0
  0
LINE
  5
258
330
1E
100
AcDbEntity
  8
0
100
AcDbLine
 10
166.1715
 20
763.029
 30
0.0
 11
166.2829
 21
763.029
 31
0.0
  0
LINE
  5
259
330
1E
100
AcDbEntity
  8
0
100
AcDbLine
 10
166.2042999999999
 20
763.029
 30
0.0
 11
166.2829
 21
763.029
 31
0.0
  0
LINE
  5
25A
330
1E
100
AcDbEntity
  8
0
100
AcDbLine
 10
166.2829
 20
763.029
 30
0.0
 11
166.848879851174
 21
764.224900516636
 31
0.0
  0
LINE
  5
25B
330
1E
100
AcDbEntity
  8
0
100
AcDbLine
 10
164.3795
 20
763.029
 30
0.0
 11
165.0029999999999
 21
763.029
 31
0.0
  0
LINE
  5
25C
330
1E
100
AcDbEntity
  8
0
100
AcDbLine
 10
165.0029999999999
 20
763.029
 30
0.0
 11
165.5243
 21
763.029
 31
0.0
  0
LINE
  5
25D
330
1E
100
AcDbEntity
  8
0
100
AcDbLine
 10
165.9409
 20
763.029
 30
0.0
 11
166.2042999999999
 21
763.029
 31
0.0
  0
LINE
  5
25E
330
1E
100
AcDbEntity
  8
0
100
AcDbLine
 10
169.935
 20
763.029
 30
0.0
 11
170.0231
 21
763.029
 31
0.0
  0
LINE
  5
25F
330
1E
100
AcDbEntity
  8
0
100
AcDbLine
 10
170.0231
 20
763.029
 30
0.0
 11
170.279
 21
763.029
 31
0.0
  0
LINE
  5
260
330
1E
100
AcDbEntity
  8
0
100
AcDbLine
 10
170.0231
 20
763.029
 30
0.0
 11
170.2790999999999
 21
763.029
 31
0.0
  0
LINE
  5
261
330
1E
100
AcDbEntity
  8
0
100
AcDbLine
 10
170.2790999999999
 20
763.029
 30
0.0
 11
170.703
 21
763.029
 31
0.0
  0
LINE
  5
262
330
1E
100
AcDbEntity
  8
0
100
AcDbLine
 10
170.703
 20
763.029
 30
0.0
 11
171.215
 21
763.029
 31
0.0
  0
LINE
  5
263
330
1E
100
AcDbEntity
  8
0
100
AcDbLine
 10
170.279
 20
763.029
 30
0.0
 11
170.7029
 21
763.029
 31
0.0
  0
LINE
  5
264
330
1E
100
AcDbEntity
  8
0
100
AcDbLine
 10
170.7029
 20
763.029
 30
0.0
 11
171.215
 21
763.029
 31
0.0
  0
LINE
  5
265
330
1E
100
AcDbEntity
  8
0
100
AcDbLine
 10
172.4949999999999
 20
763.029
 30
0.0
 11
173.175
 21
763.029
 31
0.0
  0
LINE
  5
266
330
1E
100
AcDbEntity
  8
0
100
AcDbLine
 10
171.8150999999999
 20
763.029
 30
0.0
 11
172.4949999999999
 21
763.029
 31
0.0
  0
LINE
  5
267
330
1E
100
AcDbEntity
  8
0
100
AcDbLine
 10
171.215
 20
763.029
 30
0.0
 11
171.815
 21
763.029
 31
0.0
  0
LINE
  5
268
330
1E
100
AcDbEntity
  8
0
100
AcDbLine
 10
171.215
 20
763.029
 30
0.0
 11
171.8150999999999
 21
763.029
 31
0.0
  0
LINE
  5
269
330
1E
100
AcDbEntity
  8
0
100
AcDbLine
 10
164.7391
 20
765.297
 30
0.0
 11
164.7754344989809
 21
766.431024850275
 31
0.0
  0
LINE
  5
26A
330
1E
100
AcDbEntity
  8
0
100
AcDbLine
 10
164.2254
 20
765.5429999999999
 30
0.0
 11
164.2650035264479
 21
766.7810000000001
 31
0.0
  0
LINE
  5
26B
330
1E
100
AcDbEntity
  8
0
100
AcDbLine
 10
164.2254
 20
765.5429999999999
 30
0.0
 11
164.7391
 21
765.297
 31
0.0
  0
LINE
  5
26C
330
1E
100
AcDbEntity
  8
0
100
AcDbLine
 10
165.5816
 20
767.1519999999999
 30
0.0
 11
167.5645
 21
767.1519999999999
 31
0.0
  0
LINE
  5
26D
330
1E
100
AcDbEntity
  8
0
100
AcDbLine
 10
168.7663
 20
764.033
 30
0.0
 11
170.7492
 21
764.033
 31
0.0
  0
LINE
  5
26E
330
1E
100
AcDbEntity
  8
0
100
AcDbLine
 10
168.7663
 20
764.033
 30
0.0
 11
168.766796396396
 21
764.12
 31
0.0
  0
LINE
  5
26F
330
1E
100
AcDbEntity
  8
0
100
AcDbLine
 10
168.5055
 20
764.12
 30
0.0
 11
168.510826399985
 21
765.0535216816349
 31
0.0
  0
LINE
  5
270
330
1E
100
AcDbEntity
  8
0
100
AcDbLine
 10
168.5055
 20
764.12
 30
0.0
 11
170.4884
 21
764.12
 31
0.0
  0
LINE
  5
271
330
1E
100
AcDbEntity
  8
0
100
AcDbLine
 10
168.5055
 20
764.12
 30
0.0
 11
168.7663
 21
764.033
 31
0.0
  0
LINE
  5
272
330
1E
100
AcDbEntity
  8
0
100
AcDbLine
 10
167.5645
 20
767.1519999999999
 30
0.0
 11
167.595479713848
 21
768.281
 31
0.0
  0
LINE
  5
273
330
1E
100
AcDbEntity
  8
0
100
AcDbLine
 10
167.3091
 20
767.5629999999999
 30
0.0
 11
167.3287652018399
 21
768.281
 31
0.0
  0
LINE
  5
274
330
1E
100
AcDbEntity
  8
0
100
AcDbLine
 10
167.3091
 20
767.5629999999999
 30
0.0
 11
167.5645
 21
767.1519999999999
 31
0.0
  0
LINE
  5
275
330
1E
100
AcDbEntity
  8
0
100
AcDbLine
 10
165.3261999999999
 20
767.5629999999999
 30
0.0
 11
165.353547970263
 21
768.559647631385
 31
0.0
  0
LINE
  5
276
330
1E
100
AcDbEntity
  8
0
100
AcDbLine
 10
165.3261999999999
 20
767.5629999999999
 30
0.0
 11
167.3091
 21
767.5629999999999
 31
0.0
  0
LINE
  5
277
330
1E
100
AcDbEntity
  8
0
100
AcDbLine
 10
165.3261999999999
 20
767.5629999999999
 30
0.0
 11
165.5816
 21
767.1519999999999
 31
0.0
  0
LINE
  5
278
330
1E
100
AcDbEntity
  8
0
100
AcDbLine
 10
170.7492
 20
764.033
 30
0.0
 11
170.755882777737
 21
765.20424472974
 31
0.0
  0
LINE
  5
279
330
1E
100
AcDbEntity
  8
0
100
AcDbLine
 10
170.4884
 20
764.12
 30
0.0
 11
170.4949485253
 21
765.267715223576
 31
0.0
  0
LINE
  5
27A
330
1E
100
AcDbEntity
  8
0
100
AcDbLine
 10
170.4884
 20
764.12
 30
0.0
 11
170.7492
 21
764.033
 31
0.0
  0
LINE
  5
27B
330
1E
100
AcDbEntity
  8
0
100
AcDbLine
 10
171.5
 20
765.297
 30
0.0
 11
171.5
 21
765.5429999999999
 31
0.0
  0
LINE
  5
27C
330
1E
100
AcDbEntity
  8
0
100
AcDbLine
 10
171.5
 20
765.297
 30
0.0
 11
171.5
 21
766.7810000000001
 31
0.0
  0
LINE
  5
27D
330
1E
100
AcDbEntity
  8
0
100
AcDbLine
 10
171.5
 20
765.297
 30
0.0
 11
173.5
 21
765.297
 31
0.0
  0
LINE
  5
27E
330
1E
100
AcDbEntity
  8
0
100
AcDbLine
 10
171.5
 20
766.7810000000001
 30
0.0
 11
171.5
 21
765.5429999999999
 31
0.0
  0
LINE
  5
27F
330
1E
100
AcDbEntity
  8
0
100
AcDbLine
 10
171.5
 20
766.7810000000001
 30
0.0
 11
171.5
 21
765.297
 31
0.0
  0
LINE
  5
280
330
1E
100
AcDbEntity
  8
0
100
AcDbLine
 10
171.5
 20
765.5429999999999
 30
0.0
 11
173.5
 21
765.5429999999999
 31
0.0
  0
LINE
  5
281
330
1E
100
AcDbEntity
  8
0
100
AcDbLine
 10
171.5
 20
765.5429999999999
 30
0.0
 11
171.5
 21
766.7810000000001
 31
0.0
  0
LINE
  5
282
330
1E
100
AcDbEntity
  8
0
100
AcDbLine
 10
171.5
 20
765.5429999999999
 30
0.0
 11
171.5
 21
765.297
 31
0.0
  0
LINE
  5
283
330
1E
100
AcDbEntity
  8
0
100
AcDbLine
 10
171.5
 20
769.725
 30
0.0
 11
171.5
 21
770.315
 31
0.0
  0
LINE
  5
284
330
1E
100
AcDbEntity
  8
0
100
AcDbLine
 10
171.5
 20
769.725
 30
0.0
 11
171.5
 21
771.2799999999999
 31
0.0
  0
LINE
  5
285
330
1E
100
AcDbEntity
  8
0
100
AcDbLine
 10
171.5
 20
769.725
 30
0.0
 11
173.5
 21
769.725
 31
0.0
  0
LINE
  5
286
330
1E
100
AcDbEntity
  8
0
100
AcDbLine
 10
171.5
 20
771.2799999999999
 30
0.0
 11
171.5
 21
770.315
 31
0.0
  0
LINE
  5
287
330
1E
100
AcDbEntity
  8
0
100
AcDbLine
 10
171.5
 20
771.2799999999999
 30
0.0
 11
171.5
 21
769.725
 31
0.0
  0
LINE
  5
288
330
1E
100
AcDbEntity
  8
0
100
AcDbLine
 10
171.5
 20
770.315
 30
0.0
 11
173.5
 21
770.315
 31
0.0
  0
LINE
  5
289
330
1E
100
AcDbEntity
  8
0
100
AcDbLine
 10
171.5
 20
770.315
 30
0.0
 11
171.5
 21
771.2799999999999
 31
0.0
  0
LINE
  5
28A
330
1E
100
AcDbEntity
  8
0
100
AcDbLine
 10
171.5
 20
770.315
 30
0.0
 11
171.5
 21
769.725
 31
0.0
  0
LINE
  5
28B
330
1E
100
AcDbEntity
  8
0
100
AcDbLine
 10
169.45308
 20
764.033
 30
0.0
 11
169.935
 21
763.029
 31
0.0
  0
LINE
  5
28C
330
1E
100
AcDbEntity
  8
0
100
AcDbLine
 10
171.815
 20
763.029
 30
0.0
 11
172.4949999999999
 21
763.029
 31
0.0
  0
LINE
  5
28D
330
1E
100
AcDbEntity
  8
0
100
AcDbLine
 10
172.5
 20
773.08
 30
0.0
 11
181.0
 21
773.08
 31
0.0
  0
LINE
  5
28E
330
1E
100
AcDbEntity
  8
0
100
AcDbLine
 10
172.5
 20
774.081
 30
0.0
 11
181.0
 21
774.081
 31
0.0
  0
LINE
  5
28F
330
1E
100
AcDbEntity
  8
0
100
AcDbLine
 10
164.0
 20
773.08
 30
0.0
 11
172.5
 21
773.08
 31
0.0
  0
LINE
  5
290
330
1E
100
AcDbEntity
  8
0
100
AcDbLine
 10
164.0
 20
774.081
 30
0.0
 11
172.5
 21
774.081
 31
0.0
  0
LINE
  5
291
330
1E
100
AcDbEntity
  8
0
100
AcDbLine
 10
173.7748999999999
 20
763.029
 30
0.0
 11
174.287
 21
763.029
 31
0.0
  0
LINE
  5
292
330
1E
100
AcDbEntity
  8
0
100
AcDbLine
 10
174.287
 20
763.029
 30
0.0
 11
174.7109999999999
 21
763.029
 31
0.0
  0
LINE
  5
293
330
1E
100
AcDbEntity
  8
0
100
AcDbLine
 10
174.9669
 20
763.029
 30
0.0
 11
175.0549
 21
763.029
 31
0.0
  0
LINE
  5
294
330
1E
100
AcDbEntity
  8
0
100
AcDbLine
 10
179.4560999999999
 20
763.029
 30
0.0
 11
180.0009999999999
 21
763.029
 31
0.0
  0
LINE
  5
295
330
1E
100
AcDbEntity
  8
0
100
AcDbLine
 10
179.0648999999999
 20
763.029
 30
0.0
 11
179.4560999999999
 21
763.029
 31
0.0
  0
LINE
  5
296
330
1E
100
AcDbEntity
  8
0
100
AcDbLine
 10
178.8335
 20
763.029
 30
0.0
 11
179.0648999999999
 21
763.029
 31
0.0
  0
LINE
  5
297
330
1E
100
AcDbEntity
  8
0
100
AcDbLine
 10
178.7221
 20
763.029
 30
0.0
 11
178.8007
 21
763.029
 31
0.0
  0
LINE
  5
298
330
1E
100
AcDbEntity
  8
0
100
AcDbLine
 10
178.7221
 20
763.029
 30
0.0
 11
178.8335
 21
763.029
 31
0.0
  0
LINE
  5
299
330
1E
100
AcDbEntity
  8
0
100
AcDbLine
 10
178.8007
 20
763.029
 30
0.0
 11
179.0642
 21
763.029
 31
0.0
  0
LINE
  5
29A
330
1E
100
AcDbEntity
  8
0
100
AcDbLine
 10
180.0009999999999
 20
763.029
 30
0.0
 11
180.6338
 21
763.029
 31
0.0
  0
LINE
  5
29B
330
1E
100
AcDbEntity
  8
0
100
AcDbLine
 10
180.6338
 20
763.029
 30
0.0
 11
181.2815999999999
 21
763.029
 31
0.0
  0
LINE
  5
29C
330
1E
100
AcDbEntity
  8
0
100
AcDbLine
 10
179.4807
 20
763.029
 30
0.0
 11
180.0021
 21
763.029
 31
0.0
  0
LINE
  5
29D
330
1E
100
AcDbEntity
  8
0
100
AcDbLine
 10
180.6254999999999
 20
763.029
 30
0.0
 11
181.2809
 21
763.029
 31
0.0
  0
LINE
  5
29E
330
1E
100
AcDbEntity
  8
0
100
AcDbLine
 10
180.0021
 20
763.029
 30
0.0
 11
180.6254999999999
 21
763.029
 31
0.0
  0
LINE
  5
29F
330
1E
100
AcDbEntity
  8
0
100
AcDbLine
 10
179.0642
 20
763.029
 30
0.0
 11
179.4807
 21
763.029
 31
0.0
  0
LINE
  5
2A0
330
1E
100
AcDbEntity
  8
0
100
AcDbLine
 10
175.0549
 20
763.029
 30
0.0
 11
175.725029351249
 21
764.4250058702499
 31
0.0
  0
LINE
  5
2A1
330
1E
100
AcDbEntity
  8
0
100
AcDbLine
 10
174.7109999999999
 20
763.029
 30
0.0
 11
174.9669
 21
763.029
 31
0.0
  0
LINE
  5
2A2
330
1E
100
AcDbEntity
  8
0
100
AcDbLine
 10
174.2868999999999
 20
763.029
 30
0.0
 11
174.7109999999999
 21
763.029
 31
0.0
  0
LINE
  5
2A3
330
1E
100
AcDbEntity
  8
0
100
AcDbLine
 10
176.2337
 20
764.033
 30
0.0
 11
176.4944999999999
 21
764.12
 31
0.0
  0
LINE
  5
2A4
330
1E
100
AcDbEntity
  8
0
100
AcDbLine
 10
175.536853466667
 20
764.033
 30
0.0
 11
176.2337
 21
764.033
 31
0.0
  0
LINE
  5
2A5
330
1E
100
AcDbEntity
  8
0
100
AcDbLine
 10
179.6159
 20
764.033
 30
0.0
 11
180.3805
 21
764.12
 31
0.0
  0
LINE
  5
2A6
330
1E
100
AcDbEntity
  8
0
100
AcDbLine
 10
179.6159
 20
764.033
 30
0.0
 11
181.4636
 21
764.033
 31
0.0
  0
LINE
  5
2A7
330
1E
100
AcDbEntity
  8
0
100
AcDbLine
 10
180.3805
 20
764.12
 30
0.0
 11
182.2282999999999
 21
764.12
 31
0.0
  0
LINE
  5
2A8
330
1E
100
AcDbEntity
  8
0
100
AcDbLine
 10
173.775
 20
763.029
 30
0.0
 11
174.2868999999999
 21
763.029
 31
0.0
  0
LINE
  5
2A9
330
1E
100
AcDbEntity
  8
0
100
AcDbLine
 10
173.175
 20
763.029
 30
0.0
 11
173.775
 21
763.029
 31
0.0
  0
LINE
  5
2AA
330
1E
100
AcDbEntity
  8
0
100
AcDbLine
 10
173.175
 20
763.029
 30
0.0
 11
173.7748999999999
 21
763.029
 31
0.0
  0
LINE
  5
2AB
330
1E
100
AcDbEntity
  8
0
100
AcDbLine
 10
173.5
 20
765.297
 30
0.0
 11
173.5
 21
765.5429999999999
 31
0.0
  0
LINE
  5
2AC
330
1E
100
AcDbEntity
  8
0
100
AcDbLine
 10
173.5
 20
766.7810000000001
 30
0.0
 11
173.5
 21
765.5429999999999
 31
0.0
  0
LINE
  5
2AD
330
1E
100
AcDbEntity
  8
0
100
AcDbLine
 10
173.5
 20
765.5429999999999
 30
0.0
 11
173.5
 21
766.7810000000001
 31
0.0
  0
LINE
  5
2AE
330
1E
100
AcDbEntity
  8
0
100
AcDbLine
 10
173.5
 20
765.5429999999999
 30
0.0
 11
173.5
 21
765.297
 31
0.0
  0
LINE
  5
2AF
330
1E
100
AcDbEntity
  8
0
100
AcDbLine
 10
176.23299266982
 20
764.1569689210271
 30
0.0
 11
176.2337
 21
764.033
 31
0.0
  0
LINE
  5
2B0
330
1E
100
AcDbEntity
  8
0
100
AcDbLine
 10
177.404520286152
 20
768.281
 30
0.0
 11
177.4354999999999
 21
767.1519999999999
 31
0.0
  0
LINE
  5
2B1
330
1E
100
AcDbEntity
  8
0
100
AcDbLine
 10
177.4354999999999
 20
767.1519999999999
 30
0.0
 11
177.6909
 21
767.5629999999999
 31
0.0
  0
LINE
  5
2B2
330
1E
100
AcDbEntity
  8
0
100
AcDbLine
 10
177.4354999999999
 20
767.1519999999999
 30
0.0
 11
179.4184
 21
767.1519999999999
 31
0.0
  0
LINE
  5
2B3
330
1E
100
AcDbEntity
  8
0
100
AcDbLine
 10
177.6909
 20
767.5629999999999
 30
0.0
 11
179.6737999999999
 21
767.5629999999999
 31
0.0
  0
LINE
  5
2B4
330
1E
100
AcDbEntity
  8
0
100
AcDbLine
 10
177.67123479816
 20
768.281
 30
0.0
 11
177.6909
 21
767.5629999999999
 31
0.0
  0
LINE
  5
2B5
330
1E
100
AcDbEntity
  8
0
100
AcDbLine
 10
173.5
 20
769.725
 30
0.0
 11
173.5
 21
770.315
 31
0.0
  0
LINE
  5
2B6
330
1E
100
AcDbEntity
  8
0
100
AcDbLine
 10
173.5
 20
771.2799999999999
 30
0.0
 11
173.5
 21
770.315
 31
0.0
  0
LINE
  5
2B7
330
1E
100
AcDbEntity
  8
0
100
AcDbLine
 10
173.5
 20
770.315
 30
0.0
 11
173.5
 21
771.2799999999999
 31
0.0
  0
LINE
  5
2B8
330
1E
100
AcDbEntity
  8
0
100
AcDbLine
 10
173.5
 20
770.315
 30
0.0
 11
173.5
 21
769.725
 31
0.0
  0
LINE
  5
2B9
330
1E
100
AcDbEntity
  8
0
100
AcDbLine
 10
179.59811580727
 20
765.1000515638209
 30
0.0
 11
179.6159
 21
764.033
 31
0.0
  0
LINE
  5
2BA
330
1E
100
AcDbEntity
  8
0
100
AcDbLine
 10
180.224565501019
 20
766.431024850275
 30
0.0
 11
180.2608999999999
 21
765.297
 31
0.0
  0
LINE
  5
2BB
330
1E
100
AcDbEntity
  8
0
100
AcDbLine
 10
180.2608999999999
 20
765.297
 30
0.0
 11
180.7745999999999
 21
765.5429999999999
 31
0.0
  0
LINE
  5
2BC
330
1E
100
AcDbEntity
  8
0
100
AcDbLine
 10
180.2608999999999
 20
765.297
 30
0.0
 11
182.1927
 21
765.297
 31
0.0
  0
LINE
  5
2BD
330
1E
100
AcDbEntity
  8
0
100
AcDbLine
 10
180.7745999999999
 20
765.5429999999999
 30
0.0
 11
182.7065
 21
765.5429999999999
 31
0.0
  0
LINE
  5
2BE
330
1E
100
AcDbEntity
  8
0
100
AcDbLine
 10
180.734996473552
 20
766.7810000000001
 30
0.0
 11
180.7745999999999
 21
765.5429999999999
 31
0.0
  0
LINE
  5
2BF
330
1E
100
AcDbEntity
  8
0
100
AcDbLine
 10
180.362223161454
 20
765.216610312764
 30
0.0
 11
180.3805
 21
764.12
 31
0.0
  0
LINE
  5
2C0
330
1E
100
AcDbEntity
  8
0
100
AcDbLine
 10
179.4184
 20
767.1519999999999
 30
0.0
 11
179.6737999999999
 21
767.5629999999999
 31
0.0
  0
LINE
  5
2C1
330
1E
100
AcDbEntity
  8
0
100
AcDbLine
 10
179.646452029737
 20
768.559647631385
 30
0.0
 11
179.6737999999999
 21
767.5629999999999
 31
0.0
  0
LINE
  5
2C2
330
1E
100
AcDbEntity
  8
0
100
AcDbLine
 10
178.156060201081
 20
764.2250271846429
 30
0.0
 11
178.7221
 21
763.029
 31
0.0
  0
LINE
  5
2C3
330
1E
100
AcDbEntity
  8
0
100
AcDbLine
 10
175.589683421739
 20
764.143054763709
 30
0.0
 11
179.612697381843
 21
764.225157089425
 31
0.0
  0
LINE
  5
2C4
330
1E
100
AcDbEntity
  8
0
100
AcDbLine
 10
181.2815999999999
 20
763.029
 30
0.0
 11
181.937
 21
763.029
 31
0.0
  0
LINE
  5
2C5
330
1E
100
AcDbEntity
  8
0
100
AcDbLine
 10
181.4636
 20
764.033
 30
0.0
 11
182.2282999999999
 21
764.12
 31
0.0
  0
LINE
  5
2C6
330
1E
100
AcDbEntity
  8
0
100
AcDbLine
 10
181.46215
 20
764.12
 30
0.0
 11
181.4636
 21
764.033
 31
0.0
  0
LINE
  5
2C7
330
1E
100
AcDbEntity
  8
0
100
AcDbLine
 10
181.2809
 20
763.029
 30
0.0
 11
181.9281
 21
763.029
 31
0.0
  0
LINE
  5
2C8
330
1E
100
AcDbEntity
  8
0
100
AcDbLine
 10
181.0
 20
773.08
 30
0.0
 11
189.3
 21
773.08
 31
0.0
  0
LINE
  5
2C9
330
1E
100
AcDbEntity
  8
0
100
AcDbLine
 10
181.0
 20
774.081
 30
0.0
 11
189.3
 21
774.081
 31
0.0
  0
LINE
  5
2CA
330
1E
100
AcDbEntity
  8
0
100
AcDbLine
 10
172.5
 20
778.88
 30
0.0
 11
181.9
 21
778.88
 31
0.0
  0
LINE
  5
2CB
330
1E
100
AcDbEntity
  8
0
100
AcDbLine
 10
172.5
 20
804.08
 30
0.0
 11
182.3
 21
803.88
 31
0.0
  0
LINE
  5
2CC
330
1E
100
AcDbEntity
  8
0
100
AcDbLine
 10
181.937
 20
763.029
 30
0.0
 11
182.5606
 21
763.029
 31
0.0
  0
LINE
  5
2CD
330
1E
100
AcDbEntity
  8
0
100
AcDbLine
 10
182.5606
 20
763.029
 30
0.0
 11
183.0818999999999
 21
763.029
 31
0.0
  0
LINE
  5
2CE
330
1E
100
AcDbEntity
  8
0
100
AcDbLine
 10
183.0818999999999
 20
763.029
 30
0.0
 11
183.4984999999999
 21
763.029
 31
0.0
  0
LINE
  5
2CF
330
1E
100
AcDbEntity
  8
0
100
AcDbLine
 10
183.1057
 20
763.029
 30
0.0
 11
183.4976
 21
763.029
 31
0.0
  0
LINE
  5
2D0
330
1E
100
AcDbEntity
  8
0
100
AcDbLine
 10
182.5609
 20
763.029
 30
0.0
 11
183.1057
 21
763.029
 31
0.0
  0
LINE
  5
2D1
330
1E
100
AcDbEntity
  8
0
100
AcDbLine
 10
183.4976
 20
763.029
 30
0.0
 11
183.729
 21
763.029
 31
0.0
  0
LINE
  5
2D2
330
1E
100
AcDbEntity
  8
0
100
AcDbLine
 10
183.729
 20
763.029
 30
0.0
 11
183.8405999999999
 21
763.029
 31
0.0
  0
LINE
  5
2D3
330
1E
100
AcDbEntity
  8
0
100
AcDbLine
 10
183.7617999999999
 20
763.029
 30
0.0
 11
183.8405999999999
 21
763.029
 31
0.0
  0
LINE
  5
2D4
330
1E
100
AcDbEntity
  8
0
100
AcDbLine
 10
183.8405999999999
 20
763.029
 30
0.0
 11
184.498543306357
 21
764.4197066293738
 31
0.0
  0
LINE
  5
2D5
330
1E
100
AcDbEntity
  8
0
100
AcDbLine
 10
183.4984999999999
 20
763.029
 30
0.0
 11
183.7617999999999
 21
763.029
 31
0.0
  0
LINE
  5
2D6
330
1E
100
AcDbEntity
  8
0
100
AcDbLine
 10
186.0827999999999
 20
764.033
 30
0.0
 11
187.2991
 21
764.12
 31
0.0
  0
LINE
  5
2D7
330
1E
100
AcDbEntity
  8
0
100
AcDbLine
 10
184.4960999999999
 20
764.033
 30
0.0
 11
186.0827999999999
 21
764.033
 31
0.0
  0
LINE
  5
2D8
330
1E
100
AcDbEntity
  8
0
100
AcDbLine
 10
181.9281
 20
763.029
 30
0.0
 11
182.5609
 21
763.029
 31
0.0
  0
LINE
  5
2D9
330
1E
100
AcDbEntity
  8
0
100
AcDbLine
 10
186.5
 20
761.1799999999999
 30
0.0
 11
186.5
 21
764.062841650908
 31
0.0
  0
LINE
  5
2DA
330
1E
100
AcDbEntity
  8
0
100
AcDbLine
 10
186.5
 20
761.1799999999999
 30
0.0
 11
186.5
 21
756.28
 31
0.0
  0
LINE
  5
2DB
330
1E
100
AcDbEntity
  8
0
100
AcDbLine
 10
182.1927
 20
765.297
 30
0.0
 11
182.7065
 21
765.5429999999999
 31
0.0
  0
LINE
  5
2DC
330
1E
100
AcDbEntity
  8
0
100
AcDbLine
 10
182.1865037373899
 20
765.4906941934081
 30
0.0
 11
182.1927
 21
765.297
 31
0.0
  0
LINE
  5
2DD
330
1E
100
AcDbEntity
  8
0
100
AcDbLine
 10
182.208497981772
 20
765.3045638449119
 30
0.0
 11
182.2282999999999
 21
764.12
 31
0.0
  0
LINE
  5
2DE
330
1E
100
AcDbEntity
  8
0
100
AcDbLine
 10
182.2256506901489
 20
764.2784826671459
 30
0.0
 11
182.3
 21
764.28
 31
0.0
  0
LINE
  5
2DF
330
1E
100
AcDbEntity
  8
0
100
AcDbLine
 10
186.0708212078879
 20
764.4837274319939
 30
0.0
 11
186.0827999999999
 21
764.033
 31
0.0
  0
LINE
  5
2E0
330
1E
100
AcDbEntity
  8
0
100
AcDbLine
 10
184.4864992416719
 20
764.3942488726939
 30
0.0
 11
184.4960999999999
 21
764.033
 31
0.0
  0
LINE
  5
2E1
330
1E
100
AcDbEntity
  8
0
100
AcDbLine
 10
187.287752576614
 20
764.547776451401
 30
0.0
 11
187.2991
 21
764.12
 31
0.0
  0
LINE
  5
2E2
330
1E
100
AcDbEntity
  8
0
100
AcDbLine
 10
186.235425877975
 20
771.0378635287339
 30
0.0
 11
186.3403999999999
 21
769.725
 31
0.0
  0
LINE
  5
2E3
330
1E
100
AcDbEntity
  8
0
100
AcDbLine
 10
186.3403999999999
 20
769.725
 30
0.0
 11
186.835
 21
770.315
 31
0.0
  0
LINE
  5
2E4
330
1E
100
AcDbEntity
  8
0
100
AcDbLine
 10
186.3403999999999
 20
769.725
 30
0.0
 11
188.2722
 21
769.725
 31
0.0
  0
LINE
  5
2E5
330
1E
100
AcDbEntity
  8
0
100
AcDbLine
 10
186.835
 20
770.315
 30
0.0
 11
188.7667999999999
 21
770.315
 31
0.0
  0
LINE
  5
2E6
330
1E
100
AcDbEntity
  8
0
100
AcDbLine
 10
186.7578403976979
 20
771.2799999999999
 30
0.0
 11
186.835
 21
770.315
 31
0.0
  0
LINE
  5
2E7
330
1E
100
AcDbEntity
  8
0
100
AcDbLine
 10
182.6668341057929
 20
766.7810000000001
 30
0.0
 11
182.7065
 21
765.5429999999999
 31
0.0
  0
LINE
  5
2E8
330
1E
100
AcDbEntity
  8
0
100
AcDbLine
 10
182.3
 20
764.28
 30
0.0
 11
188.538919563786
 21
764.604943727281
 31
0.0
  0
LINE
  5
2E9
330
1E
100
AcDbEntity
  8
0
100
AcDbLine
 10
186.5
 20
764.062841650908
 30
0.0
 11
186.5
 21
761.1799999999999
 31
0.0
  0
LINE
  5
2EA
330
1E
100
AcDbEntity
  8
0
100
AcDbLine
 10
181.9
 20
778.88
 30
0.0
 11
191.0999999999999
 21
778.88
 31
0.0
  0
LINE
  5
2EB
330
1E
100
AcDbEntity
  8
0
100
AcDbLine
 10
182.3
 20
803.88
 30
0.0
 11
191.9
 21
803.3799999999999
 31
0.0
  0
LINE
  5
2EC
330
1E
100
AcDbEntity
  8
0
100
AcDbLine
 10
188.5586999999999
 20
764.033
 30
0.0
 11
190.1439
 21
764.12
 31
0.0
  0
LINE
  5
2ED
330
1E
100
AcDbEntity
  8
0
100
AcDbLine
 10
188.5586999999999
 20
764.033
 30
0.0
 11
189.7761999999999
 21
764.033
 31
0.0
  0
LINE
  5
2EE
330
1E
100
AcDbEntity
  8
0
100
AcDbLine
 10
188.2722
 20
769.725
 30
0.0
 11
188.7667999999999
 21
770.315
 31
0.0
  0
LINE
  5
2EF
330
1E
100
AcDbEntity
  8
0
100
AcDbLine
 10
188.424758361101
 20
766.398475189035
 30
0.0
 11
188.4928999999999
 21
765.297
 31
0.0
  0
LINE
  5
2F0
330
1E
100
AcDbEntity
  8
0
100
AcDbLine
 10
188.6896908948189
 20
771.2799999999999
 30
0.0
 11
188.7667999999999
 21
770.315
 31
0.0
  0
LINE
  5
2F1
330
1E
100
AcDbEntity
  8
0
100
AcDbLine
 10
188.862095401124
 20
768.281
 30
0.0
 11
188.9528999999999
 21
767.1519999999999
 31
0.0
  0
LINE
  5
2F2
330
1E
100
AcDbEntity
  8
0
100
AcDbLine
 10
188.9528999999999
 20
767.1519999999999
 30
0.0
 11
189.7019
 21
767.5629999999999
 31
0.0
  0
LINE
  5
2F3
330
1E
100
AcDbEntity
  8
0
100
AcDbLine
 10
188.9528999999999
 20
767.1519999999999
 30
0.0
 11
190.8006999999999
 21
767.1519999999999
 31
0.0
  0
LINE
  5
2F4
330
1E
100
AcDbEntity
  8
0
100
AcDbLine
 10
188.4928999999999
 20
765.297
 30
0.0
 11
189.4852999999999
 21
765.5429999999999
 31
0.0
  0
LINE
  5
2F5
330
1E
100
AcDbEntity
  8
0
100
AcDbLine
 10
188.4928999999999
 20
765.297
 30
0.0
 11
190.2248999999999
 21
765.297
 31
0.0
  0
LINE
  5
2F6
330
1E
100
AcDbEntity
  8
0
100
AcDbLine
 10
188.524825004614
 20
765.0124825004609
 30
0.0
 11
188.5586999999999
 21
764.033
 31
0.0
  0
LINE
  5
2F7
330
1E
100
AcDbEntity
  8
0
100
AcDbLine
 10
189.7761999999999
 20
764.033
 30
0.0
 11
191.3614
 21
764.12
 31
0.0
  0
LINE
  5
2F8
330
1E
100
AcDbEntity
  8
0
100
AcDbLine
 10
189.7738934484149
 20
764.099693054512
 30
0.0
 11
189.7761999999999
 21
764.033
 31
0.0
  0
LINE
  5
2F9
330
1E
100
AcDbEntity
  8
0
100
AcDbLine
 10
190.1439
 20
764.12
 30
0.0
 11
191.3614
 21
764.12
 31
0.0
  0
LINE
  5
2FA
330
1E
100
AcDbEntity
  8
0
100
AcDbLine
 10
190.2248999999999
 20
765.297
 30
0.0
 11
191.2174
 21
765.5429999999999
 31
0.0
  0
LINE
  5
2FB
330
1E
100
AcDbEntity
  8
0
100
AcDbLine
 10
190.215279117692
 20
765.452516705066
 30
0.0
 11
190.2248999999999
 21
765.297
 31
0.0
  0
LINE
  5
2FC
330
1E
100
AcDbEntity
  8
0
100
AcDbLine
 10
190.8006999999999
 20
767.1519999999999
 30
0.0
 11
191.5497
 21
767.5629999999999
 31
0.0
  0
LINE
  5
2FD
330
1E
100
AcDbEntity
  8
0
100
AcDbLine
 10
189.7019
 20
767.5629999999999
 30
0.0
 11
191.5497
 21
767.5629999999999
 31
0.0
  0
LINE
  5
2FE
330
1E
100
AcDbEntity
  8
0
100
AcDbLine
 10
189.64418850281
 20
768.281
 30
0.0
 11
189.7019
 21
767.5629999999999
 31
0.0
  0
LINE
  5
2FF
330
1E
100
AcDbEntity
  8
0
100
AcDbLine
 10
189.4852999999999
 20
765.5429999999999
 30
0.0
 11
191.2174
 21
765.5429999999999
 31
0.0
  0
LINE
  5
300
330
1E
100
AcDbEntity
  8
0
100
AcDbLine
 10
189.408712392947
 20
766.7810000000001
 30
0.0
 11
189.4852999999999
 21
765.5429999999999
 31
0.0
  0
LINE
  5
301
330
1E
100
AcDbEntity
  8
0
100
AcDbLine
 10
190.107560040102
 20
765.17075600401
 30
0.0
 11
190.1439
 21
764.12
 31
0.0
  0
LINE
  5
302
330
1E
100
AcDbEntity
  8
0
100
AcDbLine
 10
189.3
 20
773.08
 30
0.0
 11
197.3
 21
773.08
 31
0.0
  0
LINE
  5
303
330
1E
100
AcDbEntity
  8
0
100
AcDbLine
 10
189.3
 20
774.081
 30
0.0
 11
197.3
 21
774.081
 31
0.0
  0
LINE
  5
304
330
1E
100
AcDbEntity
  8
0
100
AcDbLine
 10
191.527
 20
764.033
 30
0.0
 11
192.2923999999999
 21
764.033
 31
0.0
  0
LINE
  5
305
330
1E
100
AcDbEntity
  8
0
100
AcDbLine
 10
192.2923999999999
 20
764.033
 30
0.0
 11
193.1967590425399
 21
764.075621471669
 31
0.0
  0
LINE
  5
306
330
1E
100
AcDbEntity
  8
0
100
AcDbLine
 10
193.1986
 20
764.033
 30
0.0
 11
193.4597
 21
764.033
 31
0.0
  0
LINE
  5
307
330
1E
100
AcDbEntity
  8
0
100
AcDbLine
 10
193.1986
 20
764.033
 30
0.0
 11
195.1796
 21
764.12
 31
0.0
  0
LINE
  5
308
330
1E
100
AcDbEntity
  8
0
100
AcDbLine
 10
193.4597
 20
764.033
 30
0.0
 11
195.4406999999999
 21
764.12
 31
0.0
  0
LINE
  5
309
330
1E
100
AcDbEntity
  8
0
100
AcDbLine
 10
191.4973329171319
 20
764.7693333114281
 30
0.0
 11
191.527
 21
764.033
 31
0.0
  0
LINE
  5
30A
330
1E
100
AcDbEntity
  8
0
100
AcDbLine
 10
195.1796
 20
764.12
 30
0.0
 11
195.4406999999999
 21
764.12
 31
0.0
  0
LINE
  5
30B
330
1E
100
AcDbEntity
  8
0
100
AcDbLine
 10
191.3395836412029
 20
764.7508116479789
 30
0.0
 11
191.9
 21
764.78
 31
0.0
  0
LINE
  5
30C
330
1E
100
AcDbEntity
  8
0
100
AcDbLine
 10
192.260071406385
 20
764.8353916775549
 30
0.0
 11
192.2923999999999
 21
764.033
 31
0.0
  0
LINE
  5
30D
330
1E
100
AcDbEntity
  8
0
100
AcDbLine
 10
193.1552925306309
 20
765.035645698718
 30
0.0
 11
193.1986
 21
764.033
 31
0.0
  0
LINE
  5
30E
330
1E
100
AcDbEntity
  8
0
100
AcDbLine
 10
195.3938202515569
 20
765.204094182742
 30
0.0
 11
195.4406999999999
 21
764.12
 31
0.0
  0
LINE
  5
30F
330
1E
100
AcDbEntity
  8
0
100
AcDbLine
 10
195.1321279414869
 20
765.219063417252
 30
0.0
 11
195.1796
 21
764.12
 31
0.0
  0
LINE
  5
310
330
1E
100
AcDbEntity
  8
0
100
AcDbLine
 10
191.4678788385409
 20
768.5803063086161
 30
0.0
 11
191.5497
 21
767.5629999999999
 31
0.0
  0
LINE
  5
311
330
1E
100
AcDbEntity
  8
0
100
AcDbLine
 10
191.140812392947
 20
766.7810000000001
 30
0.0
 11
191.2174
 21
765.5429999999999
 31
0.0
  0
LINE
  5
312
330
1E
100
AcDbEntity
  8
0
100
AcDbLine
 10
191.3239748491049
 20
765.2021338855059
 30
0.0
 11
191.3614
 21
764.12
 31
0.0
  0
LINE
  5
313
330
1E
100
AcDbEntity
  8
0
100
AcDbLine
 10
197.0384789008179
 20
765.419518030377
 30
0.0
 11
197.0492
 21
765.297
 31
0.0
  0
LINE
  5
314
330
1E
100
AcDbEntity
  8
0
100
AcDbLine
 10
195.635
 20
765.297
 30
0.0
 11
197.0385
 21
765.5429999999999
 31
0.0
  0
LINE
  5
315
330
1E
100
AcDbEntity
  8
0
100
AcDbLine
 10
195.635
 20
765.297
 30
0.0
 11
197.0492
 21
765.297
 31
0.0
  0
LINE
  5
316
330
1E
100
AcDbEntity
  8
0
100
AcDbLine
 10
195.5410974947129
 20
766.370094260187
 30
0.0
 11
195.635
 21
765.297
 31
0.0
  0
LINE
  5
317
330
1E
100
AcDbEntity
  8
0
100
AcDbLine
 10
197.0492
 20
765.297
 30
0.0
 11
198.453
 21
765.5429999999999
 31
0.0
  0
LINE
  5
318
330
1E
100
AcDbEntity
  8
0
100
AcDbLine
 10
197.0385
 20
765.5429999999999
 30
0.0
 11
198.453
 21
765.5429999999999
 31
0.0
  0
LINE
  5
319
330
1E
100
AcDbEntity
  8
0
100
AcDbLine
 10
196.93016720403
 20
766.7810000000001
 30
0.0
 11
197.0385
 21
765.5429999999999
 31
0.0
  0
LINE
  5
31A
330
1E
100
AcDbEntity
  8
0
100
AcDbLine
 10
195.397364498011
 20
765.1221334835009
 30
0.0
 11
201.1
 21
765.6799999999999
 31
0.0
  0
LINE
  5
31B
330
1E
100
AcDbEntity
  8
0
100
AcDbLine
 10
191.9
 20
764.78
 30
0.0
 11
193.1610064016619
 21
764.903359321902
 31
0.0
  0
LINE
  5
31C
330
1E
100
AcDbEntity
  8
0
100
AcDbLine
 10
197.3
 20
773.08
 30
0.0
 11
204.8999999999999
 21
773.08
 31
0.0
  0
LINE
  5
31D
330
1E
100
AcDbEntity
  8
0
100
AcDbLine
 10
197.3
 20
774.081
 30
0.0
 11
204.8999999999999
 21
774.081
 31
0.0
  0
LINE
  5
31E
330
1E
100
AcDbEntity
  8
0
100
AcDbLine
 10
191.0999999999999
 20
778.88
 30
0.0
 11
200.0999999999999
 21
778.88
 31
0.0
  0
LINE
  5
31F
330
1E
100
AcDbEntity
  8
0
100
AcDbLine
 10
191.0999999999999
 20
778.88
 30
0.0
 11
200.0
 21
778.88
 31
0.0
  0
LINE
  5
320
330
1E
100
AcDbEntity
  8
0
100
AcDbLine
 10
191.9
 20
803.3799999999999
 30
0.0
 11
201.1
 21
802.48
 31
0.0
  0
LINE
  5
321
330
1E
100
AcDbEntity
  8
0
100
AcDbLine
 10
197.5
 20
802.8321739130431
 30
0.0
 11
197.5
 21
983.0
 31
0.0
  0
LINE
  5
322
330
1E
100
AcDbEntity
  8
0
100
AcDbLine
 10
187.5
 20
764.550833333333
 30
0.0
 11
187.5
 21
760.0
 31
0.0
  0
LINE
  5
323
330
1E
100
AcDbEntity
  8
0
100
AcDbLine
 10
187.5
 20
983.0
 30
0.0
 11
187.5
 21
803.6091666666671
 31
0.0
  0
LINE
  5
324
330
1E
100
AcDbEntity
  8
0
100
AcDbLine
 10
199.349
 20
767.1519999999999
 30
0.0
 11
200.5409999999999
 21
767.5629999999999
 31
0.0
  0
LINE
  5
325
330
1E
100
AcDbEntity
  8
0
100
AcDbLine
 10
199.349
 20
767.1519999999999
 30
0.0
 11
200.936
 21
767.1519999999999
 31
0.0
  0
LINE
  5
326
330
1E
100
AcDbEntity
  8
0
100
AcDbLine
 10
199.204774144098
 20
768.281
 30
0.0
 11
199.349
 21
767.1519999999999
 31
0.0
  0
LINE
  5
327
330
1E
100
AcDbEntity
  8
0
100
AcDbLine
 10
200.0412431301159
 20
770.995278305229
 30
0.0
 11
200.238
 21
769.725
 31
0.0
  0
LINE
  5
328
330
1E
100
AcDbEntity
  8
0
100
AcDbLine
 10
198.352994925661
 20
766.683862485992
 30
0.0
 11
198.453
 21
765.5429999999999
 31
0.0
  0
LINE
  5
329
330
1E
100
AcDbEntity
  8
0
100
AcDbLine
 10
200.0
 20
778.88
 30
0.0
 11
208.4
 21
778.88
 31
0.0
  0
LINE
  5
32A
330
1E
100
AcDbEntity
  8
0
100
AcDbLine
 10
201.0881862411399
 20
766.348339489845
 30
0.0
 11
201.201
 21
765.297
 31
0.0
  0
LINE
  5
32B
330
1E
100
AcDbEntity
  8
0
100
AcDbLine
 10
201.201
 20
765.297
 30
0.0
 11
202.2009999999999
 21
765.297
 31
0.0
  0
LINE
  5
32C
330
1E
100
AcDbEntity
  8
0
100
AcDbLine
 10
201.201
 20
765.297
 30
0.0
 11
202.919
 21
765.5429999999999
 31
0.0
  0
LINE
  5
32D
330
1E
100
AcDbEntity
  8
0
100
AcDbLine
 10
202.2009999999999
 20
765.297
 30
0.0
 11
203.919
 21
765.5429999999999
 31
0.0
  0
LINE
  5
32E
330
1E
100
AcDbEntity
  8
0
100
AcDbLine
 10
202.1913815018209
 20
765.3866371778689
 30
0.0
 11
202.2009999999999
 21
765.297
 31
0.0
  0
LINE
  5
32F
330
1E
100
AcDbEntity
  8
0
100
AcDbLine
 10
202.919
 20
765.5429999999999
 30
0.0
 11
203.919
 21
765.5429999999999
 31
0.0
  0
LINE
  5
330
330
1E
100
AcDbEntity
  8
0
100
AcDbLine
 10
204.81
 20
765.297
 30
0.0
 11
205.3279999999999
 21
765.297
 31
0.0
  0
LINE
  5
331
330
1E
100
AcDbEntity
  8
0
100
AcDbLine
 10
204.81
 20
765.297
 30
0.0
 11
206.727
 21
765.5429999999999
 31
0.0
  0
LINE
  5
332
330
1E
100
AcDbEntity
  8
0
100
AcDbLine
 10
206.218
 20
765.297
 30
0.0
 11
208.203
 21
765.5429999999999
 31
0.0
  0
LINE
  5
333
330
1E
100
AcDbEntity
  8
0
100
AcDbLine
 10
206.2040676229079
 20
765.409421823284
 30
0.0
 11
206.218
 21
765.297
 31
0.0
  0
LINE
  5
334
330
1E
100
AcDbEntity
  8
0
100
AcDbLine
 10
205.3279999999999
 20
765.297
 30
0.0
 11
207.2449999999999
 21
765.5429999999999
 31
0.0
  0
LINE
  5
335
330
1E
100
AcDbEntity
  8
0
100
AcDbLine
 10
205.320150753418
 20
765.3624653548989
 30
0.0
 11
205.3279999999999
 21
765.297
 31
0.0
  0
LINE
  5
336
330
1E
100
AcDbEntity
  8
0
100
AcDbLine
 10
204.670620487107
 20
766.464376932877
 30
0.0
 11
204.81
 21
765.297
 31
0.0
  0
LINE
  5
337
330
1E
100
AcDbEntity
  8
0
100
AcDbLine
 10
206.727
 20
765.5429999999999
 30
0.0
 11
207.2449999999999
 21
765.5429999999999
 31
0.0
  0
LINE
  5
338
330
1E
100
AcDbEntity
  8
0
100
AcDbLine
 10
203.8674228187919
 20
766.0259278523489
 30
0.0
 11
204.710388533846
 21
766.1312985667309
 31
0.0
  0
LINE
  5
339
330
1E
100
AcDbEntity
  8
0
100
AcDbLine
 10
203.8001136858579
 20
766.656157233828
 30
0.0
 11
203.919
 21
765.5429999999999
 31
0.0
  0
LINE
  5
33A
330
1E
100
AcDbEntity
  8
0
100
AcDbLine
 10
208.072073768108
 20
766.599457602864
 30
0.0
 11
208.203
 21
765.5429999999999
 31
0.0
  0
LINE
  5
33B
330
1E
100
AcDbEntity
  8
0
100
AcDbLine
 10
208.070431398445
 20
766.612710057265
 30
0.0
 11
208.203
 21
765.5429999999999
 31
0.0
  0
LINE
  5
33C
330
1E
100
AcDbEntity
  8
0
100
AcDbLine
 10
207.117381999672
 20
766.611868061819
 30
0.0
 11
207.2449999999999
 21
765.5429999999999
 31
0.0
  0
LINE
  5
33D
330
1E
100
AcDbEntity
  8
0
100
AcDbLine
 10
206.5859086760459
 20
766.724714253374
 30
0.0
 11
206.727
 21
765.5429999999999
 31
0.0
  0
LINE
  5
33E
330
1E
100
AcDbEntity
  8
0
100
AcDbLine
 10
208.077925337964
 20
766.552240667246
 30
0.0
 11
209.9
 21
766.7799999999999
 31
0.0
  0
LINE
  5
33F
330
1E
100
AcDbEntity
  8
0
100
AcDbLine
 10
201.1
 20
765.6799999999999
 30
0.0
 11
201.159109426459
 21
765.687388678307
 31
0.0
  0
LINE
  5
340
330
1E
100
AcDbEntity
  8
0
100
AcDbLine
 10
200.936
 20
767.1519999999999
 30
0.0
 11
202.127
 21
767.5629999999999
 31
0.0
  0
LINE
  5
341
330
1E
100
AcDbEntity
  8
0
100
AcDbLine
 10
200.5409999999999
 20
767.5629999999999
 30
0.0
 11
202.127
 21
767.5629999999999
 31
0.0
  0
LINE
  5
342
330
1E
100
AcDbEntity
  8
0
100
AcDbLine
 10
200.437414449056
 20
768.3706371442099
 30
0.0
 11
200.5409999999999
 21
767.5629999999999
 31
0.0
  0
LINE
  5
343
330
1E
100
AcDbEntity
  8
0
100
AcDbLine
 10
200.238
 20
769.725
 30
0.0
 11
201.1929999999999
 21
770.315
 31
0.0
  0
LINE
  5
344
330
1E
100
AcDbEntity
  8
0
100
AcDbLine
 10
200.238
 20
769.725
 30
0.0
 11
201.9699999999999
 21
769.725
 31
0.0
  0
LINE
  5
345
330
1E
100
AcDbEntity
  8
0
100
AcDbLine
 10
202.7867803526449
 20
766.7810000000001
 30
0.0
 11
202.919
 21
765.5429999999999
 31
0.0
  0
LINE
  5
346
330
1E
100
AcDbEntity
  8
0
100
AcDbLine
 10
209.1329999999999
 20
767.1519999999999
 30
0.0
 11
210.6859999999999
 21
767.5629999999999
 31
0.0
  0
LINE
  5
347
330
1E
100
AcDbEntity
  8
0
100
AcDbLine
 10
209.1036454361899
 20
767.328217427536
 30
0.0
 11
209.1329999999999
 21
767.1519999999999
 31
0.0
  0
LINE
  5
348
330
1E
100
AcDbEntity
  8
0
100
AcDbLine
 10
207.9159999999999
 20
767.1519999999999
 30
0.0
 11
209.4679999999999
 21
767.5629999999999
 31
0.0
  0
LINE
  5
349
330
1E
100
AcDbEntity
  8
0
100
AcDbLine
 10
207.9159999999999
 20
767.1519999999999
 30
0.0
 11
209.1329999999999
 21
767.1519999999999
 31
0.0
  0
LINE
  5
34A
330
1E
100
AcDbEntity
  8
0
100
AcDbLine
 10
207.72735258048
 20
768.281
 30
0.0
 11
207.9159999999999
 21
767.1519999999999
 31
0.0
  0
LINE
  5
34B
330
1E
100
AcDbEntity
  8
0
100
AcDbLine
 10
209.4679999999999
 20
767.5629999999999
 30
0.0
 11
210.6859999999999
 21
767.5629999999999
 31
0.0
  0
LINE
  5
34C
330
1E
100
AcDbEntity
  8
0
100
AcDbLine
 10
210.4749049475009
 20
768.830217845828
 30
0.0
 11
210.6859999999999
 21
767.5629999999999
 31
0.0
  0
LINE
  5
34D
330
1E
100
AcDbEntity
  8
0
100
AcDbLine
 10
209.31357427468
 20
768.490028050462
 30
0.0
 11
209.4679999999999
 21
767.5629999999999
 31
0.0
  0
LINE
  5
34E
330
1E
100
AcDbEntity
  8
0
100
AcDbLine
 10
201.995111633814
 20
768.5954221305
 30
0.0
 11
202.127
 21
767.5629999999999
 31
0.0
  0
LINE
  5
34F
330
1E
100
AcDbEntity
  8
0
100
AcDbLine
 10
211.9755841719599
 20
770.9550782910879
 30
0.0
 11
212.244
 21
769.725
 31
0.0
  0
LINE
  5
350
330
1E
100
AcDbEntity
  8
0
100
AcDbLine
 10
201.9699999999999
 20
769.725
 30
0.0
 11
202.925
 21
770.315
 31
0.0
  0
LINE
  5
351
330
1E
100
AcDbEntity
  8
0
100
AcDbLine
 10
201.1929999999999
 20
770.315
 30
0.0
 11
202.925
 21
770.315
 31
0.0
  0
LINE
  5
352
330
1E
100
AcDbEntity
  8
0
100
AcDbLine
 10
202.7760334903189
 20
771.2799999999999
 30
0.0
 11
202.925
 21
770.315
 31
0.0
  0
LINE
  5
353
330
1E
100
AcDbEntity
  8
0
100
AcDbLine
 10
201.0440334903189
 20
771.2799999999999
 30
0.0
 11
201.1929999999999
 21
770.315
 31
0.0
  0
LINE
  5
354
330
1E
100
AcDbEntity
  8
0
100
AcDbLine
 10
209.9
 20
766.7799999999999
 30
0.0
 11
213.995752801281
 21
767.529223073405
 31
0.0
  0
LINE
  5
355
330
1E
100
AcDbEntity
  8
0
100
AcDbLine
 10
212.0
 20
773.08
 30
0.0
 11
218.4
 21
773.08
 31
0.0
  0
LINE
  5
356
330
1E
100
AcDbEntity
  8
0
100
AcDbLine
 10
204.8999999999999
 20
773.08
 30
0.0
 11
212.0
 21
773.08
 31
0.0
  0
LINE
  5
357
330
1E
100
AcDbEntity
  8
0
100
AcDbLine
 10
214.069
 20
767.1519999999999
 30
0.0
 11
214.834
 21
767.1519999999999
 31
0.0
  0
LINE
  5
358
330
1E
100
AcDbEntity
  8
0
100
AcDbLine
 10
214.069
 20
767.1519999999999
 30
0.0
 11
215.877
 21
767.5629999999999
 31
0.0
  0
LINE
  5
359
330
1E
100
AcDbEntity
  8
0
100
AcDbLine
 10
214.834
 20
767.1519999999999
 30
0.0
 11
216.642
 21
767.5629999999999
 31
0.0
  0
LINE
  5
35A
330
1E
100
AcDbEntity
  8
0
100
AcDbLine
 10
213.995752801281
 20
767.529223073405
 30
0.0
 11
214.069
 21
767.1519999999999
 31
0.0
  0
LINE
  5
35B
330
1E
100
AcDbEntity
  8
0
100
AcDbLine
 10
213.849776699029
 20
768.281
 30
0.0
 11
214.069
 21
767.1519999999999
 31
0.0
  0
LINE
  5
35C
330
1E
100
AcDbEntity
  8
0
100
AcDbLine
 10
214.8109860817819
 20
767.2705216788228
 30
0.0
 11
214.834
 21
767.1519999999999
 31
0.0
  0
LINE
  5
35D
330
1E
100
AcDbEntity
  8
0
100
AcDbLine
 10
215.877
 20
767.5629999999999
 30
0.0
 11
216.642
 21
767.5629999999999
 31
0.0
  0
LINE
  5
35E
330
1E
100
AcDbEntity
  8
0
100
AcDbLine
 10
215.609539762875
 20
768.9404202211959
 30
0.0
 11
215.877
 21
767.5629999999999
 31
0.0
  0
LINE
  5
35F
330
1E
100
AcDbEntity
  8
0
100
AcDbLine
 10
213.659
 20
769.725
 30
0.0
 11
215.01
 21
770.315
 31
0.0
  0
LINE
  5
360
330
1E
100
AcDbEntity
  8
0
100
AcDbLine
 10
212.244
 20
769.725
 30
0.0
 11
213.5959999999999
 21
770.315
 31
0.0
  0
LINE
  5
361
330
1E
100
AcDbEntity
  8
0
100
AcDbLine
 10
212.244
 20
769.725
 30
0.0
 11
213.659
 21
769.725
 31
0.0
  0
LINE
  5
362
330
1E
100
AcDbEntity
  8
0
100
AcDbLine
 10
214.7994270015699
 20
771.2799999999999
 30
0.0
 11
215.01
 21
770.315
 31
0.0
  0
LINE
  5
363
330
1E
100
AcDbEntity
  8
0
100
AcDbLine
 10
213.3849220303509
 20
771.2799999999999
 30
0.0
 11
213.5959999999999
 21
770.315
 31
0.0
  0
LINE
  5
364
330
1E
100
AcDbEntity
  8
0
100
AcDbLine
 10
213.5959999999999
 20
770.315
 30
0.0
 11
215.01
 21
770.315
 31
0.0
  0
LINE
  5
365
330
1E
100
AcDbEntity
  8
0
100
AcDbLine
 10
212.0
 20
774.081
 30
0.0
 11
218.4
 21
774.081
 31
0.0
  0
LINE
  5
366
330
1E
100
AcDbEntity
  8
0
100
AcDbLine
 10
204.8999999999999
 20
774.081
 30
0.0
 11
212.0
 21
774.081
 31
0.0
  0
LINE
  5
367
330
1E
100
AcDbEntity
  8
0
100
AcDbLine
 10
216.4099223835069
 20
768.7581997249381
 30
0.0
 11
216.642
 21
767.5629999999999
 31
0.0
  0
LINE
  5
368
330
1E
100
AcDbEntity
  8
0
100
AcDbLine
 10
216.3
 20
778.88
 30
0.0
 11
223.3999999999999
 21
778.88
 31
0.0
  0
LINE
  5
369
330
1E
100
AcDbEntity
  8
0
100
AcDbLine
 10
208.4
 20
778.88
 30
0.0
 11
216.3
 21
778.88
 31
0.0
  0
LINE
  5
36A
330
1E
100
AcDbEntity
  8
0
100
AcDbLine
 10
217.389
 20
767.1519999999999
 30
0.0
 11
217.65
 21
767.1519999999999
 31
0.0
  0
LINE
  5
36B
330
1E
100
AcDbEntity
  8
0
100
AcDbLine
 10
217.389
 20
767.1519999999999
 30
0.0
 11
219.329
 21
767.5629999999999
 31
0.0
  0
LINE
  5
36C
330
1E
100
AcDbEntity
  8
0
100
AcDbLine
 10
217.65
 20
767.1519999999999
 30
0.0
 11
219.5899999999999
 21
767.5629999999999
 31
0.0
  0
LINE
  5
36D
330
1E
100
AcDbEntity
  8
0
100
AcDbLine
 10
217.638959735316
 20
767.2049553872239
 30
0.0
 11
217.65
 21
767.1519999999999
 31
0.0
  0
LINE
  5
36E
330
1E
100
AcDbEntity
  8
0
100
AcDbLine
 10
217.188590333385
 20
768.1132787195219
 30
0.0
 11
217.389
 21
767.1519999999999
 31
0.0
  0
LINE
  5
36F
330
1E
100
AcDbEntity
  8
0
100
AcDbLine
 10
217.153747307521
 20
768.280405684266
 30
0.0
 11
217.389
 21
767.1519999999999
 31
0.0
  0
LINE
  5
370
330
1E
100
AcDbEntity
  8
0
100
AcDbLine
 10
216.557563686257
 20
767.9978470157789
 30
0.0
 11
217.188590333385
 21
768.1132787195219
 31
0.0
  0
LINE
  5
371
330
1E
100
AcDbEntity
  8
0
100
AcDbLine
 10
219.329
 20
767.5629999999999
 30
0.0
 11
219.5899999999999
 21
767.5629999999999
 31
0.0
  0
LINE
  5
372
330
1E
100
AcDbEntity
  8
0
100
AcDbLine
 10
221.543
 20
769.725
 30
0.0
 11
222.543
 21
769.725
 31
0.0
  0
LINE
  5
373
330
1E
100
AcDbEntity
  8
0
100
AcDbLine
 10
221.543
 20
769.725
 30
0.0
 11
223.1979999999999
 21
770.315
 31
0.0
  0
LINE
  5
374
330
1E
100
AcDbEntity
  8
0
100
AcDbLine
 10
221.2250736497539
 20
770.913957446808
 30
0.0
 11
221.543
 21
769.725
 31
0.0
  0
LINE
  5
375
330
1E
100
AcDbEntity
  8
0
100
AcDbLine
 10
222.543
 20
769.725
 30
0.0
 11
224.1979999999999
 21
770.315
 31
0.0
  0
LINE
  5
376
330
1E
100
AcDbEntity
  8
0
100
AcDbLine
 10
223.1979999999999
 20
770.315
 30
0.0
 11
224.1979999999999
 21
770.315
 31
0.0
  0
LINE
  5
377
330
1E
100
AcDbEntity
  8
0
100
AcDbLine
 10
222.9399597069599
 20
771.2799999999999
 30
0.0
 11
223.1979999999999
 21
770.315
 31
0.0
  0
LINE
  5
378
330
1E
100
AcDbEntity
  8
0
100
AcDbLine
 10
219.3558459273599
 20
768.6888956269188
 30
0.0
 11
219.5899999999999
 21
767.5629999999999
 31
0.0
  0
LINE
  5
379
330
1E
100
AcDbEntity
  8
0
100
AcDbLine
 10
219.071506908843
 20
768.801117885491
 30
0.0
 11
219.329
 21
767.5629999999999
 31
0.0
  0
LINE
  5
37A
330
1E
100
AcDbEntity
  8
0
100
AcDbLine
 10
219.3789431366
 20
768.5778360729069
 30
0.0
 11
225.4
 21
769.98
 31
0.0
  0
LINE
  5
37B
330
1E
100
AcDbEntity
  8
0
100
AcDbLine
 10
218.4
 20
773.08
 30
0.0
 11
224.0
 21
773.08
 31
0.0
  0
LINE
  5
37C
330
1E
100
AcDbEntity
  8
0
100
AcDbLine
 10
218.4
 20
774.081
 30
0.0
 11
224.0
 21
774.081
 31
0.0
  0
LINE
  5
37D
330
1E
100
AcDbEntity
  8
0
100
AcDbLine
 10
216.5
 20
778.88
 30
0.0
 11
223.4999999999999
 21
778.88
 31
0.0
  0
LINE
  5
37E
330
1E
100
AcDbEntity
  8
0
100
AcDbLine
 10
208.4999999999999
 20
778.88
 30
0.0
 11
216.5
 21
778.88
 31
0.0
  0
LINE
  5
37F
330
1E
100
AcDbEntity
  8
0
100
AcDbLine
 10
200.0999999999999
 20
778.88
 30
0.0
 11
208.4999999999999
 21
778.88
 31
0.0
  0
LINE
  5
380
330
1E
100
AcDbEntity
  8
0
100
AcDbLine
 10
223.3999999999999
 20
778.88
 30
0.0
 11
229.5999999999999
 21
778.88
 31
0.0
  0
LINE
  5
381
330
1E
100
AcDbEntity
  8
0
100
AcDbLine
 10
223.93995970696
 20
771.2799999999999
 30
0.0
 11
224.1979999999999
 21
770.315
 31
0.0
  0
LINE
  5
382
330
1E
100
AcDbEntity
  8
0
100
AcDbLine
 10
224.0
 20
773.08
 30
0.0
 11
228.8
 21
773.08
 31
0.0
  0
LINE
  5
383
330
1E
100
AcDbEntity
  8
0
100
AcDbLine
 10
227.499
 20
769.725
 30
0.0
 11
228.017
 21
769.725
 31
0.0
  0
LINE
  5
384
330
1E
100
AcDbEntity
  8
0
100
AcDbLine
 10
227.499
 20
769.725
 30
0.0
 11
229.3449999999999
 21
770.315
 31
0.0
  0
LINE
  5
385
330
1E
100
AcDbEntity
  8
0
100
AcDbLine
 10
228.017
 20
769.725
 30
0.0
 11
229.863
 21
770.315
 31
0.0
  0
LINE
  5
386
330
1E
100
AcDbEntity
  8
0
100
AcDbLine
 10
227.981110662263
 20
769.845323727045
 30
0.0
 11
228.017
 21
769.725
 31
0.0
  0
LINE
  5
387
330
1E
100
AcDbEntity
  8
0
100
AcDbLine
 10
227.309056296296
 20
770.361811259259
 30
0.0
 11
227.499
 21
769.725
 31
0.0
  0
LINE
  5
388
330
1E
100
AcDbEntity
  8
0
100
AcDbLine
 10
227.155808619624
 20
770.875594259472
 30
0.0
 11
227.499
 21
769.725
 31
0.0
  0
LINE
  5
389
330
1E
100
AcDbEntity
  8
0
100
AcDbLine
 10
229.5751664050239
 20
771.2799999999999
 30
0.0
 11
229.863
 21
770.315
 31
0.0
  0
LINE
  5
38A
330
1E
100
AcDbEntity
  8
0
100
AcDbLine
 10
229.3449999999999
 20
770.315
 30
0.0
 11
229.863
 21
770.315
 31
0.0
  0
LINE
  5
38B
330
1E
100
AcDbEntity
  8
0
100
AcDbLine
 10
229.0571664050229
 20
771.2799999999999
 30
0.0
 11
229.3449999999999
 21
770.315
 31
0.0
  0
LINE
  5
38C
330
1E
100
AcDbEntity
  8
0
100
AcDbLine
 10
229.555215055139
 20
770.216628863777
 30
0.0
 11
229.707
 21
769.725
 31
0.0
  0
LINE
  5
38D
330
1E
100
AcDbEntity
  8
0
100
AcDbLine
 10
225.4
 20
769.98
 30
0.0
 11
227.309056296296
 21
770.361811259259
 31
0.0
  0
LINE
  5
38E
330
1E
100
AcDbEntity
  8
0
100
AcDbLine
 10
228.8
 20
773.08
 30
0.0
 11
232.4
 21
773.0809999999999
 31
0.0
  0
LINE
  5
38F
330
1E
100
AcDbEntity
  8
0
100
AcDbLine
 10
224.0
 20
774.081
 30
0.0
 11
228.8
 21
774.081
 31
0.0
  0
LINE
  5
390
330
1E
100
AcDbEntity
  8
0
100
AcDbLine
 10
228.8
 20
774.081
 30
0.0
 11
232.4
 21
774.081
 31
0.0
  0
LINE
  5
391
330
1E
100
AcDbEntity
  8
0
100
AcDbLine
 10
229.707
 20
769.725
 30
0.0
 11
231.618
 21
770.315
 31
0.0
  0
LINE
  5
392
330
1E
100
AcDbEntity
  8
0
100
AcDbLine
 10
231.320066980638
 20
771.2799999999999
 30
0.0
 11
231.618
 21
770.315
 31
0.0
  0
LINE
  5
393
330
1E
100
AcDbEntity
  8
0
100
AcDbLine
 10
231.353793987186
 20
771.170758797437
 30
0.0
 11
231.8999999999999
 21
771.2799999999999
 31
0.0
  0
LINE
  5
394
330
1E
100
AcDbEntity
  8
0
100
AcDbLine
 10
231.8999999999999
 20
771.2799999999999
 30
0.0
 11
237.5
 21
773.08
 31
0.0
  0
LINE
  5
395
330
1E
100
AcDbEntity
  8
0
100
AcDbLine
 10
232.4
 20
773.0809999999999
 30
0.0
 11
235.1999999999999
 21
773.0809999999999
 31
0.0
  0
LINE
  5
396
330
1E
100
AcDbEntity
  8
0
100
AcDbLine
 10
232.4
 20
774.081
 30
0.0
 11
235.1999999999999
 21
774.081
 31
0.0
  0
LINE
  5
397
330
1E
100
AcDbEntity
  8
0
100
AcDbLine
 10
229.5999999999999
 20
778.88
 30
0.0
 11
234.9
 21
778.88
 31
0.0
  0
LINE
  5
398
330
1E
100
AcDbEntity
  8
0
100
AcDbLine
 10
234.9
 20
778.88
 30
0.0
 11
239.0
 21
778.88
 31
0.0
  0
LINE
  5
399
330
1E
100
AcDbEntity
  8
0
100
AcDbLine
 10
223.4999999999999
 20
778.88
 30
0.0
 11
229.8
 21
778.88
 31
0.0
  0
LINE
  5
39A
330
1E
100
AcDbEntity
  8
0
100
AcDbLine
 10
229.8
 20
778.88
 30
0.0
 11
235.0999999999999
 21
778.88
 31
0.0
  0
LINE
  5
39B
330
1E
100
AcDbEntity
  8
0
100
AcDbLine
 10
235.1999999999999
 20
773.0809999999999
 30
0.0
 11
236.8
 21
773.08
 31
0.0
  0
LINE
  5
39C
330
1E
100
AcDbEntity
  8
0
100
AcDbLine
 10
236.8
 20
773.08
 30
0.0
 11
237.5
 21
773.08
 31
0.0
  0
LINE
  5
39D
330
1E
100
AcDbEntity
  8
0
100
AcDbLine
 10
235.1999999999999
 20
774.081
 30
0.0
 11
236.8
 21
774.081
 31
0.0
  0
LINE
  5
39E
330
1E
100
AcDbEntity
  8
0
100
AcDbLine
 10
237.5
 20
773.08
 30
0.0
 11
237.5
 21
774.081
 31
0.0
  0
LINE
  5
39F
330
1E
100
AcDbEntity
  8
0
100
AcDbLine
 10
236.8
 20
774.081
 30
0.0
 11
237.5
 21
774.081
 31
0.0
  0
LINE
  5
3A0
330
1E
100
AcDbEntity
  8
0
100
AcDbLine
 10
237.5
 20
774.081
 30
0.0
 11
241.5999999999999
 21
776.48
 31
0.0
  0
LINE
  5
3A1
330
1E
100
AcDbEntity
  8
0
100
AcDbLine
 10
237.5
 20
774.081
 30
0.0
 11
237.5
 21
773.08
 31
0.0
  0
LINE
  5
3A2
330
1E
100
AcDbEntity
  8
0
100
AcDbLine
 10
241.5999999999999
 20
776.48
 30
0.0
 11
244.6
 21
778.88
 31
0.0
  0
LINE
  5
3A3
330
1E
100
AcDbEntity
  8
0
100
AcDbLine
 10
239.0
 20
778.88
 30
0.0
 11
242.0
 21
778.88
 31
0.0
  0
LINE
  5
3A4
330
1E
100
AcDbEntity
  8
0
100
AcDbLine
 10
242.0
 20
778.88
 30
0.0
 11
243.9
 21
778.88
 31
0.0
  0
LINE
  5
3A5
330
1E
100
AcDbEntity
  8
0
100
AcDbLine
 10
235.0999999999999
 20
778.88
 30
0.0
 11
239.1999999999999
 21
778.88
 31
0.0
  0
LINE
  5
3A6
330
1E
100
AcDbEntity
  8
0
100
AcDbLine
 10
239.1999999999999
 20
778.88
 30
0.0
 11
242.2
 21
778.88
 31
0.0
  0
LINE
  5
3A7
330
1E
100
AcDbEntity
  8
0
100
AcDbLine
 10
244.6
 20
778.88
 30
0.0
 11
244.7999999999999
 21
778.88
 31
0.0
  0
LINE
  5
3A8
330
1E
100
AcDbEntity
  8
0
100
AcDbLine
 10
243.9
 20
778.88
 30
0.0
 11
244.6
 21
778.88
 31
0.0
  0
LINE
  5
3A9
330
1E
100
AcDbEntity
  8
0
100
AcDbLine
 10
242.2
 20
778.88
 30
0.0
 11
244.0999999999999
 21
778.88
 31
0.0
  0
LINE
  5
3AA
330
1E
100
AcDbEntity
  8
0
100
AcDbLine
 10
244.0999999999999
 20
778.88
 30
0.0
 11
244.7999999999999
 21
778.88
 31
0.0
  0
LINE
  5
3AB
330
1E
100
AcDbEntity
  8
0
100
AcDbLine
 10
244.7999999999999
 20
778.88
 30
0.0
 11
246.7
 21
781.4799999999999
 31
0.0
  0
LINE
  5
3AC
330
1E
100
AcDbEntity
  8
0
100
AcDbLine
 10
201.1
 20
802.48
 30
0.0
 11
209.9
 21
801.3799999999999
 31
0.0
  0
LINE
  5
3AD
330
1E
100
AcDbEntity
  8
0
100
AcDbLine
 10
209.9
 20
801.3799999999999
 30
0.0
 11
218.1
 21
799.88
 31
0.0
  0
LINE
  5
3AE
330
1E
100
AcDbEntity
  8
0
100
AcDbLine
 10
218.1
 20
799.88
 30
0.0
 11
225.4
 21
798.1799999999999
 31
0.0
  0
LINE
  5
3AF
330
1E
100
AcDbEntity
  8
0
100
AcDbLine
 10
225.4
 20
798.1799999999999
 30
0.0
 11
231.8999999999999
 21
796.2799999999999
 31
0.0
  0
LINE
  5
3B1
330
1E
100
AcDbEntity
  8
0
100
AcDbLine
 10
231.8999999999999
 20
796.2799999999999
 30
0.0
 11
237.5
 21
794.08
 31
0.0
  0
LINE
  5
3B2
330
1E
100
AcDbEntity
  8
0
100
AcDbLine
 10
237.5
 20
794.08
 30
0.0
 11
241.5999999999999
 21
791.681
 31
0.0
  0
LINE
  5
3B3
330
1E
100
AcDbEntity
  8
0
100
AcDbLine
 10
241.5999999999999
 20
791.681
 30
0.0
 11
244.7999999999999
 21
789.28
 31
0.0
  0
LINE
  5
3B4
330
1E
100
AcDbEntity
  8
0
100
AcDbLine
 10
244.7999999999999
 20
789.28
 30
0.0
 11
246.7
 21
786.6799999999999
 31
0.0
  0
LINE
  5
3B5
330
1E
100
AcDbEntity
  8
0
100
AcDbLine
 10
246.7
 20
786.6799999999999
 30
0.0
 11
247.5
 21
784.08
 31
0.0
  0
LINE
  5
3B7
330
1E
100
AcDbEntity
  8
0
100
AcDbLine
 10
246.7
 20
781.4799999999999
 30
0.0
 11
247.5
 21
784.08
 31
0.0
  0
LINE
  5
3B8
330
1E
100
AcDbEntity
  8
0
100
AcDbLine
 10
197.5
 20
765.3278260869569
 30
0.0
 11
197.5
 21
210.0
 31
0.0
  0
LINE
  5
3B9
330
1E
100
AcDbEntity
  8
0
100
AcDbLine
 10
197.5
 20
983.0
 30
0.0
 11
197.5
 21
1003.0
 31
0.0
  0
LINE
  5
3BA
330
1E
100
AcDbEntity
  8
0
100
AcDbLine
 10
197.5
 20
983.0
 30
0.0
 11
197.5
 21
802.8321739130431
 31
0.0
  0
LINE
  5
3BB
330
1E
100
AcDbEntity
  8
0
100
AcDbLine
 10
181.4999999999999
 20
983.0
 30
0.0
 11
187.5
 21
983.0
 31
0.0
  0
LINE
  5
3BC
330
1E
100
AcDbEntity
  8
0
100
AcDbLine
 10
197.5
 20
1003.0
 30
0.0
 11
197.5
 21
983.0
 31
0.0
  0
LINE
  5
3BD
330
1E
100
AcDbEntity
  8
0
100
AcDbLine
 10
197.0
 20
1003.0
 30
0.0
 11
197.5
 21
1003.0
 31
0.0
  0
LINE
  5
3BE
330
1E
100
AcDbEntity
  8
0
100
AcDbLine
 10
195.0
 20
1003.0
 30
0.0
 11
197.0
 21
1003.0
 31
0.0
  0
LINE
  5
3BF
330
1E
100
AcDbEntity
  8
0
100
AcDbLine
 10
191.5
 20
1003.0
 30
0.0
 11
195.0
 21
1003.0
 31
0.0
  0
LINE
  5
3C0
330
1E
100
AcDbEntity
  8
0
100
AcDbLine
 10
187.5
 20
1003.0
 30
0.0
 11
191.5
 21
1003.0
 31
0.0
  0
LINE
  5
3C1
330
1E
100
AcDbEntity
  8
0
100
AcDbLine
 10
181.4999999999999
 20
1003.0
 30
0.0
 11
187.5
 21
1003.0
 31
0.0
  0
LINE
  5
3C2
330
1E
100
AcDbEntity
  8
0
100
AcDbLine
 10
172.5
 20
1003.0
 30
0.0
 11
181.4999999999999
 21
1003.0
 31
0.0
  0
LINE
  5
3C3
330
1E
100
AcDbEntity
  8
0
100
AcDbLine
 10
172.5
 20
983.0
 30
0.0
 11
181.4999999999999
 21
983.0
 31
0.0
  0
LINE
  5
3C4
330
1E
100
AcDbEntity
  8
0
100
AcDbLine
 10
163.4999999999999
 20
983.0
 30
0.0
 11
172.5
 21
983.0
 31
0.0
  0
LINE
  5
3C5
330
1E
100
AcDbEntity
  8
0
100
AcDbLine
 10
163.4999999999999
 20
1003.0
 30
0.0
 11
172.5
 21
1003.0
 31
0.0
  0
LINE
  5
3C6
330
1E
100
AcDbEntity
  8
0
100
AcDbLine
 10
157.5
 20
803.6091666666671
 30
0.0
 11
157.5
 21
983.0
 31
0.0
  0
LINE
  5
3C7
330
1E
100
AcDbEntity
  8
0
100
AcDbLine
 10
157.5
 20
760.0
 30
0.0
 11
157.5
 21
764.550833333333
 31
0.0
  0
LINE
  5
3C8
330
1E
100
AcDbEntity
  8
0
100
AcDbLine
 10
155.3843999999999
 20
760.0
 30
0.0
 11
158.4999999999999
 21
760.0
 31
0.0
  0
LINE
  5
3C9
330
1E
100
AcDbEntity
  8
0
100
AcDbLine
 10
152.3909999999999
 20
758.0
 30
0.0
 11
155.3843999999999
 21
760.0
 31
0.0
  0
LINE
  5
3CA
330
1E
100
AcDbEntity
  8
0
100
AcDbLine
 10
150.468977426637
 20
754.1474793077498
 30
0.0
 11
152.3909999999999
 21
758.0
 31
0.0
  0
ENDSEC
  0
SECTION
  2
OBJECTS
  0
DICTIONARY
  5
C
330
0
100
AcDbDictionary
281
     1
  3
ACAD_GROUP
350
D
  3
ACAD_LAYOUT
350
19
  3
ACAD_MLINESTYLE
350
16
  3
ACAD_PLOTSETTINGS
350
18
  3
ACAD_PLOTSTYLENAME
350
E
  3
AcDbVariableDictionary
350
3CF
  0
DICTIONARY
  5
D
102
{ACAD_REACTORS
330
C
102
}
330
C
100
AcDbDictionary
281
     1
  0
DICTIONARY
  5
19
102
{ACAD_REACTORS
330
C
102
}
330
C
100
AcDbDictionary
281
     1
  3
Layout1
350
1D
  3
Model
350
21
  0
DICTIONARY
  5
16
102
{ACAD_REACTORS
330
C
102
}
330
C
100
AcDbDictionary
281
     1
  3
Standard
350
17
  0
DICTIONARY
  5
18
102
{ACAD_REACTORS
330
C
102
}
330
C
100
AcDbDictionary
281
     1
  0
ACDBDICTIONARYWDFLT
  5
E
102
{ACAD_REACTORS
330
C
102
}
330
C
100
AcDbDictionary
281
     1
  3
Normal
350
F
100
AcDbDictionaryWithDefault
340
F
  0
DICTIONARY
  5
3CF
102
{ACAD_REACTORS
330
C
102
}
330
C
100
AcDbDictionary
281
     1
  3
DIMASSOC
350
3D0
  0
LAYOUT
  5
1D
102
{ACAD_REACTORS
330
19
102
}
330
19
100
AcDbPlotSettings
  1

  2
hp deskjet 980c series
  4

  6

 40
0.0
 41
0.0
 42
0.0
 43
0.0
 44
0.0
 45
0.0
 46
0.0
 47
0.0
 48
0.0
 49
0.0
140
0.0
141
0.0
142
1.0
143
1.0
 70
   688
 72
     0
 73
     0
 74
     5
  7

 75
    16
147
1.0
148
0.0
149
0.0
100
AcDbLayout
  1
Layout1
 70
     1
 71
     1
 10
0.0
 20
0.0
 11
12.0
 21
9.0
 12
0.0
 22
0.0
 32
0.0
 14
1.000000000000000E+20
 24
1.000000000000000E+20
 34
1.000000000000000E+20
 15
-1.000000000000000E+20
 25
-1.000000000000000E+20
 35
-1.000000000000000E+20
146
0.0
 13
0.0
 23
0.0
 33
0.0
 16
1.0
 26
0.0
 36
0.0
 17
0.0
 27
1.0
 37
0.0
 76
     0
330
1A
  0
LAYOUT
  5
21
102
{ACAD_REACTORS
330
19
102
}
330
19
100
AcDbPlotSettings
  1

  2
hp deskjet 980c series
  4

  6

 40
0.0
 41
0.0
 42
0.0
 43
0.0
 44
0.0
 45
0.0
 46
0.0
 47
0.0
 48
0.0
 49
0.0
140
0.0
141
0.0
142
1.0
143
1.0
 70
  1712
 72
     0
 73
     0
 74
     0
  7

 75
     0
147
1.0
148
0.0
149
0.0
100
AcDbLayout
  1
Model
 70
     1
 71
     0
 10
0.0
 20
0.0
 11
12.0
 21
9.0
 12
0.0
 22
0.0
 32
0.0
 14
0.0
 24
0.0
 34
0.0
 15
0.0
 25
0.0
 35
0.0
146
0.0
 13
0.0
 23
0.0
 33
0.0
 16
1.0
 26
0.0
 36
0.0
 17
0.0
 27
1.0
 37
0.0
 76
     0
330
1E
  0
MLINESTYLE
  5
17
102
{ACAD_REACTORS
330
16
102
}
330
16
100
AcDbMlineStyle
  2
STANDARD
 70
     0
  3

 62
   256
 51
90.0
 52
90.0
 71
     2
 49
0.5
 62
   256
  6
BYLAYER
 49
-0.5
 62
   256
  6
BYLAYER
  0
ACDBPLACEHOLDER
  5
F
102
{ACAD_REACTORS
330
E
102
}
330
E
  0
DICTIONARYVAR
  5
3D0
102
{ACAD_REACTORS
330
3CF
102
}
330
3CF
100
DictionaryVariables
280
     0
  1
1
  0
ENDSEC
  0
EOF
