  0
SECTION
  2
HEADER
  9
$ACADVER
  1
AC1015
  9
$ACADMAINTVER
 70
    13
  9
$DWGCODEPAGE
  3
ANSI_1252
  9
$INSBASE
 10
0.0
 20
0.0
 30
0.0
  9
$EXTMIN
 10
-0.0000000000000053
 20
0.190999999999985
 30
0.0
  9
$EXTMAX
 10
255.0
 20
350.809
 30
0.0
  9
$LIMMIN
 10
0.0
 20
0.0
  9
$LIMMAX
 10
12.0
 20
9.0
  9
$ORTHOMODE
 70
     0
  9
$REGENMODE
 70
     1
  9
$FILLMODE
 70
     1
  9
$QTEXTMODE
 70
     0
  9
$MIRRTEXT
 70
     1
  9
$LTSCALE
 40
1.0
  9
$ATTMODE
 70
     1
  9
$TEXTSIZE
 40
0.2
  9
$TRACEWID
 40
0.05
  9
$TEXTSTYLE
  7
Standard
  9
$CLAYER
  8
0
  9
$CELTYPE
  6
Continuous
  9
$CECOLOR
 62
   256
  9
$CELTSCALE
 40
1.0
  9
$DISPSILH
 70
     0
  9
$DIMSCALE
 40
1.0
  9
$DIMASZ
 40
0.18
  9
$DIMEXO
 40
0.0625
  9
$DIMDLI
 40
0.38
  9
$DIMRND
 40
0.0
  9
$DIMDLE
 40
0.0
  9
$DIMEXE
 40
0.18
  9
$DIMTP
 40
0.0
  9
$DIMTM
 40
0.0
  9
$DIMTXT
 40
0.18
  9
$DIMCEN
 40
0.09
  9
$DIMTSZ
 40
0.0
  9
$DIMTOL
 70
     0
  9
$DIMLIM
 70
     0
  9
$DIMTIH
 70
     1
  9
$DIMTOH
 70
     1
  9
$DIMSE1
 70
     0
  9
$DIMSE2
 70
     0
  9
$DIMTAD
 70
     0
  9
$DIMZIN
 70
     0
  9
$DIMBLK
  1

  9
$DIMASO
 70
     1
  9
$DIMSHO
 70
     1
  9
$DIMPOST
  1

  9
$DIMAPOST
  1

  9
$DIMALT
 70
     0
  9
$DIMALTD
 70
     2
  9
$DIMALTF
 40
25.4
  9
$DIMLFAC
 40
1.0
  9
$DIMTOFL
 70
     0
  9
$DIMTVP
 40
0.0
  9
$DIMTIX
 70
     0
  9
$DIMSOXD
 70
     0
  9
$DIMSAH
 70
     0
  9
$DIMBLK1
  1

  9
$DIMBLK2
  1

  9
$DIMSTYLE
  2
Standard
  9
$DIMCLRD
 70
     0
  9
$DIMCLRE
 70
     0
  9
$DIMCLRT
 70
     0
  9
$DIMTFAC
 40
1.0
  9
$DIMGAP
 40
0.09
  9
$DIMJUST
 70
     0
  9
$DIMSD1
 70
     0
  9
$DIMSD2
 70
     0
  9
$DIMTOLJ
 70
     1
  9
$DIMTZIN
 70
     0
  9
$DIMALTZ
 70
     0
  9
$DIMALTTZ
 70
     0
  9
$DIMUPT
 70
     0
  9
$DIMDEC
 70
     4
  9
$DIMTDEC
 70
     4
  9
$DIMALTU
 70
     2
  9
$DIMALTTD
 70
     2
  9
$DIMTXSTY
  7
Standard
  9
$DIMAUNIT
 70
     0
  9
$DIMADEC
 70
     0
  9
$DIMALTRND
 40
0.0
  9
$DIMAZIN
 70
     0
  9
$DIMDSEP
 70
    46
  9
$DIMATFIT
 70
     3
  9
$DIMFRAC
 70
     0
  9
$DIMLDRBLK
  1

  9
$DIMLUNIT
 70
     2
  9
$DIMLWD
 70
    -2
  9
$DIMLWE
 70
    -2
  9
$DIMTMOVE
 70
     0
  9
$LUNITS
 70
     2
  9
$LUPREC
 70
     4
  9
$SKETCHINC
 40
0.1
  9
$FILLETRAD
 40
0.0
  9
$AUNITS
 70
     0
  9
$AUPREC
 70
     0
  9
$MENU
  1
.
  9
$ELEVATION
 40
0.0
  9
$PELEVATION
 40
0.0
  9
$THICKNESS
 40
0.0
  9
$LIMCHECK
 70
     0
  9
$CHAMFERA
 40
0.0
  9
$CHAMFERB
 40
0.0
  9
$CHAMFERC
 40
0.0
  9
$CHAMFERD
 40
0.0
  9
$SKPOLY
 70
     0
  9
$TDCREATE
 40
2454738.781698310
  9
$TDUCREATE
 40
2454738.698364976
  9
$TDUPDATE
 40
2454738.800313761
  9
$TDUUPDATE
 40
2454738.716980428
  9
$TDINDWG
 40
0.0186154514
  9
$TDUSRTIMER
 40
0.0186154514
  9
$USRTIMER
 70
     1
  9
$ANGBASE
 50
0.0
  9
$ANGDIR
 70
     0
  9
$PDMODE
 70
     0
  9
$PDSIZE
 40
0.0
  9
$PLINEWID
 40
0.0
  9
$SPLFRAME
 70
     0
  9
$SPLINETYPE
 70
     6
  9
$SPLINESEGS
 70
     8
  9
$HANDSEED
  5
170
  9
$SURFTAB1
 70
     6
  9
$SURFTAB2
 70
     6
  9
$SURFTYPE
 70
     6
  9
$SURFU
 70
     6
  9
$SURFV
 70
     6
  9
$UCSBASE
  2

  9
$UCSNAME
  2

  9
$UCSORG
 10
0.0
 20
0.0
 30
0.0
  9
$UCSXDIR
 10
1.0
 20
0.0
 30
0.0
  9
$UCSYDIR
 10
0.0
 20
1.0
 30
0.0
  9
$UCSORTHOREF
  2

  9
$UCSORTHOVIEW
 70
     1
  9
$UCSORGTOP
 10
0.0
 20
0.0
 30
0.0
  9
$UCSORGBOTTOM
 10
0.0
 20
0.0
 30
0.0
  9
$UCSORGLEFT
 10
0.0
 20
0.0
 30
0.0
  9
$UCSORGRIGHT
 10
0.0
 20
0.0
 30
0.0
  9
$UCSORGFRONT
 10
0.0
 20
0.0
 30
0.0
  9
$UCSORGBACK
 10
0.0
 20
0.0
 30
0.0
  9
$PUCSBASE
  2

  9
$PUCSNAME
  2

  9
$PUCSORG
 10
0.0
 20
0.0
 30
0.0
  9
$PUCSXDIR
 10
1.0
 20
0.0
 30
0.0
  9
$PUCSYDIR
 10
0.0
 20
1.0
 30
0.0
  9
$PUCSORTHOREF
  2

  9
$PUCSORTHOVIEW
 70
     0
  9
$PUCSORGTOP
 10
0.0
 20
0.0
 30
0.0
  9
$PUCSORGBOTTOM
 10
0.0
 20
0.0
 30
0.0
  9
$PUCSORGLEFT
 10
0.0
 20
0.0
 30
0.0
  9
$PUCSORGRIGHT
 10
0.0
 20
0.0
 30
0.0
  9
$PUCSORGFRONT
 10
0.0
 20
0.0
 30
0.0
  9
$PUCSORGBACK
 10
0.0
 20
0.0
 30
0.0
  9
$USERI1
 70
     0
  9
$USERI2
 70
     0
  9
$USERI3
 70
     0
  9
$USERI4
 70
     0
  9
$USERI5
 70
     0
  9
$USERR1
 40
0.0
  9
$USERR2
 40
0.0
  9
$USERR3
 40
0.0
  9
$USERR4
 40
0.0
  9
$USERR5
 40
0.0
  9
$WORLDVIEW
 70
     1
  9
$SHADEDGE
 70
     3
  9
$SHADEDIF
 70
    70
  9
$TILEMODE
 70
     1
  9
$MAXACTVP
 70
    64
  9
$PINSBASE
 10
0.0
 20
0.0
 30
0.0
  9
$PLIMCHECK
 70
     0
  9
$PEXTMIN
 10
1.000000000000000E+20
 20
1.000000000000000E+20
 30
1.000000000000000E+20
  9
$PEXTMAX
 10
-1.000000000000000E+20
 20
-1.000000000000000E+20
 30
-1.000000000000000E+20
  9
$PLIMMIN
 10
0.0
 20
0.0
  9
$PLIMMAX
 10
12.0
 20
9.0
  9
$UNITMODE
 70
     0
  9
$VISRETAIN
 70
     1
  9
$PLINEGEN
 70
     0
  9
$PSLTSCALE
 70
     1
  9
$TREEDEPTH
 70
  3020
  9
$CMLSTYLE
  2
Standard
  9
$CMLJUST
 70
     0
  9
$CMLSCALE
 40
1.0
  9
$PROXYGRAPHICS
 70
     1
  9
$MEASUREMENT
 70
     0
  9
$CELWEIGHT
370
    -1
  9
$ENDCAPS
280
     0
  9
$JOINSTYLE
280
     0
  9
$LWDISPLAY
290
     0
  9
$INSUNITS
 70
     0
  9
$HYPERLINKBASE
  1

  9
$STYLESHEET
  1

  9
$XEDIT
290
     1
  9
$CEPSNTYPE
380
     0
  9
$PSTYLEMODE
290
     1
  9
$FINGERPRINTGUID
  2
{4F29164E-6CB2-48C4-B9A4-7F5D5353B0AA}
  9
$VERSIONGUID
  2
{7110EAF1-0ED1-46EB-816A-DF0217FAB2F4}
  9
$EXTNAMES
290
     1
  9
$PSVPSCALE
 40
0.0
  9
$OLESTARTUP
290
     0
  0
ENDSEC
  0
SECTION
  2
CLASSES
  0
CLASS
  1
ACDBDICTIONARYWDFLT
  2
AcDbDictionaryWithDefault
  3
AutoCAD 2000
 90
        0
280
     0
281
     0
  0
CLASS
  1
ACDBPLACEHOLDER
  2
AcDbPlaceHolder
  3
AutoCAD 2000
 90
        0
280
     0
281
     0
  0
CLASS
  1
LAYOUT
  2
AcDbLayout
  3
AutoCAD 2000
 90
        0
280
     0
281
     0
  0
CLASS
  1
DICTIONARYVAR
  2
AcDbDictionaryVar
  3
AutoCAD 2000
 90
        0
280
     0
281
     0
  0
ENDSEC
  0
SECTION
  2
TABLES
  0
TABLE
  2
VPORT
  5
8
330
0
100
AcDbSymbolTable
 70
     2
  0
VPORT
  5
16F
330
8
100
AcDbSymbolTableRecord
100
AcDbViewportTableRecord
  2
*Active
 70
     0
 10
0.0
 20
0.0
 11
1.0
 21
1.0
 12
127.5
 22
175.5
 13
0.0
 23
0.0
 14
1.0
 24
1.0
 15
0.0
 25
0.0
 16
0.0
 26
0.0
 36
1.0
 17
0.0
 27
0.0
 37
0.0
 40
353.3081636828645
 41
2.078104993597951
 42
50.0
 43
0.0
 44
0.0
 50
0.0
 51
0.0
 71
     0
 72
   100
 73
     1
 74
     3
 75
     0
 76
     0
 77
     0
 78
     0
281
     0
 65
     1
110
0.0
120
0.0
130
0.0
111
1.0
121
0.0
131
0.0
112
0.0
122
1.0
132
0.0
 79
     1
146
0.0
  0
ENDTAB
  0
TABLE
  2
LTYPE
  5
5
330
0
100
AcDbSymbolTable
 70
     1
  0
LTYPE
  5
13
330
5
100
AcDbSymbolTableRecord
100
AcDbLinetypeTableRecord
  2
ByBlock
 70
     0
  3

 72
    65
 73
     0
 40
0.0
  0
LTYPE
  5
14
330
5
100
AcDbSymbolTableRecord
100
AcDbLinetypeTableRecord
  2
ByLayer
 70
     0
  3

 72
    65
 73
     0
 40
0.0
  0
LTYPE
  5
15
330
5
100
AcDbSymbolTableRecord
100
AcDbLinetypeTableRecord
  2
Continuous
 70
     0
  3
Solid line
 72
    65
 73
     0
 40
0.0
  0
ENDTAB
  0
TABLE
  2
LAYER
  5
2
330
0
100
AcDbSymbolTable
 70
     1
  0
LAYER
  5
10
330
2
100
AcDbSymbolTableRecord
100
AcDbLayerTableRecord
  2
0
 70
     0
 62
     7
  6
Continuous
370
    -3
390
F
  0
ENDTAB
  0
TABLE
  2
STYLE
  5
3
330
0
100
AcDbSymbolTable
 70
     1
  0
STYLE
  5
11
330
3
100
AcDbSymbolTableRecord
100
AcDbTextStyleTableRecord
  2
Standard
 70
     0
 40
0.0
 41
1.0
 50
0.0
 71
     0
 42
0.2
  3
txt
  4

  0
ENDTAB
  0
TABLE
  2
VIEW
  5
6
330
0
100
AcDbSymbolTable
 70
     0
  0
ENDTAB
  0
TABLE
  2
UCS
  5
7
330
0
100
AcDbSymbolTable
 70
     0
  0
ENDTAB
  0
TABLE
  2
APPID
  5
9
330
0
100
AcDbSymbolTable
 70
     1
  0
APPID
  5
12
330
9
100
AcDbSymbolTableRecord
100
AcDbRegAppTableRecord
  2
ACAD
 70
     0
  0
ENDTAB
  0
TABLE
  2
DIMSTYLE
  5
A
330
0
100
AcDbSymbolTable
 70
     1
100
AcDbDimStyleTable
 71
     0
  0
DIMSTYLE
105
169
330
A
100
AcDbSymbolTableRecord
100
AcDbDimStyleTableRecord
  2
Standard
 70
     0
340
11
  0
ENDTAB
  0
TABLE
  2
BLOCK_RECORD
  5
1
330
0
100
AcDbSymbolTable
 70
     0
  0
BLOCK_RECORD
  5
1E
330
1
100
AcDbSymbolTableRecord
100
AcDbBlockTableRecord
  2
*Model_Space
340
21
  0
BLOCK_RECORD
  5
1A
330
1
100
AcDbSymbolTableRecord
100
AcDbBlockTableRecord
  2
*Paper_Space
340
1D
  0
ENDTAB
  0
ENDSEC
  0
SECTION
  2
BLOCKS
  0
BLOCK
  5
1F
330
1E
100
AcDbEntity
  8
0
100
AcDbBlockBegin
  2
*Model_Space
 70
     0
 10
0.0
 20
0.0
 30
0.0
  3
*Model_Space
  1

  0
ENDBLK
  5
20
330
1E
100
AcDbEntity
  8
0
100
AcDbBlockEnd
  0
BLOCK
  5
1B
330
1A
100
AcDbEntity
 67
     1
  8
0
100
AcDbBlockBegin
  2
*Paper_Space
 70
     0
 10
0.0
 20
0.0
 30
0.0
  3
*Paper_Space
  1

  0
ENDBLK
  5
1C
330
1A
100
AcDbEntity
 67
     1
  8
0
100
AcDbBlockEnd
  0
ENDSEC
  0
SECTION
  2
ENTITIES
  0
LINE
  5
22
330
1E
100
AcDbEntity
  8
0
100
AcDbLine
 10
103.4
 20
40.982
 30
0.0
 11
107.4999999999999
 21
33.448
 31
0.0
  0
LINE
  5
23
330
1E
100
AcDbEntity
  8
0
100
AcDbLine
 10
120.1
 20
19.07099999999999
 30
0.0
 11
127.4
 21
13.528
 31
0.0
  0
LINE
  5
25
330
1E
100
AcDbEntity
  8
0
100
AcDbLine
 10
113.7
 20
25.393
 30
0.0
 11
120.1
 21
19.07099999999999
 31
0.0
  0
LINE
  5
27
330
1E
100
AcDbEntity
  8
0
100
AcDbLine
 10
108.2
 20
32.494
 30
0.0
 11
113.7
 21
25.393
 31
0.0
  0
LINE
  5
28
330
1E
100
AcDbEntity
  8
0
100
AcDbLine
 10
107.4999999999999
 20
33.448
 30
0.0
 11
108.2
 21
32.494
 31
0.0
  0
LINE
  5
29
330
1E
100
AcDbEntity
  8
0
100
AcDbLine
 10
100.2
 20
49.036
 30
0.0
 11
103.4
 21
40.982
 31
0.0
  0
LINE
  5
2A
330
1E
100
AcDbEntity
  8
0
100
AcDbLine
 10
98.3
 20
57.26300000000001
 30
0.0
 11
100.2
 21
49.036
 31
0.0
  0
LINE
  5
2B
330
1E
100
AcDbEntity
  8
0
100
AcDbLine
 10
113.7
 20
106.108
 30
0.0
 11
120.1
 21
112.43
 31
0.0
  0
LINE
  5
2C
330
1E
100
AcDbEntity
  8
0
100
AcDbLine
 10
108.2
 20
99.0069
 30
0.0
 11
113.7
 21
106.108
 31
0.0
  0
LINE
  5
2D
330
1E
100
AcDbEntity
  8
0
100
AcDbLine
 10
107.4999999999999
 20
98.05329999999999
 30
0.0
 11
108.2
 21
99.0069
 31
0.0
  0
LINE
  5
2E
330
1E
100
AcDbEntity
  8
0
100
AcDbLine
 10
103.4
 20
90.5189
 30
0.0
 11
107.4999999999999
 21
98.05329999999999
 31
0.0
  0
LINE
  5
2F
330
1E
100
AcDbEntity
  8
0
100
AcDbLine
 10
100.2
 20
82.46500000000001
 30
0.0
 11
103.4
 21
90.5189
 31
0.0
  0
LINE
  5
30
330
1E
100
AcDbEntity
  8
0
100
AcDbLine
 10
98.3
 20
74.23799999999999
 30
0.0
 11
100.2
 21
82.46500000000001
 31
0.0
  0
LINE
  5
31
330
1E
100
AcDbEntity
  8
0
100
AcDbLine
 10
97.5
 20
65.75
 30
0.0
 11
98.3
 21
74.23799999999999
 31
0.0
  0
LINE
  5
32
330
1E
100
AcDbEntity
  8
0
100
AcDbLine
 10
97.5
 20
65.75
 30
0.0
 11
98.3
 21
57.26300000000001
 31
0.0
  0
LINE
  5
33
330
1E
100
AcDbEntity
  8
0
100
AcDbLine
 10
127.4
 20
13.528
 30
0.0
 11
135.5999999999999
 21
8.765
 31
0.0
  0
LINE
  5
34
330
1E
100
AcDbEntity
  8
0
100
AcDbLine
 10
135.5999999999999
 20
8.765
 30
0.0
 11
144.1999999999999
 21
5.213999999999979
 31
0.0
  0
LINE
  5
35
330
1E
100
AcDbEntity
  8
0
100
AcDbLine
 10
120.1
 20
112.43
 30
0.0
 11
127.4
 21
117.9729999999999
 31
0.0
  0
LINE
  5
36
330
1E
100
AcDbEntity
  8
0
100
AcDbLine
 10
127.4
 20
117.9729999999999
 30
0.0
 11
135.5999999999999
 21
122.736
 31
0.0
  0
LINE
  5
37
330
1E
100
AcDbEntity
  8
0
100
AcDbLine
 10
144.1999999999999
 20
5.213999999999979
 30
0.0
 11
153.3999999999999
 21
2.53000000000001
 31
0.0
  0
LINE
  5
38
330
1E
100
AcDbEntity
  8
0
100
AcDbLine
 10
135.5999999999999
 20
122.736
 30
0.0
 11
144.1999999999999
 21
126.287
 31
0.0
  0
LINE
  5
39
330
1E
100
AcDbEntity
  8
0
100
AcDbLine
 10
144.1999999999999
 20
126.287
 30
0.0
 11
153.3999999999999
 21
128.971
 31
0.0
  0
LINE
  5
3A
330
1E
100
AcDbEntity
  8
0
100
AcDbLine
 10
149.7972999999999
 20
187.132
 30
0.0
 11
151.5271
 21
183.0079999999999
 31
0.0
  0
LINE
  5
3B
330
1E
100
AcDbEntity
  8
0
100
AcDbLine
 10
149.7972999999999
 20
187.132
 30
0.0
 11
149.8172
 21
187.4309999999999
 31
0.0
  0
LINE
  5
3C
330
1E
100
AcDbEntity
  8
0
100
AcDbLine
 10
94.40000000000001
 20
236.609
 30
0.0
 11
112.4
 21
241.509
 31
0.0
  0
LINE
  5
3D
330
1E
100
AcDbEntity
  8
0
100
AcDbLine
 10
75.0
 20
234.809
 30
0.0
 11
94.40000000000001
 21
236.609
 31
0.0
  0
LINE
  5
3E
330
1E
100
AcDbEntity
  8
0
100
AcDbLine
 10
5.59999999999999
 20
272.709
 30
0.0
 11
12.6
 21
261.409
 31
0.0
  0
LINE
  5
3F
330
1E
100
AcDbEntity
  8
0
100
AcDbLine
 10
75.0
 20
237.809
 30
0.0
 11
93.59999999999999
 21
239.509
 31
0.0
  0
LINE
  5
40
330
1E
100
AcDbEntity
  8
0
100
AcDbLine
 10
93.59999999999999
 20
239.509
 30
0.0
 11
110.8999999999999
 21
244.1089999999999
 31
0.0
  0
LINE
  5
41
330
1E
100
AcDbEntity
  8
0
100
AcDbLine
 10
110.8999999999999
 20
244.1089999999999
 30
0.0
 11
125.8
 21
251.709
 31
0.0
  0
LINE
  5
42
330
1E
100
AcDbEntity
  8
0
100
AcDbLine
 10
112.4
 20
241.509
 30
0.0
 11
128.0
 21
249.509
 31
0.0
  0
LINE
  5
43
330
1E
100
AcDbEntity
  8
0
100
AcDbLine
 10
56.4
 20
239.509
 30
0.0
 11
75.0
 21
237.809
 31
0.0
  0
LINE
  5
44
330
1E
100
AcDbEntity
  8
0
100
AcDbLine
 10
128.0
 20
249.509
 30
0.0
 11
140.0
 21
259.9089999999999
 31
0.0
  0
LINE
  5
45
330
1E
100
AcDbEntity
  8
0
100
AcDbLine
 10
39.1
 20
244.1089999999999
 30
0.0
 11
56.4
 21
239.509
 31
0.0
  0
LINE
  5
46
330
1E
100
AcDbEntity
  8
0
100
AcDbLine
 10
37.6
 20
241.509
 30
0.0
 11
55.6
 21
236.609
 31
0.0
  0
LINE
  5
47
330
1E
100
AcDbEntity
  8
0
100
AcDbLine
 10
125.8
 20
251.709
 30
0.0
 11
137.4
 21
261.409
 31
0.0
  0
LINE
  5
48
330
1E
100
AcDbEntity
  8
0
100
AcDbLine
 10
137.4
 20
261.409
 30
0.0
 11
144.4
 21
272.709
 31
0.0
  0
LINE
  5
49
330
1E
100
AcDbEntity
  8
0
100
AcDbLine
 10
144.4
 20
272.709
 30
0.0
 11
147.0
 21
284.809
 31
0.0
  0
LINE
  5
4A
330
1E
100
AcDbEntity
  8
0
100
AcDbLine
 10
140.0
 20
259.9089999999999
 30
0.0
 11
147.3
 21
272.009
 31
0.0
  0
LINE
  5
4B
330
1E
100
AcDbEntity
  8
0
100
AcDbLine
 10
147.3
 20
272.009
 30
0.0
 11
150.0
 21
284.809
 31
0.0
  0
LINE
  5
4C
330
1E
100
AcDbEntity
  8
0
100
AcDbLine
 10
147.3
 20
272.009
 30
0.0
 11
150.0
 21
284.809
 31
0.0
  0
LINE
  5
4D
330
1E
100
AcDbEntity
  8
0
100
AcDbLine
 10
24.19999999999999
 20
251.709
 30
0.0
 11
39.1
 21
244.1089999999999
 31
0.0
  0
LINE
  5
4E
330
1E
100
AcDbEntity
  8
0
100
AcDbLine
 10
12.6
 20
261.409
 30
0.0
 11
24.19999999999999
 21
251.709
 31
0.0
  0
LINE
  5
4F
330
1E
100
AcDbEntity
  8
0
100
AcDbLine
 10
22.0
 20
249.509
 30
0.0
 11
37.6
 21
241.509
 31
0.0
  0
LINE
  5
50
330
1E
100
AcDbEntity
  8
0
100
AcDbLine
 10
9.999999999999991
 20
259.9089999999999
 30
0.0
 11
22.0
 21
249.509
 31
0.0
  0
LINE
  5
51
330
1E
100
AcDbEntity
  8
0
100
AcDbLine
 10
55.6
 20
236.609
 30
0.0
 11
75.0
 21
234.809
 31
0.0
  0
LINE
  5
52
330
1E
100
AcDbEntity
  8
0
100
AcDbLine
 10
2.7
 20
272.009
 30
0.0
 11
9.999999999999991
 21
259.9089999999999
 31
0.0
  0
LINE
  5
53
330
1E
100
AcDbEntity
  8
0
100
AcDbLine
 10
3.0
 20
284.809
 30
0.0
 11
5.59999999999999
 21
296.9089999999999
 31
0.0
  0
LINE
  5
54
330
1E
100
AcDbEntity
  8
0
100
AcDbLine
 10
3.0
 20
284.809
 30
0.0
 11
5.59999999999999
 21
296.9089999999999
 31
0.0
  0
LINE
  5
55
330
1E
100
AcDbEntity
  8
0
100
AcDbLine
 10
5.59999999999999
 20
296.9089999999999
 30
0.0
 11
12.6
 21
308.2089999999999
 31
0.0
  0
LINE
  5
56
330
1E
100
AcDbEntity
  8
0
100
AcDbLine
 10
2.7
 20
297.609
 30
0.0
 11
9.999999999999991
 21
309.709
 31
0.0
  0
LINE
  5
57
330
1E
100
AcDbEntity
  8
0
100
AcDbLine
 10
144.4
 20
296.9089999999999
 30
0.0
 11
147.0
 21
284.809
 31
0.0
  0
LINE
  5
58
330
1E
100
AcDbEntity
  8
0
100
AcDbLine
 10
144.4
 20
296.9089999999999
 30
0.0
 11
147.0
 21
284.809
 31
0.0
  0
LINE
  5
59
330
1E
100
AcDbEntity
  8
0
100
AcDbLine
 10
125.8
 20
317.9089999999999
 30
0.0
 11
137.4
 21
308.2089999999999
 31
0.0
  0
LINE
  5
5A
330
1E
100
AcDbEntity
  8
0
100
AcDbLine
 10
125.8
 20
317.9089999999999
 30
0.0
 11
137.4
 21
308.2089999999999
 31
0.0
  0
LINE
  5
5B
330
1E
100
AcDbEntity
  8
0
100
AcDbLine
 10
137.4
 20
308.2089999999999
 30
0.0
 11
144.4
 21
296.9089999999999
 31
0.0
  0
LINE
  5
5C
330
1E
100
AcDbEntity
  8
0
100
AcDbLine
 10
137.4
 20
308.2089999999999
 30
0.0
 11
144.4
 21
296.9089999999999
 31
0.0
  0
LINE
  5
5D
330
1E
100
AcDbEntity
  8
0
100
AcDbLine
 10
140.0
 20
309.709
 30
0.0
 11
147.3
 21
297.609
 31
0.0
  0
LINE
  5
5E
330
1E
100
AcDbEntity
  8
0
100
AcDbLine
 10
140.0
 20
309.709
 30
0.0
 11
140.8503
 21
320.041
 31
0.0
  0
LINE
  5
5F
330
1E
100
AcDbEntity
  8
0
100
AcDbLine
 10
147.3
 20
297.609
 30
0.0
 11
150.0
 21
284.809
 31
0.0
  0
LINE
  5
60
330
1E
100
AcDbEntity
  8
0
100
AcDbLine
 10
147.3
 20
297.609
 30
0.0
 11
158.37538012995
 21
315.9248153622249
 31
0.0
  0
LINE
  5
61
330
1E
100
AcDbEntity
  8
0
100
AcDbLine
 10
24.19999999999999
 20
317.9089999999999
 30
0.0
 11
39.1
 21
325.509
 31
0.0
  0
LINE
  5
62
330
1E
100
AcDbEntity
  8
0
100
AcDbLine
 10
140.8503
 20
320.041
 30
0.0
 11
149.4575
 21
323.0919999999999
 31
0.0
  0
LINE
  5
63
330
1E
100
AcDbEntity
  8
0
100
AcDbLine
 10
128.0
 20
320.109
 30
0.0
 11
140.0
 21
309.709
 31
0.0
  0
LINE
  5
64
330
1E
100
AcDbEntity
  8
0
100
AcDbLine
 10
24.19999999999999
 20
317.9089999999999
 30
0.0
 11
39.1
 21
325.509
 31
0.0
  0
LINE
  5
65
330
1E
100
AcDbEntity
  8
0
100
AcDbLine
 10
12.6
 20
308.2089999999999
 30
0.0
 11
24.19999999999999
 21
317.9089999999999
 31
0.0
  0
LINE
  5
66
330
1E
100
AcDbEntity
  8
0
100
AcDbLine
 10
12.6
 20
308.2089999999999
 30
0.0
 11
24.19999999999999
 21
317.9089999999999
 31
0.0
  0
LINE
  5
67
330
1E
100
AcDbEntity
  8
0
100
AcDbLine
 10
93.59999999999999
 20
330.109
 30
0.0
 11
110.8999999999999
 21
325.509
 31
0.0
  0
LINE
  5
68
330
1E
100
AcDbEntity
  8
0
100
AcDbLine
 10
110.8999999999999
 20
325.509
 30
0.0
 11
125.8
 21
317.9089999999999
 31
0.0
  0
LINE
  5
69
330
1E
100
AcDbEntity
  8
0
100
AcDbLine
 10
110.8999999999999
 20
325.509
 30
0.0
 11
125.8
 21
317.9089999999999
 31
0.0
  0
LINE
  5
6A
330
1E
100
AcDbEntity
  8
0
100
AcDbLine
 10
149.4575
 20
323.0919999999999
 30
0.0
 11
152.3523999999999
 21
324.4549999999999
 31
0.0
  0
LINE
  5
6B
330
1E
100
AcDbEntity
  8
0
100
AcDbLine
 10
112.4
 20
328.109
 30
0.0
 11
128.0
 21
320.109
 31
0.0
  0
LINE
  5
6C
330
1E
100
AcDbEntity
  8
0
100
AcDbLine
 10
75.0
 20
331.809
 30
0.0
 11
93.59999999999999
 21
330.109
 31
0.0
  0
LINE
  5
6D
330
1E
100
AcDbEntity
  8
0
100
AcDbLine
 10
75.0
 20
331.809
 30
0.0
 11
93.59999999999999
 21
330.109
 31
0.0
  0
LINE
  5
6E
330
1E
100
AcDbEntity
  8
0
100
AcDbLine
 10
94.40000000000001
 20
333.009
 30
0.0
 11
112.4
 21
328.109
 31
0.0
  0
LINE
  5
6F
330
1E
100
AcDbEntity
  8
0
100
AcDbLine
 10
56.4
 20
330.109
 30
0.0
 11
75.0
 21
331.809
 31
0.0
  0
LINE
  5
70
330
1E
100
AcDbEntity
  8
0
100
AcDbLine
 10
56.4
 20
330.109
 30
0.0
 11
75.0
 21
331.809
 31
0.0
  0
LINE
  5
71
330
1E
100
AcDbEntity
  8
0
100
AcDbLine
 10
39.1
 20
325.509
 30
0.0
 11
56.4
 21
330.109
 31
0.0
  0
LINE
  5
72
330
1E
100
AcDbEntity
  8
0
100
AcDbLine
 10
148.0
 20
336.309
 30
0.0
 11
150.0
 21
333.309
 31
0.0
  0
LINE
  5
73
330
1E
100
AcDbEntity
  8
0
100
AcDbLine
 10
148.0
 20
336.309
 30
0.0
 11
150.0
 21
333.309
 31
0.0
  0
LINE
  5
74
330
1E
100
AcDbEntity
  8
0
100
AcDbLine
 10
148.0
 20
342.309
 30
0.0
 11
150.0
 21
345.309
 31
0.0
  0
LINE
  5
75
330
1E
100
AcDbEntity
  8
0
100
AcDbLine
 10
147.5
 20
339.309
 30
0.0
 11
148.0
 21
342.309
 31
0.0
  0
LINE
  5
76
330
1E
100
AcDbEntity
  8
0
100
AcDbLine
 10
147.5
 20
339.309
 30
0.0
 11
148.0
 21
336.309
 31
0.0
  0
LINE
  5
77
330
1E
100
AcDbEntity
  8
0
100
AcDbLine
 10
147.5
 20
339.309
 30
0.0
 11
148.0
 21
336.309
 31
0.0
  0
LINE
  5
78
330
1E
100
AcDbEntity
  8
0
100
AcDbLine
 10
75.0
 20
334.809
 30
0.0
 11
94.40000000000001
 21
333.009
 31
0.0
  0
LINE
  5
79
330
1E
100
AcDbEntity
  8
0
100
AcDbLine
 10
55.6
 20
333.009
 30
0.0
 11
75.0
 21
334.809
 31
0.0
  0
LINE
  5
7A
330
1E
100
AcDbEntity
  8
0
100
AcDbLine
 10
37.6
 20
328.109
 30
0.0
 11
55.6
 21
333.009
 31
0.0
  0
LINE
  5
7B
330
1E
100
AcDbEntity
  8
0
100
AcDbLine
 10
22.0
 20
320.109
 30
0.0
 11
37.6
 21
328.109
 31
0.0
  0
LINE
  5
7C
330
1E
100
AcDbEntity
  8
0
100
AcDbLine
 10
9.999999999999991
 20
309.709
 30
0.0
 11
22.0
 21
320.109
 31
0.0
  0
LINE
  5
7D
330
1E
100
AcDbEntity
  8
0
100
AcDbLine
 10
2.99999999999999
 20
284.809
 30
0.0
 11
5.59999999999999
 21
272.709
 31
0.0
  0
LINE
  5
7E
330
1E
100
AcDbEntity
  8
0
100
AcDbLine
 10
2.99999999999999
 20
284.809
 30
0.0
 11
5.59999999999999
 21
296.9089999999999
 31
0.0
  0
LINE
  5
7F
330
1E
100
AcDbEntity
  8
0
100
AcDbLine
 10
-0.0000000000000053
 20
284.809
 30
0.0
 11
2.7
 21
272.009
 31
0.0
  0
LINE
  5
80
330
1E
100
AcDbEntity
  8
0
100
AcDbLine
 10
-0.0000000000000053
 20
284.809
 30
0.0
 11
2.7
 21
297.609
 31
0.0
  0
LINE
  5
81
330
1E
100
AcDbEntity
  8
0
100
AcDbLine
 10
-0.0000000000000053
 20
284.809
 30
0.0
 11
2.7
 21
272.009
 31
0.0
  0
LINE
  5
82
330
1E
100
AcDbEntity
  8
0
100
AcDbLine
 10
150.0
 20
333.309
 30
0.0
 11
153.5
 21
330.809
 31
0.0
  0
LINE
  5
83
330
1E
100
AcDbEntity
  8
0
100
AcDbLine
 10
150.0
 20
333.309
 30
0.0
 11
152.5
 21
331.5232857142859
 31
0.0
  0
LINE
  5
84
330
1E
100
AcDbEntity
  8
0
100
AcDbLine
 10
150.0
 20
345.309
 30
0.0
 11
153.5
 21
348.309
 31
0.0
  0
LINE
  5
85
330
1E
100
AcDbEntity
  8
0
100
AcDbLine
 10
149.9700999999999
 20
189.7259999999999
 30
0.0
 11
150.0963999999999
 21
191.622
 31
0.0
  0
LINE
  5
86
330
1E
100
AcDbEntity
  8
0
100
AcDbLine
 10
149.8771
 20
188.329
 30
0.0
 11
149.9700999999999
 21
189.7259999999999
 31
0.0
  0
LINE
  5
87
330
1E
100
AcDbEntity
  8
0
100
AcDbLine
 10
149.8172
 20
187.4309999999999
 30
0.0
 11
149.8771
 21
188.329
 31
0.0
  0
LINE
  5
88
330
1E
100
AcDbEntity
  8
0
100
AcDbLine
 10
153.3999999999999
 20
2.53000000000001
 30
0.0
 11
162.9
 21
0.797999999999985
 31
0.0
  0
LINE
  5
89
330
1E
100
AcDbEntity
  8
0
100
AcDbLine
 10
153.3999999999999
 20
128.971
 30
0.0
 11
158.4999999999999
 21
129.900810526316
 31
0.0
  0
LINE
  5
8A
330
1E
100
AcDbEntity
  8
0
100
AcDbLine
 10
158.4999999999999
 20
129.5355
 30
0.0
 11
158.4999999999999
 21
137.562
 31
0.0
  0
LINE
  5
8B
330
1E
100
AcDbEntity
  8
0
100
AcDbLine
 10
158.4999999999999
 20
182.361
 30
0.0
 11
158.4999999999999
 21
177.3629999999999
 31
0.0
  0
LINE
  5
8C
330
1E
100
AcDbEntity
  8
0
100
AcDbLine
 10
158.4999999999999
 20
182.361
 30
0.0
 11
159.0
 21
185.469
 31
0.0
  0
LINE
  5
8D
330
1E
100
AcDbEntity
  8
0
100
AcDbLine
 10
158.4999999999999
 20
177.3629999999999
 30
0.0
 11
158.4999999999999
 21
172.594
 31
0.0
  0
LINE
  5
8E
330
1E
100
AcDbEntity
  8
0
100
AcDbLine
 10
158.4999999999999
 20
177.3629999999999
 30
0.0
 11
158.4999999999999
 21
182.361
 31
0.0
  0
LINE
  5
8F
330
1E
100
AcDbEntity
  8
0
100
AcDbLine
 10
158.4999999999999
 20
172.594
 30
0.0
 11
158.4999999999999
 21
166.1739999999999
 31
0.0
  0
LINE
  5
90
330
1E
100
AcDbEntity
  8
0
100
AcDbLine
 10
158.4999999999999
 20
172.594
 30
0.0
 11
158.4999999999999
 21
177.3629999999999
 31
0.0
  0
LINE
  5
91
330
1E
100
AcDbEntity
  8
0
100
AcDbLine
 10
158.4999999999999
 20
166.1739999999999
 30
0.0
 11
158.4999999999999
 21
160.617
 31
0.0
  0
LINE
  5
92
330
1E
100
AcDbEntity
  8
0
100
AcDbLine
 10
158.4999999999999
 20
166.1739999999999
 30
0.0
 11
158.4999999999999
 21
172.594
 31
0.0
  0
LINE
  5
93
330
1E
100
AcDbEntity
  8
0
100
AcDbLine
 10
158.4999999999999
 20
160.617
 30
0.0
 11
158.4999999999999
 21
155.255
 31
0.0
  0
LINE
  5
94
330
1E
100
AcDbEntity
  8
0
100
AcDbLine
 10
158.4999999999999
 20
160.617
 30
0.0
 11
158.4999999999999
 21
166.1739999999999
 31
0.0
  0
LINE
  5
95
330
1E
100
AcDbEntity
  8
0
100
AcDbLine
 10
158.4999999999999
 20
155.255
 30
0.0
 11
158.4999999999999
 21
150.127
 31
0.0
  0
LINE
  5
96
330
1E
100
AcDbEntity
  8
0
100
AcDbLine
 10
158.4999999999999
 20
155.255
 30
0.0
 11
158.4999999999999
 21
160.617
 31
0.0
  0
LINE
  5
97
330
1E
100
AcDbEntity
  8
0
100
AcDbLine
 10
158.4999999999999
 20
150.127
 30
0.0
 11
158.4999999999999
 21
145.0949999999999
 31
0.0
  0
LINE
  5
98
330
1E
100
AcDbEntity
  8
0
100
AcDbLine
 10
158.4999999999999
 20
150.127
 30
0.0
 11
158.4999999999999
 21
155.255
 31
0.0
  0
LINE
  5
99
330
1E
100
AcDbEntity
  8
0
100
AcDbLine
 10
159.0
 20
185.469
 30
0.0
 11
160.4
 21
188.3919999999999
 31
0.0
  0
LINE
  5
9A
330
1E
100
AcDbEntity
  8
0
100
AcDbLine
 10
158.4999999999999
 20
145.0949999999999
 30
0.0
 11
158.4999999999999
 21
137.562
 31
0.0
  0
LINE
  5
9B
330
1E
100
AcDbEntity
  8
0
100
AcDbLine
 10
158.4999999999999
 20
145.0949999999999
 30
0.0
 11
158.4999999999999
 21
150.127
 31
0.0
  0
LINE
  5
9C
330
1E
100
AcDbEntity
  8
0
100
AcDbLine
 10
158.4999999999999
 20
137.562
 30
0.0
 11
158.4999999999999
 21
129.5355
 31
0.0
  0
LINE
  5
9D
330
1E
100
AcDbEntity
  8
0
100
AcDbLine
 10
158.4999999999999
 20
137.562
 30
0.0
 11
158.4999999999999
 21
145.0949999999999
 31
0.0
  0
LINE
  5
9E
330
1E
100
AcDbEntity
  8
0
100
AcDbLine
 10
154.3874999999999
 20
180.813
 30
0.0
 11
158.4999999999999
 21
180.5385036079369
 31
0.0
  0
LINE
  5
9F
330
1E
100
AcDbEntity
  8
0
100
AcDbLine
 10
159.823198213978
 20
187.187720271042
 30
0.0
 11
159.8748999999999
 21
187.964
 31
0.0
  0
LINE
  5
A2
330
1E
100
AcDbEntity
  8
0
100
AcDbLine
 10
172.5
 20
0.190999999999985
 30
0.0
 11
182.0999999999999
 21
0.797999999999985
 31
0.0
  0
LINE
  5
A3
330
1E
100
AcDbEntity
  8
0
100
AcDbLine
 10
186.5
 20
129.5355
 30
0.0
 11
186.5
 21
137.562
 31
0.0
  0
LINE
  5
A4
330
1E
100
AcDbEntity
  8
0
100
AcDbLine
 10
182.0999999999999
 20
0.797999999999985
 30
0.0
 11
191.6
 21
2.53000000000001
 31
0.0
  0
LINE
  5
A5
330
1E
100
AcDbEntity
  8
0
100
AcDbLine
 10
172.5
 20
0.190999999999985
 30
0.0
 11
182.0999999999999
 21
0.797999999999985
 31
0.0
  0
LINE
  5
A6
330
1E
100
AcDbEntity
  8
0
100
AcDbLine
 10
186.5
 20
155.255
 30
0.0
 11
186.5
 21
150.127
 31
0.0
  0
LINE
  5
A7
330
1E
100
AcDbEntity
  8
0
100
AcDbLine
 10
186.5
 20
155.255
 30
0.0
 11
186.5
 21
160.617
 31
0.0
  0
LINE
  5
A8
330
1E
100
AcDbEntity
  8
0
100
AcDbLine
 10
186.5
 20
150.127
 30
0.0
 11
186.5
 21
145.0949999999999
 31
0.0
  0
LINE
  5
A9
330
1E
100
AcDbEntity
  8
0
100
AcDbLine
 10
186.5
 20
150.127
 30
0.0
 11
186.5
 21
155.255
 31
0.0
  0
LINE
  5
AA
330
1E
100
AcDbEntity
  8
0
100
AcDbLine
 10
186.5
 20
145.0949999999999
 30
0.0
 11
186.5
 21
137.562
 31
0.0
  0
LINE
  5
AB
330
1E
100
AcDbEntity
  8
0
100
AcDbLine
 10
186.5
 20
145.0949999999999
 30
0.0
 11
186.5
 21
150.127
 31
0.0
  0
LINE
  5
AC
330
1E
100
AcDbEntity
  8
0
100
AcDbLine
 10
186.5
 20
137.562
 30
0.0
 11
186.5
 21
129.5355
 31
0.0
  0
LINE
  5
AD
330
1E
100
AcDbEntity
  8
0
100
AcDbLine
 10
186.5
 20
137.562
 30
0.0
 11
186.5
 21
145.0949999999999
 31
0.0
  0
LINE
  5
AE
330
1E
100
AcDbEntity
  8
0
100
AcDbLine
 10
186.5
 20
129.900810526316
 30
0.0
 11
191.6
 21
128.971
 31
0.0
  0
LINE
  5
AF
330
1E
100
AcDbEntity
  8
0
100
AcDbLine
 10
162.9
 20
0.797999999999985
 30
0.0
 11
172.5
 21
0.190999999999985
 31
0.0
  0
LINE
  5
B0
330
1E
100
AcDbEntity
  8
0
100
AcDbLine
 10
162.9
 20
0.797999999999985
 30
0.0
 11
172.5
 21
0.190999999999985
 31
0.0
  0
LINE
  5
B1
330
1E
100
AcDbEntity
  8
0
100
AcDbLine
 10
186.5
 20
177.3629999999999
 30
0.0
 11
186.5
 21
172.594
 31
0.0
  0
LINE
  5
B2
330
1E
100
AcDbEntity
  8
0
100
AcDbLine
 10
186.5
 20
177.3629999999999
 30
0.0
 11
186.5
 21
182.361
 31
0.0
  0
LINE
  5
B3
330
1E
100
AcDbEntity
  8
0
100
AcDbLine
 10
186.5
 20
172.594
 30
0.0
 11
186.5
 21
166.1739999999999
 31
0.0
  0
LINE
  5
B4
330
1E
100
AcDbEntity
  8
0
100
AcDbLine
 10
186.5
 20
172.594
 30
0.0
 11
186.5
 21
177.3629999999999
 31
0.0
  0
LINE
  5
B5
330
1E
100
AcDbEntity
  8
0
100
AcDbLine
 10
186.5
 20
166.1739999999999
 30
0.0
 11
186.5
 21
160.617
 31
0.0
  0
LINE
  5
B6
330
1E
100
AcDbEntity
  8
0
100
AcDbLine
 10
186.5
 20
166.1739999999999
 30
0.0
 11
186.5
 21
172.594
 31
0.0
  0
LINE
  5
B7
330
1E
100
AcDbEntity
  8
0
100
AcDbLine
 10
186.5
 20
160.617
 30
0.0
 11
186.5
 21
155.255
 31
0.0
  0
LINE
  5
B8
330
1E
100
AcDbEntity
  8
0
100
AcDbLine
 10
186.5
 20
160.617
 30
0.0
 11
186.5
 21
166.1739999999999
 31
0.0
  0
LINE
  5
B9
330
1E
100
AcDbEntity
  8
0
100
AcDbLine
 10
186.5
 20
160.373601769911
 30
0.0
 11
192.9
 21
156.409
 31
0.0
  0
LINE
  5
BA
330
1E
100
AcDbEntity
  8
0
100
AcDbLine
 10
186.5
 20
156.947842975207
 30
0.0
 11
192.1999999999999
 21
153.5089999999999
 31
0.0
  0
LINE
  5
BB
330
1E
100
AcDbEntity
  8
0
100
AcDbLine
 10
191.6
 20
2.53000000000001
 30
0.0
 11
200.8
 21
5.213999999999979
 31
0.0
  0
LINE
  5
BC
330
1E
100
AcDbEntity
  8
0
100
AcDbLine
 10
191.6
 20
128.971
 30
0.0
 11
200.8
 21
126.287
 31
0.0
  0
LINE
  5
BD
330
1E
100
AcDbEntity
  8
0
100
AcDbLine
 10
192.9
 20
156.409
 30
0.0
 11
205.0
 21
153.8089999999999
 31
0.0
  0
LINE
  5
BE
330
1E
100
AcDbEntity
  8
0
100
AcDbLine
 10
192.1999999999999
 20
153.5089999999999
 30
0.0
 11
205.0
 21
150.8089999999999
 31
0.0
  0
LINE
  5
BF
330
1E
100
AcDbEntity
  8
0
100
AcDbLine
 10
186.5
 20
180.5385036079369
 30
0.0
 11
190.6125
 21
180.813
 31
0.0
  0
LINE
  5
C0
330
1E
100
AcDbEntity
  8
0
100
AcDbLine
 10
186.5
 20
182.361
 30
0.0
 11
186.5
 21
177.3629999999999
 31
0.0
  0
LINE
  5
C1
330
1E
100
AcDbEntity
  8
0
100
AcDbLine
 10
186.0
 20
185.469
 30
0.0
 11
186.5
 21
182.361
 31
0.0
  0
LINE
  5
C2
330
1E
100
AcDbEntity
  8
0
100
AcDbLine
 10
190.6125
 20
180.813
 30
0.0
 11
193.4729
 21
183.0079999999999
 31
0.0
  0
LINE
  5
C3
330
1E
100
AcDbEntity
  8
0
100
AcDbLine
 10
200.8
 20
5.213999999999979
 30
0.0
 11
209.4
 21
8.765
 31
0.0
  0
LINE
  5
C4
330
1E
100
AcDbEntity
  8
0
100
AcDbLine
 10
200.8
 20
126.287
 30
0.0
 11
209.4
 21
122.736
 31
0.0
  0
LINE
  5
C5
330
1E
100
AcDbEntity
  8
0
100
AcDbLine
 10
217.6
 20
13.528
 30
0.0
 11
224.9
 21
19.07099999999999
 31
0.0
  0
LINE
  5
C6
330
1E
100
AcDbEntity
  8
0
100
AcDbLine
 10
209.4
 20
8.765
 30
0.0
 11
217.6
 21
13.528
 31
0.0
  0
LINE
  5
C8
330
1E
100
AcDbEntity
  8
0
100
AcDbLine
 10
224.9
 20
19.07099999999999
 30
0.0
 11
231.3
 21
25.393
 31
0.0
  0
LINE
  5
CA
330
1E
100
AcDbEntity
  8
0
100
AcDbLine
 10
231.3
 20
25.393
 30
0.0
 11
236.8
 21
32.494
 31
0.0
  0
LINE
  5
CB
330
1E
100
AcDbEntity
  8
0
100
AcDbLine
 10
237.5
 20
33.448
 30
0.0
 11
241.5999999999999
 21
40.982
 31
0.0
  0
LINE
  5
CC
330
1E
100
AcDbEntity
  8
0
100
AcDbLine
 10
236.8
 20
32.494
 30
0.0
 11
237.5
 21
33.448
 31
0.0
  0
LINE
  5
CD
330
1E
100
AcDbEntity
  8
0
100
AcDbLine
 10
241.5999999999999
 20
40.982
 30
0.0
 11
244.7999999999999
 21
49.036
 31
0.0
  0
LINE
  5
CE
330
1E
100
AcDbEntity
  8
0
100
AcDbLine
 10
244.7999999999999
 20
49.036
 30
0.0
 11
246.7
 21
57.26300000000001
 31
0.0
  0
LINE
  5
CF
330
1E
100
AcDbEntity
  8
0
100
AcDbLine
 10
217.6
 20
117.9729999999999
 30
0.0
 11
224.9
 21
112.43
 31
0.0
  0
LINE
  5
D0
330
1E
100
AcDbEntity
  8
0
100
AcDbLine
 10
209.4
 20
122.736
 30
0.0
 11
217.6
 21
117.9729999999999
 31
0.0
  0
LINE
  5
D1
330
1E
100
AcDbEntity
  8
0
100
AcDbLine
 10
224.9
 20
112.43
 30
0.0
 11
231.3
 21
106.108
 31
0.0
  0
LINE
  5
D2
330
1E
100
AcDbEntity
  8
0
100
AcDbLine
 10
231.3
 20
106.108
 30
0.0
 11
236.8
 21
99.0069
 31
0.0
  0
LINE
  5
D3
330
1E
100
AcDbEntity
  8
0
100
AcDbLine
 10
236.8
 20
99.0069
 30
0.0
 11
237.5
 21
98.05329999999999
 31
0.0
  0
LINE
  5
D4
330
1E
100
AcDbEntity
  8
0
100
AcDbLine
 10
237.5
 20
98.05329999999999
 30
0.0
 11
241.5999999999999
 21
90.5189
 31
0.0
  0
LINE
  5
D5
330
1E
100
AcDbEntity
  8
0
100
AcDbLine
 10
241.5999999999999
 20
90.5189
 30
0.0
 11
244.7999999999999
 21
82.46500000000001
 31
0.0
  0
LINE
  5
D6
330
1E
100
AcDbEntity
  8
0
100
AcDbLine
 10
244.7999999999999
 20
82.46500000000001
 30
0.0
 11
246.7
 21
74.23799999999999
 31
0.0
  0
LINE
  5
D7
330
1E
100
AcDbEntity
  8
0
100
AcDbLine
 10
246.7
 20
74.23799999999999
 30
0.0
 11
247.5
 21
65.75
 31
0.0
  0
LINE
  5
D8
330
1E
100
AcDbEntity
  8
0
100
AcDbLine
 10
246.7
 20
57.26300000000001
 30
0.0
 11
247.5
 21
65.75
 31
0.0
  0
LINE
  5
D9
330
1E
100
AcDbEntity
  8
0
100
AcDbLine
 10
205.0
 20
150.8089999999999
 30
0.0
 11
217.8
 21
153.5089999999999
 31
0.0
  0
LINE
  5
DA
330
1E
100
AcDbEntity
  8
0
100
AcDbLine
 10
228.4
 20
163.409
 30
0.0
 11
238.0999999999999
 21
175.009
 31
0.0
  0
LINE
  5
DB
330
1E
100
AcDbEntity
  8
0
100
AcDbLine
 10
217.0999999999999
 20
156.409
 30
0.0
 11
228.4
 21
163.409
 31
0.0
  0
LINE
  5
DC
330
1E
100
AcDbEntity
  8
0
100
AcDbLine
 10
205.0
 20
153.8089999999999
 30
0.0
 11
217.0999999999999
 21
156.409
 31
0.0
  0
LINE
  5
DD
330
1E
100
AcDbEntity
  8
0
100
AcDbLine
 10
238.0999999999999
 20
175.009
 30
0.0
 11
245.6999999999999
 21
189.909
 31
0.0
  0
LINE
  5
DE
330
1E
100
AcDbEntity
  8
0
100
AcDbLine
 10
240.3
 20
172.809
 30
0.0
 11
248.3
 21
188.409
 31
0.0
  0
LINE
  5
DF
330
1E
100
AcDbEntity
  8
0
100
AcDbLine
 10
229.8999999999999
 20
160.8089999999999
 30
0.0
 11
240.3
 21
172.809
 31
0.0
  0
LINE
  5
E0
330
1E
100
AcDbEntity
  8
0
100
AcDbLine
 10
217.8
 20
153.5089999999999
 30
0.0
 11
229.8999999999999
 21
160.8089999999999
 31
0.0
  0
LINE
  5
E1
330
1E
100
AcDbEntity
  8
0
100
AcDbLine
 10
193.4729
 20
183.0079999999999
 30
0.0
 11
195.2027
 21
187.132
 31
0.0
  0
LINE
  5
E2
330
1E
100
AcDbEntity
  8
0
100
AcDbLine
 10
160.4
 20
188.3919999999999
 30
0.0
 11
162.5999999999999
 21
190.904
 31
0.0
  0
LINE
  5
E3
330
1E
100
AcDbEntity
  8
0
100
AcDbLine
 10
184.6
 20
188.3919999999999
 30
0.0
 11
186.0
 21
185.469
 31
0.0
  0
LINE
  5
E4
330
1E
100
AcDbEntity
  8
0
100
AcDbLine
 10
162.5999999999999
 20
190.904
 30
0.0
 11
165.5
 21
192.807
 31
0.0
  0
LINE
  5
E5
330
1E
100
AcDbEntity
  8
0
100
AcDbLine
 10
182.4
 20
190.904
 30
0.0
 11
184.6
 21
188.3919999999999
 31
0.0
  0
LINE
  5
E6
330
1E
100
AcDbEntity
  8
0
100
AcDbLine
 10
163.033466085874
 20
191.1884434349719
 30
0.0
 11
164.4
 21
192.6829999999999
 31
0.0
  0
LINE
  5
EA
330
1E
100
AcDbEntity
  8
0
100
AcDbLine
 10
185.1250999999999
 20
187.964
 30
0.0
 11
185.176801786022
 21
187.187720271042
 31
0.0
  0
LINE
  5
EB
330
1E
100
AcDbEntity
  8
0
100
AcDbLine
 10
184.8859
 20
191.5559999999999
 30
0.0
 11
185.1250999999999
 21
187.964
 31
0.0
  0
LINE
  5
EC
330
1E
100
AcDbEntity
  8
0
100
AcDbLine
 10
245.6999999999999
 20
189.909
 30
0.0
 11
250.3
 21
207.209
 31
0.0
  0
LINE
  5
ED
330
1E
100
AcDbEntity
  8
0
100
AcDbLine
 10
248.3
 20
188.409
 30
0.0
 11
253.2
 21
206.409
 31
0.0
  0
LINE
  5
EF
330
1E
100
AcDbEntity
  8
0
100
AcDbLine
 10
195.1827999999999
 20
187.4309999999999
 30
0.0
 11
195.2027
 21
187.132
 31
0.0
  0
LINE
  5
F0
330
1E
100
AcDbEntity
  8
0
100
AcDbLine
 10
159.8748999999999
 20
187.964
 30
0.0
 11
160.1141
 21
191.5559999999999
 31
0.0
  0
LINE
  5
F1
330
1E
100
AcDbEntity
  8
0
100
AcDbLine
 10
164.4
 20
192.6829999999999
 30
0.0
 11
166.8
 21
194.329
 31
0.0
  0
LINE
  5
F2
330
1E
100
AcDbEntity
  8
0
100
AcDbLine
 10
166.3
 20
193.239
 30
0.0
 11
169.3
 21
194.2579999999999
 31
0.0
  0
LINE
  5
F3
330
1E
100
AcDbEntity
  8
0
100
AcDbLine
 10
165.5
 20
192.807
 30
0.0
 11
166.3
 21
193.239
 31
0.0
  0
LINE
  5
F4
330
1E
100
AcDbEntity
  8
0
100
AcDbLine
 10
169.3
 20
194.2579999999999
 30
0.0
 11
172.5
 21
194.632
 31
0.0
  0
LINE
  5
F5
330
1E
100
AcDbEntity
  8
0
100
AcDbLine
 10
175.6999999999999
 20
194.2579999999999
 30
0.0
 11
178.6999999999999
 21
193.239
 31
0.0
  0
LINE
  5
F6
330
1E
100
AcDbEntity
  8
0
100
AcDbLine
 10
172.5
 20
194.632
 30
0.0
 11
175.6999999999999
 21
194.2579999999999
 31
0.0
  0
LINE
  5
F7
330
1E
100
AcDbEntity
  8
0
100
AcDbLine
 10
175.5
 20
195.2809999999999
 30
0.0
 11
178.2
 21
194.329
 31
0.0
  0
LINE
  5
F8
330
1E
100
AcDbEntity
  8
0
100
AcDbLine
 10
169.5
 20
195.2809999999999
 30
0.0
 11
172.5
 21
195.6279999999999
 31
0.0
  0
LINE
  5
F9
330
1E
100
AcDbEntity
  8
0
100
AcDbLine
 10
166.8
 20
194.329
 30
0.0
 11
169.5
 21
195.2809999999999
 31
0.0
  0
LINE
  5
FB
330
1E
100
AcDbEntity
  8
0
100
AcDbLine
 10
160.3733
 20
195.447
 30
0.0
 11
178.143592330979
 21
195.447
 31
0.0
  0
LINE
  5
FC
330
1E
100
AcDbEntity
  8
0
100
AcDbLine
 10
178.6999999999999
 20
193.239
 30
0.0
 11
179.4999999999999
 21
192.807
 31
0.0
  0
LINE
  5
FD
330
1E
100
AcDbEntity
  8
0
100
AcDbLine
 10
178.2
 20
194.329
 30
0.0
 11
180.6
 21
192.6829999999999
 31
0.0
  0
LINE
  5
FE
330
1E
100
AcDbEntity
  8
0
100
AcDbLine
 10
179.4999999999999
 20
192.807
 30
0.0
 11
182.4
 21
190.904
 31
0.0
  0
LINE
  5
FF
330
1E
100
AcDbEntity
  8
0
100
AcDbLine
 10
180.6
 20
192.6829999999999
 30
0.0
 11
181.966533914126
 21
191.1884434349719
 31
0.0
  0
LINE
  5
102
330
1E
100
AcDbEntity
  8
0
100
AcDbLine
 10
178.143592330979
 20
195.447
 30
0.0
 11
184.6267
 21
195.447
 31
0.0
  0
LINE
  5
103
330
1E
100
AcDbEntity
  8
0
100
AcDbLine
 10
172.5
 20
195.6279999999999
 30
0.0
 11
175.5
 21
195.2809999999999
 31
0.0
  0
LINE
  5
104
330
1E
100
AcDbEntity
  8
0
100
AcDbLine
 10
184.6267
 20
195.447
 30
0.0
 11
184.8859
 21
191.5559999999999
 31
0.0
  0
LINE
  5
107
330
1E
100
AcDbEntity
  8
0
100
AcDbLine
 10
194.4516999999999
 20
198.407
 30
0.0
 11
195.1827999999999
 21
187.4309999999999
 31
0.0
  0
LINE
  5
108
330
1E
100
AcDbEntity
  8
0
100
AcDbLine
 10
160.1141
 20
191.5559999999999
 30
0.0
 11
160.3733
 21
195.447
 31
0.0
  0
LINE
  5
109
330
1E
100
AcDbEntity
  8
0
100
AcDbLine
 10
151.5271
 20
183.0079999999999
 30
0.0
 11
154.3874999999999
 21
180.813
 31
0.0
  0
LINE
  5
10A
330
1E
100
AcDbEntity
  8
0
100
AcDbLine
 10
194.3055
 20
200.6019999999999
 30
0.0
 11
194.4516999999999
 21
198.407
 31
0.0
  0
LINE
  5
10C
330
1E
100
AcDbEntity
  8
0
100
AcDbLine
 10
250.3
 20
207.209
 30
0.0
 11
252.0
 21
225.809
 31
0.0
  0
LINE
  5
10D
330
1E
100
AcDbEntity
  8
0
100
AcDbLine
 10
253.2
 20
206.409
 30
0.0
 11
255.0
 21
225.809
 31
0.0
  0
LINE
  5
10E
330
1E
100
AcDbEntity
  8
0
100
AcDbLine
 10
193.1625
 20
217.764
 30
0.0
 11
194.3055
 21
200.6019999999999
 31
0.0
  0
LINE
  5
113
330
1E
100
AcDbEntity
  8
0
100
AcDbLine
 10
153.5
 20
330.809
 30
0.0
 11
157.5
 21
329.309
 31
0.0
  0
LINE
  5
114
330
1E
100
AcDbEntity
  8
0
100
AcDbLine
 10
153.5
 20
348.309
 30
0.0
 11
157.5
 21
349.809
 31
0.0
  0
LINE
  5
115
330
1E
100
AcDbEntity
  8
0
100
AcDbLine
 10
152.5
 20
331.5232857142859
 30
0.0
 11
152.5
 21
327.809
 31
0.0
  0
LINE
  5
116
330
1E
100
AcDbEntity
  8
0
100
AcDbLine
 10
152.5
 20
327.809
 30
0.0
 11
159.166909149693
 21
327.809
 31
0.0
  0
LINE
  5
117
330
1E
100
AcDbEntity
  8
0
100
AcDbLine
 10
152.5
 20
327.809
 30
0.0
 11
152.5
 21
331.5232857142859
 31
0.0
  0
LINE
  5
118
330
1E
100
AcDbEntity
  8
0
100
AcDbLine
 10
152.3523999999999
 20
324.4549999999999
 30
0.0
 11
152.5
 21
327.809
 31
0.0
  0
LINE
  5
119
330
1E
100
AcDbEntity
  8
0
100
AcDbLine
 10
153.4059
 20
241.312
 30
0.0
 11
154.8414
 21
262.864
 31
0.0
  0
LINE
  5
11B
330
1E
100
AcDbEntity
  8
0
100
AcDbLine
 10
157.5
 20
329.309
 30
0.0
 11
163.4999999999999
 21
328.309
 31
0.0
  0
LINE
  5
11C
330
1E
100
AcDbEntity
  8
0
100
AcDbLine
 10
157.5
 20
349.809
 30
0.0
 11
163.4999999999999
 21
350.809
 31
0.0
  0
LINE
  5
11D
330
1E
100
AcDbEntity
  8
0
100
AcDbLine
 10
158.0245999999999
 20
310.658
 30
0.0
 11
159.0878999999999
 21
326.623
 31
0.0
  0
LINE
  5
11E
330
1E
100
AcDbEntity
  8
0
100
AcDbLine
 10
156.984768476548
 20
295.04530267497
 30
0.0
 11
158.0245999999999
 21
310.658
 31
0.0
  0
LINE
  5
122
330
1E
100
AcDbEntity
  8
0
100
AcDbLine
 10
250.3
 20
244.409
 30
0.0
 11
252.0
 21
225.809
 31
0.0
  0
LINE
  5
123
330
1E
100
AcDbEntity
  8
0
100
AcDbLine
 10
191.5941
 20
241.312
 30
0.0
 11
193.1625
 21
217.764
 31
0.0
  0
LINE
  5
124
330
1E
100
AcDbEntity
  8
0
100
AcDbLine
 10
245.6999999999999
 20
261.709
 30
0.0
 11
250.3
 21
244.409
 31
0.0
  0
LINE
  5
125
330
1E
100
AcDbEntity
  8
0
100
AcDbLine
 10
253.2
 20
245.209
 30
0.0
 11
255.0
 21
225.809
 31
0.0
  0
LINE
  5
126
330
1E
100
AcDbEntity
  8
0
100
AcDbLine
 10
248.3
 20
263.209
 30
0.0
 11
253.2
 21
245.209
 31
0.0
  0
LINE
  5
127
330
1E
100
AcDbEntity
  8
0
100
AcDbLine
 10
190.032902038
 20
264.75136094304
 30
0.0
 11
191.5941
 21
241.312
 31
0.0
  0
LINE
  5
12C
330
1E
100
AcDbEntity
  8
0
100
AcDbLine
 10
159.0878999999999
 20
326.623
 30
0.0
 11
159.247434589015
 21
329.017760901831
 31
0.0
  0
LINE
  5
12E
330
1E
100
AcDbEntity
  8
0
100
AcDbLine
 10
238.0999999999999
 20
276.609
 30
0.0
 11
245.6999999999999
 21
261.709
 31
0.0
  0
LINE
  5
12F
330
1E
100
AcDbEntity
  8
0
100
AcDbLine
 10
240.3
 20
278.809
 30
0.0
 11
248.3
 21
263.209
 31
0.0
  0
LINE
  5
130
330
1E
100
AcDbEntity
  8
0
100
AcDbLine
 10
188.015231523452
 20
295.04530267497
 30
0.0
 11
190.1585999999999
 21
262.864
 31
0.0
  0
LINE
  5
131
330
1E
100
AcDbEntity
  8
0
100
AcDbLine
 10
181.4999999999999
 20
328.309
 30
0.0
 11
187.5
 21
329.309
 31
0.0
  0
LINE
  5
132
330
1E
100
AcDbEntity
  8
0
100
AcDbLine
 10
172.5
 20
327.809
 30
0.0
 11
181.4999999999999
 21
328.309
 31
0.0
  0
LINE
  5
133
330
1E
100
AcDbEntity
  8
0
100
AcDbLine
 10
163.4999999999999
 20
328.309
 30
0.0
 11
172.5
 21
327.809
 31
0.0
  0
LINE
  5
135
330
1E
100
AcDbEntity
  8
0
100
AcDbLine
 10
181.4999999999999
 20
350.809
 30
0.0
 11
187.5
 21
349.809
 31
0.0
  0
LINE
  5
136
330
1E
100
AcDbEntity
  8
0
100
AcDbLine
 10
172.5
 20
350.809
 30
0.0
 11
181.4999999999999
 21
350.809
 31
0.0
  0
LINE
  5
137
330
1E
100
AcDbEntity
  8
0
100
AcDbLine
 10
163.4999999999999
 20
350.809
 30
0.0
 11
172.5
 21
350.809
 31
0.0
  0
LINE
  5
139
330
1E
100
AcDbEntity
  8
0
100
AcDbLine
 10
228.4
 20
288.209
 30
0.0
 11
238.0999999999999
 21
276.609
 31
0.0
  0
LINE
  5
13A
330
1E
100
AcDbEntity
  8
0
100
AcDbLine
 10
188.1983271642959
 20
292.296459305316
 30
0.0
 11
192.9
 21
295.209
 31
0.0
  0
LINE
  5
13B
330
1E
100
AcDbEntity
  8
0
100
AcDbLine
 10
192.9
 20
295.209
 30
0.0
 11
205.0
 21
297.809
 31
0.0
  0
LINE
  5
13C
330
1E
100
AcDbEntity
  8
0
100
AcDbLine
 10
188.1983271642959
 20
292.296459305316
 30
0.0
 11
192.9
 21
295.209
 31
0.0
  0
LINE
  5
13D
330
1E
100
AcDbEntity
  8
0
100
AcDbLine
 10
192.9
 20
295.209
 30
0.0
 11
205.0
 21
297.809
 31
0.0
  0
LINE
  5
13E
330
1E
100
AcDbEntity
  8
0
100
AcDbLine
 10
187.9807197984989
 20
295.563483845375
 30
0.0
 11
192.1999999999999
 21
298.109
 31
0.0
  0
LINE
  5
13F
330
1E
100
AcDbEntity
  8
0
100
AcDbLine
 10
192.1999999999999
 20
298.109
 30
0.0
 11
205.0
 21
300.809
 31
0.0
  0
LINE
  5
140
330
1E
100
AcDbEntity
  8
0
100
AcDbLine
 10
217.0999999999999
 20
295.209
 30
0.0
 11
228.4
 21
288.209
 31
0.0
  0
LINE
  5
141
330
1E
100
AcDbEntity
  8
0
100
AcDbLine
 10
205.0
 20
297.809
 30
0.0
 11
217.0999999999999
 21
295.209
 31
0.0
  0
LINE
  5
142
330
1E
100
AcDbEntity
  8
0
100
AcDbLine
 10
205.0
 20
297.809
 30
0.0
 11
217.0999999999999
 21
295.209
 31
0.0
  0
LINE
  5
143
330
1E
100
AcDbEntity
  8
0
100
AcDbLine
 10
205.0
 20
300.809
 30
0.0
 11
217.8
 21
298.109
 31
0.0
  0
LINE
  5
144
330
1E
100
AcDbEntity
  8
0
100
AcDbLine
 10
229.8999999999999
 20
290.809
 30
0.0
 11
240.3
 21
278.809
 31
0.0
  0
LINE
  5
145
330
1E
100
AcDbEntity
  8
0
100
AcDbLine
 10
217.8
 20
298.109
 30
0.0
 11
229.8999999999999
 21
290.809
 31
0.0
  0
LINE
  5
146
330
1E
100
AcDbEntity
  8
0
100
AcDbLine
 10
185.833090850307
 20
327.809
 30
0.0
 11
192.5
 21
327.809
 31
0.0
  0
LINE
  5
147
330
1E
100
AcDbEntity
  8
0
100
AcDbLine
 10
185.7525654109849
 20
329.017760901831
 30
0.0
 11
185.9121
 21
326.623
 31
0.0
  0
LINE
  5
148
330
1E
100
AcDbEntity
  8
0
100
AcDbLine
 10
186.9136895080149
 20
311.58455694963
 30
0.0
 11
192.1999999999999
 21
298.109
 31
0.0
  0
LINE
  5
149
330
1E
100
AcDbEntity
  8
0
100
AcDbLine
 10
204.15
 20
320.041
 30
0.0
 11
205.0
 21
300.809
 31
0.0
  0
LINE
  5
14A
330
1E
100
AcDbEntity
  8
0
100
AcDbLine
 10
195.5424999999999
 20
323.0919999999999
 30
0.0
 11
204.15
 21
320.041
 31
0.0
  0
LINE
  5
14B
330
1E
100
AcDbEntity
  8
0
100
AcDbLine
 10
192.6476
 20
324.4549999999999
 30
0.0
 11
195.5424999999999
 21
323.0919999999999
 31
0.0
  0
LINE
  5
14C
330
1E
100
AcDbEntity
  8
0
100
AcDbLine
 10
191.5
 20
348.309
 30
0.0
 11
195.0
 21
345.309
 31
0.0
  0
LINE
  5
14D
330
1E
100
AcDbEntity
  8
0
100
AcDbLine
 10
187.5
 20
349.809
 30
0.0
 11
191.5
 21
348.309
 31
0.0
  0
LINE
  5
14E
330
1E
100
AcDbEntity
  8
0
100
AcDbLine
 10
192.5
 20
331.5232857142859
 30
0.0
 11
195.0
 21
333.309
 31
0.0
  0
LINE
  5
14F
330
1E
100
AcDbEntity
  8
0
100
AcDbLine
 10
191.5
 20
330.809
 30
0.0
 11
195.0
 21
333.309
 31
0.0
  0
LINE
  5
150
330
1E
100
AcDbEntity
  8
0
100
AcDbLine
 10
187.5
 20
329.309
 30
0.0
 11
191.5
 21
330.809
 31
0.0
  0
LINE
  5
151
330
1E
100
AcDbEntity
  8
0
100
AcDbLine
 10
195.0
 20
333.309
 30
0.0
 11
197.0
 21
336.309
 31
0.0
  0
LINE
  5
152
330
1E
100
AcDbEntity
  8
0
100
AcDbLine
 10
197.0
 20
336.309
 30
0.0
 11
197.5
 21
339.309
 31
0.0
  0
LINE
  5
153
330
1E
100
AcDbEntity
  8
0
100
AcDbLine
 10
197.0
 20
342.309
 30
0.0
 11
197.5
 21
339.309
 31
0.0
  0
LINE
  5
154
330
1E
100
AcDbEntity
  8
0
100
AcDbLine
 10
195.0
 20
345.309
 30
0.0
 11
197.0
 21
342.309
 31
0.0
  0
LINE
  5
155
330
1E
100
AcDbEntity
  8
0
100
AcDbLine
 10
197.0
 20
336.309
 30
0.0
 11
197.5
 21
339.309
 31
0.0
  0
LINE
  5
156
330
1E
100
AcDbEntity
  8
0
100
AcDbLine
 10
195.0
 20
333.309
 30
0.0
 11
197.0
 21
336.309
 31
0.0
  0
LINE
  5
157
330
1E
100
AcDbEntity
  8
0
100
AcDbLine
 10
192.5
 20
331.5232857142859
 30
0.0
 11
192.5
 21
327.809
 31
0.0
  0
LINE
  5
158
330
1E
100
AcDbEntity
  8
0
100
AcDbLine
 10
192.5
 20
327.809
 30
0.0
 11
192.5
 21
331.5232857142859
 31
0.0
  0
LINE
  5
159
330
1E
100
AcDbEntity
  8
0
100
AcDbLine
 10
192.5
 20
327.809
 30
0.0
 11
192.6476
 21
324.4549999999999
 31
0.0
  0
LINE
  5
15A
330
1E
100
AcDbEntity
  8
0
100
AcDbLine
 10
185.9121
 20
326.623
 30
0.0
 11
186.9754
 21
310.658
 31
0.0
  0
LINE
  5
15B
330
1E
100
AcDbEntity
  8
0
100
AcDbLine
 10
186.9754
 20
310.658
 30
0.0
 11
188.015231523452
 21
295.04530267497
 31
0.0
  0
LINE
  5
164
330
1E
100
AcDbEntity
  8
0
100
AcDbLine
 10
154.8414
 20
262.864
 30
0.0
 11
156.984768476548
 21
295.04530267497
 31
0.0
  0
LINE
  5
165
330
1E
100
AcDbEntity
  8
0
100
AcDbLine
 10
151.8374999999999
 20
217.764
 30
0.0
 11
153.4059
 21
241.312
 31
0.0
  0
LINE
  5
166
330
1E
100
AcDbEntity
  8
0
100
AcDbLine
 10
150.6944999999999
 20
200.6019999999999
 30
0.0
 11
151.8374999999999
 21
217.764
 31
0.0
  0
LINE
  5
167
330
1E
100
AcDbEntity
  8
0
100
AcDbLine
 10
150.5483
 20
198.407
 30
0.0
 11
150.6944999999999
 21
200.6019999999999
 31
0.0
  0
LINE
  5
168
330
1E
100
AcDbEntity
  8
0
100
AcDbLine
 10
150.0963999999999
 20
191.622
 30
0.0
 11
150.5483
 21
198.407
 31
0.0
  0
ENDSEC
  0
SECTION
  2
OBJECTS
  0
DICTIONARY
  5
C
330
0
100
AcDbDictionary
281
     1
  3
ACAD_GROUP
350
D
  3
ACAD_LAYOUT
350
19
  3
ACAD_MLINESTYLE
350
16
  3
ACAD_PLOTSETTINGS
350
18
  3
ACAD_PLOTSTYLENAME
350
E
  3
AcDbVariableDictionary
350
16D
  0
DICTIONARY
  5
D
102
{ACAD_REACTORS
330
C
102
}
330
C
100
AcDbDictionary
281
     1
  0
DICTIONARY
  5
19
102
{ACAD_REACTORS
330
C
102
}
330
C
100
AcDbDictionary
281
     1
  3
Layout1
350
1D
  3
Model
350
21
  0
DICTIONARY
  5
16
102
{ACAD_REACTORS
330
C
102
}
330
C
100
AcDbDictionary
281
     1
  3
Standard
350
17
  0
DICTIONARY
  5
18
102
{ACAD_REACTORS
330
C
102
}
330
C
100
AcDbDictionary
281
     1
  0
ACDBDICTIONARYWDFLT
  5
E
102
{ACAD_REACTORS
330
C
102
}
330
C
100
AcDbDictionary
281
     1
  3
Normal
350
F
100
AcDbDictionaryWithDefault
340
F
  0
DICTIONARY
  5
16D
102
{ACAD_REACTORS
330
C
102
}
330
C
100
AcDbDictionary
281
     1
  3
DIMASSOC
350
16E
  0
LAYOUT
  5
1D
102
{ACAD_REACTORS
330
19
102
}
330
19
100
AcDbPlotSettings
  1

  2
hp deskjet 980c series
  4

  6

 40
0.0
 41
0.0
 42
0.0
 43
0.0
 44
0.0
 45
0.0
 46
0.0
 47
0.0
 48
0.0
 49
0.0
140
0.0
141
0.0
142
1.0
143
1.0
 70
   688
 72
     0
 73
     0
 74
     5
  7

 75
    16
147
1.0
148
0.0
149
0.0
100
AcDbLayout
  1
Layout1
 70
     1
 71
     1
 10
0.0
 20
0.0
 11
12.0
 21
9.0
 12
0.0
 22
0.0
 32
0.0
 14
1.000000000000000E+20
 24
1.000000000000000E+20
 34
1.000000000000000E+20
 15
-1.000000000000000E+20
 25
-1.000000000000000E+20
 35
-1.000000000000000E+20
146
0.0
 13
0.0
 23
0.0
 33
0.0
 16
1.0
 26
0.0
 36
0.0
 17
0.0
 27
1.0
 37
0.0
 76
     0
330
1A
  0
LAYOUT
  5
21
102
{ACAD_REACTORS
330
19
102
}
330
19
100
AcDbPlotSettings
  1

  2
hp deskjet 980c series
  4

  6

 40
0.0
 41
0.0
 42
0.0
 43
0.0
 44
0.0
 45
0.0
 46
0.0
 47
0.0
 48
0.0
 49
0.0
140
0.0
141
0.0
142
1.0
143
1.0
 70
  1712
 72
     0
 73
     0
 74
     0
  7

 75
     0
147
1.0
148
0.0
149
0.0
100
AcDbLayout
  1
Model
 70
     1
 71
     0
 10
0.0
 20
0.0
 11
12.0
 21
9.0
 12
0.0
 22
0.0
 32
0.0
 14
0.0
 24
0.0
 34
0.0
 15
0.0
 25
0.0
 35
0.0
146
0.0
 13
0.0
 23
0.0
 33
0.0
 16
1.0
 26
0.0
 36
0.0
 17
0.0
 27
1.0
 37
0.0
 76
     0
330
1E
  0
MLINESTYLE
  5
17
102
{ACAD_REACTORS
330
16
102
}
330
16
100
AcDbMlineStyle
  2
STANDARD
 70
     0
  3

 62
   256
 51
90.0
 52
90.0
 71
     2
 49
0.5
 62
   256
  6
BYLAYER
 49
-0.5
 62
   256
  6
BYLAYER
  0
ACDBPLACEHOLDER
  5
F
102
{ACAD_REACTORS
330
E
102
}
330
E
  0
DICTIONARYVAR
  5
16E
102
{ACAD_REACTORS
330
16D
102
}
330
16D
100
DictionaryVariables
280
     0
  1
1
  0
ENDSEC
  0
EOF
