  0
SECTION
  2
HEADER
  9
$ACADVER
  1
AC1015
  9
$ACADMAINTVER
 70
    13
  9
$DWGCODEPAGE
  3
ANSI_1252
  9
$INSBASE
 10
0.0
 20
0.0
 30
0.0
  9
$EXTMIN
 10
0.190999999999985
 20
-0.0000000000000084
 30
0.0
  9
$EXTMAX
 10
350.809
 20
1620.0
 30
0.0
  9
$LIMMIN
 10
0.0
 20
0.0
  9
$LIMMAX
 10
12.0
 20
9.0
  9
$ORTHOMODE
 70
     0
  9
$REGENMODE
 70
     1
  9
$FILLMODE
 70
     1
  9
$QTEXTMODE
 70
     0
  9
$MIRRTEXT
 70
     1
  9
$LTSCALE
 40
1.0
  9
$ATTMODE
 70
     1
  9
$TEXTSIZE
 40
0.2
  9
$TRACEWID
 40
0.05
  9
$TEXTSTYLE
  7
Standard
  9
$CLAYER
  8
0
  9
$CELTYPE
  6
Continuous
  9
$CECOLOR
 62
   256
  9
$CELTSCALE
 40
1.0
  9
$DISPSILH
 70
     0
  9
$DIMSCALE
 40
1.0
  9
$DIMASZ
 40
0.18
  9
$DIMEXO
 40
0.0625
  9
$DIMDLI
 40
0.38
  9
$DIMRND
 40
0.0
  9
$DIMDLE
 40
0.0
  9
$DIMEXE
 40
0.18
  9
$DIMTP
 40
0.0
  9
$DIMTM
 40
0.0
  9
$DIMTXT
 40
0.18
  9
$DIMCEN
 40
0.09
  9
$DIMTSZ
 40
0.0
  9
$DIMTOL
 70
     0
  9
$DIMLIM
 70
     0
  9
$DIMTIH
 70
     1
  9
$DIMTOH
 70
     1
  9
$DIMSE1
 70
     0
  9
$DIMSE2
 70
     0
  9
$DIMTAD
 70
     0
  9
$DIMZIN
 70
     0
  9
$DIMBLK
  1

  9
$DIMASO
 70
     1
  9
$DIMSHO
 70
     1
  9
$DIMPOST
  1

  9
$DIMAPOST
  1

  9
$DIMALT
 70
     0
  9
$DIMALTD
 70
     2
  9
$DIMALTF
 40
25.4
  9
$DIMLFAC
 40
1.0
  9
$DIMTOFL
 70
     0
  9
$DIMTVP
 40
0.0
  9
$DIMTIX
 70
     0
  9
$DIMSOXD
 70
     0
  9
$DIMSAH
 70
     0
  9
$DIMBLK1
  1

  9
$DIMBLK2
  1

  9
$DIMSTYLE
  2
Standard
  9
$DIMCLRD
 70
     0
  9
$DIMCLRE
 70
     0
  9
$DIMCLRT
 70
     0
  9
$DIMTFAC
 40
1.0
  9
$DIMGAP
 40
0.09
  9
$DIMJUST
 70
     0
  9
$DIMSD1
 70
     0
  9
$DIMSD2
 70
     0
  9
$DIMTOLJ
 70
     1
  9
$DIMTZIN
 70
     0
  9
$DIMALTZ
 70
     0
  9
$DIMALTTZ
 70
     0
  9
$DIMUPT
 70
     0
  9
$DIMDEC
 70
     4
  9
$DIMTDEC
 70
     4
  9
$DIMALTU
 70
     2
  9
$DIMALTTD
 70
     2
  9
$DIMTXSTY
  7
Standard
  9
$DIMAUNIT
 70
     0
  9
$DIMADEC
 70
     0
  9
$DIMALTRND
 40
0.0
  9
$DIMAZIN
 70
     0
  9
$DIMDSEP
 70
    46
  9
$DIMATFIT
 70
     3
  9
$DIMFRAC
 70
     0
  9
$DIMLDRBLK
  1

  9
$DIMLUNIT
 70
     2
  9
$DIMLWD
 70
    -2
  9
$DIMLWE
 70
    -2
  9
$DIMTMOVE
 70
     0
  9
$LUNITS
 70
     2
  9
$LUPREC
 70
     4
  9
$SKETCHINC
 40
0.1
  9
$FILLETRAD
 40
0.0
  9
$AUNITS
 70
     0
  9
$AUPREC
 70
     0
  9
$MENU
  1
.
  9
$ELEVATION
 40
0.0
  9
$PELEVATION
 40
0.0
  9
$THICKNESS
 40
0.0
  9
$LIMCHECK
 70
     0
  9
$CHAMFERA
 40
0.0
  9
$CHAMFERB
 40
0.0
  9
$CHAMFERC
 40
0.0
  9
$CHAMFERD
 40
0.0
  9
$SKPOLY
 70
     0
  9
$TDCREATE
 40
2454738.781696134
  9
$TDUCREATE
 40
2454738.698362801
  9
$TDUPDATE
 40
2454738.801270254
  9
$TDUUPDATE
 40
2454738.717936921
  9
$TDINDWG
 40
0.0195741204
  9
$TDUSRTIMER
 40
0.0195741204
  9
$USRTIMER
 70
     1
  9
$ANGBASE
 50
0.0
  9
$ANGDIR
 70
     0
  9
$PDMODE
 70
     0
  9
$PDSIZE
 40
0.0
  9
$PLINEWID
 40
0.0
  9
$SPLFRAME
 70
     0
  9
$SPLINETYPE
 70
     6
  9
$SPLINESEGS
 70
     8
  9
$HANDSEED
  5
36B
  9
$SURFTAB1
 70
     6
  9
$SURFTAB2
 70
     6
  9
$SURFTYPE
 70
     6
  9
$SURFU
 70
     6
  9
$SURFV
 70
     6
  9
$UCSBASE
  2

  9
$UCSNAME
  2

  9
$UCSORG
 10
0.0
 20
0.0
 30
0.0
  9
$UCSXDIR
 10
1.0
 20
0.0
 30
0.0
  9
$UCSYDIR
 10
0.0
 20
1.0
 30
0.0
  9
$UCSORTHOREF
  2

  9
$UCSORTHOVIEW
 70
     1
  9
$UCSORGTOP
 10
0.0
 20
0.0
 30
0.0
  9
$UCSORGBOTTOM
 10
0.0
 20
0.0
 30
0.0
  9
$UCSORGLEFT
 10
0.0
 20
0.0
 30
0.0
  9
$UCSORGRIGHT
 10
0.0
 20
0.0
 30
0.0
  9
$UCSORGFRONT
 10
0.0
 20
0.0
 30
0.0
  9
$UCSORGBACK
 10
0.0
 20
0.0
 30
0.0
  9
$PUCSBASE
  2

  9
$PUCSNAME
  2

  9
$PUCSORG
 10
0.0
 20
0.0
 30
0.0
  9
$PUCSXDIR
 10
1.0
 20
0.0
 30
0.0
  9
$PUCSYDIR
 10
0.0
 20
1.0
 30
0.0
  9
$PUCSORTHOREF
  2

  9
$PUCSORTHOVIEW
 70
     0
  9
$PUCSORGTOP
 10
0.0
 20
0.0
 30
0.0
  9
$PUCSORGBOTTOM
 10
0.0
 20
0.0
 30
0.0
  9
$PUCSORGLEFT
 10
0.0
 20
0.0
 30
0.0
  9
$PUCSORGRIGHT
 10
0.0
 20
0.0
 30
0.0
  9
$PUCSORGFRONT
 10
0.0
 20
0.0
 30
0.0
  9
$PUCSORGBACK
 10
0.0
 20
0.0
 30
0.0
  9
$USERI1
 70
     0
  9
$USERI2
 70
     0
  9
$USERI3
 70
     0
  9
$USERI4
 70
     0
  9
$USERI5
 70
     0
  9
$USERR1
 40
0.0
  9
$USERR2
 40
0.0
  9
$USERR3
 40
0.0
  9
$USERR4
 40
0.0
  9
$USERR5
 40
0.0
  9
$WORLDVIEW
 70
     1
  9
$SHADEDGE
 70
     3
  9
$SHADEDIF
 70
    70
  9
$TILEMODE
 70
     1
  9
$MAXACTVP
 70
    64
  9
$PINSBASE
 10
0.0
 20
0.0
 30
0.0
  9
$PLIMCHECK
 70
     0
  9
$PEXTMIN
 10
1.000000000000000E+20
 20
1.000000000000000E+20
 30
1.000000000000000E+20
  9
$PEXTMAX
 10
-1.000000000000000E+20
 20
-1.000000000000000E+20
 30
-1.000000000000000E+20
  9
$PLIMMIN
 10
0.0
 20
0.0
  9
$PLIMMAX
 10
12.0
 20
9.0
  9
$UNITMODE
 70
     0
  9
$VISRETAIN
 70
     1
  9
$PLINEGEN
 70
     0
  9
$PSLTSCALE
 70
     1
  9
$TREEDEPTH
 70
  3020
  9
$CMLSTYLE
  2
Standard
  9
$CMLJUST
 70
     0
  9
$CMLSCALE
 40
1.0
  9
$PROXYGRAPHICS
 70
     1
  9
$MEASUREMENT
 70
     0
  9
$CELWEIGHT
370
    -1
  9
$ENDCAPS
280
     0
  9
$JOINSTYLE
280
     0
  9
$LWDISPLAY
290
     0
  9
$INSUNITS
 70
     0
  9
$HYPERLINKBASE
  1

  9
$STYLESHEET
  1

  9
$XEDIT
290
     1
  9
$CEPSNTYPE
380
     0
  9
$PSTYLEMODE
290
     1
  9
$FINGERPRINTGUID
  2
{4FCA35A5-7FDA-491E-A03F-0E130E1E92B3}
  9
$VERSIONGUID
  2
{417CDA83-4766-4BBB-BDA7-756C4205206A}
  9
$EXTNAMES
290
     1
  9
$PSVPSCALE
 40
0.0
  9
$OLESTARTUP
290
     0
  0
ENDSEC
  0
SECTION
  2
CLASSES
  0
CLASS
  1
ACDBDICTIONARYWDFLT
  2
AcDbDictionaryWithDefault
  3
AutoCAD 2000
 90
        0
280
     0
281
     0
  0
CLASS
  1
ACDBPLACEHOLDER
  2
AcDbPlaceHolder
  3
AutoCAD 2000
 90
        0
280
     0
281
     0
  0
CLASS
  1
LAYOUT
  2
AcDbLayout
  3
AutoCAD 2000
 90
        0
280
     0
281
     0
  0
CLASS
  1
DICTIONARYVAR
  2
AcDbDictionaryVar
  3
AutoCAD 2000
 90
        0
280
     0
281
     0
  0
ENDSEC
  0
SECTION
  2
TABLES
  0
TABLE
  2
VPORT
  5
8
330
0
100
AcDbSymbolTable
 70
     2
  0
VPORT
  5
36A
330
8
100
AcDbSymbolTableRecord
100
AcDbViewportTableRecord
  2
*Active
 70
     0
 10
0.0
 20
0.0
 11
1.0
 21
1.0
 12
175.5
 22
810.0
 13
0.0
 23
0.0
 14
1.0
 24
1.0
 15
0.0
 25
0.0
 16
0.0
 26
0.0
 36
1.0
 17
0.0
 27
0.0
 37
0.0
 40
1632.429667519181
 41
2.078104993597951
 42
50.0
 43
0.0
 44
0.0
 50
0.0
 51
0.0
 71
     0
 72
   100
 73
     1
 74
     3
 75
     0
 76
     0
 77
     0
 78
     0
281
     0
 65
     1
110
0.0
120
0.0
130
0.0
111
1.0
121
0.0
131
0.0
112
0.0
122
1.0
132
0.0
 79
     1
146
0.0
  0
ENDTAB
  0
TABLE
  2
LTYPE
  5
5
330
0
100
AcDbSymbolTable
 70
     1
  0
LTYPE
  5
13
330
5
100
AcDbSymbolTableRecord
100
AcDbLinetypeTableRecord
  2
ByBlock
 70
     0
  3

 72
    65
 73
     0
 40
0.0
  0
LTYPE
  5
14
330
5
100
AcDbSymbolTableRecord
100
AcDbLinetypeTableRecord
  2
ByLayer
 70
     0
  3

 72
    65
 73
     0
 40
0.0
  0
LTYPE
  5
15
330
5
100
AcDbSymbolTableRecord
100
AcDbLinetypeTableRecord
  2
Continuous
 70
     0
  3
Solid line
 72
    65
 73
     0
 40
0.0
  0
ENDTAB
  0
TABLE
  2
LAYER
  5
2
330
0
100
AcDbSymbolTable
 70
     1
  0
LAYER
  5
10
330
2
100
AcDbSymbolTableRecord
100
AcDbLayerTableRecord
  2
0
 70
     0
 62
     7
  6
Continuous
370
    -3
390
F
  0
ENDTAB
  0
TABLE
  2
STYLE
  5
3
330
0
100
AcDbSymbolTable
 70
     1
  0
STYLE
  5
11
330
3
100
AcDbSymbolTableRecord
100
AcDbTextStyleTableRecord
  2
Standard
 70
     0
 40
0.0
 41
1.0
 50
0.0
 71
     0
 42
0.2
  3
txt
  4

  0
ENDTAB
  0
TABLE
  2
VIEW
  5
6
330
0
100
AcDbSymbolTable
 70
     0
  0
ENDTAB
  0
TABLE
  2
UCS
  5
7
330
0
100
AcDbSymbolTable
 70
     0
  0
ENDTAB
  0
TABLE
  2
APPID
  5
9
330
0
100
AcDbSymbolTable
 70
     1
  0
APPID
  5
12
330
9
100
AcDbSymbolTableRecord
100
AcDbRegAppTableRecord
  2
ACAD
 70
     0
  0
ENDTAB
  0
TABLE
  2
DIMSTYLE
  5
A
330
0
100
AcDbSymbolTable
 70
     1
100
AcDbDimStyleTable
 71
     0
  0
DIMSTYLE
105
364
330
A
100
AcDbSymbolTableRecord
100
AcDbDimStyleTableRecord
  2
Standard
 70
     0
340
11
  0
ENDTAB
  0
TABLE
  2
BLOCK_RECORD
  5
1
330
0
100
AcDbSymbolTable
 70
     0
  0
BLOCK_RECORD
  5
1E
330
1
100
AcDbSymbolTableRecord
100
AcDbBlockTableRecord
  2
*Model_Space
340
21
  0
BLOCK_RECORD
  5
1A
330
1
100
AcDbSymbolTableRecord
100
AcDbBlockTableRecord
  2
*Paper_Space
340
1D
  0
ENDTAB
  0
ENDSEC
  0
SECTION
  2
BLOCKS
  0
BLOCK
  5
1F
330
1E
100
AcDbEntity
  8
0
100
AcDbBlockBegin
  2
*Model_Space
 70
     0
 10
0.0
 20
0.0
 30
0.0
  3
*Model_Space
  1

  0
ENDBLK
  5
20
330
1E
100
AcDbEntity
  8
0
100
AcDbBlockEnd
  0
BLOCK
  5
1B
330
1A
100
AcDbEntity
 67
     1
  8
0
100
AcDbBlockBegin
  2
*Paper_Space
 70
     0
 10
0.0
 20
0.0
 30
0.0
  3
*Paper_Space
  1

  0
ENDBLK
  5
1C
330
1A
100
AcDbEntity
 67
     1
  8
0
100
AcDbBlockEnd
  0
ENDSEC
  0
SECTION
  2
ENTITIES
  0
LINE
  5
22
330
1E
100
AcDbEntity
  8
0
100
AcDbLine
 10
150.8089999999999
 20
210.0
 30
0.0
 11
150.8089999999999
 21
150.0
 31
0.0
  0
LINE
  5
23
330
1E
100
AcDbEntity
  8
0
100
AcDbLine
 10
150.8089999999999
 20
210.0
 30
0.0
 11
153.5089999999999
 21
210.0
 31
0.0
  0
LINE
  5
24
330
1E
100
AcDbEntity
  8
0
100
AcDbLine
 10
172.809
 20
150.0
 30
0.0
 11
188.409
 21
150.0
 31
0.0
  0
LINE
  5
25
330
1E
100
AcDbEntity
  8
0
100
AcDbLine
 10
160.8089999999999
 20
150.0
 30
0.0
 11
172.809
 21
150.0
 31
0.0
  0
LINE
  5
26
330
1E
100
AcDbEntity
  8
0
100
AcDbLine
 10
172.809
 20
210.0
 30
0.0
 11
188.409
 21
210.0
 31
0.0
  0
LINE
  5
27
330
1E
100
AcDbEntity
  8
0
100
AcDbLine
 10
187.9880878979099
 20
1031.40261380058
 30
0.0
 11
192.0079999999999
 21
1025.18
 31
0.0
  0
LINE
  5
28
330
1E
100
AcDbEntity
  8
0
100
AcDbLine
 10
160.8089999999999
 20
210.0
 30
0.0
 11
172.809
 21
210.0
 31
0.0
  0
LINE
  5
29
330
1E
100
AcDbEntity
  8
0
100
AcDbLine
 10
153.5089999999999
 20
210.0
 30
0.0
 11
160.8089999999999
 21
210.0
 31
0.0
  0
LINE
  5
2A
330
1E
100
AcDbEntity
  8
0
100
AcDbLine
 10
153.5089999999999
 20
150.0
 30
0.0
 11
160.8089999999999
 21
150.0
 31
0.0
  0
LINE
  5
2B
330
1E
100
AcDbEntity
  8
0
100
AcDbLine
 10
150.8089999999999
 20
150.0
 30
0.0
 11
153.5089999999999
 21
150.0
 31
0.0
  0
LINE
  5
2C
330
1E
100
AcDbEntity
  8
0
100
AcDbLine
 10
150.8089999999999
 20
150.0
 30
0.0
 11
150.8089999999999
 21
210.0
 31
0.0
  0
LINE
  5
2D
330
1E
100
AcDbEntity
  8
0
100
AcDbLine
 10
179.945
 20
1040.11
 30
0.0
 11
182.7599999999999
 21
1034.98
 31
0.0
  0
LINE
  5
2E
330
1E
100
AcDbEntity
  8
0
100
AcDbLine
 10
178.754
 20
1046.04
 30
0.0
 11
179.0999999999999
 21
1050.039999999999
 31
0.0
  0
LINE
  5
2F
330
1E
100
AcDbEntity
  8
0
100
AcDbLine
 10
178.754
 20
1046.04
 30
0.0
 11
179.945
 21
1040.11
 31
0.0
  0
LINE
  5
30
330
1E
100
AcDbEntity
  8
0
100
AcDbLine
 10
178.8541150306869
 20
1045.54152633755
 30
0.0
 11
179.945
 21
1040.11
 31
0.0
  0
LINE
  5
31
330
1E
100
AcDbEntity
  8
0
100
AcDbLine
 10
182.4759999999999
 20
1037.5
 30
0.0
 11
184.8709999999999
 21
1034.4
 31
0.0
  0
LINE
  5
32
330
1E
100
AcDbEntity
  8
0
100
AcDbLine
 10
180.979
 20
1041.099999999999
 30
0.0
 11
182.4759999999999
 21
1037.5
 31
0.0
  0
LINE
  5
33
330
1E
100
AcDbEntity
  8
0
100
AcDbLine
 10
180.48
 20
1045.0
 30
0.0
 11
180.979
 21
1048.9
 31
0.0
  0
LINE
  5
34
330
1E
100
AcDbEntity
  8
0
100
AcDbLine
 10
180.48
 20
1045.0
 30
0.0
 11
180.979
 21
1041.099999999999
 31
0.0
  0
LINE
  5
35
330
1E
100
AcDbEntity
  8
0
100
AcDbLine
 10
173.0559999999999
 20
1051.643759999999
 30
0.0
 11
176.154
 21
1051.00979
 31
0.0
  0
LINE
  5
37
330
1E
100
AcDbEntity
  8
0
100
AcDbLine
 10
176.154
 20
1051.00979
 30
0.0
 11
177.1371528896229
 21
1051.58002094131
 31
0.0
  0
LINE
  5
39
330
1E
100
AcDbEntity
  8
0
100
AcDbLine
 10
176.0559999999999
 20
1050.61
 30
0.0
 11
177.0079999999999
 21
1051.16
 31
0.0
  0
LINE
  5
3A
330
1E
100
AcDbEntity
  8
0
100
AcDbLine
 10
175.7089999999999
 20
1050.41
 30
0.0
 11
176.0559999999999
 21
1050.61
 31
0.0
  0
LINE
  5
3B
330
1E
100
AcDbEntity
  8
0
100
AcDbLine
 10
175.7089999999999
 20
1050.41
 30
0.0
 11
178.8541150306869
 21
1045.54152633755
 31
0.0
  0
LINE
  5
3C
330
1E
100
AcDbEntity
  8
0
100
AcDbLine
 10
177.1371528896229
 20
1051.58002094131
 30
0.0
 11
180.5189999999999
 21
1053.5703
 31
0.0
  0
LINE
  5
3E
330
1E
100
AcDbEntity
  8
0
100
AcDbLine
 10
177.0079999999999
 20
1051.16
 30
0.0
 11
178.654
 21
1052.109999999999
 31
0.0
  0
LINE
  5
40
330
1E
100
AcDbEntity
  8
0
100
AcDbLine
 10
178.654
 20
1052.109999999999
 30
0.0
 11
180.7319999999999
 21
1053.309999999999
 31
0.0
  0
LINE
  5
41
330
1E
100
AcDbEntity
  8
0
100
AcDbLine
 10
179.0999999999999
 20
1050.039999999999
 30
0.0
 11
180.539
 21
1052.54
 31
0.0
  0
LINE
  5
44
330
1E
100
AcDbEntity
  8
0
100
AcDbLine
 10
180.5189999999999
 20
1053.5703
 30
0.0
 11
181.44815226641
 21
1054.112075794
 31
0.0
  0
LINE
  5
45
330
1E
100
AcDbEntity
  8
0
100
AcDbLine
 10
170.2479999999999
 20
1053.38036
 30
0.0
 11
173.0559999999999
 21
1051.643759999999
 31
0.0
  0
LINE
  5
46
330
1E
100
AcDbEntity
  8
0
100
AcDbLine
 10
180.7319999999999
 20
1053.309999999999
 30
0.0
 11
181.1107894997449
 21
1053.52871934331
 31
0.0
  0
LINE
  5
47
330
1E
100
AcDbEntity
  8
0
100
AcDbLine
 10
180.539
 20
1052.54
 30
0.0
 11
181.979
 21
1055.03
 31
0.0
  0
LINE
  5
48
330
1E
100
AcDbEntity
  8
0
100
AcDbLine
 10
181.979
 20
1055.03
 30
0.0
 11
185.269
 21
1057.33
 31
0.0
  0
LINE
  5
49
330
1E
100
AcDbEntity
  8
0
100
AcDbLine
 10
181.979
 20
1055.03
 30
0.0
 11
183.476859885749
 21
1056.07713609034
 31
0.0
  0
LINE
  5
4A
330
1E
100
AcDbEntity
  8
0
100
AcDbLine
 10
181.1107894997449
 20
1053.52871934331
 30
0.0
 11
181.416286013054
 21
1054.05697373091
 31
0.0
  0
LINE
  5
4B
330
1E
100
AcDbEntity
  8
0
100
AcDbLine
 10
180.979
 20
1048.9
 30
0.0
 11
182.4759999999999
 21
1052.499999999999
 31
0.0
  0
LINE
  5
4C
330
1E
100
AcDbEntity
  8
0
100
AcDbLine
 10
186.03
 20
1032.04
 30
0.0
 11
187.9880878979099
 21
1031.40261380058
 31
0.0
  0
LINE
  5
4D
330
1E
100
AcDbEntity
  8
0
100
AcDbLine
 10
186.03
 20
1032.04
 30
0.0
 11
190.2079999999999
 21
1030.68
 31
0.0
  0
LINE
  5
4E
330
1E
100
AcDbEntity
  8
0
100
AcDbLine
 10
182.7599999999999
 20
1034.98
 30
0.0
 11
186.03
 21
1032.04
 31
0.0
  0
LINE
  5
4F
330
1E
100
AcDbEntity
  8
0
100
AcDbLine
 10
184.8709999999999
 20
1034.4
 30
0.0
 11
187.964
 21
1032.0
 31
0.0
  0
LINE
  5
50
330
1E
100
AcDbEntity
  8
0
100
AcDbLine
 10
182.4759999999999
 20
1052.499999999999
 30
0.0
 11
184.8709999999999
 21
1055.599999999999
 31
0.0
  0
LINE
  5
51
330
1E
100
AcDbEntity
  8
0
100
AcDbLine
 10
185.269
 20
1057.33
 30
0.0
 11
191.0059999999999
 21
1059.26
 31
0.0
  0
LINE
  5
52
330
1E
100
AcDbEntity
  8
0
100
AcDbLine
 10
184.8709999999999
 20
1055.599999999999
 30
0.0
 11
187.964
 21
1058.0
 31
0.0
  0
LINE
  5
53
330
1E
100
AcDbEntity
  8
0
100
AcDbLine
 10
187.964
 20
1058.0
 30
0.0
 11
191.5559999999999
 21
1059.5
 31
0.0
  0
LINE
  5
54
330
1E
100
AcDbEntity
  8
0
100
AcDbLine
 10
187.964
 20
1032.0
 30
0.0
 11
215.503
 21
1022.299999999999
 31
0.0
  0
LINE
  5
55
330
1E
100
AcDbEntity
  8
0
100
AcDbLine
 10
188.409
 20
210.0
 30
0.0
 11
206.409
 21
210.0
 31
0.0
  0
LINE
  5
56
330
1E
100
AcDbEntity
  8
0
100
AcDbLine
 10
188.409
 20
150.0
 30
0.0
 11
206.409
 21
150.0
 31
0.0
  0
LINE
  5
57
330
1E
100
AcDbEntity
  8
0
100
AcDbLine
 10
189.154878880188
 20
1058.637259236319
 30
0.0
 11
191.0059999999999
 21
1059.26
 31
0.0
  0
LINE
  5
58
330
1E
100
AcDbEntity
  8
0
100
AcDbLine
 10
192.0079999999999
 20
1025.18
 30
0.0
 11
192.354
 21
1025.38
 31
0.0
  0
LINE
  5
59
330
1E
100
AcDbEntity
  8
0
100
AcDbLine
 10
192.354
 20
1025.38
 30
0.0
 11
193.134
 21
1025.83
 31
0.0
  0
LINE
  5
5A
330
1E
100
AcDbEntity
  8
0
100
AcDbLine
 10
193.319514563315
 20
1025.937079113019
 30
0.0
 11
202.692
 21
1003.69
 31
0.0
  0
LINE
  5
5D
330
1E
100
AcDbEntity
  8
0
100
AcDbLine
 10
193.134
 20
1025.83
 30
0.0
 11
194.5199999999999
 21
1026.63
 31
0.0
  0
LINE
  5
5E
330
1E
100
AcDbEntity
  8
0
100
AcDbLine
 10
194.5199999999999
 20
1026.63
 30
0.0
 11
196.3379999999999
 21
1027.68
 31
0.0
  0
LINE
  5
5F
330
1E
100
AcDbEntity
  8
0
100
AcDbLine
 10
196.3379999999999
 20
1027.68
 30
0.0
 11
197.938321825265
 21
1028.60370668125
 31
0.0
  0
LINE
  5
60
330
1E
100
AcDbEntity
  8
0
100
AcDbLine
 10
190.2079999999999
 20
1030.68
 30
0.0
 11
191.934552997293
 21
1030.718400665469
 31
0.0
  0
LINE
  5
62
330
1E
100
AcDbEntity
  8
0
100
AcDbLine
 10
189.5964937966579
 20
1058.78582412891
 30
0.0
 11
190.878841847287
 21
1059.21722237498
 31
0.0
  0
LINE
  5
63
330
1E
100
AcDbEntity
  8
0
100
AcDbLine
 10
189.5964937966579
 20
1058.78582412891
 30
0.0
 11
190.9159999999999
 21
1059.57696
 31
0.0
  0
LINE
  5
66
330
1E
100
AcDbEntity
  8
0
100
AcDbLine
 10
190.9159999999999
 20
1059.57696
 30
0.0
 11
193.1409999999999
 21
1060.8322
 31
0.0
  0
LINE
  5
67
330
1E
100
AcDbEntity
  8
0
100
AcDbLine
 10
191.0391951582619
 20
1059.26073830121
 30
0.0
 11
192.6829999999999
 21
1060.21
 31
0.0
  0
LINE
  5
68
330
1E
100
AcDbEntity
  8
0
100
AcDbLine
 10
191.1858440087149
 20
1059.345424836599
 30
0.0
 11
192.6829999999999
 21
1060.21
 31
0.0
  0
LINE
  5
6A
330
1E
100
AcDbEntity
  8
0
100
AcDbLine
 10
191.5559999999999
 20
1059.5
 30
0.0
 11
195.447
 21
1060.0
 31
0.0
  0
LINE
  5
6B
330
1E
100
AcDbEntity
  8
0
100
AcDbLine
 10
26.392
 20
1161.104
 30
0.0
 11
26.84
 21
1160.845
 31
0.0
  0
LINE
  5
6C
330
1E
100
AcDbEntity
  8
0
100
AcDbLine
 10
26.392
 20
1161.104
 30
0.0
 11
27.0372320572669
 21
1161.96574565244
 31
0.0
  0
LINE
  5
6D
330
1E
100
AcDbEntity
  8
0
100
AcDbLine
 10
26.392
 20
1161.104
 30
0.0
 11
27.93
 21
1159.932
 31
0.0
  0
LINE
  5
6E
330
1E
100
AcDbEntity
  8
0
100
AcDbLine
 10
26.84
 20
1160.845
 30
0.0
 11
27.5531579430061
 21
1161.797464698509
 31
0.0
  0
LINE
  5
6F
330
1E
100
AcDbEntity
  8
0
100
AcDbLine
 10
26.84
 20
1160.845
 30
0.0
 11
28.378
 21
1159.673
 31
0.0
  0
LINE
  5
70
330
1E
100
AcDbEntity
  8
0
100
AcDbLine
 10
28.378
 20
1159.673
 30
0.0
 11
29.0821666737035
 21
1160.61404411068
 31
0.0
  0
LINE
  5
71
330
1E
100
AcDbEntity
  8
0
100
AcDbLine
 10
27.227307394435
 20
1160.46747186848
 30
0.0
 11
27.93
 21
1159.932
 31
0.0
  0
LINE
  5
72
330
1E
100
AcDbEntity
  8
0
100
AcDbLine
 10
27.93
 20
1159.932
 30
0.0
 11
27.96924138328929
 21
1159.98448575994
 31
0.0
  0
LINE
  5
73
330
1E
100
AcDbEntity
  8
0
100
AcDbLine
 10
27.93
 20
1159.932
 30
0.0
 11
28.378
 21
1159.673
 31
0.0
  0
LINE
  5
74
330
1E
100
AcDbEntity
  8
0
100
AcDbLine
 10
27.159
 20
1160.376999999999
 30
0.0
 11
27.227307394435
 21
1160.46747186848
 31
0.0
  0
LINE
  5
75
330
1E
100
AcDbEntity
  8
0
100
AcDbLine
 10
26.615
 20
1162.831999999999
 30
0.0
 11
27.34290796642639
 21
1163.71564104958
 31
0.0
  0
LINE
  5
76
330
1E
100
AcDbEntity
  8
0
100
AcDbLine
 10
25.561
 20
1163.441
 30
0.0
 11
25.6743810561041
 21
1163.5787476431
 31
0.0
  0
LINE
  5
77
330
1E
100
AcDbEntity
  8
0
100
AcDbLine
 10
25.561
 20
1163.441
 30
0.0
 11
26.615
 21
1162.831999999999
 31
0.0
  0
LINE
  5
78
330
1E
100
AcDbEntity
  8
0
100
AcDbLine
 10
25.563
 20
1161.581999999999
 30
0.0
 11
26.2126660015175
 21
1162.44300963023
 31
0.0
  0
LINE
  5
79
330
1E
100
AcDbEntity
  8
0
100
AcDbLine
 10
25.563
 20
1161.581999999999
 30
0.0
 11
26.20462827385749
 21
1162.432357139709
 31
0.0
  0
LINE
  5
7A
330
1E
100
AcDbEntity
  8
0
100
AcDbLine
 10
25.563
 20
1161.581999999999
 30
0.0
 11
27.159
 21
1160.376999999999
 31
0.0
  0
LINE
  5
7B
330
1E
100
AcDbEntity
  8
0
100
AcDbLine
 10
31.504
 20
1157.869
 30
0.0
 11
32.126541733273
 21
1158.72234802214
 31
0.0
  0
LINE
  5
7C
330
1E
100
AcDbEntity
  8
0
100
AcDbLine
 10
30.638
 20
1158.368999999999
 30
0.0
 11
30.7213271585115
 21
1158.483220560819
 31
0.0
  0
LINE
  5
7D
330
1E
100
AcDbEntity
  8
0
100
AcDbLine
 10
30.638
 20
1158.368999999999
 30
0.0
 11
31.504
 21
1157.869
 31
0.0
  0
LINE
  5
7E
330
1E
100
AcDbEntity
  8
0
100
AcDbLine
 10
29.272
 20
1159.440999999999
 30
0.0
 11
30.138
 21
1158.941
 31
0.0
  0
LINE
  5
7F
330
1E
100
AcDbEntity
  8
0
100
AcDbLine
 10
29.272
 20
1159.440999999999
 30
0.0
 11
29.93176273834929
 21
1160.34460028396
 31
0.0
  0
LINE
  5
80
330
1E
100
AcDbEntity
  8
0
100
AcDbLine
 10
29.272
 20
1159.440999999999
 30
0.0
 11
30.638
 21
1158.368999999999
 31
0.0
  0
LINE
  5
81
330
1E
100
AcDbEntity
  8
0
100
AcDbLine
 10
29.272
 20
1159.440999999999
 30
0.0
 11
29.5584451384159
 21
1159.83331058889
 31
0.0
  0
LINE
  5
82
330
1E
100
AcDbEntity
  8
0
100
AcDbLine
 10
30.138
 20
1158.941
 30
0.0
 11
30.87182197808119
 21
1159.946030610589
 31
0.0
  0
LINE
  5
83
330
1E
100
AcDbEntity
  8
0
100
AcDbLine
 10
30.138
 20
1158.941
 30
0.0
 11
31.504
 21
1157.869
 31
0.0
  0
LINE
  5
84
330
1E
100
AcDbEntity
  8
0
100
AcDbLine
 10
28.8814560079713
 20
1160.345815583269
 30
0.0
 11
29.5584451384159
 21
1159.83331058889
 31
0.0
  0
LINE
  5
85
330
1E
100
AcDbEntity
  8
0
100
AcDbLine
 10
24.42199999999999
 20
1164.573
 30
0.0
 11
25.476
 21
1163.964999999999
 31
0.0
  0
LINE
  5
86
330
1E
100
AcDbEntity
  8
0
100
AcDbLine
 10
24.42199999999999
 20
1164.573
 30
0.0
 11
25.2384264458605
 21
1165.5648836757
 31
0.0
  0
LINE
  5
87
330
1E
100
AcDbEntity
  8
0
100
AcDbLine
 10
24.42199999999999
 20
1164.573
 30
0.0
 11
25.561
 21
1163.441
 31
0.0
  0
LINE
  5
88
330
1E
100
AcDbEntity
  8
0
100
AcDbLine
 10
25.476
 20
1163.964999999999
 30
0.0
 11
26.44870826068769
 21
1165.14598044973
 31
0.0
  0
LINE
  5
89
330
1E
100
AcDbEntity
  8
0
100
AcDbLine
 10
25.476
 20
1163.964999999999
 30
0.0
 11
26.615
 21
1162.831999999999
 31
0.0
  0
LINE
  5
8A
330
1E
100
AcDbEntity
  8
0
100
AcDbLine
 10
24.71099999999999
 20
1163.502999999999
 30
0.0
 11
26.17577276349239
 21
1162.394114608549
 31
0.0
  0
LINE
  5
8B
330
1E
100
AcDbEntity
  8
0
100
AcDbLine
 10
37.576
 20
1152.903499999999
 30
0.0
 11
37.60528081049829
 21
1152.949541550299
 31
0.0
  0
LINE
  5
8C
330
1E
100
AcDbEntity
  8
0
100
AcDbLine
 10
37.576
 20
1152.903499999999
 30
0.0
 11
37.802
 21
1152.773
 31
0.0
  0
LINE
  5
8D
330
1E
100
AcDbEntity
  8
0
100
AcDbLine
 10
39.43599999999999
 20
1151.9298
 30
0.0
 11
39.7754959227431
 21
1152.4734743488
 31
0.0
  0
LINE
  5
8E
330
1E
100
AcDbEntity
  8
0
100
AcDbLine
 10
39.43599999999999
 20
1151.9298
 30
0.0
 11
40.765
 21
1151.061799999999
 31
0.0
  0
LINE
  5
8F
330
1E
100
AcDbEntity
  8
0
100
AcDbLine
 10
39.249
 20
1151.9372
 30
0.0
 11
39.7800313375751
 21
1152.77676600901
 31
0.0
  0
LINE
  5
90
330
1E
100
AcDbEntity
  8
0
100
AcDbLine
 10
38.586
 20
1152.3198
 30
0.0
 11
39.249
 21
1151.9372
 31
0.0
  0
LINE
  5
91
330
1E
100
AcDbEntity
  8
0
100
AcDbLine
 10
35.903
 20
1153.9694
 30
0.0
 11
36.4855985103857
 21
1154.88468721282
 31
0.0
  0
LINE
  5
92
330
1E
100
AcDbEntity
  8
0
100
AcDbLine
 10
35.903
 20
1153.9694
 30
0.0
 11
37.576
 21
1152.903499999999
 31
0.0
  0
LINE
  5
93
330
1E
100
AcDbEntity
  8
0
100
AcDbLine
 10
36.324
 20
1155.0859
 30
0.0
 11
36.9414107185534
 21
1155.96750632874
 31
0.0
  0
LINE
  5
94
330
1E
100
AcDbEntity
  8
0
100
AcDbLine
 10
35.099
 20
1155.793
 30
0.0
 11
35.16933146406449
 21
1155.89342077809
 31
0.0
  0
LINE
  5
95
330
1E
100
AcDbEntity
  8
0
100
AcDbLine
 10
35.099
 20
1155.793
 30
0.0
 11
36.324
 21
1155.0859
 31
0.0
  0
LINE
  5
96
330
1E
100
AcDbEntity
  8
0
100
AcDbLine
 10
34.006
 20
1156.706999999999
 30
0.0
 11
35.231
 21
1156.0
 31
0.0
  0
LINE
  5
97
330
1E
100
AcDbEntity
  8
0
100
AcDbLine
 10
34.006
 20
1156.706999999999
 30
0.0
 11
34.66261898180199
 21
1157.645109183969
 31
0.0
  0
LINE
  5
98
330
1E
100
AcDbEntity
  8
0
100
AcDbLine
 10
34.006
 20
1156.706999999999
 30
0.0
 11
35.099
 21
1155.793
 31
0.0
  0
LINE
  5
99
330
1E
100
AcDbEntity
  8
0
100
AcDbLine
 10
35.231
 20
1156.0
 30
0.0
 11
35.94382216944329
 21
1157.01778283511
 31
0.0
  0
LINE
  5
9A
330
1E
100
AcDbEntity
  8
0
100
AcDbLine
 10
35.231
 20
1156.0
 30
0.0
 11
36.324
 21
1155.0859
 31
0.0
  0
LINE
  5
9B
330
1E
100
AcDbEntity
  8
0
100
AcDbLine
 10
37.031
 20
1153.3183
 30
0.0
 11
37.694
 21
1152.935599999999
 31
0.0
  0
LINE
  5
9C
330
1E
100
AcDbEntity
  8
0
100
AcDbLine
 10
37.031
 20
1153.3183
 30
0.0
 11
37.6242676558472
 21
1154.256262268609
 31
0.0
  0
LINE
  5
9D
330
1E
100
AcDbEntity
  8
0
100
AcDbLine
 10
37.031
 20
1153.3183
 30
0.0
 11
38.586
 21
1152.3198
 31
0.0
  0
LINE
  5
9E
330
1E
100
AcDbEntity
  8
0
100
AcDbLine
 10
37.694
 20
1152.935599999999
 30
0.0
 11
38.2892649888452
 21
1153.876775756919
 31
0.0
  0
LINE
  5
9F
330
1E
100
AcDbEntity
  8
0
100
AcDbLine
 10
37.694
 20
1152.935599999999
 30
0.0
 11
39.249
 21
1151.9372
 31
0.0
  0
LINE
  5
A0
330
1E
100
AcDbEntity
  8
0
100
AcDbLine
 10
48.663
 20
1145.3424
 30
0.0
 11
49.80883492874829
 21
1146.12547059541
 31
0.0
  0
LINE
  5
A1
330
1E
100
AcDbEntity
  8
0
100
AcDbLine
 10
47.555
 20
1145.9825
 30
0.0
 11
47.998
 21
1145.7266
 31
0.0
  0
LINE
  5
A2
330
1E
100
AcDbEntity
  8
0
100
AcDbLine
 10
47.998
 20
1145.7266
 30
0.0
 11
48.365
 21
1145.5144
 31
0.0
  0
LINE
  5
A3
330
1E
100
AcDbEntity
  8
0
100
AcDbLine
 10
48.365
 20
1145.5144
 30
0.0
 11
48.58699999999999
 21
1145.3866
 31
0.0
  0
LINE
  5
A4
330
1E
100
AcDbEntity
  8
0
100
AcDbLine
 10
48.58699999999999
 20
1145.3866
 30
0.0
 11
48.663
 21
1145.3424
 31
0.0
  0
LINE
  5
A5
330
1E
100
AcDbEntity
  8
0
100
AcDbLine
 10
50.466
 20
1144.8791
 30
0.0
 11
50.965
 21
1144.591
 31
0.0
  0
LINE
  5
A6
330
1E
100
AcDbEntity
  8
0
100
AcDbLine
 10
50.27899999999999
 20
1144.987
 30
0.0
 11
50.466
 21
1144.8791
 31
0.0
  0
LINE
  5
A7
330
1E
100
AcDbEntity
  8
0
100
AcDbLine
 10
50.27899999999999
 20
1144.987
 30
0.0
 11
50.65441680652799
 21
1145.63725945059
 31
0.0
  0
LINE
  5
A8
330
1E
100
AcDbEntity
  8
0
100
AcDbLine
 10
50.965
 20
1144.591
 30
0.0
 11
51.796
 21
1144.111
 31
0.0
  0
LINE
  5
A9
330
1E
100
AcDbEntity
  8
0
100
AcDbLine
 10
52.494
 20
1144.2905
 30
0.0
 11
54.211
 21
1143.299
 31
0.0
  0
LINE
  5
AA
330
1E
100
AcDbEntity
  8
0
100
AcDbLine
 10
52.494
 20
1144.2905
 30
0.0
 11
52.537823313175
 21
1144.36540789716
 31
0.0
  0
LINE
  5
AB
330
1E
100
AcDbEntity
  8
0
100
AcDbLine
 10
54.02899999999999
 20
1143.504899999999
 30
0.0
 11
54.6083154679749
 21
1144.495133288019
 31
0.0
  0
LINE
  5
AC
330
1E
100
AcDbEntity
  8
0
100
AcDbLine
 10
54.02899999999999
 20
1143.504899999999
 30
0.0
 11
54.211
 21
1143.299
 31
0.0
  0
LINE
  5
AD
330
1E
100
AcDbEntity
  8
0
100
AcDbLine
 10
52.31100000000001
 20
1144.496299999999
 30
0.0
 11
52.78230787730679
 21
1145.301914168469
 31
0.0
  0
LINE
  5
AE
330
1E
100
AcDbEntity
  8
0
100
AcDbLine
 10
52.31100000000001
 20
1144.496299999999
 30
0.0
 11
54.02899999999999
 21
1143.504899999999
 31
0.0
  0
LINE
  5
AF
330
1E
100
AcDbEntity
  8
0
100
AcDbLine
 10
52.31100000000001
 20
1144.496299999999
 30
0.0
 11
52.494
 21
1144.2905
 31
0.0
  0
LINE
  5
B0
330
1E
100
AcDbEntity
  8
0
100
AcDbLine
 10
51.796
 20
1144.111
 30
0.0
 11
52.898
 21
1143.4751
 31
0.0
  0
LINE
  5
B1
330
1E
100
AcDbEntity
  8
0
100
AcDbLine
 10
52.898
 20
1143.4751
 30
0.0
 11
54.145
 21
1142.7551
 31
0.0
  0
LINE
  5
B2
330
1E
100
AcDbEntity
  8
0
100
AcDbLine
 10
54.211
 20
1143.299
 30
0.0
 11
54.802380798963
 21
1144.309915363779
 31
0.0
  0
LINE
  5
B3
330
1E
100
AcDbEntity
  8
0
100
AcDbLine
 10
54.145
 20
1142.7551
 30
0.0
 11
55.475
 21
1141.987
 31
0.0
  0
LINE
  5
B4
330
1E
100
AcDbEntity
  8
0
100
AcDbLine
 10
44.895
 20
1147.518299999999
 30
0.0
 11
45.338
 21
1147.2624
 31
0.0
  0
LINE
  5
B5
330
1E
100
AcDbEntity
  8
0
100
AcDbLine
 10
45.858
 20
1146.962199999999
 30
0.0
 11
46.44699999999999
 21
1146.622299999999
 31
0.0
  0
LINE
  5
B6
330
1E
100
AcDbEntity
  8
0
100
AcDbLine
 10
45.338
 20
1147.2624
 30
0.0
 11
45.858
 21
1146.962199999999
 31
0.0
  0
LINE
  5
B7
330
1E
100
AcDbEntity
  8
0
100
AcDbLine
 10
44.527
 20
1147.7306
 30
0.0
 11
44.895
 21
1147.518299999999
 31
0.0
  0
LINE
  5
B8
330
1E
100
AcDbEntity
  8
0
100
AcDbLine
 10
44.306
 20
1147.858299999999
 30
0.0
 11
44.527
 21
1147.7306
 31
0.0
  0
LINE
  5
B9
330
1E
100
AcDbEntity
  8
0
100
AcDbLine
 10
43.96399999999999
 20
1149.214999999999
 30
0.0
 11
44.0095113675792
 21
1149.28920748251
 31
0.0
  0
LINE
  5
BA
330
1E
100
AcDbEntity
  8
0
100
AcDbLine
 10
43.96399999999999
 20
1149.214999999999
 30
0.0
 11
45.338
 21
1148.4217
 31
0.0
  0
LINE
  5
BB
330
1E
100
AcDbEntity
  8
0
100
AcDbLine
 10
41.82
 20
1150.453
 30
0.0
 11
42.12749467329929
 21
1150.945427022139
 31
0.0
  0
LINE
  5
BC
330
1E
100
AcDbEntity
  8
0
100
AcDbLine
 10
40.765
 20
1151.061799999999
 30
0.0
 11
41.10654252138899
 21
1151.60871955408
 31
0.0
  0
LINE
  5
BD
330
1E
100
AcDbEntity
  8
0
100
AcDbLine
 10
40.765
 20
1151.061799999999
 30
0.0
 11
41.82
 21
1150.453
 31
0.0
  0
LINE
  5
BE
330
1E
100
AcDbEntity
  8
0
100
AcDbLine
 10
42.50899999999999
 20
1151.514799999999
 30
0.0
 11
43.1185969750899
 21
1152.4342430809
 31
0.0
  0
LINE
  5
BF
330
1E
100
AcDbEntity
  8
0
100
AcDbLine
 10
41.00899999999999
 20
1152.3809
 30
0.0
 11
42.50899999999999
 21
1151.514799999999
 31
0.0
  0
LINE
  5
C0
330
1E
100
AcDbEntity
  8
0
100
AcDbLine
 10
41.00899999999999
 20
1152.3809
 30
0.0
 11
41.09488599972149
 21
1152.510432342619
 31
0.0
  0
LINE
  5
C1
330
1E
100
AcDbEntity
  8
0
100
AcDbLine
 10
41.772
 20
1152.2237
 30
0.0
 11
42.4573264046352
 21
1153.25736428419
 31
0.0
  0
LINE
  5
C2
330
1E
100
AcDbEntity
  8
0
100
AcDbLine
 10
41.772
 20
1152.2237
 30
0.0
 11
42.50899999999999
 21
1151.514799999999
 31
0.0
  0
LINE
  5
C3
330
1E
100
AcDbEntity
  8
0
100
AcDbLine
 10
40.27199999999999
 20
1153.0898
 30
0.0
 11
41.772
 21
1152.2237
 31
0.0
  0
LINE
  5
C4
330
1E
100
AcDbEntity
  8
0
100
AcDbLine
 10
40.27199999999999
 20
1153.0898
 30
0.0
 11
40.9574187180621
 21
1154.12354115122
 31
0.0
  0
LINE
  5
C5
330
1E
100
AcDbEntity
  8
0
100
AcDbLine
 10
40.27199999999999
 20
1153.0898
 30
0.0
 11
41.00899999999999
 21
1152.3809
 31
0.0
  0
LINE
  5
C6
330
1E
100
AcDbEntity
  8
0
100
AcDbLine
 10
41.43699999999999
 20
1154.2745
 30
0.0
 11
43.038
 21
1153.3506
 31
0.0
  0
LINE
  5
C7
330
1E
100
AcDbEntity
  8
0
100
AcDbLine
 10
43.038
 20
1153.3506
 30
0.0
 11
43.681066347561
 21
1154.282844344569
 31
0.0
  0
LINE
  5
C8
330
1E
100
AcDbEntity
  8
0
100
AcDbLine
 10
42.595
 20
1154.0813
 30
0.0
 11
43.00381435328429
 21
1154.673915819919
 31
0.0
  0
LINE
  5
C9
330
1E
100
AcDbEntity
  8
0
100
AcDbLine
 10
42.595
 20
1154.0813
 30
0.0
 11
43.038
 21
1153.3506
 31
0.0
  0
LINE
  5
CA
330
1E
100
AcDbEntity
  8
0
100
AcDbLine
 10
42.95399999999999
 20
1149.8987
 30
0.0
 11
44.328
 21
1149.105299999999
 31
0.0
  0
LINE
  5
CB
330
1E
100
AcDbEntity
  8
0
100
AcDbLine
 10
42.95399999999999
 20
1149.8987
 30
0.0
 11
43.5486972532034
 21
1150.868312612449
 31
0.0
  0
LINE
  5
CC
330
1E
100
AcDbEntity
  8
0
100
AcDbLine
 10
42.95399999999999
 20
1149.8987
 30
0.0
 11
43.96399999999999
 21
1149.214999999999
 31
0.0
  0
LINE
  5
CD
330
1E
100
AcDbEntity
  8
0
100
AcDbLine
 10
45.338
 20
1148.4217
 30
0.0
 11
45.8674120917849
 21
1149.28492034755
 31
0.0
  0
LINE
  5
CE
330
1E
100
AcDbEntity
  8
0
100
AcDbLine
 10
44.328
 20
1149.105299999999
 30
0.0
 11
44.88620183700199
 21
1150.01546278475
 31
0.0
  0
LINE
  5
CF
330
1E
100
AcDbEntity
  8
0
100
AcDbLine
 10
44.328
 20
1149.105299999999
 30
0.0
 11
45.338
 21
1148.4217
 31
0.0
  0
LINE
  5
D0
330
1E
100
AcDbEntity
  8
0
100
AcDbLine
 10
44.229
 20
1147.902599999999
 30
0.0
 11
44.3136844475109
 21
1149.013104314259
 31
0.0
  0
LINE
  5
D1
330
1E
100
AcDbEntity
  8
0
100
AcDbLine
 10
44.229
 20
1147.902599999999
 30
0.0
 11
44.306
 21
1147.858299999999
 31
0.0
  0
LINE
  5
D2
330
1E
100
AcDbEntity
  8
0
100
AcDbLine
 10
49.638
 20
1147.3988
 30
0.0
 11
50.2362397202563
 21
1148.36192028246
 31
0.0
  0
LINE
  5
D3
330
1E
100
AcDbEntity
  8
0
100
AcDbLine
 10
47.965
 20
1148.3648
 30
0.0
 11
49.638
 21
1147.3988
 31
0.0
  0
LINE
  5
D4
330
1E
100
AcDbEntity
  8
0
100
AcDbLine
 10
47.965
 20
1148.3648
 30
0.0
 11
48.067089636529
 21
1148.52914678033
 31
0.0
  0
LINE
  5
D5
330
1E
100
AcDbEntity
  8
0
100
AcDbLine
 10
49.316
 20
1147.8684
 30
0.0
 11
49.9687242986371
 21
1148.92017761627
 31
0.0
  0
LINE
  5
D6
330
1E
100
AcDbEntity
  8
0
100
AcDbLine
 10
49.316
 20
1147.8684
 30
0.0
 11
49.638
 21
1147.3988
 31
0.0
  0
LINE
  5
D7
330
1E
100
AcDbEntity
  8
0
100
AcDbLine
 10
47.643
 20
1148.8343
 30
0.0
 11
49.316
 21
1147.8684
 31
0.0
  0
LINE
  5
D8
330
1E
100
AcDbEntity
  8
0
100
AcDbLine
 10
47.643
 20
1148.8343
 30
0.0
 11
48.29572937840279
 21
1149.88614814445
 31
0.0
  0
LINE
  5
D9
330
1E
100
AcDbEntity
  8
0
100
AcDbLine
 10
47.643
 20
1148.8343
 30
0.0
 11
47.965
 21
1148.3648
 31
0.0
  0
LINE
  5
DA
330
1E
100
AcDbEntity
  8
0
100
AcDbLine
 10
46.58699999999999
 20
1154.2729
 30
0.0
 11
47.33454130191929
 21
1155.35752196619
 31
0.0
  0
LINE
  5
DB
330
1E
100
AcDbEntity
  8
0
100
AcDbLine
 10
53.012
 20
1147.591899999999
 30
0.0
 11
53.60305024920879
 21
1148.55384148852
 31
0.0
  0
LINE
  5
DC
330
1E
100
AcDbEntity
  8
0
100
AcDbLine
 10
51.295
 20
1148.5834
 30
0.0
 11
53.012
 21
1147.591899999999
 31
0.0
  0
LINE
  5
DD
330
1E
100
AcDbEntity
  8
0
100
AcDbLine
 10
52.996
 20
1148.0758
 30
0.0
 11
53.3720474831633
 21
1148.68722535225
 31
0.0
  0
LINE
  5
DE
330
1E
100
AcDbEntity
  8
0
100
AcDbLine
 10
52.996
 20
1148.0758
 30
0.0
 11
53.012
 21
1147.591899999999
 31
0.0
  0
LINE
  5
DF
330
1E
100
AcDbEntity
  8
0
100
AcDbLine
 10
51.279
 20
1149.067199999999
 30
0.0
 11
52.996
 21
1148.0758
 31
0.0
  0
LINE
  5
E0
330
1E
100
AcDbEntity
  8
0
100
AcDbLine
 10
51.279
 20
1149.067199999999
 30
0.0
 11
51.8007911864633
 21
1149.91642151928
 31
0.0
  0
LINE
  5
E1
330
1E
100
AcDbEntity
  8
0
100
AcDbLine
 10
51.279
 20
1149.067199999999
 30
0.0
 11
51.295
 21
1148.5834
 31
0.0
  0
LINE
  5
E2
330
1E
100
AcDbEntity
  8
0
100
AcDbLine
 10
47.035
 20
1146.282299999999
 30
0.0
 11
47.555
 21
1145.9825
 31
0.0
  0
LINE
  5
E3
330
1E
100
AcDbEntity
  8
0
100
AcDbLine
 10
46.44699999999999
 20
1146.622299999999
 30
0.0
 11
47.035
 21
1146.282299999999
 31
0.0
  0
LINE
  5
E4
330
1E
100
AcDbEntity
  8
0
100
AcDbLine
 10
44.91399999999999
 20
1155.2388
 30
0.0
 11
46.58699999999999
 21
1154.2729
 31
0.0
  0
LINE
  5
E5
330
1E
100
AcDbEntity
  8
0
100
AcDbLine
 10
46.45399999999999
 20
1155.0312
 30
0.0
 11
47.0030397528165
 21
1155.82864614696
 31
0.0
  0
LINE
  5
E6
330
1E
100
AcDbEntity
  8
0
100
AcDbLine
 10
46.45399999999999
 20
1155.0312
 30
0.0
 11
46.58699999999999
 21
1154.2729
 31
0.0
  0
LINE
  5
E7
330
1E
100
AcDbEntity
  8
0
100
AcDbLine
 10
44.78
 20
1155.9971
 30
0.0
 11
46.45399999999999
 21
1155.0312
 31
0.0
  0
LINE
  5
E8
330
1E
100
AcDbEntity
  8
0
100
AcDbLine
 10
44.78
 20
1155.9971
 30
0.0
 11
45.3296762938197
 21
1156.79478740838
 31
0.0
  0
LINE
  5
E9
330
1E
100
AcDbEntity
  8
0
100
AcDbLine
 10
44.78
 20
1155.9971
 30
0.0
 11
44.91399999999999
 21
1155.2388
 31
0.0
  0
LINE
  5
EA
330
1E
100
AcDbEntity
  8
0
100
AcDbLine
 10
40.994
 20
1155.0052
 30
0.0
 11
42.595
 21
1154.0813
 31
0.0
  0
LINE
  5
EB
330
1E
100
AcDbEntity
  8
0
100
AcDbLine
 10
40.994
 20
1155.0052
 30
0.0
 11
41.5735256664439
 21
1155.84553820404
 31
0.0
  0
LINE
  5
EC
330
1E
100
AcDbEntity
  8
0
100
AcDbLine
 10
40.994
 20
1155.0052
 30
0.0
 11
41.43699999999999
 21
1154.2745
 31
0.0
  0
LINE
  5
ED
330
1E
100
AcDbEntity
  8
0
100
AcDbLine
 10
52.88899999999999
 20
1154.508
 30
0.0
 11
60.25
 21
1150.258
 31
0.0
  0
LINE
  5
EE
330
1E
100
AcDbEntity
  8
0
100
AcDbLine
 10
53.38899999999999
 20
1155.375
 30
0.0
 11
60.75
 21
1151.125
 31
0.0
  0
LINE
  5
EF
330
1E
100
AcDbEntity
  8
0
100
AcDbLine
 10
49.6578318918186
 20
1146.14982197072
 30
0.0
 11
50.7385809305601
 21
1145.49601133116
 31
0.0
  0
LINE
  5
F0
330
1E
100
AcDbEntity
  8
0
100
AcDbLine
 10
39.6373131567856
 20
1152.551127096619
 30
0.0
 11
43.17350728978449
 21
1150.256591407019
 31
0.0
  0
LINE
  5
F1
330
1E
100
AcDbEntity
  8
0
100
AcDbLine
 10
32.66
 20
1159.341999999999
 30
0.0
 11
32.8009530880596
 21
1159.527030391519
 31
0.0
  0
LINE
  5
F2
330
1E
100
AcDbEntity
  8
0
100
AcDbLine
 10
32.66
 20
1159.341999999999
 30
0.0
 11
34.03399999999999
 21
1158.549
 31
0.0
  0
LINE
  5
F3
330
1E
100
AcDbEntity
  8
0
100
AcDbLine
 10
33.052
 20
1162.088
 30
0.0
 11
34.552
 21
1161.221
 31
0.0
  0
LINE
  5
F4
330
1E
100
AcDbEntity
  8
0
100
AcDbLine
 10
31.834
 20
1160.293999999999
 30
0.0
 11
33.208
 21
1159.501
 31
0.0
  0
LINE
  5
F5
330
1E
100
AcDbEntity
  8
0
100
AcDbLine
 10
31.834
 20
1160.293999999999
 30
0.0
 11
32.6760128558509
 21
1161.400242831539
 31
0.0
  0
LINE
  5
F6
330
1E
100
AcDbEntity
  8
0
100
AcDbLine
 10
31.834
 20
1160.293999999999
 30
0.0
 11
32.66
 21
1159.341999999999
 31
0.0
  0
LINE
  5
F7
330
1E
100
AcDbEntity
  8
0
100
AcDbLine
 10
34.552
 20
1161.221
 30
0.0
 11
35.35715419883939
 21
1162.22361976206
 31
0.0
  0
LINE
  5
F8
330
1E
100
AcDbEntity
  8
0
100
AcDbLine
 10
34.01899999999999
 20
1162.21
 30
0.0
 11
34.6308177899852
 21
1162.971867239719
 31
0.0
  0
LINE
  5
F9
330
1E
100
AcDbEntity
  8
0
100
AcDbLine
 10
34.01899999999999
 20
1162.21
 30
0.0
 11
34.552
 21
1161.221
 31
0.0
  0
LINE
  5
FA
330
1E
100
AcDbEntity
  8
0
100
AcDbLine
 10
34.03399999999999
 20
1158.549
 30
0.0
 11
34.7237567495224
 21
1159.454449913669
 31
0.0
  0
LINE
  5
FB
330
1E
100
AcDbEntity
  8
0
100
AcDbLine
 10
33.208
 20
1159.501
 30
0.0
 11
34.2065959418994
 21
1160.812962869269
 31
0.0
  0
LINE
  5
FC
330
1E
100
AcDbEntity
  8
0
100
AcDbLine
 10
33.208
 20
1159.501
 30
0.0
 11
34.03399999999999
 21
1158.549
 31
0.0
  0
LINE
  5
FD
330
1E
100
AcDbEntity
  8
0
100
AcDbLine
 10
32.519
 20
1163.075999999999
 30
0.0
 11
34.01899999999999
 21
1162.21
 31
0.0
  0
LINE
  5
FE
330
1E
100
AcDbEntity
  8
0
100
AcDbLine
 10
32.519
 20
1163.075999999999
 30
0.0
 11
33.13081657064769
 21
1163.83786572133
 31
0.0
  0
LINE
  5
FF
330
1E
100
AcDbEntity
  8
0
100
AcDbLine
 10
32.519
 20
1163.075999999999
 30
0.0
 11
33.052
 21
1162.088
 31
0.0
  0
LINE
  5
100
330
1E
100
AcDbEntity
  8
0
100
AcDbLine
 10
38.773
 20
1162.658999999999
 30
0.0
 11
45.701
 21
1158.658999999999
 31
0.0
  0
LINE
  5
101
330
1E
100
AcDbEntity
  8
0
100
AcDbLine
 10
45.701
 20
1158.658999999999
 30
0.0
 11
52.88899999999999
 21
1154.508
 31
0.0
  0
LINE
  5
102
330
1E
100
AcDbEntity
  8
0
100
AcDbLine
 10
39.273
 20
1163.525
 30
0.0
 11
46.20099999999999
 21
1159.525
 31
0.0
  0
LINE
  5
103
330
1E
100
AcDbEntity
  8
0
100
AcDbLine
 10
46.20099999999999
 20
1159.525
 30
0.0
 11
53.38899999999999
 21
1155.375
 31
0.0
  0
LINE
  5
104
330
1E
100
AcDbEntity
  8
0
100
AcDbLine
 10
31.78199999999999
 20
1158.15
 30
0.0
 11
37.4992661903184
 21
1154.05863366535
 31
0.0
  0
LINE
  5
105
330
1E
100
AcDbEntity
  8
0
100
AcDbLine
 10
31.7349707792318
 20
1158.18560280282
 30
0.0
 11
31.78199999999999
 21
1158.15
 31
0.0
  0
LINE
  5
106
330
1E
100
AcDbEntity
  8
0
100
AcDbLine
 10
21.28699999999999
 20
1165.908
 30
0.0
 11
22.0409943438576
 21
1166.77679531894
 31
0.0
  0
LINE
  5
107
330
1E
100
AcDbEntity
  8
0
100
AcDbLine
 10
21.28699999999999
 20
1165.908
 30
0.0
 11
21.5395772481711
 21
1166.19903392176
 31
0.0
  0
LINE
  5
108
330
1E
100
AcDbEntity
  8
0
100
AcDbLine
 10
18.41099999999999
 20
1167.569
 30
0.0
 11
19.1791886291654
 21
1168.42888682139
 31
0.0
  0
LINE
  5
109
330
1E
100
AcDbEntity
  8
0
100
AcDbLine
 10
18.185
 20
1167.698999999999
 30
0.0
 11
18.2213097443318
 21
1167.73964401561
 31
0.0
  0
LINE
  5
10A
330
1E
100
AcDbEntity
  8
0
100
AcDbLine
 10
18.185
 20
1167.698999999999
 30
0.0
 11
18.41099999999999
 21
1167.569
 31
0.0
  0
LINE
  5
10B
330
1E
100
AcDbEntity
  8
0
100
AcDbLine
 10
16.101
 20
1171.874
 30
0.0
 11
16.9709032519043
 21
1172.74514774869
 31
0.0
  0
LINE
  5
10C
330
1E
100
AcDbEntity
  8
0
100
AcDbLine
 10
16.71
 20
1169.025
 30
0.0
 11
16.937
 21
1168.895
 31
0.0
  0
LINE
  5
10D
330
1E
100
AcDbEntity
  8
0
100
AcDbLine
 10
16.71
 20
1169.025
 30
0.0
 11
17.4768511258762
 21
1169.883965375229
 31
0.0
  0
LINE
  5
10E
330
1E
100
AcDbEntity
  8
0
100
AcDbLine
 10
16.71
 20
1169.025
 30
0.0
 11
18.185
 21
1167.698999999999
 31
0.0
  0
LINE
  5
10F
330
1E
100
AcDbEntity
  8
0
100
AcDbLine
 10
16.937
 20
1168.895
 30
0.0
 11
17.7788207334867
 21
1169.83801631377
 31
0.0
  0
LINE
  5
110
330
1E
100
AcDbEntity
  8
0
100
AcDbLine
 10
16.937
 20
1168.895
 30
0.0
 11
18.41099999999999
 21
1167.569
 31
0.0
  0
LINE
  5
111
330
1E
100
AcDbEntity
  8
0
100
AcDbLine
 10
20.624
 20
1166.291
 30
0.0
 11
20.7032054310843
 21
1166.38213468944
 31
0.0
  0
LINE
  5
112
330
1E
100
AcDbEntity
  8
0
100
AcDbLine
 10
20.624
 20
1166.291
 30
0.0
 11
21.28699999999999
 21
1165.908
 31
0.0
  0
LINE
  5
113
330
1E
100
AcDbEntity
  8
0
100
AcDbLine
 10
24.153
 20
1167.224999999999
 30
0.0
 11
25.00117337446789
 21
1168.15625185989
 31
0.0
  0
LINE
  5
114
330
1E
100
AcDbEntity
  8
0
100
AcDbLine
 10
19.92599999999999
 20
1167.168999999999
 30
0.0
 11
20.84641179703559
 21
1168.22803650959
 31
0.0
  0
LINE
  5
115
330
1E
100
AcDbEntity
  8
0
100
AcDbLine
 10
19.92599999999999
 20
1167.168999999999
 30
0.0
 11
21.28699999999999
 21
1165.908
 31
0.0
  0
LINE
  5
116
330
1E
100
AcDbEntity
  8
0
100
AcDbLine
 10
32.191
 20
1166.458
 30
0.0
 11
38.773
 21
1162.658999999999
 31
0.0
  0
LINE
  5
117
330
1E
100
AcDbEntity
  8
0
100
AcDbLine
 10
22.928
 20
1167.932
 30
0.0
 11
24.153
 21
1167.224999999999
 31
0.0
  0
LINE
  5
118
330
1E
100
AcDbEntity
  8
0
100
AcDbLine
 10
22.053
 20
1169.119
 30
0.0
 11
23.278
 21
1168.412
 31
0.0
  0
LINE
  5
119
330
1E
100
AcDbEntity
  8
0
100
AcDbLine
 10
22.053
 20
1169.119
 30
0.0
 11
22.71836668109399
 21
1169.84953927173
 31
0.0
  0
LINE
  5
11A
330
1E
100
AcDbEntity
  8
0
100
AcDbLine
 10
22.053
 20
1169.119
 30
0.0
 11
22.928
 21
1167.932
 31
0.0
  0
LINE
  5
11B
330
1E
100
AcDbEntity
  8
0
100
AcDbLine
 10
23.278
 20
1168.412
 30
0.0
 11
23.94322548837539
 21
1169.1423842492
 31
0.0
  0
LINE
  5
11C
330
1E
100
AcDbEntity
  8
0
100
AcDbLine
 10
23.278
 20
1168.412
 30
0.0
 11
24.153
 21
1167.224999999999
 31
0.0
  0
LINE
  5
11D
330
1E
100
AcDbEntity
  8
0
100
AcDbLine
 10
19.264
 20
1167.551
 30
0.0
 11
19.92599999999999
 21
1167.168999999999
 31
0.0
  0
LINE
  5
11E
330
1E
100
AcDbEntity
  8
0
100
AcDbLine
 10
19.264
 20
1167.551
 30
0.0
 11
20.06226921303269
 21
1168.470811350289
 31
0.0
  0
LINE
  5
11F
330
1E
100
AcDbEntity
  8
0
100
AcDbLine
 10
19.264
 20
1167.551
 30
0.0
 11
20.624
 21
1166.291
 31
0.0
  0
LINE
  5
120
330
1E
100
AcDbEntity
  8
0
100
AcDbLine
 10
26.043
 20
1170.007999999999
 30
0.0
 11
32.191
 21
1166.458
 31
0.0
  0
LINE
  5
121
330
1E
100
AcDbEntity
  8
0
100
AcDbLine
 10
26.543
 20
1170.875
 30
0.0
 11
32.691
 21
1167.325
 31
0.0
  0
LINE
  5
122
330
1E
100
AcDbEntity
  8
0
100
AcDbLine
 10
32.691
 20
1167.325
 30
0.0
 11
39.273
 21
1163.525
 31
0.0
  0
LINE
  5
123
330
1E
100
AcDbEntity
  8
0
100
AcDbLine
 10
19.0658176194806
 20
1168.30198278577
 30
0.0
 11
19.5549105489956
 21
1167.88620373893
 31
0.0
  0
LINE
  5
124
330
1E
100
AcDbEntity
  8
0
100
AcDbLine
 10
21.5395772481711
 20
1166.19903392176
 30
0.0
 11
24.71099999999999
 21
1163.502999999999
 31
0.0
  0
LINE
  5
125
330
1E
100
AcDbEntity
  8
0
100
AcDbLine
 10
39.248
 20
1169.081
 30
0.0
 11
47.04299999999999
 21
1164.581
 31
0.0
  0
LINE
  5
126
330
1E
100
AcDbEntity
  8
0
100
AcDbLine
 10
47.04299999999999
 20
1164.581
 30
0.0
 11
55.01
 21
1159.980999999999
 31
0.0
  0
LINE
  5
127
330
1E
100
AcDbEntity
  8
0
100
AcDbLine
 10
66.116
 20
1136.4256
 30
0.0
 11
67.48999999999999
 21
1135.632299999999
 31
0.0
  0
LINE
  5
128
330
1E
100
AcDbEntity
  8
0
100
AcDbLine
 10
66.116
 20
1136.4256
 30
0.0
 11
66.2911649992066
 21
1136.748524855309
 31
0.0
  0
LINE
  5
129
330
1E
100
AcDbEntity
  8
0
100
AcDbLine
 10
67.48999999999999
 20
1135.632299999999
 30
0.0
 11
67.70493718415329
 21
1136.0285467354
 31
0.0
  0
LINE
  5
12A
330
1E
100
AcDbEntity
  8
0
100
AcDbLine
 10
67.48999999999999
 20
1135.632299999999
 30
0.0
 11
68.587
 21
1135.0995
 31
0.0
  0
LINE
  5
12B
330
1E
100
AcDbEntity
  8
0
100
AcDbLine
 10
68.587
 20
1135.0995
 30
0.0
 11
68.79094665023728
 21
1135.47548517293
 31
0.0
  0
LINE
  5
12C
330
1E
100
AcDbEntity
  8
0
100
AcDbLine
 10
70.20900000000001
 20
1135.5219
 30
0.0
 11
71.19199999999999
 21
1135.238399999999
 31
0.0
  0
LINE
  5
12D
330
1E
100
AcDbEntity
  8
0
100
AcDbLine
 10
70.20900000000001
 20
1135.5219
 30
0.0
 11
70.7008566530634
 21
1136.509162215459
 31
0.0
  0
LINE
  5
12E
330
1E
100
AcDbEntity
  8
0
100
AcDbLine
 10
70.20900000000001
 20
1135.5219
 30
0.0
 11
71.709
 21
1134.6559
 31
0.0
  0
LINE
  5
12F
330
1E
100
AcDbEntity
  8
0
100
AcDbLine
 10
69.634
 20
1134.3943
 30
0.0
 11
70.68899999999999
 21
1133.785499999999
 31
0.0
  0
LINE
  5
130
330
1E
100
AcDbEntity
  8
0
100
AcDbLine
 10
69.634
 20
1134.3943
 30
0.0
 11
70.1365633704595
 21
1135.337942924319
 31
0.0
  0
LINE
  5
131
330
1E
100
AcDbEntity
  8
0
100
AcDbLine
 10
69.634
 20
1134.3943
 30
0.0
 11
71.051
 21
1133.6771
 31
0.0
  0
LINE
  5
132
330
1E
100
AcDbEntity
  8
0
100
AcDbLine
 10
71.19199999999999
 20
1135.238399999999
 30
0.0
 11
72.69199999999999
 21
1134.372399999999
 31
0.0
  0
LINE
  5
133
330
1E
100
AcDbEntity
  8
0
100
AcDbLine
 10
71.19199999999999
 20
1135.238399999999
 30
0.0
 11
71.7442567328719
 21
1136.34814930836
 31
0.0
  0
LINE
  5
134
330
1E
100
AcDbEntity
  8
0
100
AcDbLine
 10
70.68899999999999
 20
1133.785499999999
 30
0.0
 11
72.105
 21
1133.0684
 31
0.0
  0
LINE
  5
135
330
1E
100
AcDbEntity
  8
0
100
AcDbLine
 10
70.68899999999999
 20
1133.785499999999
 30
0.0
 11
70.72036164642771
 21
1133.84444920761
 31
0.0
  0
LINE
  5
136
330
1E
100
AcDbEntity
  8
0
100
AcDbLine
 10
71.051
 20
1133.6771
 30
0.0
 11
71.6039871614604
 21
1134.71652741212
 31
0.0
  0
LINE
  5
137
330
1E
100
AcDbEntity
  8
0
100
AcDbLine
 10
71.051
 20
1133.6771
 30
0.0
 11
72.105
 21
1133.0684
 31
0.0
  0
LINE
  5
138
330
1E
100
AcDbEntity
  8
0
100
AcDbLine
 10
64.19599999999999
 20
1137.6349
 30
0.0
 11
64.7710268275534
 21
1138.67060038187
 31
0.0
  0
LINE
  5
139
330
1E
100
AcDbEntity
  8
0
100
AcDbLine
 10
59.9683252304699
 20
1138.81544442584
 30
0.0
 11
60.18600000000001
 21
1138.689599999999
 31
0.0
  0
LINE
  5
13A
330
1E
100
AcDbEntity
  8
0
100
AcDbLine
 10
58.50999999999999
 20
1139.6572
 30
0.0
 11
58.85684073109199
 21
1139.45706005221
 31
0.0
  0
LINE
  5
13B
330
1E
100
AcDbEntity
  8
0
100
AcDbLine
 10
58.39525795049721
 20
1139.72360282687
 30
0.0
 11
58.50999999999999
 21
1139.6572
 31
0.0
  0
LINE
  5
13C
330
1E
100
AcDbEntity
  8
0
100
AcDbLine
 10
58.502
 20
1139.662
 30
0.0
 11
59.05
 21
1139.345499999999
 31
0.0
  0
LINE
  5
13D
330
1E
100
AcDbEntity
  8
0
100
AcDbLine
 10
58.051
 20
1139.922499999999
 30
0.0
 11
58.503
 21
1139.661599999999
 31
0.0
  0
LINE
  5
13E
330
1E
100
AcDbEntity
  8
0
100
AcDbLine
 10
58.503
 20
1139.661599999999
 30
0.0
 11
59.043
 21
1139.35
 31
0.0
  0
LINE
  5
13F
330
1E
100
AcDbEntity
  8
0
100
AcDbLine
 10
59.05
 20
1139.345499999999
 30
0.0
 11
59.45268482816929
 21
1139.113148700749
 31
0.0
  0
LINE
  5
140
330
1E
100
AcDbEntity
  8
0
100
AcDbLine
 10
59.043
 20
1139.35
 30
0.0
 11
59.61
 21
1139.0222
 31
0.0
  0
LINE
  5
141
330
1E
100
AcDbEntity
  8
0
100
AcDbLine
 10
59.61
 20
1139.0222
 30
0.0
 11
60.17100000000001
 21
1138.6985
 31
0.0
  0
LINE
  5
142
330
1E
100
AcDbEntity
  8
0
100
AcDbLine
 10
60.18600000000001
 20
1138.689599999999
 30
0.0
 11
60.5227211538923
 21
1138.495361778819
 31
0.0
  0
LINE
  5
143
330
1E
100
AcDbEntity
  8
0
100
AcDbLine
 10
60.17100000000001
 20
1138.6985
 30
0.0
 11
60.71899999999999
 21
1138.382
 31
0.0
  0
LINE
  5
144
330
1E
100
AcDbEntity
  8
0
100
AcDbLine
 10
57.60252607708771
 20
1140.181432501899
 30
0.0
 11
57.698
 21
1140.126199999999
 31
0.0
  0
LINE
  5
145
330
1E
100
AcDbEntity
  8
0
100
AcDbLine
 10
57.691
 20
1140.130599999999
 30
0.0
 11
58.051
 21
1139.922499999999
 31
0.0
  0
LINE
  5
146
330
1E
100
AcDbEntity
  8
0
100
AcDbLine
 10
57.498
 20
1140.2416
 30
0.0
 11
57.6048075313614
 21
1140.180119246869
 31
0.0
  0
LINE
  5
147
330
1E
100
AcDbEntity
  8
0
100
AcDbLine
 10
57.402
 20
1140.2972
 30
0.0
 11
57.4506760563241
 21
1140.26900845071
 31
0.0
  0
LINE
  5
148
330
1E
100
AcDbEntity
  8
0
100
AcDbLine
 10
57.46199999999999
 20
1140.2624
 30
0.0
 11
57.691
 21
1140.130599999999
 31
0.0
  0
LINE
  5
149
330
1E
100
AcDbEntity
  8
0
100
AcDbLine
 10
57.395
 20
1140.3015
 30
0.0
 11
57.51458631013999
 21
1141.76660946412
 31
0.0
  0
LINE
  5
14A
330
1E
100
AcDbEntity
  8
0
100
AcDbLine
 10
57.395
 20
1140.3015
 30
0.0
 11
57.46199999999999
 21
1140.2624
 31
0.0
  0
LINE
  5
14B
330
1E
100
AcDbEntity
  8
0
100
AcDbLine
 10
57.5687580070902
 20
1140.2009558719
 30
0.0
 11
57.691
 21
1140.1303
 31
0.0
  0
LINE
  5
14C
330
1E
100
AcDbEntity
  8
0
100
AcDbLine
 10
57.691
 20
1140.1303
 30
0.0
 11
58.03
 21
1139.9344
 31
0.0
  0
LINE
  5
14D
330
1E
100
AcDbEntity
  8
0
100
AcDbLine
 10
58.03
 20
1139.9344
 30
0.0
 11
58.502
 21
1139.662
 31
0.0
  0
LINE
  5
14E
330
1E
100
AcDbEntity
  8
0
100
AcDbLine
 10
56.805
 20
1141.219
 30
0.0
 11
57.4399644081971
 21
1140.85238061435
 31
0.0
  0
LINE
  5
14F
330
1E
100
AcDbEntity
  8
0
100
AcDbLine
 10
55.493
 20
1144.018399999999
 30
0.0
 11
57.225
 21
1143.018399999999
 31
0.0
  0
LINE
  5
150
330
1E
100
AcDbEntity
  8
0
100
AcDbLine
 10
55.493
 20
1144.018399999999
 30
0.0
 11
55.7392713945201
 21
1144.444700000039
 31
0.0
  0
LINE
  5
151
330
1E
100
AcDbEntity
  8
0
100
AcDbLine
 10
55.493
 20
1144.018399999999
 30
0.0
 11
55.61600000000001
 21
1144.2311
 31
0.0
  0
LINE
  5
152
330
1E
100
AcDbEntity
  8
0
100
AcDbLine
 10
57.225
 20
1143.018399999999
 30
0.0
 11
57.34799999999999
 21
1143.2311
 31
0.0
  0
LINE
  5
153
330
1E
100
AcDbEntity
  8
0
100
AcDbLine
 10
57.225
 20
1143.018399999999
 30
0.0
 11
57.34790681545629
 21
1143.2311538017
 31
0.0
  0
LINE
  5
154
330
1E
100
AcDbEntity
  8
0
100
AcDbLine
 10
57.4712713944385
 20
1143.4446999999
 30
0.0
 11
57.96664419724059
 21
1144.30219880225
 31
0.0
  0
LINE
  5
155
330
1E
100
AcDbEntity
  8
0
100
AcDbLine
 10
57.34799999999999
 20
1143.2311
 30
0.0
 11
57.966269999719
 21
1144.30241482109
 31
0.0
  0
LINE
  5
156
330
1E
100
AcDbEntity
  8
0
100
AcDbLine
 10
55.61600000000001
 20
1144.2311
 30
0.0
 11
56.2342597891436
 21
1145.30239712859
 31
0.0
  0
LINE
  5
157
330
1E
100
AcDbEntity
  8
0
100
AcDbLine
 10
55.61600000000001
 20
1144.2311
 30
0.0
 11
57.34799999999999
 21
1143.2311
 31
0.0
  0
LINE
  5
158
330
1E
100
AcDbEntity
  8
0
100
AcDbLine
 10
57.707
 20
1147.8527
 30
0.0
 11
59.43899999999999
 21
1146.852699999999
 31
0.0
  0
LINE
  5
159
330
1E
100
AcDbEntity
  8
0
100
AcDbLine
 10
57.707
 20
1147.8527
 30
0.0
 11
58.4842273027433
 21
1149.199622707899
 31
0.0
  0
LINE
  5
15A
330
1E
100
AcDbEntity
  8
0
100
AcDbLine
 10
57.707
 20
1147.8527
 30
0.0
 11
58.002
 21
1148.3637
 31
0.0
  0
LINE
  5
15B
330
1E
100
AcDbEntity
  8
0
100
AcDbLine
 10
59.43899999999999
 20
1146.852699999999
 30
0.0
 11
59.73399999999999
 21
1147.3637
 31
0.0
  0
LINE
  5
15C
330
1E
100
AcDbEntity
  8
0
100
AcDbLine
 10
59.73399999999999
 20
1147.3637
 30
0.0
 11
60.21632401208901
 21
1148.19955993718
 31
0.0
  0
LINE
  5
15D
330
1E
100
AcDbEntity
  8
0
100
AcDbLine
 10
58.002
 20
1148.3637
 30
0.0
 11
58.4843270106361
 21
1149.199565133619
 31
0.0
  0
LINE
  5
15E
330
1E
100
AcDbEntity
  8
0
100
AcDbLine
 10
58.002
 20
1148.3637
 30
0.0
 11
59.73399999999999
 21
1147.3637
 31
0.0
  0
LINE
  5
15F
330
1E
100
AcDbEntity
  8
0
100
AcDbLine
 10
55.475
 20
1141.987
 30
0.0
 11
56.805
 21
1141.219
 31
0.0
  0
LINE
  5
160
330
1E
100
AcDbEntity
  8
0
100
AcDbLine
 10
61.17
 20
1138.121699999999
 30
0.0
 11
61.53
 21
1137.9136
 31
0.0
  0
LINE
  5
161
330
1E
100
AcDbEntity
  8
0
100
AcDbLine
 10
60.9411669626731
 20
1138.25378330375
 30
0.0
 11
61.198
 21
1138.1053
 31
0.0
  0
LINE
  5
162
330
1E
100
AcDbEntity
  8
0
100
AcDbLine
 10
61.766
 20
1137.7774
 30
0.0
 11
61.83399999999999
 21
1137.7382
 31
0.0
  0
LINE
  5
163
330
1E
100
AcDbEntity
  8
0
100
AcDbLine
 10
61.7661417482866
 20
1137.77750123745
 30
0.0
 11
61.83399999999999
 21
1137.7382
 31
0.0
  0
LINE
  5
164
330
1E
100
AcDbEntity
  8
0
100
AcDbLine
 10
61.75899999999999
 20
1137.7817
 30
0.0
 11
61.827
 21
1137.7425
 31
0.0
  0
LINE
  5
165
330
1E
100
AcDbEntity
  8
0
100
AcDbLine
 10
61.6598650492994
 20
1137.838799999989
 30
0.0
 11
61.766
 21
1137.7774
 31
0.0
  0
LINE
  5
166
330
1E
100
AcDbEntity
  8
0
100
AcDbLine
 10
61.53
 20
1137.9136
 30
0.0
 11
61.75899999999999
 21
1137.7817
 31
0.0
  0
LINE
  5
167
330
1E
100
AcDbEntity
  8
0
100
AcDbLine
 10
61.731
 20
1137.7981
 30
0.0
 11
61.827
 21
1137.7425
 31
0.0
  0
LINE
  5
168
330
1E
100
AcDbEntity
  8
0
100
AcDbLine
 10
61.83399999999999
 20
1137.7382
 30
0.0
 11
62.7479676845605
 21
1138.37027728515
 31
0.0
  0
LINE
  5
169
330
1E
100
AcDbEntity
  8
0
100
AcDbLine
 10
61.827
 20
1137.7425
 30
0.0
 11
62.74076442613591
 21
1138.37443671668
 31
0.0
  0
LINE
  5
16A
330
1E
100
AcDbEntity
  8
0
100
AcDbLine
 10
63.49
 20
1137.9418
 30
0.0
 11
63.5322654870789
 21
1138.01792580668
 31
0.0
  0
LINE
  5
16B
330
1E
100
AcDbEntity
  8
0
100
AcDbLine
 10
63.49
 20
1137.9418
 30
0.0
 11
64.19599999999999
 21
1137.6349
 31
0.0
  0
LINE
  5
16C
330
1E
100
AcDbEntity
  8
0
100
AcDbLine
 10
61.198
 20
1138.1053
 30
0.0
 11
61.3332989690737
 21
1138.02730412371
 31
0.0
  0
LINE
  5
16D
330
1E
100
AcDbEntity
  8
0
100
AcDbLine
 10
61.53
 20
1137.9137
 30
0.0
 11
61.731
 21
1137.7981
 31
0.0
  0
LINE
  5
16E
330
1E
100
AcDbEntity
  8
0
100
AcDbLine
 10
61.191
 20
1138.109599999999
 30
0.0
 11
61.53
 21
1137.9137
 31
0.0
  0
LINE
  5
16F
330
1E
100
AcDbEntity
  8
0
100
AcDbLine
 10
61.56100000000001
 20
1142.6564
 30
0.0
 11
61.98699999999999
 21
1142.8849
 31
0.0
  0
LINE
  5
170
330
1E
100
AcDbEntity
  8
0
100
AcDbLine
 10
61.56100000000001
 20
1142.6564
 30
0.0
 11
62.0982916938748
 21
1143.64906369923
 31
0.0
  0
LINE
  5
171
330
1E
100
AcDbEntity
  8
0
100
AcDbLine
 10
61.56100000000001
 20
1142.6564
 30
0.0
 11
63.27799999999999
 21
1141.665
 31
0.0
  0
LINE
  5
172
330
1E
100
AcDbEntity
  8
0
100
AcDbLine
 10
61.98699999999999
 20
1142.8849
 30
0.0
 11
63.70499999999999
 21
1141.8934
 31
0.0
  0
LINE
  5
173
330
1E
100
AcDbEntity
  8
0
100
AcDbLine
 10
61.98699999999999
 20
1142.8849
 30
0.0
 11
62.3289314031438
 21
1143.51591553047
 31
0.0
  0
LINE
  5
174
330
1E
100
AcDbEntity
  8
0
100
AcDbLine
 10
61.89
 20
1138.865699999999
 30
0.0
 11
62.595
 21
1138.558799999999
 31
0.0
  0
LINE
  5
175
330
1E
100
AcDbEntity
  8
0
100
AcDbLine
 10
61.89
 20
1138.865699999999
 30
0.0
 11
62.40793679092949
 21
1139.79857357467
 31
0.0
  0
LINE
  5
176
330
1E
100
AcDbEntity
  8
0
100
AcDbLine
 10
61.89
 20
1138.865699999999
 30
0.0
 11
63.49
 21
1137.9418
 31
0.0
  0
LINE
  5
177
330
1E
100
AcDbEntity
  8
0
100
AcDbLine
 10
63.27799999999999
 20
1141.665
 30
0.0
 11
63.70499999999999
 21
1141.8934
 31
0.0
  0
LINE
  5
178
330
1E
100
AcDbEntity
  8
0
100
AcDbLine
 10
63.70499999999999
 20
1141.8934
 30
0.0
 11
64.179306808066
 21
1142.76969709529
 31
0.0
  0
LINE
  5
179
330
1E
100
AcDbEntity
  8
0
100
AcDbLine
 10
63.07999999999999
 20
1139.6379
 30
0.0
 11
63.648
 21
1139.5938
 31
0.0
  0
LINE
  5
17A
330
1E
100
AcDbEntity
  8
0
100
AcDbLine
 10
63.07999999999999
 20
1139.6379
 30
0.0
 11
63.61544344452401
 21
1140.63731831841
 31
0.0
  0
LINE
  5
17B
330
1E
100
AcDbEntity
  8
0
100
AcDbLine
 10
63.07999999999999
 20
1139.6379
 30
0.0
 11
64.753
 21
1138.672
 31
0.0
  0
LINE
  5
17C
330
1E
100
AcDbEntity
  8
0
100
AcDbLine
 10
63.648
 20
1139.5938
 30
0.0
 11
65.32099999999999
 21
1138.6279
 31
0.0
  0
LINE
  5
17D
330
1E
100
AcDbEntity
  8
0
100
AcDbLine
 10
63.648
 20
1139.5938
 30
0.0
 11
64.2320123633862
 21
1140.68497443392
 31
0.0
  0
LINE
  5
17E
330
1E
100
AcDbEntity
  8
0
100
AcDbLine
 10
62.595
 20
1138.558799999999
 30
0.0
 11
64.19599999999999
 21
1137.6349
 31
0.0
  0
LINE
  5
17F
330
1E
100
AcDbEntity
  8
0
100
AcDbLine
 10
62.595
 20
1138.558799999999
 30
0.0
 11
63.1278162711722
 21
1139.51748517751
 31
0.0
  0
LINE
  5
180
330
1E
100
AcDbEntity
  8
0
100
AcDbLine
 10
60.71899999999999
 20
1138.382
 30
0.0
 11
61.191
 21
1138.109599999999
 31
0.0
  0
LINE
  5
181
330
1E
100
AcDbEntity
  8
0
100
AcDbLine
 10
60.25
 20
1150.258
 30
0.0
 11
67.61199999999999
 21
1146.008499999999
 31
0.0
  0
LINE
  5
182
330
1E
100
AcDbEntity
  8
0
100
AcDbLine
 10
60.75
 20
1151.125
 30
0.0
 11
68.11199999999999
 21
1146.874499999999
 31
0.0
  0
LINE
  5
183
330
1E
100
AcDbEntity
  8
0
100
AcDbLine
 10
64.753
 20
1138.672
 30
0.0
 11
64.8444470612193
 21
1138.842678432919
 31
0.0
  0
LINE
  5
184
330
1E
100
AcDbEntity
  8
0
100
AcDbLine
 10
64.753
 20
1138.672
 30
0.0
 11
65.32099999999999
 21
1138.6279
 31
0.0
  0
LINE
  5
185
330
1E
100
AcDbEntity
  8
0
100
AcDbLine
 10
65.32099999999999
 20
1138.6279
 30
0.0
 11
65.905006982426
 21
1139.71906438008
 31
0.0
  0
LINE
  5
186
330
1E
100
AcDbEntity
  8
0
100
AcDbLine
 10
70.559
 20
1140.432499999999
 30
0.0
 11
71.28199999999999
 21
1140.6963
 31
0.0
  0
LINE
  5
187
330
1E
100
AcDbEntity
  8
0
100
AcDbLine
 10
70.559
 20
1140.432499999999
 30
0.0
 11
71.12462907328691
 21
1141.62238288528
 31
0.0
  0
LINE
  5
188
330
1E
100
AcDbEntity
  8
0
100
AcDbLine
 10
70.559
 20
1140.432499999999
 30
0.0
 11
72.232
 21
1139.466599999999
 31
0.0
  0
LINE
  5
189
330
1E
100
AcDbEntity
  8
0
100
AcDbLine
 10
71.28199999999999
 20
1140.6963
 30
0.0
 11
72.955
 21
1139.730299999999
 31
0.0
  0
LINE
  5
18A
330
1E
100
AcDbEntity
  8
0
100
AcDbLine
 10
71.28199999999999
 20
1140.6963
 30
0.0
 11
71.69824746566179
 21
1141.570874317109
 31
0.0
  0
LINE
  5
18B
330
1E
100
AcDbEntity
  8
0
100
AcDbLine
 10
67.61199999999999
 20
1146.008499999999
 30
0.0
 11
74.8
 21
1141.8585
 31
0.0
  0
LINE
  5
18C
330
1E
100
AcDbEntity
  8
0
100
AcDbLine
 10
68.11199999999999
 20
1146.874499999999
 30
0.0
 11
75.3
 21
1142.7245
 31
0.0
  0
LINE
  5
18D
330
1E
100
AcDbEntity
  8
0
100
AcDbLine
 10
64.27286749647411
 20
1137.77334866298
 30
0.0
 11
64.33800000000001
 21
1137.737499999999
 31
0.0
  0
LINE
  5
18E
330
1E
100
AcDbEntity
  8
0
100
AcDbLine
 10
64.33800000000001
 20
1137.737499999999
 30
0.0
 11
69.9030184533533
 21
1134.89942507465
 31
0.0
  0
LINE
  5
18F
330
1E
100
AcDbEntity
  8
0
100
AcDbLine
 10
81.21500000000001
 20
1129.1681
 30
0.0
 11
82.08099999999999
 21
1128.6681
 31
0.0
  0
LINE
  5
190
330
1E
100
AcDbEntity
  8
0
100
AcDbLine
 10
81.21500000000001
 20
1129.1681
 30
0.0
 11
81.6425676264995
 21
1130.13399008496
 31
0.0
  0
LINE
  5
191
330
1E
100
AcDbEntity
  8
0
100
AcDbLine
 10
81.21500000000001
 20
1129.1681
 30
0.0
 11
82.826
 21
1128.5214
 31
0.0
  0
LINE
  5
192
330
1E
100
AcDbEntity
  8
0
100
AcDbLine
 10
81.21500000000001
 20
1129.1681
 30
0.0
 11
81.373779307507
 21
1129.52678795791
 31
0.0
  0
LINE
  5
193
330
1E
100
AcDbEntity
  8
0
100
AcDbLine
 10
82.08099999999999
 20
1128.6681
 30
0.0
 11
83.69200000000001
 21
1128.0214
 31
0.0
  0
LINE
  5
194
330
1E
100
AcDbEntity
  8
0
100
AcDbLine
 10
82.08099999999999
 20
1128.6681
 30
0.0
 11
82.13826960419391
 21
1128.79747402046
 31
0.0
  0
LINE
  5
195
330
1E
100
AcDbEntity
  8
0
100
AcDbLine
 10
83.69200000000001
 20
1128.0214
 30
0.0
 11
84.14488213026949
 21
1129.04442037645
 31
0.0
  0
LINE
  5
196
330
1E
100
AcDbEntity
  8
0
100
AcDbLine
 10
83.69200000000001
 20
1128.0214
 30
0.0
 11
83.88869447952691
 21
1128.46571530202
 31
0.0
  0
LINE
  5
197
330
1E
100
AcDbEntity
  8
0
100
AcDbLine
 10
82.826
 20
1128.5214
 30
0.0
 11
83.3296740177178
 21
1129.65915472418
 31
0.0
  0
LINE
  5
198
330
1E
100
AcDbEntity
  8
0
100
AcDbLine
 10
82.826
 20
1128.5214
 30
0.0
 11
83.69200000000001
 21
1128.0214
 31
0.0
  0
LINE
  5
199
330
1E
100
AcDbEntity
  8
0
100
AcDbLine
 10
75.638
 20
1131.0287
 30
0.0
 11
76.1573077239096
 21
1132.02550105966
 31
0.0
  0
LINE
  5
19A
330
1E
100
AcDbEntity
  8
0
100
AcDbLine
 10
72.205
 20
1132.9101
 30
0.0
 11
72.86799999999999
 21
1132.527499999999
 31
0.0
  0
LINE
  5
19B
330
1E
100
AcDbEntity
  8
0
100
AcDbLine
 10
72.205
 20
1132.9101
 30
0.0
 11
72.5522516380234
 21
1133.57197134063
 31
0.0
  0
LINE
  5
19C
330
1E
100
AcDbEntity
  8
0
100
AcDbLine
 10
72.86799999999999
 20
1132.527499999999
 30
0.0
 11
73.2409612317048
 21
1133.2383343992
 31
0.0
  0
LINE
  5
19D
330
1E
100
AcDbEntity
  8
0
100
AcDbLine
 10
72.86799999999999
 20
1132.527499999999
 30
0.0
 11
73.67270011897931
 21
1132.112113994609
 31
0.0
  0
LINE
  5
19E
330
1E
100
AcDbEntity
  8
0
100
AcDbLine
 10
73.65300000000001
 20
1132.074299999999
 30
0.0
 11
73.87899999999999
 21
1131.943799999999
 31
0.0
  0
LINE
  5
19F
330
1E
100
AcDbEntity
  8
0
100
AcDbLine
 10
73.65300000000001
 20
1132.074299999999
 30
0.0
 11
74.1331751651967
 21
1132.995986875529
 31
0.0
  0
LINE
  5
1A0
330
1E
100
AcDbEntity
  8
0
100
AcDbLine
 10
73.65300000000001
 20
1132.074299999999
 30
0.0
 11
75.41199999999999
 21
1131.159299999999
 31
0.0
  0
LINE
  5
1A1
330
1E
100
AcDbEntity
  8
0
100
AcDbLine
 10
73.87899999999999
 20
1131.943799999999
 30
0.0
 11
75.638
 21
1131.0287
 31
0.0
  0
LINE
  5
1A2
330
1E
100
AcDbEntity
  8
0
100
AcDbLine
 10
75.41199999999999
 20
1131.159299999999
 30
0.0
 11
75.94869373907309
 21
1132.18941509334
 31
0.0
  0
LINE
  5
1A3
330
1E
100
AcDbEntity
  8
0
100
AcDbLine
 10
75.41199999999999
 20
1131.159299999999
 30
0.0
 11
75.638
 21
1131.0287
 31
0.0
  0
LINE
  5
1A4
330
1E
100
AcDbEntity
  8
0
100
AcDbLine
 10
72.105
 20
1133.0684
 30
0.0
 11
72.6557301594997
 21
1134.10352636688
 31
0.0
  0
LINE
  5
1A5
330
1E
100
AcDbEntity
  8
0
100
AcDbLine
 10
72.232
 20
1139.466599999999
 30
0.0
 11
72.955
 21
1139.730299999999
 31
0.0
  0
LINE
  5
1A6
330
1E
100
AcDbEntity
  8
0
100
AcDbLine
 10
71.535
 20
1136.8977
 30
0.0
 11
72.389
 21
1136.8794
 31
0.0
  0
LINE
  5
1A7
330
1E
100
AcDbEntity
  8
0
100
AcDbLine
 10
71.535
 20
1136.8977
 30
0.0
 11
72.0205027221492
 21
1137.92042705258
 31
0.0
  0
LINE
  5
1A8
330
1E
100
AcDbEntity
  8
0
100
AcDbLine
 10
71.535
 20
1136.8977
 30
0.0
 11
73.13500000000001
 21
1135.9738
 31
0.0
  0
LINE
  5
1A9
330
1E
100
AcDbEntity
  8
0
100
AcDbLine
 10
72.389
 20
1136.8794
 30
0.0
 11
73.98899999999999
 21
1135.9555
 31
0.0
  0
LINE
  5
1AA
330
1E
100
AcDbEntity
  8
0
100
AcDbLine
 10
72.389
 20
1136.8794
 30
0.0
 11
73.1562776758511
 21
1138.4937777149
 31
0.0
  0
LINE
  5
1AB
330
1E
100
AcDbEntity
  8
0
100
AcDbLine
 10
71.709
 20
1134.6559
 30
0.0
 11
71.77846015448259
 21
1134.79532148708
 31
0.0
  0
LINE
  5
1AC
330
1E
100
AcDbEntity
  8
0
100
AcDbLine
 10
71.709
 20
1134.6559
 30
0.0
 11
72.69199999999999
 21
1134.372399999999
 31
0.0
  0
LINE
  5
1AD
330
1E
100
AcDbEntity
  8
0
100
AcDbLine
 10
72.955
 20
1139.730299999999
 30
0.0
 11
73.37127370260541
 21
1140.60492944335
 31
0.0
  0
LINE
  5
1AE
330
1E
100
AcDbEntity
  8
0
100
AcDbLine
 10
73.13500000000001
 20
1135.9738
 30
0.0
 11
73.98899999999999
 21
1135.9555
 31
0.0
  0
LINE
  5
1AF
330
1E
100
AcDbEntity
  8
0
100
AcDbLine
 10
73.98899999999999
 20
1135.9555
 30
0.0
 11
74.42692541414979
 21
1136.87690961694
 31
0.0
  0
LINE
  5
1B0
330
1E
100
AcDbEntity
  8
0
100
AcDbLine
 10
72.69199999999999
 20
1134.372399999999
 30
0.0
 11
73.2442774150373
 21
1135.48212853498
 31
0.0
  0
LINE
  5
1B1
330
1E
100
AcDbEntity
  8
0
100
AcDbLine
 10
72.40131169435841
 20
1133.62533344981
 30
0.0
 11
72.90100000000001
 21
1133.3705
 31
0.0
  0
LINE
  5
1B2
330
1E
100
AcDbEntity
  8
0
100
AcDbLine
 10
72.90100000000001
 20
1133.3705
 30
0.0
 11
74.05534276459199
 21
1132.846589098789
 31
0.0
  0
LINE
  5
1B3
330
1E
100
AcDbEntity
  8
0
100
AcDbLine
 10
77.619
 20
1131.2438
 30
0.0
 11
78.958
 21
1130.7547
 31
0.0
  0
LINE
  5
1B4
330
1E
100
AcDbEntity
  8
0
100
AcDbLine
 10
77.619
 20
1131.2438
 30
0.0
 11
77.67101717966241
 21
1131.355358934719
 31
0.0
  0
LINE
  5
1B5
330
1E
100
AcDbEntity
  8
0
100
AcDbLine
 10
78.958
 20
1130.7547
 30
0.0
 11
79.4543300692891
 21
1131.81915705359
 31
0.0
  0
LINE
  5
1B6
330
1E
100
AcDbEntity
  8
0
100
AcDbLine
 10
80.538
 20
1131.699599999999
 30
0.0
 11
81.912
 21
1130.9063
 31
0.0
  0
LINE
  5
1B7
330
1E
100
AcDbEntity
  8
0
100
AcDbLine
 10
80.538
 20
1131.699599999999
 30
0.0
 11
80.97735235865529
 21
1132.74908709085
 31
0.0
  0
LINE
  5
1B8
330
1E
100
AcDbEntity
  8
0
100
AcDbLine
 10
80.538
 20
1131.699599999999
 30
0.0
 11
81.77600000000001
 21
1131.46
 31
0.0
  0
LINE
  5
1B9
330
1E
100
AcDbEntity
  8
0
100
AcDbLine
 10
76.39499999999999
 20
1131.9509
 30
0.0
 11
77.619
 21
1131.2438
 31
0.0
  0
LINE
  5
1BA
330
1E
100
AcDbEntity
  8
0
100
AcDbLine
 10
76.39499999999999
 20
1131.9509
 30
0.0
 11
76.84981356437361
 21
1132.92631844958
 31
0.0
  0
LINE
  5
1BB
330
1E
100
AcDbEntity
  8
0
100
AcDbLine
 10
76.39499999999999
 20
1131.9509
 30
0.0
 11
77.733
 21
1131.4618
 31
0.0
  0
LINE
  5
1BC
330
1E
100
AcDbEntity
  8
0
100
AcDbLine
 10
77.733
 20
1131.4618
 30
0.0
 11
78.25781571889141
 21
1132.58734896101
 31
0.0
  0
LINE
  5
1BD
330
1E
100
AcDbEntity
  8
0
100
AcDbLine
 10
77.733
 20
1131.4618
 30
0.0
 11
78.958
 21
1130.7547
 31
0.0
  0
LINE
  5
1BE
330
1E
100
AcDbEntity
  8
0
100
AcDbLine
 10
81.912
 20
1130.9063
 30
0.0
 11
83.15000000000001
 21
1130.6666
 31
0.0
  0
LINE
  5
1BF
330
1E
100
AcDbEntity
  8
0
100
AcDbLine
 10
81.912
 20
1130.9063
 30
0.0
 11
82.00175918744429
 21
1131.120709019669
 31
0.0
  0
LINE
  5
1C0
330
1E
100
AcDbEntity
  8
0
100
AcDbLine
 10
83.15000000000001
 20
1130.6666
 30
0.0
 11
83.686775009255
 21
1131.948872374469
 31
0.0
  0
LINE
  5
1C1
330
1E
100
AcDbEntity
  8
0
100
AcDbLine
 10
82.59399999999999
 20
1133.483999999999
 30
0.0
 11
83.71700000000002
 21
1133.5172
 31
0.0
  0
LINE
  5
1C2
330
1E
100
AcDbEntity
  8
0
100
AcDbLine
 10
82.59399999999999
 20
1133.483999999999
 30
0.0
 11
83.05946992277389
 21
1134.68251855544
 31
0.0
  0
LINE
  5
1C3
330
1E
100
AcDbEntity
  8
0
100
AcDbLine
 10
82.59399999999999
 20
1133.483999999999
 30
0.0
 11
84.09399999999999
 21
1132.6179
 31
0.0
  0
LINE
  5
1C4
330
1E
100
AcDbEntity
  8
0
100
AcDbLine
 10
83.71700000000002
 20
1133.5172
 30
0.0
 11
85.21689999999999
 21
1132.6512
 31
0.0
  0
LINE
  5
1C5
330
1E
100
AcDbEntity
  8
0
100
AcDbLine
 10
83.71700000000002
 20
1133.5172
 30
0.0
 11
84.0705388917282
 21
1134.4275626462
 31
0.0
  0
LINE
  5
1C6
330
1E
100
AcDbEntity
  8
0
100
AcDbLine
 10
81.77600000000001
 20
1131.46
 30
0.0
 11
83.15000000000001
 21
1130.6666
 31
0.0
  0
LINE
  5
1C7
330
1E
100
AcDbEntity
  8
0
100
AcDbLine
 10
81.77600000000001
 20
1131.46
 30
0.0
 11
82.41270939535601
 21
1132.9809165898
 31
0.0
  0
LINE
  5
1C8
330
1E
100
AcDbEntity
  8
0
100
AcDbLine
 10
81.728
 20
1137.8585
 30
0.0
 11
88.3098
 21
1134.0585
 31
0.0
  0
LINE
  5
1C9
330
1E
100
AcDbEntity
  8
0
100
AcDbLine
 10
82.22799999999999
 20
1138.7245
 30
0.0
 11
88.80979999999999
 21
1134.9245
 31
0.0
  0
LINE
  5
1CA
330
1E
100
AcDbEntity
  8
0
100
AcDbLine
 10
76.10130591511801
 20
1131.91800667863
 30
0.0
 11
81.31899999999999
 21
1129.549899999999
 31
0.0
  0
LINE
  5
1CB
330
1E
100
AcDbEntity
  8
0
100
AcDbLine
 10
81.31899999999999
 20
1129.549899999999
 30
0.0
 11
81.373779307507
 21
1129.52678795791
 31
0.0
  0
LINE
  5
1CC
330
1E
100
AcDbEntity
  8
0
100
AcDbLine
 10
86.57200000000001
 20
1126.3586
 30
0.0
 11
87.0625185297554
 21
1127.503932719539
 31
0.0
  0
LINE
  5
1CD
330
1E
100
AcDbEntity
  8
0
100
AcDbLine
 10
84.09399999999999
 20
1132.6179
 30
0.0
 11
85.21689999999999
 21
1132.6512
 31
0.0
  0
LINE
  5
1CE
330
1E
100
AcDbEntity
  8
0
100
AcDbLine
 10
84.341
 20
1127.3633
 30
0.0
 11
84.78900000000001
 21
1127.104499999999
 31
0.0
  0
LINE
  5
1CF
330
1E
100
AcDbEntity
  8
0
100
AcDbLine
 10
84.341
 20
1127.3633
 30
0.0
 11
84.80319415989709
 21
1128.4431830111
 31
0.0
  0
LINE
  5
1D0
330
1E
100
AcDbEntity
  8
0
100
AcDbLine
 10
84.341
 20
1127.3633
 30
0.0
 11
86.1237
 21
1126.6174
 31
0.0
  0
LINE
  5
1D1
330
1E
100
AcDbEntity
  8
0
100
AcDbLine
 10
85.21689999999999
 20
1132.6512
 30
0.0
 11
85.57042060136929
 21
1133.561645612179
 31
0.0
  0
LINE
  5
1D2
330
1E
100
AcDbEntity
  8
0
100
AcDbLine
 10
85.5597
 20
1126.6595
 30
0.0
 11
85.6037891093849
 21
1126.76364122451
 31
0.0
  0
LINE
  5
1D3
330
1E
100
AcDbEntity
  8
0
100
AcDbLine
 10
85.5597
 20
1126.6595
 30
0.0
 11
87.4014
 21
1125.8797
 31
0.0
  0
LINE
  5
1D4
330
1E
100
AcDbEntity
  8
0
100
AcDbLine
 10
84.78900000000001
 20
1127.104499999999
 30
0.0
 11
86.57200000000001
 21
1126.3586
 31
0.0
  0
LINE
  5
1D5
330
1E
100
AcDbEntity
  8
0
100
AcDbLine
 10
84.78900000000001
 20
1127.104499999999
 30
0.0
 11
84.81490907006879
 21
1127.16501157493
 31
0.0
  0
LINE
  5
1D6
330
1E
100
AcDbEntity
  8
0
100
AcDbLine
 10
86.1237
 20
1126.6174
 30
0.0
 11
86.5919510814062
 21
1127.71073950088
 31
0.0
  0
LINE
  5
1D7
330
1E
100
AcDbEntity
  8
0
100
AcDbLine
 10
86.1237
 20
1126.6174
 30
0.0
 11
86.57200000000001
 21
1126.3586
 31
0.0
  0
LINE
  5
1D8
330
1E
100
AcDbEntity
  8
0
100
AcDbLine
 10
83.88869447952691
 20
1128.46571530202
 30
0.0
 11
84.6714822862711
 21
1128.13544780579
 31
0.0
  0
LINE
  5
1D9
330
1E
100
AcDbEntity
  8
0
100
AcDbLine
 10
74.8
 20
1141.8585
 30
0.0
 11
81.728
 21
1137.8585
 31
0.0
  0
LINE
  5
1DA
330
1E
100
AcDbEntity
  8
0
100
AcDbLine
 10
75.3
 20
1142.7245
 30
0.0
 11
82.22799999999999
 21
1138.7245
 31
0.0
  0
LINE
  5
1DB
330
1E
100
AcDbEntity
  8
0
100
AcDbLine
 10
87.4014
 20
1125.8797
 30
0.0
 11
87.8598962041817
 21
1126.962616528419
 31
0.0
  0
LINE
  5
1DC
330
1E
100
AcDbEntity
  8
0
100
AcDbLine
 10
87.4014
 20
1125.8797
 30
0.0
 11
87.82172411422708
 21
1126.872458340069
 31
0.0
  0
LINE
  5
1DD
330
1E
100
AcDbEntity
  8
0
100
AcDbLine
 10
87.95709999999999
 20
1127.4164
 30
0.0
 11
89.01149999999999
 21
1126.8076
 31
0.0
  0
LINE
  5
1DE
330
1E
100
AcDbEntity
  8
0
100
AcDbLine
 10
87.95709999999999
 20
1127.4164
 30
0.0
 11
88.35848267395599
 21
1128.48781092728
 31
0.0
  0
LINE
  5
1DF
330
1E
100
AcDbEntity
  8
0
100
AcDbLine
 10
87.95709999999999
 20
1127.4164
 30
0.0
 11
89.50749999999999
 21
1126.9961
 31
0.0
  0
LINE
  5
1E0
330
1E
100
AcDbEntity
  8
0
100
AcDbLine
 10
89.01149999999999
 20
1126.8076
 30
0.0
 11
90.56189999999999
 21
1126.3873
 31
0.0
  0
LINE
  5
1E1
330
1E
100
AcDbEntity
  8
0
100
AcDbLine
 10
89.01149999999999
 20
1126.8076
 30
0.0
 11
89.07422736820791
 21
1126.97504719955
 31
0.0
  0
LINE
  5
1E2
330
1E
100
AcDbEntity
  8
0
100
AcDbLine
 10
90.56189999999999
 20
1126.3873
 30
0.0
 11
91.01246543894029
 21
1127.59005922804
 31
0.0
  0
LINE
  5
1E3
330
1E
100
AcDbEntity
  8
0
100
AcDbLine
 10
89.50749999999999
 20
1126.9961
 30
0.0
 11
90.0441609784217
 21
1128.42868645324
 31
0.0
  0
LINE
  5
1E4
330
1E
100
AcDbEntity
  8
0
100
AcDbLine
 10
89.50749999999999
 20
1126.9961
 30
0.0
 11
90.56189999999999
 21
1126.3873
 31
0.0
  0
LINE
  5
1E5
330
1E
100
AcDbEntity
  8
0
100
AcDbLine
 10
88.3098
 20
1134.0585
 30
0.0
 11
94.4585
 21
1130.5085
 31
0.0
  0
LINE
  5
1E6
330
1E
100
AcDbEntity
  8
0
100
AcDbLine
 10
88.80979999999999
 20
1134.9245
 30
0.0
 11
94.9585
 21
1131.374499999999
 31
0.0
  0
LINE
  5
1E7
330
1E
100
AcDbEntity
  8
0
100
AcDbLine
 10
87.7979669904109
 20
1126.8163466824
 30
0.0
 11
89.4899
 21
1126.1025
 31
0.0
  0
LINE
  5
1E8
330
1E
100
AcDbEntity
  8
0
100
AcDbLine
 10
89.4899
 20
1126.1025
 30
0.0
 11
93.4111495853746
 21
1124.70363763613
 31
0.0
  0
LINE
  5
1E9
330
1E
100
AcDbEntity
  8
0
100
AcDbLine
 10
87.0528
 20
1141.481399999999
 30
0.0
 11
94.3274
 21
1137.2814
 31
0.0
  0
LINE
  5
1EA
330
1E
100
AcDbEntity
  8
0
100
AcDbLine
 10
79.259
 20
1145.981399999999
 30
0.0
 11
87.0528
 21
1141.481399999999
 31
0.0
  0
LINE
  5
1EB
330
1E
100
AcDbEntity
  8
0
100
AcDbLine
 10
79.259
 20
1145.981399999999
 30
0.0
 11
86.96620000000001
 21
1141.5314
 31
0.0
  0
LINE
  5
1EC
330
1E
100
AcDbEntity
  8
0
100
AcDbLine
 10
71.291
 20
1150.581
 30
0.0
 11
79.259
 21
1145.981399999999
 31
0.0
  0
LINE
  5
1ED
330
1E
100
AcDbEntity
  8
0
100
AcDbLine
 10
90.14840636391609
 20
1168.042704364119
 30
0.0
 11
90.22299999999999
 21
1168.171999999999
 31
0.0
  0
LINE
  5
1EE
330
1E
100
AcDbEntity
  8
0
100
AcDbLine
 10
90.22299999999999
 20
1168.171999999999
 30
0.0
 11
107.709
 21
1156.46
 31
0.0
  0
LINE
  5
1EF
330
1E
100
AcDbEntity
  8
0
100
AcDbLine
 10
90.14706261098
 20
1168.04037519237
 30
0.0
 11
90.22299999999999
 21
1168.171999999999
 31
0.0
  0
LINE
  5
1F0
330
1E
100
AcDbEntity
  8
0
100
AcDbLine
 10
63.15
 20
1155.281
 30
0.0
 11
71.291
 21
1150.581
 31
0.0
  0
LINE
  5
1F1
330
1E
100
AcDbEntity
  8
0
100
AcDbLine
 10
55.01
 20
1159.980999999999
 30
0.0
 11
63.15
 21
1155.281
 31
0.0
  0
LINE
  5
1F2
330
1E
100
AcDbEntity
  8
0
100
AcDbLine
 10
15.235
 20
1172.374
 30
0.0
 11
15.388390743116
 21
1172.52761018624
 31
0.0
  0
LINE
  5
1F3
330
1E
100
AcDbEntity
  8
0
100
AcDbLine
 10
15.235
 20
1172.374
 30
0.0
 11
16.101
 21
1171.874
 31
0.0
  0
LINE
  5
1F4
330
1E
100
AcDbEntity
  8
0
100
AcDbLine
 10
14.096
 20
1173.713
 30
0.0
 11
14.96199999999999
 21
1173.213
 31
0.0
  0
LINE
  5
1F5
330
1E
100
AcDbEntity
  8
0
100
AcDbLine
 10
14.096
 20
1173.713
 30
0.0
 11
14.80244280325799
 21
1174.41994812715
 31
0.0
  0
LINE
  5
1F6
330
1E
100
AcDbEntity
  8
0
100
AcDbLine
 10
14.096
 20
1173.713
 30
0.0
 11
15.235
 21
1172.374
 31
0.0
  0
LINE
  5
1F7
330
1E
100
AcDbEntity
  8
0
100
AcDbLine
 10
14.96199999999999
 20
1173.213
 30
0.0
 11
15.6684134435906
 21
1173.91991874648
 31
0.0
  0
LINE
  5
1F8
330
1E
100
AcDbEntity
  8
0
100
AcDbLine
 10
14.96199999999999
 20
1173.213
 30
0.0
 11
16.101
 21
1171.874
 31
0.0
  0
LINE
  5
1F9
330
1E
100
AcDbEntity
  8
0
100
AcDbLine
 10
20.5
 20
1173.208
 30
0.0
 11
26.043
 21
1170.007999999999
 31
0.0
  0
LINE
  5
1FA
330
1E
100
AcDbEntity
  8
0
100
AcDbLine
 10
10.942
 20
1174.852
 30
0.0
 11
11.8151175720318
 21
1175.67751488867
 31
0.0
  0
LINE
  5
1FB
330
1E
100
AcDbEntity
  8
0
100
AcDbLine
 10
21.0
 20
1174.074999999999
 30
0.0
 11
26.543
 21
1170.875
 31
0.0
  0
LINE
  5
1FC
330
1E
100
AcDbEntity
  8
0
100
AcDbLine
 10
12.888
 20
1174.023999999999
 30
0.0
 11
17.4013197469121
 21
1169.79936115795
 31
0.0
  0
LINE
  5
1FD
330
1E
100
AcDbEntity
  8
0
100
AcDbLine
 10
32.06
 20
1173.231
 30
0.0
 11
36.39035714225629
 21
1170.73100000035
 31
0.0
  0
LINE
  5
1FE
330
1E
100
AcDbEntity
  8
0
100
AcDbLine
 10
31.974
 20
1173.281
 30
0.0
 11
39.248
 21
1169.081
 31
0.0
  0
LINE
  5
1FF
330
1E
100
AcDbEntity
  8
0
100
AcDbLine
 10
29.0400990995506
 20
1174.97469369343
 30
0.0
 11
31.974
 21
1173.281
 31
0.0
  0
LINE
  5
200
330
1E
100
AcDbEntity
  8
0
100
AcDbLine
 10
29.0400990995506
 20
1174.97469369343
 30
0.0
 11
32.06
 21
1173.231
 31
0.0
  0
LINE
  5
201
330
1E
100
AcDbEntity
  8
0
100
AcDbLine
 10
0.190999999999985
 20
1194.633
 30
0.0
 11
0.7989999999999901
 21
1197.285
 31
0.0
  0
LINE
  5
202
330
1E
100
AcDbEntity
  8
0
100
AcDbLine
 10
0.190999999999985
 20
1194.633
 30
0.0
 11
0.5369999999999891
 21
1191.431
 31
0.0
  0
LINE
  5
203
330
1E
100
AcDbEntity
  8
0
100
AcDbLine
 10
0.7099999999999901
 20
1191.331
 30
0.0
 11
1.31599999999999
 21
1190.981
 31
0.0
  0
LINE
  5
204
330
1E
100
AcDbEntity
  8
0
100
AcDbLine
 10
0.7099999999999901
 20
1191.331
 30
0.0
 11
2.107999999999989
 21
1187.753
 31
0.0
  0
LINE
  5
205
330
1E
100
AcDbEntity
  8
0
100
AcDbLine
 10
0.5369999999999891
 20
1191.431
 30
0.0
 11
1.14299999999998
 21
1191.081
 31
0.0
  0
LINE
  5
206
330
1E
100
AcDbEntity
  8
0
100
AcDbLine
 10
0.190999999999985
 20
1194.633
 30
0.0
 11
0.7989999999999901
 21
1197.285
 31
0.0
  0
LINE
  5
207
330
1E
100
AcDbEntity
  8
0
100
AcDbLine
 10
0.190999999999985
 20
1194.633
 30
0.0
 11
0.5369999999999891
 21
1191.431
 31
0.0
  0
LINE
  5
208
330
1E
100
AcDbEntity
  8
0
100
AcDbLine
 10
2.107999999999989
 20
1187.753
 30
0.0
 11
4.458999999999959
 21
1183.624999999999
 31
0.0
  0
LINE
  5
209
330
1E
100
AcDbEntity
  8
0
100
AcDbLine
 10
1.31599999999999
 20
1190.981
 30
0.0
 11
2.961999999999969
 21
1190.031
 31
0.0
  0
LINE
  5
20A
330
1E
100
AcDbEntity
  8
0
100
AcDbLine
 10
1.31599999999999
 20
1190.981
 30
0.0
 11
2.961999999999969
 21
1190.031
 31
0.0
  0
LINE
  5
20B
330
1E
100
AcDbEntity
  8
0
100
AcDbLine
 10
10.494
 20
1175.111
 30
0.0
 11
10.58507117396499
 21
1175.19710594088
 31
0.0
  0
LINE
  5
20C
330
1E
100
AcDbEntity
  8
0
100
AcDbLine
 10
10.494
 20
1175.111
 30
0.0
 11
10.942
 21
1174.852
 31
0.0
  0
LINE
  5
20D
330
1E
100
AcDbEntity
  8
0
100
AcDbLine
 10
9.407878661928789
 20
1176.30631695993
 30
0.0
 11
10.494
 21
1175.111
 31
0.0
  0
LINE
  5
20E
330
1E
100
AcDbEntity
  8
0
100
AcDbLine
 10
9.407878661928789
 20
1176.30631695993
 30
0.0
 11
10.494
 21
1175.111
 31
0.0
  0
LINE
  5
20F
330
1E
100
AcDbEntity
  8
0
100
AcDbLine
 10
9.190999999999981
 20
1176.545
 30
0.0
 11
9.63899999999999
 21
1176.286
 31
0.0
  0
LINE
  5
210
330
1E
100
AcDbEntity
  8
0
100
AcDbLine
 10
9.190999999999981
 20
1176.545
 30
0.0
 11
9.922832504762119
 21
1177.23693273397
 31
0.0
  0
LINE
  5
211
330
1E
100
AcDbEntity
  8
0
100
AcDbLine
 10
9.190999999999981
 20
1176.545
 30
0.0
 11
10.494
 21
1175.111
 31
0.0
  0
LINE
  5
212
330
1E
100
AcDbEntity
  8
0
100
AcDbLine
 10
9.63899999999999
 20
1176.286
 30
0.0
 11
10.3710554371716
 21
1176.97814351203
 31
0.0
  0
LINE
  5
213
330
1E
100
AcDbEntity
  8
0
100
AcDbLine
 10
9.63899999999999
 20
1176.286
 30
0.0
 11
10.942
 21
1174.852
 31
0.0
  0
LINE
  5
214
330
1E
100
AcDbEntity
  8
0
100
AcDbLine
 10
9.03000000000001
 20
1175.956
 30
0.0
 11
9.407878661928789
 21
1176.30631695993
 31
0.0
  0
LINE
  5
215
330
1E
100
AcDbEntity
  8
0
100
AcDbLine
 10
7.669999999999999
 20
1177.423
 30
0.0
 11
8.410916034870959
 21
1178.10987512435
 31
0.0
  0
LINE
  5
216
330
1E
100
AcDbEntity
  8
0
100
AcDbLine
 10
7.669999999999999
 20
1177.423
 30
0.0
 11
9.03000000000001
 21
1175.956
 31
0.0
  0
LINE
  5
217
330
1E
100
AcDbEntity
  8
0
100
AcDbLine
 10
5.950999999999949
 20
1181.607999999999
 30
0.0
 11
8.37599999999999
 21
1180.208
 31
0.0
  0
LINE
  5
218
330
1E
100
AcDbEntity
  8
0
100
AcDbLine
 10
4.565000000000009
 20
1182.408
 30
0.0
 11
5.950999999999949
 21
1181.607999999999
 31
0.0
  0
LINE
  5
219
330
1E
100
AcDbEntity
  8
0
100
AcDbLine
 10
8.37599999999999
 20
1180.208
 30
0.0
 11
11.49299999999999
 21
1178.408
 31
0.0
  0
LINE
  5
21A
330
1E
100
AcDbEntity
  8
0
100
AcDbLine
 10
8.87599999999999
 20
1181.075
 30
0.0
 11
11.993
 21
1179.275
 31
0.0
  0
LINE
  5
21B
330
1E
100
AcDbEntity
  8
0
100
AcDbLine
 10
6.450999999999949
 20
1182.474999999999
 30
0.0
 11
8.87599999999999
 21
1181.075
 31
0.0
  0
LINE
  5
21C
330
1E
100
AcDbEntity
  8
0
100
AcDbLine
 10
7.90899999999997
 20
1178.4
 30
0.0
 11
8.327301039751871
 21
1178.03235883713
 31
0.0
  0
LINE
  5
21D
330
1E
100
AcDbEntity
  8
0
100
AcDbLine
 10
7.90899999999997
 20
1178.4
 30
0.0
 11
8.327301039751871
 21
1178.03235883713
 31
0.0
  0
LINE
  5
21E
330
1E
100
AcDbEntity
  8
0
100
AcDbLine
 10
11.49299999999999
 20
1178.408
 30
0.0
 11
15.65
 21
1176.008
 31
0.0
  0
LINE
  5
21F
330
1E
100
AcDbEntity
  8
0
100
AcDbLine
 10
11.993
 20
1179.275
 30
0.0
 11
16.15
 21
1176.875
 31
0.0
  0
LINE
  5
220
330
1E
100
AcDbEntity
  8
0
100
AcDbLine
 10
11.4256311046892
 20
1175.3092633633
 30
0.0
 11
12.888
 21
1174.023999999999
 31
0.0
  0
LINE
  5
221
330
1E
100
AcDbEntity
  8
0
100
AcDbLine
 10
5.065000000000009
 20
1183.275
 30
0.0
 11
6.450999999999949
 21
1182.474999999999
 31
0.0
  0
LINE
  5
222
330
1E
100
AcDbEntity
  8
0
100
AcDbLine
 10
4.458999999999959
 20
1183.624999999999
 30
0.0
 11
5.065000000000009
 21
1183.275
 31
0.0
  0
LINE
  5
223
330
1E
100
AcDbEntity
  8
0
100
AcDbLine
 10
3.95899999999996
 20
1182.758
 30
0.0
 11
4.458999999999959
 21
1183.624999999999
 31
0.0
  0
LINE
  5
224
330
1E
100
AcDbEntity
  8
0
100
AcDbLine
 10
3.95899999999996
 20
1182.758
 30
0.0
 11
7.90899999999997
 21
1178.4
 31
0.0
  0
LINE
  5
225
330
1E
100
AcDbEntity
  8
0
100
AcDbLine
 10
3.95899999999996
 20
1182.758
 30
0.0
 11
4.565000000000009
 21
1182.408
 31
0.0
  0
LINE
  5
226
330
1E
100
AcDbEntity
  8
0
100
AcDbLine
 10
15.65
 20
1176.008
 30
0.0
 11
20.5
 21
1173.208
 31
0.0
  0
LINE
  5
227
330
1E
100
AcDbEntity
  8
0
100
AcDbLine
 10
16.15
 20
1176.875
 30
0.0
 11
21.0
 21
1174.074999999999
 31
0.0
  0
LINE
  5
228
330
1E
100
AcDbEntity
  8
0
100
AcDbLine
 10
18.983
 20
1180.781
 30
0.0
 11
25.045
 21
1177.281
 31
0.0
  0
LINE
  5
229
330
1E
100
AcDbEntity
  8
0
100
AcDbLine
 10
25.045
 20
1177.281
 30
0.0
 11
31.974
 21
1173.281
 31
0.0
  0
LINE
  5
22A
330
1E
100
AcDbEntity
  8
0
100
AcDbLine
 10
13.7
 20
1183.831
 30
0.0
 11
15.53710526202469
 21
1182.77047368486
 31
0.0
  0
LINE
  5
22B
330
1E
100
AcDbEntity
  8
0
100
AcDbLine
 10
2.961999999999969
 20
1190.031
 30
0.0
 11
5.560000000000009
 21
1188.531
 31
0.0
  0
LINE
  5
22C
330
1E
100
AcDbEntity
  8
0
100
AcDbLine
 10
5.386999999999949
 20
1188.631
 30
0.0
 11
8.93699999999997
 21
1186.581
 31
0.0
  0
LINE
  5
22D
330
1E
100
AcDbEntity
  8
0
100
AcDbLine
 10
12.74756603809739
 20
1184.38099999979
 30
0.0
 11
13.7
 21
1183.831
 31
0.0
  0
LINE
  5
22E
330
1E
100
AcDbEntity
  8
0
100
AcDbLine
 10
8.93699999999997
 20
1186.581
 30
0.0
 11
13.527
 21
1183.931
 31
0.0
  0
LINE
  5
231
330
1E
100
AcDbEntity
  8
0
100
AcDbLine
 10
5.560000000000009
 20
1188.531
 30
0.0
 11
6.16626829231976
 21
1188.181000000209
 31
0.0
  0
LINE
  5
232
330
1E
100
AcDbEntity
  8
0
100
AcDbLine
 10
5.560000000000009
 20
1188.531
 30
0.0
 11
6.16626829231976
 21
1188.181000000209
 31
0.0
  0
LINE
  5
233
330
1E
100
AcDbEntity
  8
0
100
AcDbLine
 10
13.527
 20
1183.931
 30
0.0
 11
15.53710526202469
 21
1182.77047368486
 31
0.0
  0
LINE
  5
234
330
1E
100
AcDbEntity
  8
0
100
AcDbLine
 10
13.527
 20
1183.931
 30
0.0
 11
18.983
 21
1180.781
 31
0.0
  0
LINE
  5
235
330
1E
100
AcDbEntity
  8
0
100
AcDbLine
 10
2.78899999999997
 20
1190.131
 30
0.0
 11
5.386999999999949
 21
1188.631
 31
0.0
  0
LINE
  5
236
330
1E
100
AcDbEntity
  8
0
100
AcDbLine
 10
1.14299999999998
 20
1191.081
 30
0.0
 11
2.78899999999997
 21
1190.131
 31
0.0
  0
LINE
  5
237
330
1E
100
AcDbEntity
  8
0
100
AcDbLine
 10
67.163
 20
1181.831999999999
 30
0.0
 11
75.75
 21
1177.105
 31
0.0
  0
LINE
  5
238
330
1E
100
AcDbEntity
  8
0
100
AcDbLine
 10
58.6
 20
1186.199
 30
0.0
 11
67.163
 21
1181.831999999999
 31
0.0
  0
LINE
  5
239
330
1E
100
AcDbEntity
  8
0
100
AcDbLine
 10
50.182
 20
1190.02
 30
0.0
 11
58.6
 21
1186.199
 31
0.0
  0
LINE
  5
23A
330
1E
100
AcDbEntity
  8
0
100
AcDbLine
 10
42.011
 20
1193.466999999999
 30
0.0
 11
50.182
 21
1190.02
 31
0.0
  0
LINE
  5
23B
330
1E
100
AcDbEntity
  8
0
100
AcDbLine
 10
34.15999999999999
 20
1196.268
 30
0.0
 11
42.011
 21
1193.466999999999
 31
0.0
  0
LINE
  5
23C
330
1E
100
AcDbEntity
  8
0
100
AcDbLine
 10
26.988
 20
1198.446
 30
0.0
 11
34.15999999999999
 21
1196.268
 31
0.0
  0
LINE
  5
23D
330
1E
100
AcDbEntity
  8
0
100
AcDbLine
 10
20.409
 20
1200.05
 30
0.0
 11
26.988
 21
1198.446
 31
0.0
  0
LINE
  5
23E
330
1E
100
AcDbEntity
  8
0
100
AcDbLine
 10
14.459
 20
1200.944999999999
 30
0.0
 11
20.409
 21
1200.05
 31
0.0
  0
LINE
  5
23F
330
1E
100
AcDbEntity
  8
0
100
AcDbLine
 10
9.70799999999998
 20
1200.917
 30
0.0
 11
14.459
 21
1200.944999999999
 31
0.0
  0
LINE
  5
240
330
1E
100
AcDbEntity
  8
0
100
AcDbLine
 10
5.73699999999998
 20
1200.438
 30
0.0
 11
9.70799999999998
 21
1200.917
 31
0.0
  0
LINE
  5
241
330
1E
100
AcDbEntity
  8
0
100
AcDbLine
 10
2.790999999999979
 20
1199.135999999999
 30
0.0
 11
5.73699999999998
 21
1200.438
 31
0.0
  0
LINE
  5
242
330
1E
100
AcDbEntity
  8
0
100
AcDbLine
 10
0.7989999999999901
 20
1197.285
 30
0.0
 11
2.790999999999979
 21
1199.135999999999
 31
0.0
  0
LINE
  5
243
330
1E
100
AcDbEntity
  8
0
100
AcDbLine
 10
29.0400990995506
 20
1174.97469369343
 30
0.0
 11
31.974
 21
1173.281
 31
0.0
  0
LINE
  5
244
330
1E
100
AcDbEntity
  8
0
100
AcDbLine
 10
29.0400990995506
 20
1174.97469369343
 30
0.0
 11
32.06
 21
1173.231
 31
0.0
  0
LINE
  5
245
330
1E
100
AcDbEntity
  8
0
100
AcDbLine
 10
75.75
 20
1177.105
 30
0.0
 11
84.138
 21
1172.031999999999
 31
0.0
  0
LINE
  5
246
330
1E
100
AcDbEntity
  8
0
100
AcDbLine
 10
84.138
 20
1172.031999999999
 30
0.0
 11
92.2014
 21
1166.798999999999
 31
0.0
  0
LINE
  5
247
330
1E
100
AcDbEntity
  8
0
100
AcDbLine
 10
116.364
 20
1112.6011
 30
0.0
 11
116.86
 21
1113.378399999999
 31
0.0
  0
LINE
  5
248
330
1E
100
AcDbEntity
  8
0
100
AcDbLine
 10
115.7229999999999
 20
1112.3023
 30
0.0
 11
116.364
 21
1112.6011
 31
0.0
  0
LINE
  5
249
330
1E
100
AcDbEntity
  8
0
100
AcDbLine
 10
114.7489999999999
 20
1112.5503
 30
0.0
 11
115.7229999999999
 21
1112.3023
 31
0.0
  0
LINE
  5
24A
330
1E
100
AcDbEntity
  8
0
100
AcDbLine
 10
112.532
 20
1114.944099999999
 30
0.0
 11
114.006
 21
1113.14
 31
0.0
  0
LINE
  5
24B
330
1E
100
AcDbEntity
  8
0
100
AcDbLine
 10
116.86
 20
1113.378399999999
 30
0.0
 11
117.0139999999999
 21
1114.3865
 31
0.0
  0
LINE
  5
24C
330
1E
100
AcDbEntity
  8
0
100
AcDbLine
 10
114.006
 20
1113.14
 30
0.0
 11
114.7489999999999
 21
1112.5503
 31
0.0
  0
LINE
  5
24D
330
1E
100
AcDbEntity
  8
0
100
AcDbLine
 10
112.491
 20
1114.9952
 30
0.0
 11
114.006
 21
1113.14
 31
0.0
  0
LINE
  5
24E
330
1E
100
AcDbEntity
  8
0
100
AcDbLine
 10
116.449510972529
 20
1117.811917755139
 30
0.0
 11
117.0139999999999
 21
1114.3865
 31
0.0
  0
LINE
  5
24F
330
1E
100
AcDbEntity
  8
0
100
AcDbLine
 10
110.0656999999999
 20
1118.3047
 30
0.0
 11
110.2914737083219
 21
1119.295158337969
 31
0.0
  0
LINE
  5
250
330
1E
100
AcDbEntity
  8
0
100
AcDbLine
 10
109.726689041601
 20
1118.381981076469
 30
0.0
 11
112.532
 21
1114.944099999999
 31
0.0
  0
LINE
  5
251
330
1E
100
AcDbEntity
  8
0
100
AcDbLine
 10
115.936
 20
1118.1085
 30
0.0
 11
116.542
 21
1117.758499999999
 31
0.0
  0
LINE
  5
252
330
1E
100
AcDbEntity
  8
0
100
AcDbLine
 10
116.4552274303499
 20
1117.77722929325
 30
0.0
 11
116.542
 21
1117.758499999999
 31
0.0
  0
LINE
  5
253
330
1E
100
AcDbEntity
  8
0
100
AcDbLine
 10
116.542
 20
1117.758499999999
 30
0.0
 11
117.042
 21
1118.624499999999
 31
0.0
  0
LINE
  5
254
330
1E
100
AcDbEntity
  8
0
100
AcDbLine
 10
117.042
 20
1118.624499999999
 30
0.0
 11
121.7929999999999
 21
1118.653
 31
0.0
  0
LINE
  5
255
330
1E
100
AcDbEntity
  8
0
100
AcDbLine
 10
108.1158
 20
1118.7492
 30
0.0
 11
109.727036757429
 21
1118.38190181103
 31
0.0
  0
LINE
  5
256
330
1E
100
AcDbEntity
  8
0
100
AcDbLine
 10
108.1158
 20
1118.7492
 30
0.0
 11
108.230174550454
 21
1119.251068526969
 31
0.0
  0
LINE
  5
257
330
1E
100
AcDbEntity
  8
0
100
AcDbLine
 10
108.1158
 20
1118.7492
 30
0.0
 11
110.0656999999999
 21
1118.3047
 31
0.0
  0
LINE
  5
258
330
1E
100
AcDbEntity
  8
0
100
AcDbLine
 10
114.5499999999999
 20
1118.9085
 30
0.0
 11
115.936
 21
1118.1085
 31
0.0
  0
LINE
  5
259
330
1E
100
AcDbEntity
  8
0
100
AcDbLine
 10
116.436
 20
1118.974499999999
 30
0.0
 11
117.042
 21
1118.624499999999
 31
0.0
  0
LINE
  5
25A
330
1E
100
AcDbEntity
  8
0
100
AcDbLine
 10
121.7929999999999
 20
1118.653
 30
0.0
 11
125.590886951527
 21
1119.231382783769
 31
0.0
  0
LINE
  5
25C
330
1E
100
AcDbEntity
  8
0
100
AcDbLine
 10
193.1409999999999
 20
1060.8322
 30
0.0
 11
193.5149999999999
 21
1061.0786
 31
0.0
  0
LINE
  5
25D
330
1E
100
AcDbEntity
  8
0
100
AcDbLine
 10
193.5149999999999
 20
1061.0786
 30
0.0
 11
194.632
 21
1064.0133
 31
0.0
  0
LINE
  5
25E
330
1E
100
AcDbEntity
  8
0
100
AcDbLine
 10
164.3679999999999
 20
1061.3945
 30
0.0
 11
170.2479999999999
 21
1053.38036
 31
0.0
  0
LINE
  5
25F
330
1E
100
AcDbEntity
  8
0
100
AcDbLine
 10
190.3079999999999
 20
1076.324499999999
 30
0.0
 11
194.4729999999999
 21
1067.3382
 31
0.0
  0
LINE
  5
260
330
1E
100
AcDbEntity
  8
0
100
AcDbLine
 10
159.599
 20
1068.5354
 30
0.0
 11
164.3679999999999
 21
1061.3945
 31
0.0
  0
LINE
  5
261
330
1E
100
AcDbEntity
  8
0
100
AcDbLine
 10
185.5399999999999
 20
1083.4654
 30
0.0
 11
190.3079999999999
 21
1076.324499999999
 31
0.0
  0
LINE
  5
262
330
1E
100
AcDbEntity
  8
0
100
AcDbLine
 10
153.6889999999999
 20
1078.2985
 30
0.0
 11
159.599
 21
1068.5354
 31
0.0
  0
LINE
  5
263
330
1E
100
AcDbEntity
  8
0
100
AcDbLine
 10
178.7959999999999
 20
1092.7857
 30
0.0
 11
185.5399999999999
 21
1083.4654
 31
0.0
  0
LINE
  5
264
330
1E
100
AcDbEntity
  8
0
100
AcDbLine
 10
148.828
 20
1086.8786
 30
0.0
 11
153.6889999999999
 21
1078.2985
 31
0.0
  0
LINE
  5
265
330
1E
100
AcDbEntity
  8
0
100
AcDbLine
 10
172.592
 20
1100.64
 30
0.0
 11
178.7959999999999
 21
1092.7857
 31
0.0
  0
LINE
  5
266
330
1E
100
AcDbEntity
  8
0
100
AcDbLine
 10
144.7789999999999
 20
1094.0659
 30
0.0
 11
148.828
 21
1086.8786
 31
0.0
  0
LINE
  5
267
330
1E
100
AcDbEntity
  8
0
100
AcDbLine
 10
141.7229999999999
 20
1101.3729
 30
0.0
 11
144.7789999999999
 21
1094.0659
 31
0.0
  0
LINE
  5
268
330
1E
100
AcDbEntity
  8
0
100
AcDbLine
 10
165.5949999999999
 20
1108.7211
 30
0.0
 11
172.592
 21
1100.64
 31
0.0
  0
LINE
  5
269
330
1E
100
AcDbEntity
  8
0
100
AcDbLine
 10
158.5679999999999
 20
1115.5496
 30
0.0
 11
165.5949999999999
 21
1108.7211
 31
0.0
  0
LINE
  5
26A
330
1E
100
AcDbEntity
  8
0
100
AcDbLine
 10
137.9939999999999
 20
1107.9138
 30
0.0
 11
141.7229999999999
 21
1101.3729
 31
0.0
  0
LINE
  5
26B
330
1E
100
AcDbEntity
  8
0
100
AcDbLine
 10
131.5629999999999
 20
1114.9752
 30
0.0
 11
137.9939999999999
 21
1107.9138
 31
0.0
  0
LINE
  5
26C
330
1E
100
AcDbEntity
  8
0
100
AcDbLine
 10
96.1611
 20
1122.6798
 30
0.0
 11
96.38720000000001
 21
1122.549299999999
 31
0.0
  0
LINE
  5
26D
330
1E
100
AcDbEntity
  8
0
100
AcDbLine
 10
96.1611
 20
1122.6798
 30
0.0
 11
96.5623387117205
 21
1123.897885035469
 31
0.0
  0
LINE
  5
26E
330
1E
100
AcDbEntity
  8
0
100
AcDbLine
 10
96.1611
 20
1122.6798
 30
0.0
 11
98.04730000000001
 21
1122.0657
 31
0.0
  0
LINE
  5
26F
330
1E
100
AcDbEntity
  8
0
100
AcDbLine
 10
96.38720000000001
 20
1122.549299999999
 30
0.0
 11
98.27330000000001
 21
1121.935099999999
 31
0.0
  0
LINE
  5
270
330
1E
100
AcDbEntity
  8
0
100
AcDbLine
 10
96.38720000000001
 20
1122.549299999999
 30
0.0
 11
96.4041238018229
 21
1122.600677469669
 31
0.0
  0
LINE
  5
271
330
1E
100
AcDbEntity
  8
0
100
AcDbLine
 10
98.27330000000001
 20
1121.935099999999
 30
0.0
 11
98.68513325533321
 21
1123.18514822339
 31
0.0
  0
LINE
  5
272
330
1E
100
AcDbEntity
  8
0
100
AcDbLine
 10
98.04730000000001
 20
1122.0657
 30
0.0
 11
98.44284425242641
 21
1123.26649773131
 31
0.0
  0
LINE
  5
273
330
1E
100
AcDbEntity
  8
0
100
AcDbLine
 10
98.04730000000001
 20
1122.0657
 30
0.0
 11
98.27330000000001
 21
1121.935099999999
 31
0.0
  0
LINE
  5
274
330
1E
100
AcDbEntity
  8
0
100
AcDbLine
 10
95.7202
 20
1123.409199999999
 30
0.0
 11
96.11680107729201
 21
1124.560051340359
 31
0.0
  0
LINE
  5
275
330
1E
100
AcDbEntity
  8
0
100
AcDbLine
 10
95.05740000000001
 20
1123.7919
 30
0.0
 11
95.51447888794902
 21
1125.11824498735
 31
0.0
  0
LINE
  5
276
330
1E
100
AcDbEntity
  8
0
100
AcDbLine
 10
95.05740000000001
 20
1123.7919
 30
0.0
 11
95.7202
 21
1123.409199999999
 31
0.0
  0
LINE
  5
277
330
1E
100
AcDbEntity
  8
0
100
AcDbLine
 10
92.9926
 20
1127.480499999999
 30
0.0
 11
94.21739999999999
 21
1126.7734
 31
0.0
  0
LINE
  5
278
330
1E
100
AcDbEntity
  8
0
100
AcDbLine
 10
92.9926
 20
1127.480499999999
 30
0.0
 11
93.37515922927151
 21
1128.68032729665
 31
0.0
  0
LINE
  5
279
330
1E
100
AcDbEntity
  8
0
100
AcDbLine
 10
92.9926
 20
1127.480499999999
 30
0.0
 11
94.4579
 21
1127.3159
 31
0.0
  0
LINE
  5
27A
330
1E
100
AcDbEntity
  8
0
100
AcDbLine
 10
93.2858
 20
1124.3399
 30
0.0
 11
93.94859999999999
 21
1123.9572
 31
0.0
  0
LINE
  5
27B
330
1E
100
AcDbEntity
  8
0
100
AcDbLine
 10
93.2858
 20
1124.3399
 30
0.0
 11
93.66035667381609
 21
1125.42678320527
 31
0.0
  0
LINE
  5
27C
330
1E
100
AcDbEntity
  8
0
100
AcDbLine
 10
93.2858
 20
1124.3399
 30
0.0
 11
95.05740000000001
 21
1123.7919
 31
0.0
  0
LINE
  5
27D
330
1E
100
AcDbEntity
  8
0
100
AcDbLine
 10
93.2858
 20
1124.3399
 30
0.0
 11
93.4111495853746
 21
1124.70363763613
 31
0.0
  0
LINE
  5
27E
330
1E
100
AcDbEntity
  8
0
100
AcDbLine
 10
94.21739999999999
 20
1126.7734
 30
0.0
 11
95.6826
 21
1126.6088
 31
0.0
  0
LINE
  5
27F
330
1E
100
AcDbEntity
  8
0
100
AcDbLine
 10
94.21739999999999
 20
1126.7734
 30
0.0
 11
94.307030229852
 21
1127.054556196519
 31
0.0
  0
LINE
  5
280
330
1E
100
AcDbEntity
  8
0
100
AcDbLine
 10
94.4579
 20
1127.3159
 30
0.0
 11
95.6826
 21
1126.6088
 31
0.0
  0
LINE
  5
281
330
1E
100
AcDbEntity
  8
0
100
AcDbLine
 10
94.4579
 20
1127.3159
 30
0.0
 11
94.75795576089069
 21
1128.257128607969
 31
0.0
  0
LINE
  5
282
330
1E
100
AcDbEntity
  8
0
100
AcDbLine
 10
93.94859999999999
 20
1123.9572
 30
0.0
 11
95.7202
 21
1123.409199999999
 31
0.0
  0
LINE
  5
283
330
1E
100
AcDbEntity
  8
0
100
AcDbLine
 10
93.94859999999999
 20
1123.9572
 30
0.0
 11
94.003932710305
 21
1124.1177636683
 31
0.0
  0
LINE
  5
284
330
1E
100
AcDbEntity
  8
0
100
AcDbLine
 10
94.4585
 20
1130.5085
 30
0.0
 11
100.001
 21
1127.3085
 31
0.0
  0
LINE
  5
285
330
1E
100
AcDbEntity
  8
0
100
AcDbLine
 10
95.6826
 20
1126.6088
 30
0.0
 11
96.00505852676892
 21
1127.62013239732
 31
0.0
  0
LINE
  5
286
330
1E
100
AcDbEntity
  8
0
100
AcDbLine
 10
94.9585
 20
1131.374499999999
 30
0.0
 11
100.5009999999999
 21
1128.1745
 31
0.0
  0
LINE
  5
287
330
1E
100
AcDbEntity
  8
0
100
AcDbLine
 10
95.86465478375171
 20
1123.82837682785
 30
0.0
 11
96.46848624189601
 21
1123.61296664226
 31
0.0
  0
LINE
  5
288
330
1E
100
AcDbEntity
  8
0
100
AcDbLine
 10
101.0453
 20
1122.8313
 30
0.0
 11
101.9112999999999
 21
1122.3313
 31
0.0
  0
LINE
  5
289
330
1E
100
AcDbEntity
  8
0
100
AcDbLine
 10
101.0453
 20
1122.8313
 30
0.0
 11
101.3644467567379
 21
1124.020089001269
 31
0.0
  0
LINE
  5
28A
330
1E
100
AcDbEntity
  8
0
100
AcDbLine
 10
101.0453
 20
1122.8313
 30
0.0
 11
102.7735
 21
1122.5148
 31
0.0
  0
LINE
  5
28B
330
1E
100
AcDbEntity
  8
0
100
AcDbLine
 10
100.001
 20
1127.3085
 30
0.0
 11
104.851
 21
1124.508499999999
 31
0.0
  0
LINE
  5
28C
330
1E
100
AcDbEntity
  8
0
100
AcDbLine
 10
100.5009999999999
 20
1128.1745
 30
0.0
 11
105.3509999999999
 21
1125.374499999999
 31
0.0
  0
LINE
  5
28D
330
1E
100
AcDbEntity
  8
0
100
AcDbLine
 10
98.59779419292141
 20
1122.920045688839
 30
0.0
 11
104.5129999999999
 21
1121.1238
 31
0.0
  0
LINE
  5
28E
330
1E
100
AcDbEntity
  8
0
100
AcDbLine
 10
94.28277055677218
 20
1137.307166868499
 30
0.0
 11
101.082
 21
1133.381399999999
 31
0.0
  0
LINE
  5
28F
330
1E
100
AcDbEntity
  8
0
100
AcDbLine
 10
94.3274
 20
1137.2814
 30
0.0
 11
101.256
 21
1133.2814
 31
0.0
  0
LINE
  5
290
330
1E
100
AcDbEntity
  8
0
100
AcDbLine
 10
101.9112999999999
 20
1122.3313
 30
0.0
 11
103.6396
 21
1122.0148
 31
0.0
  0
LINE
  5
291
330
1E
100
AcDbEntity
  8
0
100
AcDbLine
 10
101.9112999999999
 20
1122.3313
 30
0.0
 11
101.96760352006
 21
1122.541024849039
 31
0.0
  0
LINE
  5
292
330
1E
100
AcDbEntity
  8
0
100
AcDbLine
 10
103.6396
 20
1122.0148
 30
0.0
 11
103.902206274105
 21
1122.99298149089
 31
0.0
  0
LINE
  5
293
330
1E
100
AcDbEntity
  8
0
100
AcDbLine
 10
102.7735
 20
1122.5148
 30
0.0
 11
103.6396
 21
1122.0148
 31
0.0
  0
LINE
  5
294
330
1E
100
AcDbEntity
  8
0
100
AcDbLine
 10
102.7735
 20
1122.5148
 30
0.0
 11
103.0325912745389
 21
1123.47970035089
 31
0.0
  0
LINE
  5
295
330
1E
100
AcDbEntity
  8
0
100
AcDbLine
 10
106.2035
 20
1119.8532
 30
0.0
 11
106.6517999999999
 21
1119.594399999999
 31
0.0
  0
LINE
  5
296
330
1E
100
AcDbEntity
  8
0
100
AcDbLine
 10
106.2035
 20
1119.8532
 30
0.0
 11
106.4817100380649
 21
1121.02163397455
 31
0.0
  0
LINE
  5
297
330
1E
100
AcDbEntity
  8
0
100
AcDbLine
 10
106.2035
 20
1119.8532
 30
0.0
 11
108.0970999999999
 21
1119.441299999999
 31
0.0
  0
LINE
  5
298
330
1E
100
AcDbEntity
  8
0
100
AcDbLine
 10
106.2035
 20
1119.8532
 30
0.0
 11
106.3574621257389
 21
1120.499814262219
 31
0.0
  0
LINE
  5
299
330
1E
100
AcDbEntity
  8
0
100
AcDbLine
 10
106.6517999999999
 20
1119.594399999999
 30
0.0
 11
108.5454
 21
1119.182499999999
 31
0.0
  0
LINE
  5
29A
330
1E
100
AcDbEntity
  8
0
100
AcDbLine
 10
106.6517999999999
 20
1119.594399999999
 30
0.0
 11
106.688311674165
 21
1119.74774270776
 31
0.0
  0
LINE
  5
29B
330
1E
100
AcDbEntity
  8
0
100
AcDbLine
 10
104.851
 20
1124.508499999999
 30
0.0
 11
109.0079999999999
 21
1122.1085
 31
0.0
  0
LINE
  5
29C
330
1E
100
AcDbEntity
  8
0
100
AcDbLine
 10
105.3509999999999
 20
1125.374499999999
 30
0.0
 11
109.508
 21
1122.9745
 31
0.0
  0
LINE
  5
29D
330
1E
100
AcDbEntity
  8
0
100
AcDbLine
 10
104.5129999999999
 20
1121.1238
 30
0.0
 11
106.3574621257389
 21
1120.499814262219
 31
0.0
  0
LINE
  5
29E
330
1E
100
AcDbEntity
  8
0
100
AcDbLine
 10
107.231
 20
1129.8314
 30
0.0
 11
110.76389473588
 21
1127.791926316349
 31
0.0
  0
LINE
  5
29F
330
1E
100
AcDbEntity
  8
0
100
AcDbLine
 10
108.5454
 20
1119.182499999999
 30
0.0
 11
108.778684941357
 21
1120.16246850961
 31
0.0
  0
LINE
  5
2A0
330
1E
100
AcDbEntity
  8
0
100
AcDbLine
 10
108.0970999999999
 20
1119.441299999999
 30
0.0
 11
108.3304364106
 21
1120.421272511199
 31
0.0
  0
LINE
  5
2A1
330
1E
100
AcDbEntity
  8
0
100
AcDbLine
 10
108.0970999999999
 20
1119.441299999999
 30
0.0
 11
108.5454
 21
1119.182499999999
 31
0.0
  0
LINE
  5
2A2
330
1E
100
AcDbEntity
  8
0
100
AcDbLine
 10
108.6646893088069
 20
1119.68360292368
 30
0.0
 11
112.491
 21
1114.9952
 31
0.0
  0
LINE
  5
2A3
330
1E
100
AcDbEntity
  8
0
100
AcDbLine
 10
109.0079999999999
 20
1122.1085
 30
0.0
 11
112.125
 21
1120.3085
 31
0.0
  0
LINE
  5
2A4
330
1E
100
AcDbEntity
  8
0
100
AcDbLine
 10
109.508
 20
1122.9745
 30
0.0
 11
112.6249999999999
 21
1121.1745
 31
0.0
  0
LINE
  5
2A5
330
1E
100
AcDbEntity
  8
0
100
AcDbLine
 10
107.318
 20
1129.7814
 30
0.0
 11
112.7739999999999
 21
1126.631399999999
 31
0.0
  0
LINE
  5
2A6
330
1E
100
AcDbEntity
  8
0
100
AcDbLine
 10
101.256
 20
1133.2814
 30
0.0
 11
107.318
 21
1129.7814
 31
0.0
  0
LINE
  5
2A7
330
1E
100
AcDbEntity
  8
0
100
AcDbLine
 10
126.1292372238359
 20
1119.29278129473
 30
0.0
 11
131.5629999999999
 21
1114.9752
 31
0.0
  0
LINE
  5
2A8
330
1E
100
AcDbEntity
  8
0
100
AcDbLine
 10
112.125
 20
1120.3085
 30
0.0
 11
114.5499999999999
 21
1118.9085
 31
0.0
  0
LINE
  5
2A9
330
1E
100
AcDbEntity
  8
0
100
AcDbLine
 10
112.6249999999999
 20
1121.1745
 30
0.0
 11
115.05
 21
1119.774499999999
 31
0.0
  0
LINE
  5
2AA
330
1E
100
AcDbEntity
  8
0
100
AcDbLine
 10
115.05
 20
1119.774499999999
 30
0.0
 11
116.436
 21
1118.974499999999
 31
0.0
  0
LINE
  5
2AB
330
1E
100
AcDbEntity
  8
0
100
AcDbLine
 10
112.7739999999999
 20
1126.631399999999
 30
0.0
 11
117.364
 21
1123.981399999999
 31
0.0
  0
LINE
  5
2AC
330
1E
100
AcDbEntity
  8
0
100
AcDbLine
 10
117.364
 20
1123.981399999999
 30
0.0
 11
120.914
 21
1121.9314
 31
0.0
  0
LINE
  5
2AD
330
1E
100
AcDbEntity
  8
0
100
AcDbLine
 10
120.914
 20
1121.9314
 30
0.0
 11
123.5119999999999
 21
1120.431399999999
 31
0.0
  0
LINE
  5
2AE
330
1E
100
AcDbEntity
  8
0
100
AcDbLine
 10
152.147
 20
1122.028
 30
0.0
 11
158.5679999999999
 21
1115.5496
 31
0.0
  0
LINE
  5
2AF
330
1E
100
AcDbEntity
  8
0
100
AcDbLine
 10
143.561
 20
1129.7565
 30
0.0
 11
152.147
 21
1122.028
 31
0.0
  0
LINE
  5
2B0
330
1E
100
AcDbEntity
  8
0
100
AcDbLine
 10
134.7849999999999
 20
1136.555499999999
 30
0.0
 11
143.561
 21
1129.7565
 31
0.0
  0
LINE
  5
2B1
330
1E
100
AcDbEntity
  8
0
100
AcDbLine
 10
123.5119999999999
 20
1120.431399999999
 30
0.0
 11
125.1579999999999
 21
1119.481399999999
 31
0.0
  0
LINE
  5
2B2
330
1E
100
AcDbEntity
  8
0
100
AcDbLine
 10
125.1579999999999
 20
1119.481399999999
 30
0.0
 11
125.764
 21
1119.1314
 31
0.0
  0
LINE
  5
2B4
330
1E
100
AcDbEntity
  8
0
100
AcDbLine
 10
123.56
 20
1145.114399999999
 30
0.0
 11
134.7849999999999
 21
1136.555499999999
 31
0.0
  0
LINE
  5
2B5
330
1E
100
AcDbEntity
  8
0
100
AcDbLine
 10
107.709
 20
1156.46
 30
0.0
 11
123.56
 21
1145.114399999999
 31
0.0
  0
LINE
  5
2B7
330
1E
100
AcDbEntity
  8
0
100
AcDbLine
 10
101.082
 20
1133.381399999999
 30
0.0
 11
107.231
 21
1129.8314
 31
0.0
  0
LINE
  5
2B8
330
1E
100
AcDbEntity
  8
0
100
AcDbLine
 10
125.764
 20
1119.1314
 30
0.0
 11
126.217097820715
 21
1119.331602794709
 31
0.0
  0
LINE
  5
2B9
330
1E
100
AcDbEntity
  8
0
100
AcDbLine
 10
92.2014
 20
1166.798999999999
 30
0.0
 11
96.267538780577
 21
1163.889553973959
 31
0.0
  0
LINE
  5
2BA
330
1E
100
AcDbEntity
  8
0
100
AcDbLine
 10
192.6829999999999
 20
1060.21
 30
0.0
 11
194.329
 21
1061.16
 31
0.0
  0
LINE
  5
2BB
330
1E
100
AcDbEntity
  8
0
100
AcDbLine
 10
195.2809999999999
 20
1061.71
 30
0.0
 11
195.6279999999999
 21
1061.91
 31
0.0
  0
LINE
  5
2BC
330
1E
100
AcDbEntity
  8
0
100
AcDbLine
 10
194.4729999999999
 20
1067.3382
 30
0.0
 11
194.632
 21
1064.0133
 31
0.0
  0
LINE
  5
2BD
330
1E
100
AcDbEntity
  8
0
100
AcDbLine
 10
195.6279999999999
 20
1061.91
 30
0.0
 11
196.6653216828859
 21
1059.886234684799
 31
0.0
  0
LINE
  5
2BE
330
1E
100
AcDbEntity
  8
0
100
AcDbLine
 10
194.329
 20
1061.16
 30
0.0
 11
195.2809999999999
 21
1061.71
 31
0.0
  0
LINE
  5
2BF
330
1E
100
AcDbEntity
  8
0
100
AcDbLine
 10
195.447
 20
1060.0
 30
0.0
 11
195.7799999999999
 21
1060.0
 31
0.0
  0
LINE
  5
2C0
330
1E
100
AcDbEntity
  8
0
100
AcDbLine
 10
195.447
 20
1060.0
 30
0.0
 11
195.6134999999999
 21
1059.978609969169
 31
0.0
  0
LINE
  5
2C1
330
1E
100
AcDbEntity
  8
0
100
AcDbLine
 10
195.7799999999999
 20
1060.0
 30
0.0
 11
199.671
 21
1059.5
 31
0.0
  0
LINE
  5
2C2
330
1E
100
AcDbEntity
  8
0
100
AcDbLine
 10
190.878841847287
 20
1059.21722237498
 30
0.0
 11
191.1858440087149
 21
1059.345424836599
 31
0.0
  0
LINE
  5
2C3
330
1E
100
AcDbEntity
  8
0
100
AcDbLine
 10
202.692
 20
1003.69
 30
0.0
 11
210.5929999999999
 21
980.893
 31
0.0
  0
LINE
  5
2C4
330
1E
100
AcDbEntity
  8
0
100
AcDbLine
 10
210.5929999999999
 20
980.893
 30
0.0
 11
216.793
 21
956.4960000000001
 31
0.0
  0
LINE
  5
2C5
330
1E
100
AcDbEntity
  8
0
100
AcDbLine
 10
206.409
 20
210.0
 30
0.0
 11
225.809
 21
210.0
 31
0.0
  0
LINE
  5
2C6
330
1E
100
AcDbEntity
  8
0
100
AcDbLine
 10
206.409
 20
150.0
 30
0.0
 11
225.809
 21
150.0
 31
0.0
  0
LINE
  5
2C7
330
1E
100
AcDbEntity
  8
0
100
AcDbLine
 10
225.809
 20
150.0
 30
0.0
 11
245.209
 21
150.0
 31
0.0
  0
LINE
  5
2C8
330
1E
100
AcDbEntity
  8
0
100
AcDbLine
 10
234.809
 20
150.0
 30
0.0
 11
236.609
 21
150.0
 31
0.0
  0
LINE
  5
2C9
330
1E
100
AcDbEntity
  8
0
100
AcDbLine
 10
224.291
 20
910.5919999999999
 30
0.0
 11
226.092
 21
878.991
 31
0.0
  0
LINE
  5
2CA
330
1E
100
AcDbEntity
  8
0
100
AcDbLine
 10
221.3919999999999
 20
932.2889999999999
 30
0.0
 11
224.291
 21
910.5919999999999
 31
0.0
  0
LINE
  5
2CB
330
1E
100
AcDbEntity
  8
0
100
AcDbLine
 10
216.793
 20
956.4960000000001
 30
0.0
 11
221.3919999999999
 21
932.2889999999999
 31
0.0
  0
LINE
  5
2CC
330
1E
100
AcDbEntity
  8
0
100
AcDbLine
 10
224.492
 20
988.8989999999999
 30
0.0
 11
231.292
 21
963.1910000000001
 31
0.0
  0
LINE
  5
2CD
330
1E
100
AcDbEntity
  8
0
100
AcDbLine
 10
235.4099999999999
 20
353.649
 30
0.0
 11
238.3159999999999
 21
354.157
 31
0.0
  0
LINE
  5
2CE
330
1E
100
AcDbEntity
  8
0
100
AcDbLine
 10
232.267
 20
353.777
 30
0.0
 11
235.4099999999999
 21
353.649
 31
0.0
  0
LINE
  5
2CF
330
1E
100
AcDbEntity
  8
0
100
AcDbLine
 10
229.468
 20
354.48
 30
0.0
 11
232.267
 21
353.777
 31
0.0
  0
LINE
  5
2D0
330
1E
100
AcDbEntity
  8
0
100
AcDbLine
 10
227.5279999999999
 20
355.656
 30
0.0
 11
229.468
 21
354.48
 31
0.0
  0
LINE
  5
2D1
330
1E
100
AcDbEntity
  8
0
100
AcDbLine
 10
233.497
 20
361.4619999999999
 30
0.0
 11
236.64
 21
361.3309999999999
 31
0.0
  0
LINE
  5
2D2
330
1E
100
AcDbEntity
  8
0
100
AcDbLine
 10
230.587
 20
360.957
 30
0.0
 11
233.497
 21
361.4619999999999
 31
0.0
  0
LINE
  5
2D3
330
1E
100
AcDbEntity
  8
0
100
AcDbLine
 10
228.1919999999999
 20
360.0049999999999
 30
0.0
 11
230.587
 21
360.957
 31
0.0
  0
LINE
  5
2D4
330
1E
100
AcDbEntity
  8
0
100
AcDbLine
 10
226.759
 20
358.6309999999999
 30
0.0
 11
228.1919999999999
 21
360.0049999999999
 31
0.0
  0
LINE
  5
2D5
330
1E
100
AcDbEntity
  8
0
100
AcDbLine
 10
226.092
 20
878.991
 30
0.0
 11
226.494
 21
357.086
 31
0.0
  0
LINE
  5
2D6
330
1E
100
AcDbEntity
  8
0
100
AcDbLine
 10
226.494
 20
357.086
 30
0.0
 11
227.5279999999999
 21
355.656
 31
0.0
  0
LINE
  5
2D7
330
1E
100
AcDbEntity
  8
0
100
AcDbLine
 10
226.494
 20
357.086
 30
0.0
 11
226.759
 21
358.6309999999999
 31
0.0
  0
LINE
  5
2D8
330
1E
100
AcDbEntity
  8
0
100
AcDbLine
 10
236.64
 20
361.3309999999999
 30
0.0
 11
239.434
 21
360.6269999999999
 31
0.0
  0
LINE
  5
2D9
330
1E
100
AcDbEntity
  8
0
100
AcDbLine
 10
239.434
 20
360.6269999999999
 30
0.0
 11
241.3699999999999
 21
359.4509999999999
 31
0.0
  0
LINE
  5
2DA
330
1E
100
AcDbEntity
  8
0
100
AcDbLine
 10
240.708
 20
355.108
 30
0.0
 11
242.137
 21
356.4819999999999
 31
0.0
  0
LINE
  5
2DB
330
1E
100
AcDbEntity
  8
0
100
AcDbLine
 10
238.3159999999999
 20
354.157
 30
0.0
 11
240.708
 21
355.108
 31
0.0
  0
LINE
  5
2DC
330
1E
100
AcDbEntity
  8
0
100
AcDbLine
 10
240.092
 20
913.396
 30
0.0
 11
242.092
 21
878.9950000000001
 31
0.0
  0
LINE
  5
2DD
330
1E
100
AcDbEntity
  8
0
100
AcDbLine
 10
236.3919999999999
 20
937.794
 30
0.0
 11
240.092
 21
913.396
 31
0.0
  0
LINE
  5
2DE
330
1E
100
AcDbEntity
  8
0
100
AcDbLine
 10
231.292
 20
963.1910000000001
 30
0.0
 11
236.3919999999999
 21
937.794
 31
0.0
  0
LINE
  5
2DF
330
1E
100
AcDbEntity
  8
0
100
AcDbLine
 10
225.809
 20
210.0
 30
0.0
 11
245.209
 21
210.0
 31
0.0
  0
LINE
  5
2E0
330
1E
100
AcDbEntity
  8
0
100
AcDbLine
 10
236.609
 20
150.0
 30
0.0
 11
241.509
 21
150.0
 31
0.0
  0
LINE
  5
2E1
330
1E
100
AcDbEntity
  8
0
100
AcDbLine
 10
245.209
 20
150.0
 30
0.0
 11
263.209
 21
150.0
 31
0.0
  0
LINE
  5
2E2
330
1E
100
AcDbEntity
  8
0
100
AcDbLine
 10
241.509
 20
150.0
 30
0.0
 11
249.509
 21
150.0
 31
0.0
  0
LINE
  5
2E3
330
1E
100
AcDbEntity
  8
0
100
AcDbLine
 10
263.209
 20
150.0
 30
0.0
 11
278.809
 21
150.0
 31
0.0
  0
LINE
  5
2E4
330
1E
100
AcDbEntity
  8
0
100
AcDbLine
 10
249.509
 20
150.0
 30
0.0
 11
259.9089999999999
 21
150.0
 31
0.0
  0
LINE
  5
2E5
330
1E
100
AcDbEntity
  8
0
100
AcDbLine
 10
241.3699999999999
 20
359.4509999999999
 30
0.0
 11
242.3999999999999
 21
358.023
 31
0.0
  0
LINE
  5
2E6
330
1E
100
AcDbEntity
  8
0
100
AcDbLine
 10
242.092
 20
878.9950000000001
 30
0.0
 11
242.3999999999999
 21
358.023
 31
0.0
  0
LINE
  5
2E7
330
1E
100
AcDbEntity
  8
0
100
AcDbLine
 10
242.137
 20
356.4819999999999
 30
0.0
 11
242.3999999999999
 21
358.023
 31
0.0
  0
LINE
  5
2E8
330
1E
100
AcDbEntity
  8
0
100
AcDbLine
 10
245.209
 20
210.0
 30
0.0
 11
263.209
 21
210.0
 31
0.0
  0
LINE
  5
2E9
330
1E
100
AcDbEntity
  8
0
100
AcDbLine
 10
263.209
 20
210.0
 30
0.0
 11
278.809
 21
210.0
 31
0.0
  0
LINE
  5
2EA
330
1E
100
AcDbEntity
  8
0
100
AcDbLine
 10
259.9089999999999
 20
150.0
 30
0.0
 11
272.009
 21
150.0
 31
0.0
  0
LINE
  5
2EB
330
1E
100
AcDbEntity
  8
0
100
AcDbLine
 10
264.295
 20
993.0
 30
0.0
 11
285.4479999999999
 21
973.6
 31
0.0
  0
LINE
  5
2EE
330
1E
100
AcDbEntity
  8
0
100
AcDbLine
 10
216.093
 20
1012.38
 30
0.0
 11
224.492
 21
988.8989999999999
 31
0.0
  0
LINE
  5
2F0
330
1E
100
AcDbEntity
  8
0
100
AcDbLine
 10
240.547
 20
1009.7
 30
0.0
 11
264.295
 21
993.0
 31
0.0
  0
LINE
  5
2F1
330
1E
100
AcDbEntity
  8
0
100
AcDbLine
 10
215.503
 20
1022.299999999999
 30
0.0
 11
240.547
 21
1009.7
 31
0.0
  0
LINE
  5
2F2
330
1E
100
AcDbEntity
  8
0
100
AcDbLine
 10
264.0609999999999
 20
1030.399999999999
 30
0.0
 11
285.359
 21
1027.2
 31
0.0
  0
LINE
  5
2F3
330
1E
100
AcDbEntity
  8
0
100
AcDbLine
 10
255.950932448123
 20
1031.97122473253
 30
0.0
 11
264.0609999999999
 21
1030.399999999999
 31
0.0
  0
LINE
  5
2F4
330
1E
100
AcDbEntity
  8
0
100
AcDbLine
 10
210.7472525364619
 20
1023.9751062274
 30
0.0
 11
215.503
 21
1022.299999999999
 31
0.0
  0
LINE
  5
2F5
330
1E
100
AcDbEntity
  8
0
100
AcDbLine
 10
210.7472525364619
 20
1023.9751062274
 30
0.0
 11
216.093
 21
1012.38
 31
0.0
  0
LINE
  5
2F6
330
1E
100
AcDbEntity
  8
0
100
AcDbLine
 10
278.809
 20
150.0
 30
0.0
 11
290.809
 21
150.0
 31
0.0
  0
LINE
  5
2F7
330
1E
100
AcDbEntity
  8
0
100
AcDbLine
 10
284.809
 20
150.0
 30
0.0
 11
297.609
 21
150.0
 31
0.0
  0
LINE
  5
2F8
330
1E
100
AcDbEntity
  8
0
100
AcDbLine
 10
278.809
 20
210.0
 30
0.0
 11
290.809
 21
210.0
 31
0.0
  0
LINE
  5
2F9
330
1E
100
AcDbEntity
  8
0
100
AcDbLine
 10
272.009
 20
150.0
 30
0.0
 11
284.809
 21
150.0
 31
0.0
  0
LINE
  5
2FA
330
1E
100
AcDbEntity
  8
0
100
AcDbLine
 10
285.4479999999999
 20
973.6
 30
0.0
 11
304.007
 21
951.5
 31
0.0
  0
LINE
  5
2FC
330
1E
100
AcDbEntity
  8
0
100
AcDbLine
 10
300.809
 20
150.0
 30
0.0
 11
300.809
 21
210.0
 31
0.0
  0
LINE
  5
2FD
330
1E
100
AcDbEntity
  8
0
100
AcDbLine
 10
300.809
 20
150.0
 30
0.0
 11
320.041
 21
150.0
 31
0.0
  0
LINE
  5
2FE
330
1E
100
AcDbEntity
  8
0
100
AcDbLine
 10
300.809
 20
150.0
 30
0.0
 11
300.809
 21
155.0
 31
0.0
  0
LINE
  5
2FF
330
1E
100
AcDbEntity
  8
0
100
AcDbLine
 10
290.809
 20
150.0
 30
0.0
 11
298.109
 21
150.0
 31
0.0
  0
LINE
  5
300
330
1E
100
AcDbEntity
  8
0
100
AcDbLine
 10
298.109
 20
150.0
 30
0.0
 11
300.809
 21
150.0
 31
0.0
  0
LINE
  5
301
330
1E
100
AcDbEntity
  8
0
100
AcDbLine
 10
298.109
 20
150.0
 30
0.0
 11
322.58
 21
150.0
 31
0.0
  0
LINE
  5
302
330
1E
100
AcDbEntity
  8
0
100
AcDbLine
 10
309.709
 20
150.0
 30
0.0
 11
320.109
 21
150.0
 31
0.0
  0
LINE
  5
303
330
1E
100
AcDbEntity
  8
0
100
AcDbLine
 10
309.709
 20
150.0
 30
0.0
 11
320.041
 21
150.0
 31
0.0
  0
LINE
  5
304
330
1E
100
AcDbEntity
  8
0
100
AcDbLine
 10
300.809
 20
155.0
 30
0.0
 11
320.041
 21
155.0
 31
0.0
  0
LINE
  5
305
330
1E
100
AcDbEntity
  8
0
100
AcDbLine
 10
290.809
 20
210.0
 30
0.0
 11
298.109
 21
210.0
 31
0.0
  0
LINE
  5
306
330
1E
100
AcDbEntity
  8
0
100
AcDbLine
 10
298.109
 20
210.0
 30
0.0
 11
300.809
 21
210.0
 31
0.0
  0
LINE
  5
307
330
1E
100
AcDbEntity
  8
0
100
AcDbLine
 10
309.709
 20
210.0
 30
0.0
 11
320.109
 21
210.0
 31
0.0
  0
LINE
  5
308
330
1E
100
AcDbEntity
  8
0
100
AcDbLine
 10
300.809
 20
210.0
 30
0.0
 11
309.709
 21
210.0
 31
0.0
  0
LINE
  5
309
330
1E
100
AcDbEntity
  8
0
100
AcDbLine
 10
300.809
 20
210.0
 30
0.0
 11
300.809
 21
150.0
 31
0.0
  0
LINE
  5
30A
330
1E
100
AcDbEntity
  8
0
100
AcDbLine
 10
297.609
 20
150.0
 30
0.0
 11
309.709
 21
150.0
 31
0.0
  0
LINE
  5
30B
330
1E
100
AcDbEntity
  8
0
100
AcDbLine
 10
297.609
 20
150.0
 30
0.0
 11
322.58
 21
150.0
 31
0.0
  0
LINE
  5
30C
330
1E
100
AcDbEntity
  8
0
100
AcDbLine
 10
320.041
 20
150.0
 30
0.0
 11
323.0919999999999
 21
150.0
 31
0.0
  0
LINE
  5
30E
330
1E
100
AcDbEntity
  8
0
100
AcDbLine
 10
320.041
 20
155.0
 30
0.0
 11
323.0919999999999
 21
155.0
 31
0.0
  0
LINE
  5
310
330
1E
100
AcDbEntity
  8
0
100
AcDbLine
 10
320.109
 20
210.0
 30
0.0
 11
327.809
 21
210.0
 31
0.0
  0
LINE
  5
311
330
1E
100
AcDbEntity
  8
0
100
AcDbLine
 10
320.109
 20
150.0
 30
0.0
 11
328.109
 21
150.0
 31
0.0
  0
LINE
  5
312
330
1E
100
AcDbEntity
  8
0
100
AcDbLine
 10
319.971
 20
926.6
 30
0.0
 11
329.309
 21
906.1949396204719
 31
0.0
  0
LINE
  5
313
330
1E
100
AcDbEntity
  8
0
100
AcDbLine
 10
304.007
 20
951.5
 30
0.0
 11
319.971
 21
926.6
 31
0.0
  0
LINE
  5
314
330
1E
100
AcDbEntity
  8
0
100
AcDbLine
 10
323.0919999999999
 20
150.0
 30
0.0
 11
324.4549999999999
 21
150.0
 31
0.0
  0
LINE
  5
315
330
1E
100
AcDbEntity
  8
0
100
AcDbLine
 10
323.0919999999999
 20
155.0
 30
0.0
 11
324.4549999999999
 21
155.0
 31
0.0
  0
LINE
  5
316
330
1E
100
AcDbEntity
  8
0
100
AcDbLine
 10
322.58
 20
150.0
 30
0.0
 11
327.809
 21
150.0
 31
0.0
  0
LINE
  5
319
330
1E
100
AcDbEntity
  8
0
100
AcDbLine
 10
327.809
 20
20.0
 30
0.0
 11
327.809
 21
-0.0000000000000056
 31
0.0
  0
LINE
  5
31A
330
1E
100
AcDbEntity
  8
0
100
AcDbLine
 10
327.809
 20
20.0
 30
0.0
 11
328.309
 21
20.0
 31
0.0
  0
LINE
  5
31B
330
1E
100
AcDbEntity
  8
0
100
AcDbLine
 10
327.809
 20
-0.0000000000000066
 30
0.0
 11
327.809
 21
20.0
 31
0.0
  0
LINE
  5
31C
330
1E
100
AcDbEntity
  8
0
100
AcDbLine
 10
327.809
 20
-0.0000000000000066
 30
0.0
 11
328.309
 21
-0.0000000000000066
 31
0.0
  0
LINE
  5
31D
330
1E
100
AcDbEntity
  8
0
100
AcDbLine
 10
324.4549999999999
 20
150.0
 30
0.0
 11
327.809
 21
150.0
 31
0.0
  0
LINE
  5
31F
330
1E
100
AcDbEntity
  8
0
100
AcDbLine
 10
345.309
 20
-0.0000000000000076
 30
0.0
 11
348.309
 21
-0.0000000000000078
 31
0.0
  0
LINE
  5
320
330
1E
100
AcDbEntity
  8
0
100
AcDbLine
 10
330.809
 20
-0.0000000000000068
 30
0.0
 11
333.309
 21
-0.0000000000000069
 31
0.0
  0
LINE
  5
321
330
1E
100
AcDbEntity
  8
0
100
AcDbLine
 10
329.309
 20
-0.0000000000000067
 30
0.0
 11
330.809
 21
-0.0000000000000068
 31
0.0
  0
LINE
  5
322
330
1E
100
AcDbEntity
  8
0
100
AcDbLine
 10
336.309
 20
-0.0000000000000071
 30
0.0
 11
339.309
 21
-0.0000000000000073
 31
0.0
  0
LINE
  5
323
330
1E
100
AcDbEntity
  8
0
100
AcDbLine
 10
333.309
 20
-0.0000000000000069
 30
0.0
 11
336.309
 21
-0.0000000000000071
 31
0.0
  0
LINE
  5
324
330
1E
100
AcDbEntity
  8
0
100
AcDbLine
 10
329.309
 20
19.99999999999989
 30
0.0
 11
329.309
 21
150.0
 31
0.0
  0
LINE
  5
325
330
1E
100
AcDbEntity
  8
0
100
AcDbLine
 10
328.309
 20
20.0
 30
0.0
 11
329.309
 21
20.0
 31
0.0
  0
LINE
  5
326
330
1E
100
AcDbEntity
  8
0
100
AcDbLine
 10
328.309
 20
-0.0000000000000066
 30
0.0
 11
329.309
 21
-0.0000000000000067
 31
0.0
  0
LINE
  5
327
330
1E
100
AcDbEntity
  8
0
100
AcDbLine
 10
339.309
 20
-0.0000000000000073
 30
0.0
 11
342.309
 21
-0.0000000000000075
 31
0.0
  0
LINE
  5
328
330
1E
100
AcDbEntity
  8
0
100
AcDbLine
 10
342.309
 20
-0.0000000000000075
 30
0.0
 11
345.309
 21
-0.0000000000000076
 31
0.0
  0
LINE
  5
329
330
1E
100
AcDbEntity
  8
0
100
AcDbLine
 10
350.809
 20
20.0
 30
0.0
 11
350.809
 21
1600.0
 31
0.0
  0
LINE
  5
32A
330
1E
100
AcDbEntity
  8
0
100
AcDbLine
 10
350.809
 20
20.0
 30
0.0
 11
350.809
 21
-0.0000000000000084
 31
0.0
  0
LINE
  5
32B
330
1E
100
AcDbEntity
  8
0
100
AcDbLine
 10
350.809
 20
19.99999999999989
 30
0.0
 11
350.809
 21
1600.0
 31
0.0
  0
LINE
  5
32C
330
1E
100
AcDbEntity
  8
0
100
AcDbLine
 10
348.309
 20
-0.0000000000000078
 30
0.0
 11
349.809
 21
-0.0000000000000079
 31
0.0
  0
LINE
  5
32D
330
1E
100
AcDbEntity
  8
0
100
AcDbLine
 10
349.809
 20
-0.0000000000000079
 30
0.0
 11
350.809
 21
-0.000000000000008
 31
0.0
  0
LINE
  5
32E
330
1E
100
AcDbEntity
  8
0
100
AcDbLine
 10
350.809
 20
-0.000000000000008
 30
0.0
 11
350.809
 21
20.0
 31
0.0
  0
LINE
  5
32F
330
1E
100
AcDbEntity
  8
0
100
AcDbLine
 10
329.309
 20
20.0
 30
0.0
 11
329.309
 21
150.0
 31
0.0
  0
LINE
  5
330
330
1E
100
AcDbEntity
  8
0
100
AcDbLine
 10
327.809
 20
150.0
 30
0.0
 11
329.309
 21
150.0
 31
0.0
  0
LINE
  5
331
330
1E
100
AcDbEntity
  8
0
100
AcDbLine
 10
327.809
 20
150.0
 30
0.0
 11
327.809
 21
210.0
 31
0.0
  0
LINE
  5
332
330
1E
100
AcDbEntity
  8
0
100
AcDbLine
 10
327.809
 20
150.0
 30
0.0
 11
331.0146962025319
 21
150.0
 31
0.0
  0
LINE
  5
333
330
1E
100
AcDbEntity
  8
0
100
AcDbLine
 10
324.4549999999999
 20
155.0
 30
0.0
 11
327.809
 21
155.0
 31
0.0
  0
LINE
  5
335
330
1E
100
AcDbEntity
  8
0
100
AcDbLine
 10
327.809
 20
155.0
 30
0.0
 11
327.809
 21
210.0
 31
0.0
  0
LINE
  5
336
330
1E
100
AcDbEntity
  8
0
100
AcDbLine
 10
327.809
 20
155.0
 30
0.0
 11
327.809
 21
150.0
 31
0.0
  0
LINE
  5
337
330
1E
100
AcDbEntity
  8
0
100
AcDbLine
 10
329.309
 20
210.0
 30
0.0
 11
329.309
 21
1600.0
 31
0.0
  0
LINE
  5
338
330
1E
100
AcDbEntity
  8
0
100
AcDbLine
 10
329.309
 20
210.0
 30
0.0
 11
329.309
 21
906.1949396204719
 31
0.0
  0
LINE
  5
339
330
1E
100
AcDbEntity
  8
0
100
AcDbLine
 10
329.309
 20
955.356828193832
 30
0.0
 11
329.309
 21
1023.2464418547
 31
0.0
  0
LINE
  5
33A
330
1E
100
AcDbEntity
  8
0
100
AcDbLine
 10
327.809
 20
210.0
 30
0.0
 11
327.809
 21
155.0
 31
0.0
  0
LINE
  5
33B
330
1E
100
AcDbEntity
  8
0
100
AcDbLine
 10
327.809
 20
210.0
 30
0.0
 11
331.109632911392
 21
210.0
 31
0.0
  0
LINE
  5
33C
330
1E
100
AcDbEntity
  8
0
100
AcDbLine
 10
327.809
 20
210.0
 30
0.0
 11
327.809
 21
150.0
 31
0.0
  0
LINE
  5
33D
330
1E
100
AcDbEntity
  8
0
100
AcDbLine
 10
328.109
 20
150.0
 30
0.0
 11
329.309
 21
150.0
 31
0.0
  0
LINE
  5
33E
330
1E
100
AcDbEntity
  8
0
100
AcDbLine
 10
323.3969999999999
 20
966.0999999999999
 30
0.0
 11
329.309
 21
955.356828193833
 31
0.0
  0
LINE
  5
33F
330
1E
100
AcDbEntity
  8
0
100
AcDbLine
 10
307.233
 20
988.6000000000001
 30
0.0
 11
323.3969999999999
 21
966.0999999999999
 31
0.0
  0
LINE
  5
340
330
1E
100
AcDbEntity
  8
0
100
AcDbLine
 10
288.973
 20
1007.9
 30
0.0
 11
307.233
 21
988.6000000000001
 31
0.0
  0
LINE
  5
341
330
1E
100
AcDbEntity
  8
0
100
AcDbLine
 10
308.357
 20
1024.799999999999
 30
0.0
 11
329.309
 21
1023.24145797173
 31
0.0
  0
LINE
  5
342
330
1E
100
AcDbEntity
  8
0
100
AcDbLine
 10
285.359
 20
1027.2
 30
0.0
 11
308.357
 21
1024.799999999999
 31
0.0
  0
LINE
  5
344
330
1E
100
AcDbEntity
  8
0
100
AcDbLine
 10
268.5179999999999
 20
1024.599999999999
 30
0.0
 11
288.973
 21
1007.9
 31
0.0
  0
LINE
  5
349
330
1E
100
AcDbEntity
  8
0
100
AcDbLine
 10
329.309
 20
1033.2464418547
 30
0.0
 11
329.309
 21
1600.0
 31
0.0
  0
LINE
  5
34B
330
1E
100
AcDbEntity
  8
0
100
AcDbLine
 10
308.424
 20
1034.799999999999
 30
0.0
 11
329.309
 21
1033.2464418547
 31
0.0
  0
LINE
  5
34C
330
1E
100
AcDbEntity
  8
0
100
AcDbLine
 10
285.426
 20
1037.2
 30
0.0
 11
308.424
 21
1034.799999999999
 31
0.0
  0
LINE
  5
34D
330
1E
100
AcDbEntity
  8
0
100
AcDbLine
 10
264.128
 20
1040.4
 30
0.0
 11
285.426
 21
1037.2
 31
0.0
  0
LINE
  5
34E
330
1E
100
AcDbEntity
  8
0
100
AcDbLine
 10
245.0299999999999
 20
1044.1
 30
0.0
 11
264.128
 21
1040.4
 31
0.0
  0
LINE
  5
34F
330
1E
100
AcDbEntity
  8
0
100
AcDbLine
 10
327.809
 20
1620.0
 30
0.0
 11
327.809
 21
1600.0
 31
0.0
  0
LINE
  5
350
330
1E
100
AcDbEntity
  8
0
100
AcDbLine
 10
327.809
 20
1620.0
 30
0.0
 11
328.309
 21
1620.0
 31
0.0
  0
LINE
  5
351
330
1E
100
AcDbEntity
  8
0
100
AcDbLine
 10
350.809
 20
1600.0
 30
0.0
 11
350.809
 21
1620.0
 31
0.0
  0
LINE
  5
352
330
1E
100
AcDbEntity
  8
0
100
AcDbLine
 10
339.309
 20
1620.0
 30
0.0
 11
342.309
 21
1620.0
 31
0.0
  0
LINE
  5
353
330
1E
100
AcDbEntity
  8
0
100
AcDbLine
 10
342.309
 20
1620.0
 30
0.0
 11
345.309
 21
1620.0
 31
0.0
  0
LINE
  5
354
330
1E
100
AcDbEntity
  8
0
100
AcDbLine
 10
345.309
 20
1620.0
 30
0.0
 11
348.309
 21
1620.0
 31
0.0
  0
LINE
  5
355
330
1E
100
AcDbEntity
  8
0
100
AcDbLine
 10
350.809
 20
1620.0
 30
0.0
 11
350.809
 21
1600.0
 31
0.0
  0
LINE
  5
356
330
1E
100
AcDbEntity
  8
0
100
AcDbLine
 10
348.309
 20
1620.0
 30
0.0
 11
349.809
 21
1620.0
 31
0.0
  0
LINE
  5
357
330
1E
100
AcDbEntity
  8
0
100
AcDbLine
 10
349.809
 20
1620.0
 30
0.0
 11
350.809
 21
1620.0
 31
0.0
  0
LINE
  5
358
330
1E
100
AcDbEntity
  8
0
100
AcDbLine
 10
336.309
 20
1620.0
 30
0.0
 11
339.309
 21
1620.0
 31
0.0
  0
LINE
  5
359
330
1E
100
AcDbEntity
  8
0
100
AcDbLine
 10
333.309
 20
1620.0
 30
0.0
 11
336.309
 21
1620.0
 31
0.0
  0
LINE
  5
35A
330
1E
100
AcDbEntity
  8
0
100
AcDbLine
 10
330.809
 20
1620.0
 30
0.0
 11
333.309
 21
1620.0
 31
0.0
  0
LINE
  5
35B
330
1E
100
AcDbEntity
  8
0
100
AcDbLine
 10
329.309
 20
1620.0
 30
0.0
 11
330.809
 21
1620.0
 31
0.0
  0
LINE
  5
35C
330
1E
100
AcDbEntity
  8
0
100
AcDbLine
 10
328.309
 20
1620.0
 30
0.0
 11
329.309
 21
1620.0
 31
0.0
  0
LINE
  5
35D
330
1E
100
AcDbEntity
  8
0
100
AcDbLine
 10
328.309
 20
1600.0
 30
0.0
 11
329.309
 21
1600.0
 31
0.0
  0
LINE
  5
35E
330
1E
100
AcDbEntity
  8
0
100
AcDbLine
 10
327.809
 20
1600.0
 30
0.0
 11
327.809
 21
1620.0
 31
0.0
  0
LINE
  5
35F
330
1E
100
AcDbEntity
  8
0
100
AcDbLine
 10
327.809
 20
1600.0
 30
0.0
 11
328.309
 21
1600.0
 31
0.0
  0
LINE
  5
360
330
1E
100
AcDbEntity
  8
0
100
AcDbLine
 10
228.3319999999999
 20
1048.3
 30
0.0
 11
245.0299999999999
 21
1044.1
 31
0.0
  0
LINE
  5
361
330
1E
100
AcDbEntity
  8
0
100
AcDbLine
 10
204.05344797106
 20
1057.57136548485
 30
0.0
 11
228.3319999999999
 21
1048.3
 31
0.0
  0
LINE
  5
362
330
1E
100
AcDbEntity
  8
0
100
AcDbLine
 10
255.917887702069
 20
1031.99060715794
 30
0.0
 11
268.5179999999999
 21
1024.599999999999
 31
0.0
  0
LINE
  5
363
330
1E
100
AcDbEntity
  8
0
100
AcDbLine
 10
199.671
 20
1059.5
 30
0.0
 11
204.05344797106
 21
1057.57136548485
 31
0.0
  0
ENDSEC
  0
SECTION
  2
OBJECTS
  0
DICTIONARY
  5
C
330
0
100
AcDbDictionary
281
     1
  3
ACAD_GROUP
350
D
  3
ACAD_LAYOUT
350
19
  3
ACAD_MLINESTYLE
350
16
  3
ACAD_PLOTSETTINGS
350
18
  3
ACAD_PLOTSTYLENAME
350
E
  3
AcDbVariableDictionary
350
368
  0
DICTIONARY
  5
D
102
{ACAD_REACTORS
330
C
102
}
330
C
100
AcDbDictionary
281
     1
  0
DICTIONARY
  5
19
102
{ACAD_REACTORS
330
C
102
}
330
C
100
AcDbDictionary
281
     1
  3
Layout1
350
1D
  3
Model
350
21
  0
DICTIONARY
  5
16
102
{ACAD_REACTORS
330
C
102
}
330
C
100
AcDbDictionary
281
     1
  3
Standard
350
17
  0
DICTIONARY
  5
18
102
{ACAD_REACTORS
330
C
102
}
330
C
100
AcDbDictionary
281
     1
  0
ACDBDICTIONARYWDFLT
  5
E
102
{ACAD_REACTORS
330
C
102
}
330
C
100
AcDbDictionary
281
     1
  3
Normal
350
F
100
AcDbDictionaryWithDefault
340
F
  0
DICTIONARY
  5
368
102
{ACAD_REACTORS
330
C
102
}
330
C
100
AcDbDictionary
281
     1
  3
DIMASSOC
350
369
  0
LAYOUT
  5
1D
102
{ACAD_REACTORS
330
19
102
}
330
19
100
AcDbPlotSettings
  1

  2
hp deskjet 980c series
  4

  6

 40
0.0
 41
0.0
 42
0.0
 43
0.0
 44
0.0
 45
0.0
 46
0.0
 47
0.0
 48
0.0
 49
0.0
140
0.0
141
0.0
142
1.0
143
1.0
 70
   688
 72
     0
 73
     0
 74
     5
  7

 75
    16
147
1.0
148
0.0
149
0.0
100
AcDbLayout
  1
Layout1
 70
     1
 71
     1
 10
0.0
 20
0.0
 11
12.0
 21
9.0
 12
0.0
 22
0.0
 32
0.0
 14
1.000000000000000E+20
 24
1.000000000000000E+20
 34
1.000000000000000E+20
 15
-1.000000000000000E+20
 25
-1.000000000000000E+20
 35
-1.000000000000000E+20
146
0.0
 13
0.0
 23
0.0
 33
0.0
 16
1.0
 26
0.0
 36
0.0
 17
0.0
 27
1.0
 37
0.0
 76
     0
330
1A
  0
LAYOUT
  5
21
102
{ACAD_REACTORS
330
19
102
}
330
19
100
AcDbPlotSettings
  1

  2
hp deskjet 980c series
  4

  6

 40
0.0
 41
0.0
 42
0.0
 43
0.0
 44
0.0
 45
0.0
 46
0.0
 47
0.0
 48
0.0
 49
0.0
140
0.0
141
0.0
142
1.0
143
1.0
 70
  1712
 72
     0
 73
     0
 74
     0
  7

 75
     0
147
1.0
148
0.0
149
0.0
100
AcDbLayout
  1
Model
 70
     1
 71
     0
 10
0.0
 20
0.0
 11
12.0
 21
9.0
 12
0.0
 22
0.0
 32
0.0
 14
0.0
 24
0.0
 34
0.0
 15
0.0
 25
0.0
 35
0.0
146
0.0
 13
0.0
 23
0.0
 33
0.0
 16
1.0
 26
0.0
 36
0.0
 17
0.0
 27
1.0
 37
0.0
 76
     0
330
1E
  0
MLINESTYLE
  5
17
102
{ACAD_REACTORS
330
16
102
}
330
16
100
AcDbMlineStyle
  2
STANDARD
 70
     0
  3

 62
   256
 51
90.0
 52
90.0
 71
     2
 49
0.5
 62
   256
  6
BYLAYER
 49
-0.5
 62
   256
  6
BYLAYER
  0
ACDBPLACEHOLDER
  5
F
102
{ACAD_REACTORS
330
E
102
}
330
E
  0
DICTIONARYVAR
  5
369
102
{ACAD_REACTORS
330
368
102
}
330
368
100
DictionaryVariables
280
     0
  1
1
  0
ENDSEC
  0
EOF
