  0
SECTION
  2
HEADER
  9
$ACADVER
  1
AC1015
  9
$ACADMAINTVER
 70
    13
  9
$DWGCODEPAGE
  3
ANSI_1252
  9
$INSBASE
 10
0.0
 20
0.0
 30
0.0
  9
$EXTMIN
 10
0.190999999999985
 20
-0.0000000000000349
 30
0.0
  9
$EXTMAX
 10
350.809
 20
968.0
 30
0.0
  9
$LIMMIN
 10
0.0
 20
0.0
  9
$LIMMAX
 10
12.0
 20
9.0
  9
$ORTHOMODE
 70
     0
  9
$REGENMODE
 70
     1
  9
$FILLMODE
 70
     1
  9
$QTEXTMODE
 70
     0
  9
$MIRRTEXT
 70
     1
  9
$LTSCALE
 40
1.0
  9
$ATTMODE
 70
     1
  9
$TEXTSIZE
 40
0.2
  9
$TRACEWID
 40
0.05
  9
$TEXTSTYLE
  7
Standard
  9
$CLAYER
  8
0
  9
$CELTYPE
  6
Continuous
  9
$CECOLOR
 62
   256
  9
$CELTSCALE
 40
1.0
  9
$DISPSILH
 70
     0
  9
$DIMSCALE
 40
1.0
  9
$DIMASZ
 40
0.18
  9
$DIMEXO
 40
0.0625
  9
$DIMDLI
 40
0.38
  9
$DIMRND
 40
0.0
  9
$DIMDLE
 40
0.0
  9
$DIMEXE
 40
0.18
  9
$DIMTP
 40
0.0
  9
$DIMTM
 40
0.0
  9
$DIMTXT
 40
0.18
  9
$DIMCEN
 40
0.09
  9
$DIMTSZ
 40
0.0
  9
$DIMTOL
 70
     0
  9
$DIMLIM
 70
     0
  9
$DIMTIH
 70
     1
  9
$DIMTOH
 70
     1
  9
$DIMSE1
 70
     0
  9
$DIMSE2
 70
     0
  9
$DIMTAD
 70
     0
  9
$DIMZIN
 70
     0
  9
$DIMBLK
  1

  9
$DIMASO
 70
     1
  9
$DIMSHO
 70
     1
  9
$DIMPOST
  1

  9
$DIMAPOST
  1

  9
$DIMALT
 70
     0
  9
$DIMALTD
 70
     2
  9
$DIMALTF
 40
25.4
  9
$DIMLFAC
 40
1.0
  9
$DIMTOFL
 70
     0
  9
$DIMTVP
 40
0.0
  9
$DIMTIX
 70
     0
  9
$DIMSOXD
 70
     0
  9
$DIMSAH
 70
     0
  9
$DIMBLK1
  1

  9
$DIMBLK2
  1

  9
$DIMSTYLE
  2
Standard
  9
$DIMCLRD
 70
     0
  9
$DIMCLRE
 70
     0
  9
$DIMCLRT
 70
     0
  9
$DIMTFAC
 40
1.0
  9
$DIMGAP
 40
0.09
  9
$DIMJUST
 70
     0
  9
$DIMSD1
 70
     0
  9
$DIMSD2
 70
     0
  9
$DIMTOLJ
 70
     1
  9
$DIMTZIN
 70
     0
  9
$DIMALTZ
 70
     0
  9
$DIMALTTZ
 70
     0
  9
$DIMUPT
 70
     0
  9
$DIMDEC
 70
     4
  9
$DIMTDEC
 70
     4
  9
$DIMALTU
 70
     2
  9
$DIMALTTD
 70
     2
  9
$DIMTXSTY
  7
Standard
  9
$DIMAUNIT
 70
     0
  9
$DIMADEC
 70
     0
  9
$DIMALTRND
 40
0.0
  9
$DIMAZIN
 70
     0
  9
$DIMDSEP
 70
    46
  9
$DIMATFIT
 70
     3
  9
$DIMFRAC
 70
     0
  9
$DIMLDRBLK
  1

  9
$DIMLUNIT
 70
     2
  9
$DIMLWD
 70
    -2
  9
$DIMLWE
 70
    -2
  9
$DIMTMOVE
 70
     0
  9
$LUNITS
 70
     2
  9
$LUPREC
 70
     4
  9
$SKETCHINC
 40
0.1
  9
$FILLETRAD
 40
0.0
  9
$AUNITS
 70
     0
  9
$AUPREC
 70
     0
  9
$MENU
  1
.
  9
$ELEVATION
 40
0.0
  9
$PELEVATION
 40
0.0
  9
$THICKNESS
 40
0.0
  9
$LIMCHECK
 70
     0
  9
$CHAMFERA
 40
0.0
  9
$CHAMFERB
 40
0.0
  9
$CHAMFERC
 40
0.0
  9
$CHAMFERD
 40
0.0
  9
$SKPOLY
 70
     0
  9
$TDCREATE
 40
2454740.415901689
  9
$TDUCREATE
 40
2454740.332568356
  9
$TDUPDATE
 40
2454740.463361898
  9
$TDUUPDATE
 40
2454740.380028565
  9
$TDINDWG
 40
0.0474602083
  9
$TDUSRTIMER
 40
0.0474602083
  9
$USRTIMER
 70
     1
  9
$ANGBASE
 50
0.0
  9
$ANGDIR
 70
     0
  9
$PDMODE
 70
     0
  9
$PDSIZE
 40
0.0
  9
$PLINEWID
 40
0.0
  9
$SPLFRAME
 70
     0
  9
$SPLINETYPE
 70
     6
  9
$SPLINESEGS
 70
     8
  9
$HANDSEED
  5
324
  9
$SURFTAB1
 70
     6
  9
$SURFTAB2
 70
     6
  9
$SURFTYPE
 70
     6
  9
$SURFU
 70
     6
  9
$SURFV
 70
     6
  9
$UCSBASE
  2

  9
$UCSNAME
  2

  9
$UCSORG
 10
0.0
 20
0.0
 30
0.0
  9
$UCSXDIR
 10
1.0
 20
0.0
 30
0.0
  9
$UCSYDIR
 10
0.0
 20
1.0
 30
0.0
  9
$UCSORTHOREF
  2

  9
$UCSORTHOVIEW
 70
     1
  9
$UCSORGTOP
 10
0.0
 20
0.0
 30
0.0
  9
$UCSORGBOTTOM
 10
0.0
 20
0.0
 30
0.0
  9
$UCSORGLEFT
 10
0.0
 20
0.0
 30
0.0
  9
$UCSORGRIGHT
 10
0.0
 20
0.0
 30
0.0
  9
$UCSORGFRONT
 10
0.0
 20
0.0
 30
0.0
  9
$UCSORGBACK
 10
0.0
 20
0.0
 30
0.0
  9
$PUCSBASE
  2

  9
$PUCSNAME
  2

  9
$PUCSORG
 10
0.0
 20
0.0
 30
0.0
  9
$PUCSXDIR
 10
1.0
 20
0.0
 30
0.0
  9
$PUCSYDIR
 10
0.0
 20
1.0
 30
0.0
  9
$PUCSORTHOREF
  2

  9
$PUCSORTHOVIEW
 70
     0
  9
$PUCSORGTOP
 10
0.0
 20
0.0
 30
0.0
  9
$PUCSORGBOTTOM
 10
0.0
 20
0.0
 30
0.0
  9
$PUCSORGLEFT
 10
0.0
 20
0.0
 30
0.0
  9
$PUCSORGRIGHT
 10
0.0
 20
0.0
 30
0.0
  9
$PUCSORGFRONT
 10
0.0
 20
0.0
 30
0.0
  9
$PUCSORGBACK
 10
0.0
 20
0.0
 30
0.0
  9
$USERI1
 70
     0
  9
$USERI2
 70
     0
  9
$USERI3
 70
     0
  9
$USERI4
 70
     0
  9
$USERI5
 70
     0
  9
$USERR1
 40
0.0
  9
$USERR2
 40
0.0
  9
$USERR3
 40
0.0
  9
$USERR4
 40
0.0
  9
$USERR5
 40
0.0
  9
$WORLDVIEW
 70
     1
  9
$SHADEDGE
 70
     3
  9
$SHADEDIF
 70
    70
  9
$TILEMODE
 70
     1
  9
$MAXACTVP
 70
    64
  9
$PINSBASE
 10
0.0
 20
0.0
 30
0.0
  9
$PLIMCHECK
 70
     0
  9
$PEXTMIN
 10
1.000000000000000E+20
 20
1.000000000000000E+20
 30
1.000000000000000E+20
  9
$PEXTMAX
 10
-1.000000000000000E+20
 20
-1.000000000000000E+20
 30
-1.000000000000000E+20
  9
$PLIMMIN
 10
0.0
 20
0.0
  9
$PLIMMAX
 10
12.0
 20
9.0
  9
$UNITMODE
 70
     0
  9
$VISRETAIN
 70
     1
  9
$PLINEGEN
 70
     0
  9
$PSLTSCALE
 70
     1
  9
$TREEDEPTH
 70
  3020
  9
$CMLSTYLE
  2
Standard
  9
$CMLJUST
 70
     0
  9
$CMLSCALE
 40
1.0
  9
$PROXYGRAPHICS
 70
     1
  9
$MEASUREMENT
 70
     0
  9
$CELWEIGHT
370
    -1
  9
$ENDCAPS
280
     0
  9
$JOINSTYLE
280
     0
  9
$LWDISPLAY
290
     0
  9
$INSUNITS
 70
     0
  9
$HYPERLINKBASE
  1

  9
$STYLESHEET
  1

  9
$XEDIT
290
     1
  9
$CEPSNTYPE
380
     0
  9
$PSTYLEMODE
290
     1
  9
$FINGERPRINTGUID
  2
{A0878916-DFCE-4085-BE64-8A866DB6A26E}
  9
$VERSIONGUID
  2
{88EFD692-5F86-4765-B56A-193EB6FB6E15}
  9
$EXTNAMES
290
     1
  9
$PSVPSCALE
 40
0.0
  9
$OLESTARTUP
290
     0
  0
ENDSEC
  0
SECTION
  2
CLASSES
  0
CLASS
  1
ACDBDICTIONARYWDFLT
  2
AcDbDictionaryWithDefault
  3
AutoCAD 2000
 90
        0
280
     0
281
     0
  0
CLASS
  1
ACDBPLACEHOLDER
  2
AcDbPlaceHolder
  3
AutoCAD 2000
 90
        0
280
     0
281
     0
  0
CLASS
  1
LAYOUT
  2
AcDbLayout
  3
AutoCAD 2000
 90
        0
280
     0
281
     0
  0
CLASS
  1
DICTIONARYVAR
  2
AcDbDictionaryVar
  3
AutoCAD 2000
 90
        0
280
     0
281
     0
  0
ENDSEC
  0
SECTION
  2
TABLES
  0
TABLE
  2
VPORT
  5
8
330
0
100
AcDbSymbolTable
 70
     2
  0
VPORT
  5
323
330
8
100
AcDbSymbolTableRecord
100
AcDbViewportTableRecord
  2
*Active
 70
     0
 10
0.0
 20
0.0
 11
1.0
 21
1.0
 12
175.5
 22
483.9999999999999
 13
0.0
 23
0.0
 14
1.0
 24
1.0
 15
0.0
 25
0.0
 16
0.0
 26
0.0
 36
1.0
 17
0.0
 27
0.0
 37
0.0
 40
975.4271099744245
 41
2.078104993597951
 42
50.0
 43
0.0
 44
0.0
 50
0.0
 51
0.0
 71
     0
 72
   100
 73
     1
 74
     3
 75
     0
 76
     0
 77
     0
 78
     0
281
     0
 65
     1
110
0.0
120
0.0
130
0.0
111
1.0
121
0.0
131
0.0
112
0.0
122
1.0
132
0.0
 79
     1
146
0.0
  0
ENDTAB
  0
TABLE
  2
LTYPE
  5
5
330
0
100
AcDbSymbolTable
 70
     1
  0
LTYPE
  5
13
330
5
100
AcDbSymbolTableRecord
100
AcDbLinetypeTableRecord
  2
ByBlock
 70
     0
  3

 72
    65
 73
     0
 40
0.0
  0
LTYPE
  5
14
330
5
100
AcDbSymbolTableRecord
100
AcDbLinetypeTableRecord
  2
ByLayer
 70
     0
  3

 72
    65
 73
     0
 40
0.0
  0
LTYPE
  5
15
330
5
100
AcDbSymbolTableRecord
100
AcDbLinetypeTableRecord
  2
Continuous
 70
     0
  3
Solid line
 72
    65
 73
     0
 40
0.0
  0
ENDTAB
  0
TABLE
  2
LAYER
  5
2
330
0
100
AcDbSymbolTable
 70
     1
  0
LAYER
  5
10
330
2
100
AcDbSymbolTableRecord
100
AcDbLayerTableRecord
  2
0
 70
     0
 62
     7
  6
Continuous
370
    -3
390
F
  0
ENDTAB
  0
TABLE
  2
STYLE
  5
3
330
0
100
AcDbSymbolTable
 70
     1
  0
STYLE
  5
11
330
3
100
AcDbSymbolTableRecord
100
AcDbTextStyleTableRecord
  2
Standard
 70
     0
 40
0.0
 41
1.0
 50
0.0
 71
     0
 42
0.2
  3
txt
  4

  0
ENDTAB
  0
TABLE
  2
VIEW
  5
6
330
0
100
AcDbSymbolTable
 70
     0
  0
ENDTAB
  0
TABLE
  2
UCS
  5
7
330
0
100
AcDbSymbolTable
 70
     0
  0
ENDTAB
  0
TABLE
  2
APPID
  5
9
330
0
100
AcDbSymbolTable
 70
     1
  0
APPID
  5
12
330
9
100
AcDbSymbolTableRecord
100
AcDbRegAppTableRecord
  2
ACAD
 70
     0
  0
ENDTAB
  0
TABLE
  2
DIMSTYLE
  5
A
330
0
100
AcDbSymbolTable
 70
     1
100
AcDbDimStyleTable
 71
     0
  0
DIMSTYLE
105
31B
330
A
100
AcDbSymbolTableRecord
100
AcDbDimStyleTableRecord
  2
Standard
 70
     0
340
11
  0
ENDTAB
  0
TABLE
  2
BLOCK_RECORD
  5
1
330
0
100
AcDbSymbolTable
 70
     0
  0
BLOCK_RECORD
  5
1E
330
1
100
AcDbSymbolTableRecord
100
AcDbBlockTableRecord
  2
*Model_Space
340
21
  0
BLOCK_RECORD
  5
1A
330
1
100
AcDbSymbolTableRecord
100
AcDbBlockTableRecord
  2
*Paper_Space
340
1D
  0
ENDTAB
  0
ENDSEC
  0
SECTION
  2
BLOCKS
  0
BLOCK
  5
1F
330
1E
100
AcDbEntity
  8
0
100
AcDbBlockBegin
  2
*Model_Space
 70
     0
 10
0.0
 20
0.0
 30
0.0
  3
*Model_Space
  1

  0
ENDBLK
  5
20
330
1E
100
AcDbEntity
  8
0
100
AcDbBlockEnd
  0
BLOCK
  5
1B
330
1A
100
AcDbEntity
 67
     1
  8
0
100
AcDbBlockBegin
  2
*Paper_Space
 70
     0
 10
0.0
 20
0.0
 30
0.0
  3
*Paper_Space
  1

  0
ENDBLK
  5
1C
330
1A
100
AcDbEntity
 67
     1
  8
0
100
AcDbBlockEnd
  0
ENDSEC
  0
SECTION
  2
ENTITIES
  0
LINE
  5
22
330
1E
100
AcDbEntity
  8
0
100
AcDbLine
 10
187.9869851057059
 20
731.4065675684351
 30
0.0
 11
192.0079999999999
 21
725.182
 31
0.0
  0
LINE
  5
23
330
1E
100
AcDbEntity
  8
0
100
AcDbLine
 10
179.945
 20
740.1069999999999
 30
0.0
 11
182.7599999999999
 21
734.982
 31
0.0
  0
LINE
  5
24
330
1E
100
AcDbEntity
  8
0
100
AcDbLine
 10
178.754
 20
746.043
 30
0.0
 11
179.0999999999999
 21
750.0419999999999
 31
0.0
  0
LINE
  5
25
330
1E
100
AcDbEntity
  8
0
100
AcDbLine
 10
178.754
 20
746.043
 30
0.0
 11
179.945
 21
740.1069999999999
 31
0.0
  0
LINE
  5
26
330
1E
100
AcDbEntity
  8
0
100
AcDbLine
 10
178.854024404751
 20
745.5444736636439
 30
0.0
 11
179.945
 21
740.1069999999999
 31
0.0
  0
LINE
  5
27
330
1E
100
AcDbEntity
  8
0
100
AcDbLine
 10
182.4759999999999
 20
737.5
 30
0.0
 11
184.8709999999999
 21
734.4
 31
0.0
  0
LINE
  5
28
330
1E
100
AcDbEntity
  8
0
100
AcDbLine
 10
180.979
 20
741.1
 30
0.0
 11
182.4759999999999
 21
737.5
 31
0.0
  0
LINE
  5
29
330
1E
100
AcDbEntity
  8
0
100
AcDbLine
 10
180.48
 20
745.0
 30
0.0
 11
180.979
 21
748.8999999999999
 31
0.0
  0
LINE
  5
2A
330
1E
100
AcDbEntity
  8
0
100
AcDbLine
 10
180.48
 20
745.0
 30
0.0
 11
180.979
 21
741.1
 31
0.0
  0
LINE
  5
2B
330
1E
100
AcDbEntity
  8
0
100
AcDbLine
 10
175.7089999999999
 20
750.4129999999999
 30
0.0
 11
176.0559999999999
 21
750.613
 31
0.0
  0
LINE
  5
2C
330
1E
100
AcDbEntity
  8
0
100
AcDbLine
 10
175.7089999999999
 20
750.4129999999999
 30
0.0
 11
178.854024404751
 21
745.5444736636439
 31
0.0
  0
LINE
  5
2D
330
1E
100
AcDbEntity
  8
0
100
AcDbLine
 10
173.0559999999999
 20
751.6437599999999
 30
0.0
 11
176.154
 21
751.00979
 31
0.0
  0
LINE
  5
2F
330
1E
100
AcDbEntity
  8
0
100
AcDbLine
 10
176.154
 20
751.00979
 30
0.0
 11
181.419045037259
 21
754.0585779707539
 31
0.0
  0
LINE
  5
31
330
1E
100
AcDbEntity
  8
0
100
AcDbLine
 10
176.0559999999999
 20
750.613
 30
0.0
 11
177.0079999999999
 21
751.163
 31
0.0
  0
LINE
  5
34
330
1E
100
AcDbEntity
  8
0
100
AcDbLine
 10
177.0079999999999
 20
751.163
 30
0.0
 11
178.654
 21
752.113
 31
0.0
  0
LINE
  5
36
330
1E
100
AcDbEntity
  8
0
100
AcDbLine
 10
178.654
 20
752.113
 30
0.0
 11
180.7319999999999
 21
753.3129999999999
 31
0.0
  0
LINE
  5
37
330
1E
100
AcDbEntity
  8
0
100
AcDbLine
 10
179.0999999999999
 20
750.0419999999999
 30
0.0
 11
180.539
 21
752.5349999999999
 31
0.0
  0
LINE
  5
3B
330
1E
100
AcDbEntity
  8
0
100
AcDbLine
 10
170.2479999999999
 20
753.3803599999999
 30
0.0
 11
173.0559999999999
 21
751.6437599999999
 31
0.0
  0
LINE
  5
3C
330
1E
100
AcDbEntity
  8
0
100
AcDbLine
 10
180.7319999999999
 20
753.3129999999999
 30
0.0
 11
181.116690500572
 21
753.535126679116
 31
0.0
  0
LINE
  5
3D
330
1E
100
AcDbEntity
  8
0
100
AcDbLine
 10
180.539
 20
752.5349999999999
 30
0.0
 11
181.979
 21
755.028
 31
0.0
  0
LINE
  5
3E
330
1E
100
AcDbEntity
  8
0
100
AcDbLine
 10
181.979
 20
755.028
 30
0.0
 11
185.269
 21
757.3279999999999
 31
0.0
  0
LINE
  5
3F
330
1E
100
AcDbEntity
  8
0
100
AcDbLine
 10
181.979
 20
755.028
 30
0.0
 11
182.1783923637049
 21
755.1673928378489
 31
0.0
  0
LINE
  5
40
330
1E
100
AcDbEntity
  8
0
100
AcDbLine
 10
181.116690500572
 20
753.535126679116
 30
0.0
 11
181.419045037259
 21
754.0585779707539
 31
0.0
  0
LINE
  5
41
330
1E
100
AcDbEntity
  8
0
100
AcDbLine
 10
180.979
 20
748.8999999999999
 30
0.0
 11
182.4759999999999
 21
752.5
 31
0.0
  0
LINE
  5
42
330
1E
100
AcDbEntity
  8
0
100
AcDbLine
 10
186.03
 20
732.045
 30
0.0
 11
187.9869851057059
 21
731.4065675684351
 31
0.0
  0
LINE
  5
43
330
1E
100
AcDbEntity
  8
0
100
AcDbLine
 10
186.03
 20
732.045
 30
0.0
 11
190.2079999999999
 21
730.682
 31
0.0
  0
LINE
  5
44
330
1E
100
AcDbEntity
  8
0
100
AcDbLine
 10
182.7599999999999
 20
734.982
 30
0.0
 11
186.03
 21
732.045
 31
0.0
  0
LINE
  5
45
330
1E
100
AcDbEntity
  8
0
100
AcDbLine
 10
184.8709999999999
 20
734.4
 30
0.0
 11
187.964
 21
732.0
 31
0.0
  0
LINE
  5
46
330
1E
100
AcDbEntity
  8
0
100
AcDbLine
 10
182.4759999999999
 20
752.5
 30
0.0
 11
184.8709999999999
 21
755.6
 31
0.0
  0
LINE
  5
48
330
1E
100
AcDbEntity
  8
0
100
AcDbLine
 10
184.8709999999999
 20
755.6
 30
0.0
 11
187.964
 21
758.0
 31
0.0
  0
LINE
  5
49
330
1E
100
AcDbEntity
  8
0
100
AcDbLine
 10
187.964
 20
758.0
 30
0.0
 11
191.5559999999999
 21
759.4999999999999
 31
0.0
  0
LINE
  5
4A
330
1E
100
AcDbEntity
  8
0
100
AcDbLine
 10
187.964
 20
732.0
 30
0.0
 11
215.503
 21
722.2999999999999
 31
0.0
  0
LINE
  5
4B
330
1E
100
AcDbEntity
  8
0
100
AcDbLine
 10
189.154964588391
 20
758.6393521776409
 30
0.0
 11
190.9270974380339
 21
759.2373736517401
 31
0.0
  0
LINE
  5
4C
330
1E
100
AcDbEntity
  8
0
100
AcDbLine
 10
192.354
 20
725.3819999999999
 30
0.0
 11
193.134
 21
725.832
 31
0.0
  0
LINE
  5
4D
330
1E
100
AcDbEntity
  8
0
100
AcDbLine
 10
192.0079999999999
 20
725.182
 30
0.0
 11
192.354
 21
725.3819999999999
 31
0.0
  0
LINE
  5
4E
330
1E
100
AcDbEntity
  8
0
100
AcDbLine
 10
193.3178358787939
 20
725.9381101753501
 30
0.0
 11
202.692
 21
703.6889999999999
 31
0.0
  0
LINE
  5
51
330
1E
100
AcDbEntity
  8
0
100
AcDbLine
 10
194.5199999999999
 20
726.6319999999999
 30
0.0
 11
196.3379999999999
 21
727.682
 31
0.0
  0
LINE
  5
52
330
1E
100
AcDbEntity
  8
0
100
AcDbLine
 10
196.3379999999999
 20
727.682
 30
0.0
 11
197.855002342072
 21
728.5576146274589
 31
0.0
  0
LINE
  5
53
330
1E
100
AcDbEntity
  8
0
100
AcDbLine
 10
193.134
 20
725.832
 30
0.0
 11
193.183812321978
 21
725.8607517009969
 31
0.0
  0
LINE
  5
54
330
1E
100
AcDbEntity
  8
0
100
AcDbLine
 10
193.134
 20
725.832
 30
0.0
 11
194.5199999999999
 21
726.6319999999999
 31
0.0
  0
LINE
  5
55
330
1E
100
AcDbEntity
  8
0
100
AcDbLine
 10
190.2079999999999
 20
730.682
 30
0.0
 11
191.6616824572799
 21
730.713088162046
 31
0.0
  0
LINE
  5
56
330
1E
100
AcDbEntity
  8
0
100
AcDbLine
 10
190.2079999999999
 20
730.682
 30
0.0
 11
191.60745235499
 21
730.711928407934
 31
0.0
  0
LINE
  5
59
330
1E
100
AcDbEntity
  8
0
100
AcDbLine
 10
189.606130468408
 20
758.791601984807
 30
0.0
 11
190.9159999999999
 21
759.5769599999999
 31
0.0
  0
LINE
  5
5C
330
1E
100
AcDbEntity
  8
0
100
AcDbLine
 10
190.9159999999999
 20
759.5769599999999
 30
0.0
 11
193.1409999999999
 21
760.8321999999999
 31
0.0
  0
LINE
  5
5D
330
1E
100
AcDbEntity
  8
0
100
AcDbLine
 10
191.167080368694
 20
759.3375892408239
 30
0.0
 11
192.6829999999999
 21
760.213
 31
0.0
  0
LINE
  5
5E
330
1E
100
AcDbEntity
  8
0
100
AcDbLine
 10
191.5559999999999
 20
759.4999999999999
 30
0.0
 11
195.447
 21
760.0
 31
0.0
  0
LINE
  5
5F
330
1E
100
AcDbEntity
  8
0
100
AcDbLine
 10
116.364
 20
812.6011
 30
0.0
 11
116.86
 21
813.3784
 31
0.0
  0
LINE
  5
60
330
1E
100
AcDbEntity
  8
0
100
AcDbLine
 10
115.7229999999999
 20
812.3022999999999
 30
0.0
 11
116.364
 21
812.6011
 31
0.0
  0
LINE
  5
61
330
1E
100
AcDbEntity
  8
0
100
AcDbLine
 10
114.7489999999999
 20
812.5503
 30
0.0
 11
115.7229999999999
 21
812.3022999999999
 31
0.0
  0
LINE
  5
62
330
1E
100
AcDbEntity
  8
0
100
AcDbLine
 10
112.532
 20
814.9441000000001
 30
0.0
 11
114.006
 21
813.1399999999999
 31
0.0
  0
LINE
  5
63
330
1E
100
AcDbEntity
  8
0
100
AcDbLine
 10
114.006
 20
813.1399999999999
 30
0.0
 11
114.7489999999999
 21
812.5503
 31
0.0
  0
LINE
  5
64
330
1E
100
AcDbEntity
  8
0
100
AcDbLine
 10
112.491
 20
814.9951999999998
 30
0.0
 11
114.006
 21
813.1399999999999
 31
0.0
  0
LINE
  5
65
330
1E
100
AcDbEntity
  8
0
100
AcDbLine
 10
110.0656999999999
 20
818.3047
 30
0.0
 11
110.2902370275139
 21
819.289733079081
 31
0.0
  0
LINE
  5
66
330
1E
100
AcDbEntity
  8
0
100
AcDbLine
 10
109.726689041601
 20
818.3819810764701
 30
0.0
 11
112.532
 21
814.9441000000001
 31
0.0
  0
LINE
  5
67
330
1E
100
AcDbEntity
  8
0
100
AcDbLine
 10
116.449510972529
 20
817.8119177551399
 30
0.0
 11
117.0139999999999
 21
814.3864999999999
 31
0.0
  0
LINE
  5
68
330
1E
100
AcDbEntity
  8
0
100
AcDbLine
 10
115.936
 20
818.1085000000001
 30
0.0
 11
116.542
 21
817.7585
 31
0.0
  0
LINE
  5
69
330
1E
100
AcDbEntity
  8
0
100
AcDbLine
 10
116.4552274303499
 20
817.7772292932511
 30
0.0
 11
116.542
 21
817.7585
 31
0.0
  0
LINE
  5
6A
330
1E
100
AcDbEntity
  8
0
100
AcDbLine
 10
116.86
 20
813.3784
 30
0.0
 11
117.0139999999999
 21
814.3864999999999
 31
0.0
  0
LINE
  5
6B
330
1E
100
AcDbEntity
  8
0
100
AcDbLine
 10
116.542
 20
817.7585
 30
0.0
 11
117.042
 21
818.6244999999999
 31
0.0
  0
LINE
  5
6C
330
1E
100
AcDbEntity
  8
0
100
AcDbLine
 10
106.6517999999999
 20
819.5943999999999
 30
0.0
 11
108.5454
 21
819.1824999999999
 31
0.0
  0
LINE
  5
6D
330
1E
100
AcDbEntity
  8
0
100
AcDbLine
 10
106.6517999999999
 20
819.5943999999999
 30
0.0
 11
106.680869192247
 21
819.716485572723
 31
0.0
  0
LINE
  5
6E
330
1E
100
AcDbEntity
  8
0
100
AcDbLine
 10
106.6517999999999
 20
819.5943999999999
 30
0.0
 11
108.230174550454
 21
819.251068526969
 31
0.0
  0
LINE
  5
6F
330
1E
100
AcDbEntity
  8
0
100
AcDbLine
 10
108.0970999999999
 20
819.4412999999999
 30
0.0
 11
108.5454
 21
819.1824999999999
 31
0.0
  0
LINE
  5
70
330
1E
100
AcDbEntity
  8
0
100
AcDbLine
 10
108.0970999999999
 20
819.4412999999999
 30
0.0
 11
108.3304364106
 21
820.4212725112009
 31
0.0
  0
LINE
  5
71
330
1E
100
AcDbEntity
  8
0
100
AcDbLine
 10
108.5454
 20
819.1824999999999
 30
0.0
 11
108.778684941357
 21
820.162468509609
 31
0.0
  0
LINE
  5
72
330
1E
100
AcDbEntity
  8
0
100
AcDbLine
 10
108.1158
 20
818.7492
 30
0.0
 11
108.230174550454
 21
819.251068526969
 31
0.0
  0
LINE
  5
73
330
1E
100
AcDbEntity
  8
0
100
AcDbLine
 10
108.1158
 20
818.7492
 30
0.0
 11
110.0656999999999
 21
818.3047
 31
0.0
  0
LINE
  5
74
330
1E
100
AcDbEntity
  8
0
100
AcDbLine
 10
108.6646893088069
 20
819.6836029236798
 30
0.0
 11
112.491
 21
814.9951999999998
 31
0.0
  0
LINE
  5
75
330
1E
100
AcDbEntity
  8
0
100
AcDbLine
 10
114.5499999999999
 20
818.9085
 30
0.0
 11
115.936
 21
818.1085000000001
 31
0.0
  0
LINE
  5
76
330
1E
100
AcDbEntity
  8
0
100
AcDbLine
 10
106.2035
 20
819.8532
 30
0.0
 11
106.6517999999999
 21
819.5943999999999
 31
0.0
  0
LINE
  5
77
330
1E
100
AcDbEntity
  8
0
100
AcDbLine
 10
106.2035
 20
819.8532
 30
0.0
 11
106.4817100380649
 21
821.021633974545
 31
0.0
  0
LINE
  5
78
330
1E
100
AcDbEntity
  8
0
100
AcDbLine
 10
106.2035
 20
819.8532
 30
0.0
 11
108.0970999999999
 21
819.4412999999999
 31
0.0
  0
LINE
  5
79
330
1E
100
AcDbEntity
  8
0
100
AcDbLine
 10
106.2035
 20
819.8532
 30
0.0
 11
106.3574621257389
 21
820.4998142622239
 31
0.0
  0
LINE
  5
7A
330
1E
100
AcDbEntity
  8
0
100
AcDbLine
 10
112.125
 20
820.3084999999999
 30
0.0
 11
114.5499999999999
 21
818.9085
 31
0.0
  0
LINE
  5
7B
330
1E
100
AcDbEntity
  8
0
100
AcDbLine
 10
115.05
 20
819.7744999999999
 30
0.0
 11
116.436
 21
818.9745
 31
0.0
  0
LINE
  5
7C
330
1E
100
AcDbEntity
  8
0
100
AcDbLine
 10
116.436
 20
818.9745
 30
0.0
 11
117.042
 21
818.6244999999999
 31
0.0
  0
LINE
  5
7D
330
1E
100
AcDbEntity
  8
0
100
AcDbLine
 10
117.042
 20
818.6244999999999
 30
0.0
 11
121.7929999999999
 21
818.6530000000001
 31
0.0
  0
LINE
  5
7E
330
1E
100
AcDbEntity
  8
0
100
AcDbLine
 10
121.7929999999999
 20
818.6530000000001
 30
0.0
 11
125.590886951527
 21
819.2313827837711
 31
0.0
  0
LINE
  5
7F
330
1E
100
AcDbEntity
  8
0
100
AcDbLine
 10
96.1611
 20
822.6798
 30
0.0
 11
96.38720000000001
 21
822.5493
 31
0.0
  0
LINE
  5
80
330
1E
100
AcDbEntity
  8
0
100
AcDbLine
 10
96.1611
 20
822.6798
 30
0.0
 11
96.52177560209949
 21
823.774743086853
 31
0.0
  0
LINE
  5
81
330
1E
100
AcDbEntity
  8
0
100
AcDbLine
 10
96.1611
 20
822.6798
 30
0.0
 11
98.04730000000001
 21
822.0656999999999
 31
0.0
  0
LINE
  5
82
330
1E
100
AcDbEntity
  8
0
100
AcDbLine
 10
96.1611
 20
822.6798
 30
0.0
 11
96.46848624189601
 21
823.6129666422639
 31
0.0
  0
LINE
  5
83
330
1E
100
AcDbEntity
  8
0
100
AcDbLine
 10
96.38720000000001
 20
822.5493
 30
0.0
 11
98.27330000000001
 21
821.9350999999999
 31
0.0
  0
LINE
  5
84
330
1E
100
AcDbEntity
  8
0
100
AcDbLine
 10
96.38720000000001
 20
822.5493
 30
0.0
 11
96.4041238018229
 21
822.6006774696751
 31
0.0
  0
LINE
  5
85
330
1E
100
AcDbEntity
  8
0
100
AcDbLine
 10
101.0453
 20
822.8312999999999
 30
0.0
 11
101.9112999999999
 21
822.3313
 31
0.0
  0
LINE
  5
86
330
1E
100
AcDbEntity
  8
0
100
AcDbLine
 10
101.0453
 20
822.8312999999999
 30
0.0
 11
101.3644467567379
 21
824.0200890012649
 31
0.0
  0
LINE
  5
87
330
1E
100
AcDbEntity
  8
0
100
AcDbLine
 10
101.0453
 20
822.8312999999999
 30
0.0
 11
102.7735
 21
822.5148
 31
0.0
  0
LINE
  5
88
330
1E
100
AcDbEntity
  8
0
100
AcDbLine
 10
101.9112999999999
 20
822.3313
 30
0.0
 11
103.6396
 21
822.0148
 31
0.0
  0
LINE
  5
89
330
1E
100
AcDbEntity
  8
0
100
AcDbLine
 10
103.6396
 20
822.0148
 30
0.0
 11
103.8986185607789
 21
822.9796176259869
 31
0.0
  0
LINE
  5
8A
330
1E
100
AcDbEntity
  8
0
100
AcDbLine
 10
102.7735
 20
822.5148
 30
0.0
 11
103.6396
 21
822.0148
 31
0.0
  0
LINE
  5
8B
330
1E
100
AcDbEntity
  8
0
100
AcDbLine
 10
102.7735
 20
822.5148
 30
0.0
 11
103.0325912745389
 21
823.4797003508889
 31
0.0
  0
LINE
  5
8C
330
1E
100
AcDbEntity
  8
0
100
AcDbLine
 10
98.27330000000001
 20
821.9350999999999
 30
0.0
 11
98.6332877531872
 21
823.0277802182339
 31
0.0
  0
LINE
  5
8D
330
1E
100
AcDbEntity
  8
0
100
AcDbLine
 10
98.27330000000001
 20
821.9350999999999
 30
0.0
 11
98.59779419292141
 21
822.9200456888399
 31
0.0
  0
LINE
  5
8E
330
1E
100
AcDbEntity
  8
0
100
AcDbLine
 10
98.04730000000001
 20
822.0656999999999
 30
0.0
 11
98.27330000000001
 21
821.9350999999999
 31
0.0
  0
LINE
  5
8F
330
1E
100
AcDbEntity
  8
0
100
AcDbLine
 10
98.04730000000001
 20
822.0656999999999
 30
0.0
 11
98.44284425242641
 21
823.2664977313071
 31
0.0
  0
LINE
  5
90
330
1E
100
AcDbEntity
  8
0
100
AcDbLine
 10
95.7202
 20
823.4092
 30
0.0
 11
96.11680107729201
 21
824.5600513403561
 31
0.0
  0
LINE
  5
91
330
1E
100
AcDbEntity
  8
0
100
AcDbLine
 10
93.94859999999999
 20
823.9571999999999
 30
0.0
 11
95.7202
 21
823.4092
 31
0.0
  0
LINE
  5
92
330
1E
100
AcDbEntity
  8
0
100
AcDbLine
 10
93.94859999999999
 20
823.9571999999999
 30
0.0
 11
93.98797267208271
 21
824.071451057383
 31
0.0
  0
LINE
  5
93
330
1E
100
AcDbEntity
  8
0
100
AcDbLine
 10
95.05740000000001
 20
823.7919000000001
 30
0.0
 11
95.7202
 21
823.4092
 31
0.0
  0
LINE
  5
94
330
1E
100
AcDbEntity
  8
0
100
AcDbLine
 10
95.05740000000001
 20
823.7919000000001
 30
0.0
 11
95.51447888794902
 21
825.1182449873519
 31
0.0
  0
LINE
  5
95
330
1E
100
AcDbEntity
  8
0
100
AcDbLine
 10
95.86465478375171
 20
823.828376827851
 30
0.0
 11
96.46848624189601
 21
823.6129666422639
 31
0.0
  0
LINE
  5
96
330
1E
100
AcDbEntity
  8
0
100
AcDbLine
 10
95.86465478375171
 20
823.828376827851
 30
0.0
 11
96.46848624189601
 21
823.6129666422639
 31
0.0
  0
LINE
  5
97
330
1E
100
AcDbEntity
  8
0
100
AcDbLine
 10
98.59779419292141
 20
822.9200456888399
 30
0.0
 11
104.5129999999999
 21
821.1237999999999
 31
0.0
  0
LINE
  5
98
330
1E
100
AcDbEntity
  8
0
100
AcDbLine
 10
109.0079999999999
 20
822.1085
 30
0.0
 11
112.125
 21
820.3084999999999
 31
0.0
  0
LINE
  5
99
330
1E
100
AcDbEntity
  8
0
100
AcDbLine
 10
109.508
 20
822.9745000000001
 30
0.0
 11
112.6249999999999
 21
821.1745
 31
0.0
  0
LINE
  5
9A
330
1E
100
AcDbEntity
  8
0
100
AcDbLine
 10
112.6249999999999
 20
821.1745
 30
0.0
 11
115.05
 21
819.7744999999999
 31
0.0
  0
LINE
  5
9B
330
1E
100
AcDbEntity
  8
0
100
AcDbLine
 10
104.5129999999999
 20
821.1237999999999
 30
0.0
 11
106.3574621257389
 21
820.4998142622239
 31
0.0
  0
LINE
  5
9C
330
1E
100
AcDbEntity
  8
0
100
AcDbLine
 10
93.2858
 20
824.3399
 30
0.0
 11
93.94859999999999
 21
823.9571999999999
 31
0.0
  0
LINE
  5
9D
330
1E
100
AcDbEntity
  8
0
100
AcDbLine
 10
93.2858
 20
824.3399
 30
0.0
 11
93.66035667381609
 21
825.42678320527
 31
0.0
  0
LINE
  5
9E
330
1E
100
AcDbEntity
  8
0
100
AcDbLine
 10
93.2858
 20
824.3399
 30
0.0
 11
95.05740000000001
 21
823.7919000000001
 31
0.0
  0
LINE
  5
9F
330
1E
100
AcDbEntity
  8
0
100
AcDbLine
 10
93.2858
 20
824.3399
 30
0.0
 11
93.4111495853746
 21
824.703637636132
 31
0.0
  0
LINE
  5
A0
330
1E
100
AcDbEntity
  8
0
100
AcDbLine
 10
87.4014
 20
825.8796999999999
 30
0.0
 11
87.8165121995581
 21
826.8601483831059
 31
0.0
  0
LINE
  5
A1
330
1E
100
AcDbEntity
  8
0
100
AcDbLine
 10
104.851
 20
824.5084999999999
 30
0.0
 11
109.0079999999999
 21
822.1085
 31
0.0
  0
LINE
  5
A2
330
1E
100
AcDbEntity
  8
0
100
AcDbLine
 10
105.3509999999999
 20
825.3745
 30
0.0
 11
109.508
 21
822.9745000000001
 31
0.0
  0
LINE
  5
A3
330
1E
100
AcDbEntity
  8
0
100
AcDbLine
 10
85.5597
 20
826.6595
 30
0.0
 11
85.6037891093849
 21
826.7636412245149
 31
0.0
  0
LINE
  5
A4
330
1E
100
AcDbEntity
  8
0
100
AcDbLine
 10
85.5597
 20
826.6595
 30
0.0
 11
87.4014
 21
825.8796999999999
 31
0.0
  0
LINE
  5
A5
330
1E
100
AcDbEntity
  8
0
100
AcDbLine
 10
83.69200000000001
 20
828.0213999999999
 30
0.0
 11
84.14488213026949
 21
829.0444203764449
 31
0.0
  0
LINE
  5
A6
330
1E
100
AcDbEntity
  8
0
100
AcDbLine
 10
83.69200000000001
 20
828.0213999999999
 30
0.0
 11
83.88869447952691
 21
828.465715302021
 31
0.0
  0
LINE
  5
A7
330
1E
100
AcDbEntity
  8
0
100
AcDbLine
 10
84.341
 20
827.3633
 30
0.0
 11
84.78900000000001
 21
827.1045
 31
0.0
  0
LINE
  5
A8
330
1E
100
AcDbEntity
  8
0
100
AcDbLine
 10
84.341
 20
827.3633
 30
0.0
 11
84.80319415989709
 21
828.443183011096
 31
0.0
  0
LINE
  5
A9
330
1E
100
AcDbEntity
  8
0
100
AcDbLine
 10
84.341
 20
827.3633
 30
0.0
 11
86.1237
 21
826.6173999999999
 31
0.0
  0
LINE
  5
AA
330
1E
100
AcDbEntity
  8
0
100
AcDbLine
 10
84.341
 20
827.3633
 30
0.0
 11
84.6714822862711
 21
828.135447805787
 31
0.0
  0
LINE
  5
AB
330
1E
100
AcDbEntity
  8
0
100
AcDbLine
 10
84.78900000000001
 20
827.1045
 30
0.0
 11
86.57200000000001
 21
826.3586
 31
0.0
  0
LINE
  5
AC
330
1E
100
AcDbEntity
  8
0
100
AcDbLine
 10
84.78900000000001
 20
827.1045
 30
0.0
 11
84.81490907006879
 21
827.165011574934
 31
0.0
  0
LINE
  5
AD
330
1E
100
AcDbEntity
  8
0
100
AcDbLine
 10
86.57200000000001
 20
826.3586
 30
0.0
 11
86.99585509996019
 21
827.3482774227279
 31
0.0
  0
LINE
  5
AE
330
1E
100
AcDbEntity
  8
0
100
AcDbLine
 10
86.1237
 20
826.6173999999999
 30
0.0
 11
86.5919510814062
 21
827.7107395008791
 31
0.0
  0
LINE
  5
AF
330
1E
100
AcDbEntity
  8
0
100
AcDbLine
 10
86.1237
 20
826.6173999999999
 30
0.0
 11
86.57200000000001
 21
826.3586
 31
0.0
  0
LINE
  5
B0
330
1E
100
AcDbEntity
  8
0
100
AcDbLine
 10
81.21500000000001
 20
829.1681
 30
0.0
 11
82.08099999999999
 21
828.6680999999999
 31
0.0
  0
LINE
  5
B1
330
1E
100
AcDbEntity
  8
0
100
AcDbLine
 10
81.21500000000001
 20
829.1681
 30
0.0
 11
81.6425676264995
 21
830.1339900849619
 31
0.0
  0
LINE
  5
B2
330
1E
100
AcDbEntity
  8
0
100
AcDbLine
 10
81.21500000000001
 20
829.1681
 30
0.0
 11
82.826
 21
828.5213999999999
 31
0.0
  0
LINE
  5
B3
330
1E
100
AcDbEntity
  8
0
100
AcDbLine
 10
82.08099999999999
 20
828.6680999999999
 30
0.0
 11
83.69200000000001
 21
828.0213999999999
 31
0.0
  0
LINE
  5
B4
330
1E
100
AcDbEntity
  8
0
100
AcDbLine
 10
82.08099999999999
 20
828.6680999999999
 30
0.0
 11
82.117405492219
 21
828.7503412684991
 31
0.0
  0
LINE
  5
B5
330
1E
100
AcDbEntity
  8
0
100
AcDbLine
 10
82.826
 20
828.5213999999999
 30
0.0
 11
83.23325969571369
 21
829.4413633621491
 31
0.0
  0
LINE
  5
B6
330
1E
100
AcDbEntity
  8
0
100
AcDbLine
 10
82.826
 20
828.5213999999999
 30
0.0
 11
83.69200000000001
 21
828.0213999999999
 31
0.0
  0
LINE
  5
B7
330
1E
100
AcDbEntity
  8
0
100
AcDbLine
 10
81.31899999999999
 20
829.5498999999999
 30
0.0
 11
81.373779307507
 21
829.5267879579119
 31
0.0
  0
LINE
  5
B8
330
1E
100
AcDbEntity
  8
0
100
AcDbLine
 10
83.88869447952691
 20
828.465715302021
 30
0.0
 11
84.6714822862711
 21
828.135447805787
 31
0.0
  0
LINE
  5
B9
330
1E
100
AcDbEntity
  8
0
100
AcDbLine
 10
89.01149999999999
 20
826.8076
 30
0.0
 11
90.56189999999999
 21
826.3873
 31
0.0
  0
LINE
  5
BA
330
1E
100
AcDbEntity
  8
0
100
AcDbLine
 10
89.01149999999999
 20
826.8076
 30
0.0
 11
89.07422736820791
 21
826.9750471995459
 31
0.0
  0
LINE
  5
BB
330
1E
100
AcDbEntity
  8
0
100
AcDbLine
 10
89.01149999999999
 20
826.8076
 30
0.0
 11
89.07422736820791
 21
826.9750471995459
 31
0.0
  0
LINE
  5
BC
330
1E
100
AcDbEntity
  8
0
100
AcDbLine
 10
94.21739999999999
 20
826.7734
 30
0.0
 11
95.6826
 21
826.6087999999999
 31
0.0
  0
LINE
  5
BD
330
1E
100
AcDbEntity
  8
0
100
AcDbLine
 10
95.6826
 20
826.6087999999999
 30
0.0
 11
95.98270568332408
 21
827.5500267779239
 31
0.0
  0
LINE
  5
BE
330
1E
100
AcDbEntity
  8
0
100
AcDbLine
 10
90.56189999999999
 20
826.3873
 30
0.0
 11
91.01246543894029
 21
827.59005922804
 31
0.0
  0
LINE
  5
BF
330
1E
100
AcDbEntity
  8
0
100
AcDbLine
 10
92.9926
 20
827.4805
 30
0.0
 11
94.21739999999999
 21
826.7734
 31
0.0
  0
LINE
  5
C0
330
1E
100
AcDbEntity
  8
0
100
AcDbLine
 10
92.9926
 20
827.4805
 30
0.0
 11
93.37515922927151
 21
828.6803272966521
 31
0.0
  0
LINE
  5
C1
330
1E
100
AcDbEntity
  8
0
100
AcDbLine
 10
92.9926
 20
827.4805
 30
0.0
 11
94.4579
 21
827.3159000000001
 31
0.0
  0
LINE
  5
C2
330
1E
100
AcDbEntity
  8
0
100
AcDbLine
 10
94.4579
 20
827.3159000000001
 30
0.0
 11
95.6826
 21
826.6087999999999
 31
0.0
  0
LINE
  5
C3
330
1E
100
AcDbEntity
  8
0
100
AcDbLine
 10
94.4579
 20
827.3159000000001
 30
0.0
 11
94.75795576089069
 21
828.257128607971
 31
0.0
  0
LINE
  5
C4
330
1E
100
AcDbEntity
  8
0
100
AcDbLine
 10
87.95709999999999
 20
827.4163999999998
 30
0.0
 11
89.01149999999999
 21
826.8076
 31
0.0
  0
LINE
  5
C5
330
1E
100
AcDbEntity
  8
0
100
AcDbLine
 10
87.95709999999999
 20
827.4163999999998
 30
0.0
 11
88.35848267395599
 21
828.4878109272771
 31
0.0
  0
LINE
  5
C6
330
1E
100
AcDbEntity
  8
0
100
AcDbLine
 10
87.95709999999999
 20
827.4163999999998
 30
0.0
 11
89.50749999999999
 21
826.9961
 31
0.0
  0
LINE
  5
C7
330
1E
100
AcDbEntity
  8
0
100
AcDbLine
 10
89.50749999999999
 20
826.9961
 30
0.0
 11
90.56189999999999
 21
826.3873
 31
0.0
  0
LINE
  5
C8
330
1E
100
AcDbEntity
  8
0
100
AcDbLine
 10
89.50749999999999
 20
826.9961
 30
0.0
 11
89.837050750653
 21
827.875817288986
 31
0.0
  0
LINE
  5
C9
330
1E
100
AcDbEntity
  8
0
100
AcDbLine
 10
100.001
 20
827.3085
 30
0.0
 11
104.851
 21
824.5084999999999
 31
0.0
  0
LINE
  5
CA
330
1E
100
AcDbEntity
  8
0
100
AcDbLine
 10
100.5009999999999
 20
828.1744999999999
 30
0.0
 11
105.3509999999999
 21
825.3745
 31
0.0
  0
LINE
  5
CB
330
1E
100
AcDbEntity
  8
0
100
AcDbLine
 10
87.7979669904109
 20
826.816346682404
 30
0.0
 11
89.4899
 21
826.1025
 31
0.0
  0
LINE
  5
CC
330
1E
100
AcDbEntity
  8
0
100
AcDbLine
 10
89.4899
 20
826.1025
 30
0.0
 11
93.4111495853746
 21
824.703637636132
 31
0.0
  0
LINE
  5
CD
330
1E
100
AcDbEntity
  8
0
100
AcDbLine
 10
112.7739999999999
 20
826.6313999999999
 30
0.0
 11
117.364
 21
823.9814
 31
0.0
  0
LINE
  5
CE
330
1E
100
AcDbEntity
  8
0
100
AcDbLine
 10
117.364
 20
823.9814
 30
0.0
 11
120.914
 21
821.9314
 31
0.0
  0
LINE
  5
CF
330
1E
100
AcDbEntity
  8
0
100
AcDbLine
 10
120.914
 20
821.9314
 30
0.0
 11
123.5119999999999
 21
820.4314
 31
0.0
  0
LINE
  5
D0
330
1E
100
AcDbEntity
  8
0
100
AcDbLine
 10
123.5119999999999
 20
820.4314
 30
0.0
 11
125.1579999999999
 21
819.4814
 31
0.0
  0
LINE
  5
D1
330
1E
100
AcDbEntity
  8
0
100
AcDbLine
 10
125.1579999999999
 20
819.4814
 30
0.0
 11
125.764
 21
819.1314
 31
0.0
  0
LINE
  5
D2
330
1E
100
AcDbEntity
  8
0
100
AcDbLine
 10
31.504
 20
857.8689999999999
 30
0.0
 11
32.126541733273
 21
858.7223480221389
 31
0.0
  0
LINE
  5
D3
330
1E
100
AcDbEntity
  8
0
100
AcDbLine
 10
48.663
 20
845.3424
 30
0.0
 11
49.808213896641
 21
846.125046178272
 31
0.0
  0
LINE
  5
D4
330
1E
100
AcDbEntity
  8
0
100
AcDbLine
 10
47.555
 20
845.9825
 30
0.0
 11
47.998
 21
845.7266
 31
0.0
  0
LINE
  5
D5
330
1E
100
AcDbEntity
  8
0
100
AcDbLine
 10
47.998
 20
845.7266
 30
0.0
 11
48.365
 21
845.5144
 31
0.0
  0
LINE
  5
D6
330
1E
100
AcDbEntity
  8
0
100
AcDbLine
 10
44.306
 20
847.8583
 30
0.0
 11
44.527
 21
847.7306
 31
0.0
  0
LINE
  5
D7
330
1E
100
AcDbEntity
  8
0
100
AcDbLine
 10
45.858
 20
846.9622000000001
 30
0.0
 11
46.44699999999999
 21
846.6222999999999
 31
0.0
  0
LINE
  5
D8
330
1E
100
AcDbEntity
  8
0
100
AcDbLine
 10
44.895
 20
847.5182999999999
 30
0.0
 11
45.338
 21
847.2623999999999
 31
0.0
  0
LINE
  5
D9
330
1E
100
AcDbEntity
  8
0
100
AcDbLine
 10
45.338
 20
847.2623999999999
 30
0.0
 11
45.858
 21
846.9622000000001
 31
0.0
  0
LINE
  5
DA
330
1E
100
AcDbEntity
  8
0
100
AcDbLine
 10
44.527
 20
847.7306
 30
0.0
 11
44.895
 21
847.5182999999999
 31
0.0
  0
LINE
  5
DB
330
1E
100
AcDbEntity
  8
0
100
AcDbLine
 10
43.96399999999999
 20
849.215
 30
0.0
 11
44.0095113675792
 21
849.2892074825059
 31
0.0
  0
LINE
  5
DC
330
1E
100
AcDbEntity
  8
0
100
AcDbLine
 10
43.96399999999999
 20
849.215
 30
0.0
 11
45.338
 21
848.4216999999999
 31
0.0
  0
LINE
  5
DD
330
1E
100
AcDbEntity
  8
0
100
AcDbLine
 10
41.82
 20
850.4529999999999
 30
0.0
 11
42.12749467329929
 21
850.945427022142
 31
0.0
  0
LINE
  5
DE
330
1E
100
AcDbEntity
  8
0
100
AcDbLine
 10
40.765
 20
851.0617999999999
 30
0.0
 11
41.10654252138899
 21
851.6087195540809
 31
0.0
  0
LINE
  5
DF
330
1E
100
AcDbEntity
  8
0
100
AcDbLine
 10
40.765
 20
851.0617999999999
 30
0.0
 11
41.82
 21
850.4529999999999
 31
0.0
  0
LINE
  5
E0
330
1E
100
AcDbEntity
  8
0
100
AcDbLine
 10
39.43599999999999
 20
851.9298
 30
0.0
 11
39.7754959227431
 21
852.4734743488009
 31
0.0
  0
LINE
  5
E1
330
1E
100
AcDbEntity
  8
0
100
AcDbLine
 10
39.43599999999999
 20
851.9298
 30
0.0
 11
40.765
 21
851.0617999999999
 31
0.0
  0
LINE
  5
E2
330
1E
100
AcDbEntity
  8
0
100
AcDbLine
 10
42.50899999999999
 20
851.5147999999999
 30
0.0
 11
43.1185969750899
 21
852.4342430808999
 31
0.0
  0
LINE
  5
E3
330
1E
100
AcDbEntity
  8
0
100
AcDbLine
 10
42.95399999999999
 20
849.8986999999999
 30
0.0
 11
44.328
 21
849.1053
 31
0.0
  0
LINE
  5
E4
330
1E
100
AcDbEntity
  8
0
100
AcDbLine
 10
42.95399999999999
 20
849.8986999999999
 30
0.0
 11
43.5486972532034
 21
850.8683126124479
 31
0.0
  0
LINE
  5
E5
330
1E
100
AcDbEntity
  8
0
100
AcDbLine
 10
42.95399999999999
 20
849.8986999999999
 30
0.0
 11
43.96399999999999
 21
849.215
 31
0.0
  0
LINE
  5
E6
330
1E
100
AcDbEntity
  8
0
100
AcDbLine
 10
45.338
 20
848.4216999999999
 30
0.0
 11
45.8674120917849
 21
849.2849203475529
 31
0.0
  0
LINE
  5
E7
330
1E
100
AcDbEntity
  8
0
100
AcDbLine
 10
44.328
 20
849.1053
 30
0.0
 11
44.88620183700199
 21
850.0154627847541
 31
0.0
  0
LINE
  5
E8
330
1E
100
AcDbEntity
  8
0
100
AcDbLine
 10
44.328
 20
849.1053
 30
0.0
 11
45.338
 21
848.4216999999999
 31
0.0
  0
LINE
  5
E9
330
1E
100
AcDbEntity
  8
0
100
AcDbLine
 10
41.00899999999999
 20
852.3808999999999
 30
0.0
 11
42.50899999999999
 21
851.5147999999999
 31
0.0
  0
LINE
  5
EA
330
1E
100
AcDbEntity
  8
0
100
AcDbLine
 10
41.00899999999999
 20
852.3808999999999
 30
0.0
 11
41.0948859997214
 21
852.5104323426189
 31
0.0
  0
LINE
  5
EB
330
1E
100
AcDbEntity
  8
0
100
AcDbLine
 10
41.772
 20
852.2237
 30
0.0
 11
42.32478140846239
 21
853.0574492835921
 31
0.0
  0
LINE
  5
EC
330
1E
100
AcDbEntity
  8
0
100
AcDbLine
 10
41.772
 20
852.2237
 30
0.0
 11
42.50899999999999
 21
851.5147999999999
 31
0.0
  0
LINE
  5
ED
330
1E
100
AcDbEntity
  8
0
100
AcDbLine
 10
39.249
 20
851.9372
 30
0.0
 11
39.7800313375751
 21
852.7767660090139
 31
0.0
  0
LINE
  5
EE
330
1E
100
AcDbEntity
  8
0
100
AcDbLine
 10
38.586
 20
852.3198
 30
0.0
 11
39.249
 21
851.9372
 31
0.0
  0
LINE
  5
EF
330
1E
100
AcDbEntity
  8
0
100
AcDbLine
 10
44.229
 20
847.9026000000001
 30
0.0
 11
44.3136844475109
 21
849.013104314257
 31
0.0
  0
LINE
  5
F0
330
1E
100
AcDbEntity
  8
0
100
AcDbLine
 10
44.229
 20
847.9026000000001
 30
0.0
 11
44.306
 21
847.8583
 31
0.0
  0
LINE
  5
F1
330
1E
100
AcDbEntity
  8
0
100
AcDbLine
 10
47.965
 20
848.3647999999998
 30
0.0
 11
49.638
 21
847.3988
 31
0.0
  0
LINE
  5
F2
330
1E
100
AcDbEntity
  8
0
100
AcDbLine
 10
47.643
 20
848.8343
 30
0.0
 11
49.316
 21
847.8683999999999
 31
0.0
  0
LINE
  5
F3
330
1E
100
AcDbEntity
  8
0
100
AcDbLine
 10
47.643
 20
848.8343
 30
0.0
 11
48.29572937840279
 21
849.8861481444519
 31
0.0
  0
LINE
  5
F4
330
1E
100
AcDbEntity
  8
0
100
AcDbLine
 10
47.643
 20
848.8343
 30
0.0
 11
47.965
 21
848.3647999999998
 31
0.0
  0
LINE
  5
F5
330
1E
100
AcDbEntity
  8
0
100
AcDbLine
 10
46.44699999999999
 20
846.6222999999999
 30
0.0
 11
47.035
 21
846.2823
 31
0.0
  0
LINE
  5
F6
330
1E
100
AcDbEntity
  8
0
100
AcDbLine
 10
47.035
 20
846.2823
 30
0.0
 11
47.555
 21
845.9825
 31
0.0
  0
LINE
  5
F7
330
1E
100
AcDbEntity
  8
0
100
AcDbLine
 10
49.638
 20
847.3988
 30
0.0
 11
50.2362397202563
 21
848.3619202824581
 31
0.0
  0
LINE
  5
F8
330
1E
100
AcDbEntity
  8
0
100
AcDbLine
 10
49.316
 20
847.8683999999999
 30
0.0
 11
49.83528008503419
 21
848.705150173315
 31
0.0
  0
LINE
  5
F9
330
1E
100
AcDbEntity
  8
0
100
AcDbLine
 10
49.316
 20
847.8683999999999
 30
0.0
 11
49.638
 21
847.3988
 31
0.0
  0
LINE
  5
FA
330
1E
100
AcDbEntity
  8
0
100
AcDbLine
 10
48.365
 20
845.5144
 30
0.0
 11
48.58699999999999
 21
845.3866000000001
 31
0.0
  0
LINE
  5
FB
330
1E
100
AcDbEntity
  8
0
100
AcDbLine
 10
48.58699999999999
 20
845.3866000000001
 30
0.0
 11
48.663
 21
845.3424
 31
0.0
  0
LINE
  5
FC
330
1E
100
AcDbEntity
  8
0
100
AcDbLine
 10
57.402
 20
840.2972
 30
0.0
 11
57.4506760563409
 21
840.2690084507028
 31
0.0
  0
LINE
  5
FD
330
1E
100
AcDbEntity
  8
0
100
AcDbLine
 10
57.498
 20
840.2415999999998
 30
0.0
 11
57.60480753139029
 21
840.1801192468559
 31
0.0
  0
LINE
  5
FE
330
1E
100
AcDbEntity
  8
0
100
AcDbLine
 10
57.46199999999999
 20
840.2623999999999
 30
0.0
 11
57.691
 21
840.1305999999999
 31
0.0
  0
LINE
  5
FF
330
1E
100
AcDbEntity
  8
0
100
AcDbLine
 10
57.395
 20
840.3014999999999
 30
0.0
 11
57.51458631013999
 21
841.7666094641189
 31
0.0
  0
LINE
  5
100
330
1E
100
AcDbEntity
  8
0
100
AcDbLine
 10
57.395
 20
840.3014999999999
 30
0.0
 11
57.46199999999999
 21
840.2623999999999
 31
0.0
  0
LINE
  5
101
330
1E
100
AcDbEntity
  8
0
100
AcDbLine
 10
57.6025260771029
 20
840.181432501887
 30
0.0
 11
57.698
 21
840.1262
 31
0.0
  0
LINE
  5
102
330
1E
100
AcDbEntity
  8
0
100
AcDbLine
 10
57.691
 20
840.1305999999999
 30
0.0
 11
58.051
 21
839.9224999999999
 31
0.0
  0
LINE
  5
103
330
1E
100
AcDbEntity
  8
0
100
AcDbLine
 10
57.5687580071128
 20
840.2009558718891
 30
0.0
 11
57.691
 21
840.1303
 31
0.0
  0
LINE
  5
104
330
1E
100
AcDbEntity
  8
0
100
AcDbLine
 10
57.691
 20
840.1303
 30
0.0
 11
58.03
 21
839.9343999999999
 31
0.0
  0
LINE
  5
105
330
1E
100
AcDbEntity
  8
0
100
AcDbLine
 10
60.18600000000001
 20
838.6896
 30
0.0
 11
60.5227211538417
 21
838.495361778849
 31
0.0
  0
LINE
  5
106
330
1E
100
AcDbEntity
  8
0
100
AcDbLine
 10
59.05
 20
839.3454999999999
 30
0.0
 11
59.45268482815061
 21
839.1131487007621
 31
0.0
  0
LINE
  5
107
330
1E
100
AcDbEntity
  8
0
100
AcDbLine
 10
58.3952579505019
 20
839.7236028268709
 30
0.0
 11
58.50999999999999
 21
839.6572
 31
0.0
  0
LINE
  5
108
330
1E
100
AcDbEntity
  8
0
100
AcDbLine
 10
58.502
 20
839.6619999999998
 30
0.0
 11
59.05
 21
839.3454999999999
 31
0.0
  0
LINE
  5
109
330
1E
100
AcDbEntity
  8
0
100
AcDbLine
 10
58.051
 20
839.9224999999999
 30
0.0
 11
58.503
 21
839.6615999999999
 31
0.0
  0
LINE
  5
10A
330
1E
100
AcDbEntity
  8
0
100
AcDbLine
 10
58.50999999999999
 20
839.6572
 30
0.0
 11
58.85684073108721
 21
839.4570600522099
 31
0.0
  0
LINE
  5
10B
330
1E
100
AcDbEntity
  8
0
100
AcDbLine
 10
58.503
 20
839.6615999999999
 30
0.0
 11
59.043
 21
839.3499999999999
 31
0.0
  0
LINE
  5
10C
330
1E
100
AcDbEntity
  8
0
100
AcDbLine
 10
59.043
 20
839.3499999999999
 30
0.0
 11
59.61
 21
839.0221999999999
 31
0.0
  0
LINE
  5
10D
330
1E
100
AcDbEntity
  8
0
100
AcDbLine
 10
59.9683252304869
 20
838.815444425831
 30
0.0
 11
60.18600000000001
 21
838.6896
 31
0.0
  0
LINE
  5
10E
330
1E
100
AcDbEntity
  8
0
100
AcDbLine
 10
59.61
 20
839.0221999999999
 30
0.0
 11
60.17100000000001
 21
838.6984999999999
 31
0.0
  0
LINE
  5
10F
330
1E
100
AcDbEntity
  8
0
100
AcDbLine
 10
60.17100000000001
 20
838.6984999999999
 30
0.0
 11
60.71899999999999
 21
838.382
 31
0.0
  0
LINE
  5
110
330
1E
100
AcDbEntity
  8
0
100
AcDbLine
 10
58.03
 20
839.9343999999999
 30
0.0
 11
58.502
 21
839.6619999999998
 31
0.0
  0
LINE
  5
111
330
1E
100
AcDbEntity
  8
0
100
AcDbLine
 10
56.805
 20
841.2189999999998
 30
0.0
 11
57.4399644081971
 21
840.8523806143531
 31
0.0
  0
LINE
  5
112
330
1E
100
AcDbEntity
  8
0
100
AcDbLine
 10
55.475
 20
841.9869999999999
 30
0.0
 11
56.805
 21
841.2189999999998
 31
0.0
  0
LINE
  5
113
330
1E
100
AcDbEntity
  8
0
100
AcDbLine
 10
50.466
 20
844.8790999999999
 30
0.0
 11
50.965
 21
844.5909999999999
 31
0.0
  0
LINE
  5
114
330
1E
100
AcDbEntity
  8
0
100
AcDbLine
 10
50.965
 20
844.5909999999999
 30
0.0
 11
51.796
 21
844.1110000000001
 31
0.0
  0
LINE
  5
115
330
1E
100
AcDbEntity
  8
0
100
AcDbLine
 10
51.295
 20
848.5834
 30
0.0
 11
53.012
 21
847.5919000000001
 31
0.0
  0
LINE
  5
116
330
1E
100
AcDbEntity
  8
0
100
AcDbLine
 10
51.279
 20
849.0671999999999
 30
0.0
 11
52.996
 21
848.0757999999999
 31
0.0
  0
LINE
  5
117
330
1E
100
AcDbEntity
  8
0
100
AcDbLine
 10
51.279
 20
849.0671999999999
 30
0.0
 11
51.8007911864633
 21
849.9164215192759
 31
0.0
  0
LINE
  5
118
330
1E
100
AcDbEntity
  8
0
100
AcDbLine
 10
51.279
 20
849.0671999999999
 30
0.0
 11
51.295
 21
848.5834
 31
0.0
  0
LINE
  5
119
330
1E
100
AcDbEntity
  8
0
100
AcDbLine
 10
50.27899999999999
 20
844.987
 30
0.0
 11
50.466
 21
844.8790999999999
 31
0.0
  0
LINE
  5
11A
330
1E
100
AcDbEntity
  8
0
100
AcDbLine
 10
50.27899999999999
 20
844.987
 30
0.0
 11
50.6401247821622
 21
845.612504235183
 31
0.0
  0
LINE
  5
11B
330
1E
100
AcDbEntity
  8
0
100
AcDbLine
 10
57.225
 20
843.0184
 30
0.0
 11
57.34799999999999
 21
843.2311
 31
0.0
  0
LINE
  5
11C
330
1E
100
AcDbEntity
  8
0
100
AcDbLine
 10
57.4712713944966
 20
843.4447
 30
0.0
 11
57.96664419724059
 21
844.3021988022529
 31
0.0
  0
LINE
  5
11D
330
1E
100
AcDbEntity
  8
0
100
AcDbLine
 10
57.34799999999999
 20
843.2311
 30
0.0
 11
57.966269999719
 21
844.3024148210859
 31
0.0
  0
LINE
  5
11E
330
1E
100
AcDbEntity
  8
0
100
AcDbLine
 10
54.211
 20
843.299
 30
0.0
 11
54.802380798963
 21
844.3099153637771
 31
0.0
  0
LINE
  5
11F
330
1E
100
AcDbEntity
  8
0
100
AcDbLine
 10
55.493
 20
844.0184
 30
0.0
 11
57.225
 21
843.0184
 31
0.0
  0
LINE
  5
120
330
1E
100
AcDbEntity
  8
0
100
AcDbLine
 10
55.493
 20
844.0184
 30
0.0
 11
55.7392713945136
 21
844.4447000000298
 31
0.0
  0
LINE
  5
121
330
1E
100
AcDbEntity
  8
0
100
AcDbLine
 10
55.493
 20
844.0184
 30
0.0
 11
55.61600000000001
 21
844.2311
 31
0.0
  0
LINE
  5
122
330
1E
100
AcDbEntity
  8
0
100
AcDbLine
 10
55.61600000000001
 20
844.2311
 30
0.0
 11
56.23425978914371
 21
845.302397128588
 31
0.0
  0
LINE
  5
123
330
1E
100
AcDbEntity
  8
0
100
AcDbLine
 10
55.61600000000001
 20
844.2311
 30
0.0
 11
57.34799999999999
 21
843.2311
 31
0.0
  0
LINE
  5
124
330
1E
100
AcDbEntity
  8
0
100
AcDbLine
 10
53.012
 20
847.5919000000001
 30
0.0
 11
53.60305024920871
 21
848.5538414885169
 31
0.0
  0
LINE
  5
125
330
1E
100
AcDbEntity
  8
0
100
AcDbLine
 10
52.494
 20
844.2904999999999
 30
0.0
 11
54.211
 21
843.299
 31
0.0
  0
LINE
  5
126
330
1E
100
AcDbEntity
  8
0
100
AcDbLine
 10
52.494
 20
844.2904999999999
 30
0.0
 11
52.537823313175
 21
844.3654078971581
 31
0.0
  0
LINE
  5
127
330
1E
100
AcDbEntity
  8
0
100
AcDbLine
 10
54.02899999999999
 20
843.5049000000001
 30
0.0
 11
54.6083154679749
 21
844.495133288024
 31
0.0
  0
LINE
  5
128
330
1E
100
AcDbEntity
  8
0
100
AcDbLine
 10
54.02899999999999
 20
843.5049000000001
 30
0.0
 11
54.211
 21
843.299
 31
0.0
  0
LINE
  5
129
330
1E
100
AcDbEntity
  8
0
100
AcDbLine
 10
52.31100000000001
 20
844.4962999999999
 30
0.0
 11
52.7823078773069
 21
845.301914168475
 31
0.0
  0
LINE
  5
12A
330
1E
100
AcDbEntity
  8
0
100
AcDbLine
 10
52.31100000000001
 20
844.4962999999999
 30
0.0
 11
54.02899999999999
 21
843.5049000000001
 31
0.0
  0
LINE
  5
12B
330
1E
100
AcDbEntity
  8
0
100
AcDbLine
 10
52.31100000000001
 20
844.4962999999999
 30
0.0
 11
52.494
 21
844.2904999999999
 31
0.0
  0
LINE
  5
12C
330
1E
100
AcDbEntity
  8
0
100
AcDbLine
 10
52.996
 20
848.0757999999999
 30
0.0
 11
53.3720474831633
 21
848.6872253522539
 31
0.0
  0
LINE
  5
12D
330
1E
100
AcDbEntity
  8
0
100
AcDbLine
 10
52.996
 20
848.0757999999999
 30
0.0
 11
53.012
 21
847.5919000000001
 31
0.0
  0
LINE
  5
12E
330
1E
100
AcDbEntity
  8
0
100
AcDbLine
 10
57.707
 20
847.8526999999999
 30
0.0
 11
59.43899999999999
 21
846.8526999999999
 31
0.0
  0
LINE
  5
12F
330
1E
100
AcDbEntity
  8
0
100
AcDbLine
 10
57.707
 20
847.8526999999999
 30
0.0
 11
58.4842273027433
 21
849.199622707896
 31
0.0
  0
LINE
  5
130
330
1E
100
AcDbEntity
  8
0
100
AcDbLine
 10
57.707
 20
847.8526999999999
 30
0.0
 11
58.002
 21
848.3636999999999
 31
0.0
  0
LINE
  5
131
330
1E
100
AcDbEntity
  8
0
100
AcDbLine
 10
59.43899999999999
 20
846.8526999999999
 30
0.0
 11
59.73399999999999
 21
847.3637
 31
0.0
  0
LINE
  5
132
330
1E
100
AcDbEntity
  8
0
100
AcDbLine
 10
59.73399999999999
 20
847.3637
 30
0.0
 11
60.21632401208901
 21
848.1995599371799
 31
0.0
  0
LINE
  5
133
330
1E
100
AcDbEntity
  8
0
100
AcDbLine
 10
58.002
 20
848.3636999999999
 30
0.0
 11
58.4843270106361
 21
849.199565133615
 31
0.0
  0
LINE
  5
134
330
1E
100
AcDbEntity
  8
0
100
AcDbLine
 10
58.002
 20
848.3636999999999
 30
0.0
 11
59.73399999999999
 21
847.3637
 31
0.0
  0
LINE
  5
135
330
1E
100
AcDbEntity
  8
0
100
AcDbLine
 10
52.898
 20
843.4751
 30
0.0
 11
54.145
 21
842.7550999999999
 31
0.0
  0
LINE
  5
136
330
1E
100
AcDbEntity
  8
0
100
AcDbLine
 10
51.796
 20
844.1110000000001
 30
0.0
 11
52.898
 21
843.4751
 31
0.0
  0
LINE
  5
137
330
1E
100
AcDbEntity
  8
0
100
AcDbLine
 10
54.145
 20
842.7550999999999
 30
0.0
 11
55.475
 21
841.9869999999999
 31
0.0
  0
LINE
  5
138
330
1E
100
AcDbEntity
  8
0
100
AcDbLine
 10
61.17
 20
838.1217000000001
 30
0.0
 11
61.53
 21
837.9135999999999
 31
0.0
  0
LINE
  5
139
330
1E
100
AcDbEntity
  8
0
100
AcDbLine
 10
60.9411669626932
 20
838.2537833037339
 30
0.0
 11
61.198
 21
838.1053000000001
 31
0.0
  0
LINE
  5
13A
330
1E
100
AcDbEntity
  8
0
100
AcDbLine
 10
61.766
 20
837.7773999999998
 30
0.0
 11
61.83399999999999
 21
837.7382
 31
0.0
  0
LINE
  5
13B
330
1E
100
AcDbEntity
  8
0
100
AcDbLine
 10
61.76614785848279
 20
837.7774976986289
 30
0.0
 11
61.83399999999999
 21
837.7382
 31
0.0
  0
LINE
  5
13C
330
1E
100
AcDbEntity
  8
0
100
AcDbLine
 10
61.75899999999999
 20
837.7817
 30
0.0
 11
61.827
 21
837.7424999999998
 31
0.0
  0
LINE
  5
13D
330
1E
100
AcDbEntity
  8
0
100
AcDbLine
 10
61.65986504927559
 20
837.838800000002
 30
0.0
 11
61.766
 21
837.7773999999998
 31
0.0
  0
LINE
  5
13E
330
1E
100
AcDbEntity
  8
0
100
AcDbLine
 10
61.53
 20
837.9135999999999
 30
0.0
 11
61.75899999999999
 21
837.7817
 31
0.0
  0
LINE
  5
13F
330
1E
100
AcDbEntity
  8
0
100
AcDbLine
 10
61.731
 20
837.7981
 30
0.0
 11
61.827
 21
837.7424999999998
 31
0.0
  0
LINE
  5
140
330
1E
100
AcDbEntity
  8
0
100
AcDbLine
 10
61.83399999999999
 20
837.7382
 30
0.0
 11
62.7479676845605
 21
838.3702772851469
 31
0.0
  0
LINE
  5
141
330
1E
100
AcDbEntity
  8
0
100
AcDbLine
 10
61.827
 20
837.7424999999998
 30
0.0
 11
62.74076442613599
 21
838.374436716683
 31
0.0
  0
LINE
  5
142
330
1E
100
AcDbEntity
  8
0
100
AcDbLine
 10
61.198
 20
838.1053000000001
 30
0.0
 11
61.3332989690715
 21
838.0273041237121
 31
0.0
  0
LINE
  5
143
330
1E
100
AcDbEntity
  8
0
100
AcDbLine
 10
61.53
 20
837.9137
 30
0.0
 11
61.731
 21
837.7981
 31
0.0
  0
LINE
  5
144
330
1E
100
AcDbEntity
  8
0
100
AcDbLine
 10
61.191
 20
838.1095999999999
 30
0.0
 11
61.53
 21
837.9137
 31
0.0
  0
LINE
  5
145
330
1E
100
AcDbEntity
  8
0
100
AcDbLine
 10
61.56100000000001
 20
842.6563999999999
 30
0.0
 11
61.98699999999999
 21
842.8848999999999
 31
0.0
  0
LINE
  5
146
330
1E
100
AcDbEntity
  8
0
100
AcDbLine
 10
61.56100000000001
 20
842.6563999999999
 30
0.0
 11
62.0982916938748
 21
843.649063699231
 31
0.0
  0
LINE
  5
147
330
1E
100
AcDbEntity
  8
0
100
AcDbLine
 10
61.56100000000001
 20
842.6563999999999
 30
0.0
 11
63.27799999999999
 21
841.665
 31
0.0
  0
LINE
  5
148
330
1E
100
AcDbEntity
  8
0
100
AcDbLine
 10
61.98699999999999
 20
842.8848999999999
 30
0.0
 11
63.70499999999999
 21
841.8934
 31
0.0
  0
LINE
  5
149
330
1E
100
AcDbEntity
  8
0
100
AcDbLine
 10
61.98699999999999
 20
842.8848999999999
 30
0.0
 11
62.3289314031438
 21
843.515915530475
 31
0.0
  0
LINE
  5
14A
330
1E
100
AcDbEntity
  8
0
100
AcDbLine
 10
61.89
 20
838.8657
 30
0.0
 11
62.595
 21
838.5588
 31
0.0
  0
LINE
  5
14B
330
1E
100
AcDbEntity
  8
0
100
AcDbLine
 10
61.89
 20
838.8657
 30
0.0
 11
62.40793679092949
 21
839.7985735746729
 31
0.0
  0
LINE
  5
14C
330
1E
100
AcDbEntity
  8
0
100
AcDbLine
 10
61.89
 20
838.8657
 30
0.0
 11
63.49
 21
837.9417999999999
 31
0.0
  0
LINE
  5
14D
330
1E
100
AcDbEntity
  8
0
100
AcDbLine
 10
63.07999999999999
 20
839.6378999999999
 30
0.0
 11
63.648
 21
839.5937999999999
 31
0.0
  0
LINE
  5
14E
330
1E
100
AcDbEntity
  8
0
100
AcDbLine
 10
63.07999999999999
 20
839.6378999999999
 30
0.0
 11
63.6154434445241
 21
840.637318318414
 31
0.0
  0
LINE
  5
14F
330
1E
100
AcDbEntity
  8
0
100
AcDbLine
 10
63.07999999999999
 20
839.6378999999999
 30
0.0
 11
64.753
 21
838.672
 31
0.0
  0
LINE
  5
150
330
1E
100
AcDbEntity
  8
0
100
AcDbLine
 10
62.595
 20
838.5588
 30
0.0
 11
64.19599999999999
 21
837.6349000000001
 31
0.0
  0
LINE
  5
151
330
1E
100
AcDbEntity
  8
0
100
AcDbLine
 10
62.595
 20
838.5588
 30
0.0
 11
63.1278162711722
 21
839.5174851775129
 31
0.0
  0
LINE
  5
152
330
1E
100
AcDbEntity
  8
0
100
AcDbLine
 10
60.71899999999999
 20
838.382
 30
0.0
 11
61.191
 21
838.1095999999999
 31
0.0
  0
LINE
  5
153
330
1E
100
AcDbEntity
  8
0
100
AcDbLine
 10
60.25
 20
850.258
 30
0.0
 11
67.61199999999999
 21
846.0085000000001
 31
0.0
  0
LINE
  5
154
330
1E
100
AcDbEntity
  8
0
100
AcDbLine
 10
60.75
 20
851.125
 30
0.0
 11
68.11199999999999
 21
846.8745
 31
0.0
  0
LINE
  5
155
330
1E
100
AcDbEntity
  8
0
100
AcDbLine
 10
49.7119357939357
 20
846.117091238994
 30
0.0
 11
50.6157647773611
 21
845.5703102708669
 31
0.0
  0
LINE
  5
156
330
1E
100
AcDbEntity
  8
0
100
AcDbLine
 10
37.576
 20
852.9035
 30
0.0
 11
37.6052808104982
 21
852.949541550301
 31
0.0
  0
LINE
  5
157
330
1E
100
AcDbEntity
  8
0
100
AcDbLine
 10
37.576
 20
852.9035
 30
0.0
 11
37.802
 21
852.773
 31
0.0
  0
LINE
  5
158
330
1E
100
AcDbEntity
  8
0
100
AcDbLine
 10
35.903
 20
853.9693999999999
 30
0.0
 11
36.4541660497851
 21
854.8353054709521
 31
0.0
  0
LINE
  5
159
330
1E
100
AcDbEntity
  8
0
100
AcDbLine
 10
35.903
 20
853.9693999999999
 30
0.0
 11
37.576
 21
852.9035
 31
0.0
  0
LINE
  5
15A
330
1E
100
AcDbEntity
  8
0
100
AcDbLine
 10
37.031
 20
853.3183000000001
 30
0.0
 11
37.694
 21
852.9355999999999
 31
0.0
  0
LINE
  5
15B
330
1E
100
AcDbEntity
  8
0
100
AcDbLine
 10
37.031
 20
853.3183000000001
 30
0.0
 11
37.6242676558472
 21
854.256262268613
 31
0.0
  0
LINE
  5
15C
330
1E
100
AcDbEntity
  8
0
100
AcDbLine
 10
37.031
 20
853.3183000000001
 30
0.0
 11
38.586
 21
852.3198
 31
0.0
  0
LINE
  5
15D
330
1E
100
AcDbEntity
  8
0
100
AcDbLine
 10
40.27199999999999
 20
853.0898
 30
0.0
 11
41.772
 21
852.2237
 31
0.0
  0
LINE
  5
15E
330
1E
100
AcDbEntity
  8
0
100
AcDbLine
 10
40.27199999999999
 20
853.0898
 30
0.0
 11
40.95741871806199
 21
854.123541151217
 31
0.0
  0
LINE
  5
15F
330
1E
100
AcDbEntity
  8
0
100
AcDbLine
 10
40.27199999999999
 20
853.0898
 30
0.0
 11
41.00899999999999
 21
852.3808999999999
 31
0.0
  0
LINE
  5
160
330
1E
100
AcDbEntity
  8
0
100
AcDbLine
 10
43.038
 20
853.3506
 30
0.0
 11
43.681066347561
 21
854.2828443445721
 31
0.0
  0
LINE
  5
161
330
1E
100
AcDbEntity
  8
0
100
AcDbLine
 10
46.58699999999999
 20
854.2729000000001
 30
0.0
 11
47.3345413019192
 21
855.3575219661849
 31
0.0
  0
LINE
  5
162
330
1E
100
AcDbEntity
  8
0
100
AcDbLine
 10
41.43699999999999
 20
854.2745
 30
0.0
 11
43.038
 21
853.3506
 31
0.0
  0
LINE
  5
163
330
1E
100
AcDbEntity
  8
0
100
AcDbLine
 10
42.595
 20
854.0812999999999
 30
0.0
 11
43.00381435328429
 21
854.6739158199221
 31
0.0
  0
LINE
  5
164
330
1E
100
AcDbEntity
  8
0
100
AcDbLine
 10
42.595
 20
854.0812999999999
 30
0.0
 11
43.038
 21
853.3506
 31
0.0
  0
LINE
  5
165
330
1E
100
AcDbEntity
  8
0
100
AcDbLine
 10
37.694
 20
852.9355999999999
 30
0.0
 11
38.2892649888452
 21
853.8767757569189
 31
0.0
  0
LINE
  5
166
330
1E
100
AcDbEntity
  8
0
100
AcDbLine
 10
37.694
 20
852.9355999999999
 30
0.0
 11
39.249
 21
851.9372
 31
0.0
  0
LINE
  5
167
330
1E
100
AcDbEntity
  8
0
100
AcDbLine
 10
35.099
 20
855.793
 30
0.0
 11
35.1693314640644
 21
855.893420778087
 31
0.0
  0
LINE
  5
168
330
1E
100
AcDbEntity
  8
0
100
AcDbLine
 10
35.099
 20
855.793
 30
0.0
 11
36.324
 21
855.0859
 31
0.0
  0
LINE
  5
169
330
1E
100
AcDbEntity
  8
0
100
AcDbLine
 10
34.006
 20
856.7069999999999
 30
0.0
 11
35.231
 21
856.0
 31
0.0
  0
LINE
  5
16A
330
1E
100
AcDbEntity
  8
0
100
AcDbLine
 10
34.006
 20
856.7069999999999
 30
0.0
 11
34.66261898180199
 21
857.6451091839739
 31
0.0
  0
LINE
  5
16B
330
1E
100
AcDbEntity
  8
0
100
AcDbLine
 10
34.006
 20
856.7069999999999
 30
0.0
 11
35.099
 21
855.793
 31
0.0
  0
LINE
  5
16C
330
1E
100
AcDbEntity
  8
0
100
AcDbLine
 10
46.45399999999999
 20
855.0311999999999
 30
0.0
 11
47.0030397528165
 21
855.8286461469611
 31
0.0
  0
LINE
  5
16D
330
1E
100
AcDbEntity
  8
0
100
AcDbLine
 10
46.45399999999999
 20
855.0311999999999
 30
0.0
 11
46.58699999999999
 21
854.2729000000001
 31
0.0
  0
LINE
  5
16E
330
1E
100
AcDbEntity
  8
0
100
AcDbLine
 10
40.994
 20
855.0051999999999
 30
0.0
 11
42.595
 21
854.0812999999999
 31
0.0
  0
LINE
  5
16F
330
1E
100
AcDbEntity
  8
0
100
AcDbLine
 10
40.994
 20
855.0051999999999
 30
0.0
 11
41.5735256664439
 21
855.8455382040421
 31
0.0
  0
LINE
  5
170
330
1E
100
AcDbEntity
  8
0
100
AcDbLine
 10
40.994
 20
855.0051999999999
 30
0.0
 11
41.43699999999999
 21
854.2745
 31
0.0
  0
LINE
  5
171
330
1E
100
AcDbEntity
  8
0
100
AcDbLine
 10
44.91399999999999
 20
855.2388
 30
0.0
 11
46.58699999999999
 21
854.2729000000001
 31
0.0
  0
LINE
  5
172
330
1E
100
AcDbEntity
  8
0
100
AcDbLine
 10
44.78
 20
855.9971
 30
0.0
 11
46.45399999999999
 21
855.0311999999999
 31
0.0
  0
LINE
  5
173
330
1E
100
AcDbEntity
  8
0
100
AcDbLine
 10
44.78
 20
855.9971
 30
0.0
 11
45.3296762938197
 21
856.7947874083749
 31
0.0
  0
LINE
  5
174
330
1E
100
AcDbEntity
  8
0
100
AcDbLine
 10
44.78
 20
855.9971
 30
0.0
 11
44.91399999999999
 21
855.2388
 31
0.0
  0
LINE
  5
175
330
1E
100
AcDbEntity
  8
0
100
AcDbLine
 10
36.324
 20
855.0859
 30
0.0
 11
36.94141071855329
 21
855.9675063287411
 31
0.0
  0
LINE
  5
176
330
1E
100
AcDbEntity
  8
0
100
AcDbLine
 10
35.231
 20
856.0
 30
0.0
 11
35.806497039562
 21
856.8217070591119
 31
0.0
  0
LINE
  5
177
330
1E
100
AcDbEntity
  8
0
100
AcDbLine
 10
35.231
 20
856.0
 30
0.0
 11
36.324
 21
855.0859
 31
0.0
  0
LINE
  5
178
330
1E
100
AcDbEntity
  8
0
100
AcDbLine
 10
35.231
 20
856.0
 30
0.0
 11
35.806497039562
 21
856.8217070591119
 31
0.0
  0
LINE
  5
179
330
1E
100
AcDbEntity
  8
0
100
AcDbLine
 10
52.88899999999999
 20
854.508
 30
0.0
 11
60.25
 21
850.258
 31
0.0
  0
LINE
  5
17A
330
1E
100
AcDbEntity
  8
0
100
AcDbLine
 10
53.38899999999999
 20
855.375
 30
0.0
 11
60.75
 21
851.125
 31
0.0
  0
LINE
  5
17B
330
1E
100
AcDbEntity
  8
0
100
AcDbLine
 10
39.6373131567857
 20
852.551127096617
 30
0.0
 11
43.1735072897846
 21
850.256591407019
 31
0.0
  0
LINE
  5
17C
330
1E
100
AcDbEntity
  8
0
100
AcDbLine
 10
31.78199999999999
 20
858.15
 30
0.0
 11
37.4992661903184
 21
854.0586336653479
 31
0.0
  0
LINE
  5
17D
330
1E
100
AcDbEntity
  8
0
100
AcDbLine
 10
34.03399999999999
 20
858.549
 30
0.0
 11
34.7237567495224
 21
859.4544499136709
 31
0.0
  0
LINE
  5
17E
330
1E
100
AcDbEntity
  8
0
100
AcDbLine
 10
30.638
 20
858.3689999999998
 30
0.0
 11
30.69097451353639
 21
858.441614724337
 31
0.0
  0
LINE
  5
17F
330
1E
100
AcDbEntity
  8
0
100
AcDbLine
 10
30.638
 20
858.3689999999998
 30
0.0
 11
31.504
 21
857.8689999999999
 31
0.0
  0
LINE
  5
180
330
1E
100
AcDbEntity
  8
0
100
AcDbLine
 10
28.378
 20
859.673
 30
0.0
 11
29.00508786227999
 21
860.5110364503419
 31
0.0
  0
LINE
  5
181
330
1E
100
AcDbEntity
  8
0
100
AcDbLine
 10
28.378
 20
859.673
 30
0.0
 11
28.8814560079713
 21
860.345815583274
 31
0.0
  0
LINE
  5
182
330
1E
100
AcDbEntity
  8
0
100
AcDbLine
 10
27.93
 20
859.932
 30
0.0
 11
27.9692413832892
 21
859.984485759938
 31
0.0
  0
LINE
  5
183
330
1E
100
AcDbEntity
  8
0
100
AcDbLine
 10
27.93
 20
859.932
 30
0.0
 11
28.378
 21
859.673
 31
0.0
  0
LINE
  5
184
330
1E
100
AcDbEntity
  8
0
100
AcDbLine
 10
29.272
 20
859.4409999999999
 30
0.0
 11
30.138
 21
858.941
 31
0.0
  0
LINE
  5
185
330
1E
100
AcDbEntity
  8
0
100
AcDbLine
 10
29.272
 20
859.4409999999999
 30
0.0
 11
29.9116058626316
 21
860.3169937557879
 31
0.0
  0
LINE
  5
186
330
1E
100
AcDbEntity
  8
0
100
AcDbLine
 10
29.272
 20
859.4409999999999
 30
0.0
 11
30.638
 21
858.3689999999998
 31
0.0
  0
LINE
  5
187
330
1E
100
AcDbEntity
  8
0
100
AcDbLine
 10
29.272
 20
859.4409999999999
 30
0.0
 11
29.5584451384159
 21
859.833310588892
 31
0.0
  0
LINE
  5
188
330
1E
100
AcDbEntity
  8
0
100
AcDbLine
 10
32.66
 20
859.342
 30
0.0
 11
34.03399999999999
 21
858.549
 31
0.0
  0
LINE
  5
189
330
1E
100
AcDbEntity
  8
0
100
AcDbLine
 10
33.208
 20
859.501
 30
0.0
 11
33.7009584183079
 21
860.1486524826311
 31
0.0
  0
LINE
  5
18A
330
1E
100
AcDbEntity
  8
0
100
AcDbLine
 10
33.208
 20
859.501
 30
0.0
 11
34.03399999999999
 21
858.549
 31
0.0
  0
LINE
  5
18B
330
1E
100
AcDbEntity
  8
0
100
AcDbLine
 10
30.138
 20
858.941
 30
0.0
 11
30.73132613089339
 21
859.753609790145
 31
0.0
  0
LINE
  5
18C
330
1E
100
AcDbEntity
  8
0
100
AcDbLine
 10
30.138
 20
858.941
 30
0.0
 11
31.504
 21
857.8689999999999
 31
0.0
  0
LINE
  5
18D
330
1E
100
AcDbEntity
  8
0
100
AcDbLine
 10
45.701
 20
858.6589999999999
 30
0.0
 11
52.88899999999999
 21
854.508
 31
0.0
  0
LINE
  5
18E
330
1E
100
AcDbEntity
  8
0
100
AcDbLine
 10
46.20099999999999
 20
859.525
 30
0.0
 11
53.38899999999999
 21
855.375
 31
0.0
  0
LINE
  5
18F
330
1E
100
AcDbEntity
  8
0
100
AcDbLine
 10
31.7349707792318
 20
858.185602802825
 30
0.0
 11
31.78199999999999
 21
858.15
 31
0.0
  0
LINE
  5
190
330
1E
100
AcDbEntity
  8
0
100
AcDbLine
 10
75.638
 20
831.0286999999998
 30
0.0
 11
76.13924303706709
 21
831.990826245175
 31
0.0
  0
LINE
  5
191
330
1E
100
AcDbEntity
  8
0
100
AcDbLine
 10
72.205
 20
832.9101000000001
 30
0.0
 11
72.86799999999999
 21
832.5275000000001
 31
0.0
  0
LINE
  5
192
330
1E
100
AcDbEntity
  8
0
100
AcDbLine
 10
72.205
 20
832.9101000000001
 30
0.0
 11
72.54729584544199
 21
833.562525461275
 31
0.0
  0
LINE
  5
193
330
1E
100
AcDbEntity
  8
0
100
AcDbLine
 10
72.86799999999999
 20
832.5275000000001
 30
0.0
 11
73.2409612317048
 21
833.2383343991999
 31
0.0
  0
LINE
  5
194
330
1E
100
AcDbEntity
  8
0
100
AcDbLine
 10
72.86799999999999
 20
832.5275000000001
 30
0.0
 11
73.67270011897931
 21
832.112113994612
 31
0.0
  0
LINE
  5
195
330
1E
100
AcDbEntity
  8
0
100
AcDbLine
 10
73.65300000000001
 20
832.0743
 30
0.0
 11
73.87899999999999
 21
831.9437999999999
 31
0.0
  0
LINE
  5
196
330
1E
100
AcDbEntity
  8
0
100
AcDbLine
 10
73.65300000000001
 20
832.0743
 30
0.0
 11
74.11653996771121
 21
832.9640559380219
 31
0.0
  0
LINE
  5
197
330
1E
100
AcDbEntity
  8
0
100
AcDbLine
 10
73.65300000000001
 20
832.0743
 30
0.0
 11
75.41199999999999
 21
831.1593
 31
0.0
  0
LINE
  5
198
330
1E
100
AcDbEntity
  8
0
100
AcDbLine
 10
73.87899999999999
 20
831.9437999999999
 30
0.0
 11
75.638
 21
831.0286999999998
 31
0.0
  0
LINE
  5
199
330
1E
100
AcDbEntity
  8
0
100
AcDbLine
 10
75.41199999999999
 20
831.1593
 30
0.0
 11
75.92012542866839
 21
832.1345818698519
 31
0.0
  0
LINE
  5
19A
330
1E
100
AcDbEntity
  8
0
100
AcDbLine
 10
75.41199999999999
 20
831.1593
 30
0.0
 11
75.638
 21
831.0286999999998
 31
0.0
  0
LINE
  5
19B
330
1E
100
AcDbEntity
  8
0
100
AcDbLine
 10
72.105
 20
833.0683999999999
 30
0.0
 11
72.6134361489177
 21
834.024032544435
 31
0.0
  0
LINE
  5
19C
330
1E
100
AcDbEntity
  8
0
100
AcDbLine
 10
66.116
 20
836.4256000000001
 30
0.0
 11
67.48999999999999
 21
835.6322999999999
 31
0.0
  0
LINE
  5
19D
330
1E
100
AcDbEntity
  8
0
100
AcDbLine
 10
66.116
 20
836.4256000000001
 30
0.0
 11
66.2911649992066
 21
836.7485248553059
 31
0.0
  0
LINE
  5
19E
330
1E
100
AcDbEntity
  8
0
100
AcDbLine
 10
67.48999999999999
 20
835.6322999999999
 30
0.0
 11
67.70493718415329
 21
836.028546735403
 31
0.0
  0
LINE
  5
19F
330
1E
100
AcDbEntity
  8
0
100
AcDbLine
 10
67.48999999999999
 20
835.6322999999999
 30
0.0
 11
68.587
 21
835.0995000000001
 31
0.0
  0
LINE
  5
1A0
330
1E
100
AcDbEntity
  8
0
100
AcDbLine
 10
68.587
 20
835.0995000000001
 30
0.0
 11
68.7909466502374
 21
835.47548517293
 31
0.0
  0
LINE
  5
1A1
330
1E
100
AcDbEntity
  8
0
100
AcDbLine
 10
70.20900000000001
 20
835.5218999999999
 30
0.0
 11
71.19199999999999
 21
835.2383999999998
 31
0.0
  0
LINE
  5
1A2
330
1E
100
AcDbEntity
  8
0
100
AcDbLine
 10
70.20900000000001
 20
835.5218999999999
 30
0.0
 11
70.7008566530634
 21
836.509162215461
 31
0.0
  0
LINE
  5
1A3
330
1E
100
AcDbEntity
  8
0
100
AcDbLine
 10
70.20900000000001
 20
835.5218999999999
 30
0.0
 11
71.709
 21
834.6558999999999
 31
0.0
  0
LINE
  5
1A4
330
1E
100
AcDbEntity
  8
0
100
AcDbLine
 10
69.634
 20
834.3943000000001
 30
0.0
 11
70.68899999999999
 21
833.7854999999999
 31
0.0
  0
LINE
  5
1A5
330
1E
100
AcDbEntity
  8
0
100
AcDbLine
 10
69.634
 20
834.3943000000001
 30
0.0
 11
70.0947031061129
 21
835.2593435981798
 31
0.0
  0
LINE
  5
1A6
330
1E
100
AcDbEntity
  8
0
100
AcDbLine
 10
69.634
 20
834.3943000000001
 30
0.0
 11
71.051
 21
833.6771
 31
0.0
  0
LINE
  5
1A7
330
1E
100
AcDbEntity
  8
0
100
AcDbLine
 10
71.709
 20
834.6558999999999
 30
0.0
 11
71.77846015448259
 21
834.7953214870809
 31
0.0
  0
LINE
  5
1A8
330
1E
100
AcDbEntity
  8
0
100
AcDbLine
 10
71.709
 20
834.6558999999999
 30
0.0
 11
72.69199999999999
 21
834.3723999999999
 31
0.0
  0
LINE
  5
1A9
330
1E
100
AcDbEntity
  8
0
100
AcDbLine
 10
71.535
 20
836.8976999999999
 30
0.0
 11
72.389
 21
836.8794000000001
 31
0.0
  0
LINE
  5
1AA
330
1E
100
AcDbEntity
  8
0
100
AcDbLine
 10
71.535
 20
836.8976999999999
 30
0.0
 11
72.0205027221493
 21
837.920427052585
 31
0.0
  0
LINE
  5
1AB
330
1E
100
AcDbEntity
  8
0
100
AcDbLine
 10
71.535
 20
836.8976999999999
 30
0.0
 11
73.13500000000001
 21
835.9738
 31
0.0
  0
LINE
  5
1AC
330
1E
100
AcDbEntity
  8
0
100
AcDbLine
 10
72.389
 20
836.8794000000001
 30
0.0
 11
73.98899999999999
 21
835.9555
 31
0.0
  0
LINE
  5
1AD
330
1E
100
AcDbEntity
  8
0
100
AcDbLine
 10
72.389
 20
836.8794000000001
 30
0.0
 11
72.69787606719609
 21
837.529285504609
 31
0.0
  0
LINE
  5
1AE
330
1E
100
AcDbEntity
  8
0
100
AcDbLine
 10
71.19199999999999
 20
835.2383999999998
 30
0.0
 11
72.69199999999999
 21
834.3723999999999
 31
0.0
  0
LINE
  5
1AF
330
1E
100
AcDbEntity
  8
0
100
AcDbLine
 10
71.19199999999999
 20
835.2383999999998
 30
0.0
 11
71.6373380871897
 21
836.1332983413459
 31
0.0
  0
LINE
  5
1B0
330
1E
100
AcDbEntity
  8
0
100
AcDbLine
 10
70.68899999999999
 20
833.7854999999999
 30
0.0
 11
72.105
 21
833.0683999999999
 31
0.0
  0
LINE
  5
1B1
330
1E
100
AcDbEntity
  8
0
100
AcDbLine
 10
70.68899999999999
 20
833.7854999999999
 30
0.0
 11
70.72036164642771
 21
833.8444492076089
 31
0.0
  0
LINE
  5
1B2
330
1E
100
AcDbEntity
  8
0
100
AcDbLine
 10
71.051
 20
833.6771
 30
0.0
 11
71.54463894546349
 21
834.6049729912069
 31
0.0
  0
LINE
  5
1B3
330
1E
100
AcDbEntity
  8
0
100
AcDbLine
 10
71.051
 20
833.6771
 30
0.0
 11
72.105
 21
833.0683999999999
 31
0.0
  0
LINE
  5
1B4
330
1E
100
AcDbEntity
  8
0
100
AcDbLine
 10
64.19599999999999
 20
837.6349000000001
 30
0.0
 11
64.66480051037359
 21
838.4792725481171
 31
0.0
  0
LINE
  5
1B5
330
1E
100
AcDbEntity
  8
0
100
AcDbLine
 10
63.27799999999999
 20
841.665
 30
0.0
 11
63.70499999999999
 21
841.8934
 31
0.0
  0
LINE
  5
1B6
330
1E
100
AcDbEntity
  8
0
100
AcDbLine
 10
63.70499999999999
 20
841.8934
 30
0.0
 11
64.179306808066
 21
842.7696970952879
 31
0.0
  0
LINE
  5
1B7
330
1E
100
AcDbEntity
  8
0
100
AcDbLine
 10
63.648
 20
839.5937999999999
 30
0.0
 11
65.32099999999999
 21
838.6279
 31
0.0
  0
LINE
  5
1B8
330
1E
100
AcDbEntity
  8
0
100
AcDbLine
 10
63.648
 20
839.5937999999999
 30
0.0
 11
64.1125904541381
 21
840.461845366126
 31
0.0
  0
LINE
  5
1B9
330
1E
100
AcDbEntity
  8
0
100
AcDbLine
 10
63.49
 20
837.9417999999999
 30
0.0
 11
63.5322654870788
 21
838.0179258066759
 31
0.0
  0
LINE
  5
1BA
330
1E
100
AcDbEntity
  8
0
100
AcDbLine
 10
63.49
 20
837.9417999999999
 30
0.0
 11
64.19599999999999
 21
837.6349000000001
 31
0.0
  0
LINE
  5
1BB
330
1E
100
AcDbEntity
  8
0
100
AcDbLine
 10
64.753
 20
838.672
 30
0.0
 11
65.32099999999999
 21
838.6279
 31
0.0
  0
LINE
  5
1BC
330
1E
100
AcDbEntity
  8
0
100
AcDbLine
 10
65.32099999999999
 20
838.6279
 30
0.0
 11
65.9050069824261
 21
839.7190643800779
 31
0.0
  0
LINE
  5
1BD
330
1E
100
AcDbEntity
  8
0
100
AcDbLine
 10
72.232
 20
839.4665999999999
 30
0.0
 11
72.955
 21
839.7303
 31
0.0
  0
LINE
  5
1BE
330
1E
100
AcDbEntity
  8
0
100
AcDbLine
 10
70.559
 20
840.4325
 30
0.0
 11
71.28199999999999
 21
840.6962999999999
 31
0.0
  0
LINE
  5
1BF
330
1E
100
AcDbEntity
  8
0
100
AcDbLine
 10
70.559
 20
840.4325
 30
0.0
 11
71.124629073287
 21
841.6223828852761
 31
0.0
  0
LINE
  5
1C0
330
1E
100
AcDbEntity
  8
0
100
AcDbLine
 10
70.559
 20
840.4325
 30
0.0
 11
72.232
 21
839.4665999999999
 31
0.0
  0
LINE
  5
1C1
330
1E
100
AcDbEntity
  8
0
100
AcDbLine
 10
71.28199999999999
 20
840.6962999999999
 30
0.0
 11
72.955
 21
839.7303
 31
0.0
  0
LINE
  5
1C2
330
1E
100
AcDbEntity
  8
0
100
AcDbLine
 10
71.28199999999999
 20
840.6962999999999
 30
0.0
 11
71.69824746566179
 21
841.5708743171119
 31
0.0
  0
LINE
  5
1C3
330
1E
100
AcDbEntity
  8
0
100
AcDbLine
 10
67.61199999999999
 20
846.0085000000001
 30
0.0
 11
74.8
 21
841.8585
 31
0.0
  0
LINE
  5
1C4
330
1E
100
AcDbEntity
  8
0
100
AcDbLine
 10
68.11199999999999
 20
846.8745
 30
0.0
 11
75.3
 21
842.7245
 31
0.0
  0
LINE
  5
1C5
330
1E
100
AcDbEntity
  8
0
100
AcDbLine
 10
64.27286749647411
 20
837.7733486629789
 30
0.0
 11
64.33800000000001
 21
837.7374999999998
 31
0.0
  0
LINE
  5
1C6
330
1E
100
AcDbEntity
  8
0
100
AcDbLine
 10
64.33800000000001
 20
837.7374999999998
 30
0.0
 11
69.9030184533533
 21
834.899425074647
 31
0.0
  0
LINE
  5
1C7
330
1E
100
AcDbEntity
  8
0
100
AcDbLine
 10
72.955
 20
839.7303
 30
0.0
 11
73.37127370260541
 21
840.6049294433501
 31
0.0
  0
LINE
  5
1C8
330
1E
100
AcDbEntity
  8
0
100
AcDbLine
 10
73.13500000000001
 20
835.9738
 30
0.0
 11
73.98899999999999
 21
835.9555
 31
0.0
  0
LINE
  5
1C9
330
1E
100
AcDbEntity
  8
0
100
AcDbLine
 10
73.98899999999999
 20
835.9555
 30
0.0
 11
74.42692541414991
 21
836.8769096169369
 31
0.0
  0
LINE
  5
1CA
330
1E
100
AcDbEntity
  8
0
100
AcDbLine
 10
72.69199999999999
 20
834.3723999999999
 30
0.0
 11
73.2442774150373
 21
835.4821285349789
 31
0.0
  0
LINE
  5
1CB
330
1E
100
AcDbEntity
  8
0
100
AcDbLine
 10
74.8
 20
841.8585
 30
0.0
 11
81.728
 21
837.8585000000001
 31
0.0
  0
LINE
  5
1CC
330
1E
100
AcDbEntity
  8
0
100
AcDbLine
 10
75.3
 20
842.7245
 30
0.0
 11
82.22799999999999
 21
838.7245
 31
0.0
  0
LINE
  5
1CD
330
1E
100
AcDbEntity
  8
0
100
AcDbLine
 10
72.4013116943583
 20
833.625333449812
 30
0.0
 11
72.90100000000001
 21
833.3705
 31
0.0
  0
LINE
  5
1CE
330
1E
100
AcDbEntity
  8
0
100
AcDbLine
 10
72.90100000000001
 20
833.3705
 30
0.0
 11
74.05534276459199
 21
832.846589098788
 31
0.0
  0
LINE
  5
1CF
330
1E
100
AcDbEntity
  8
0
100
AcDbLine
 10
77.619
 20
831.2438
 30
0.0
 11
78.958
 21
830.7546999999999
 31
0.0
  0
LINE
  5
1D0
330
1E
100
AcDbEntity
  8
0
100
AcDbLine
 10
77.619
 20
831.2438
 30
0.0
 11
77.67101717966241
 21
831.3553589347201
 31
0.0
  0
LINE
  5
1D1
330
1E
100
AcDbEntity
  8
0
100
AcDbLine
 10
78.958
 20
830.7546999999999
 30
0.0
 11
79.44165507758929
 21
831.791973561889
 31
0.0
  0
LINE
  5
1D2
330
1E
100
AcDbEntity
  8
0
100
AcDbLine
 10
76.39499999999999
 20
831.9509
 30
0.0
 11
77.619
 21
831.2438
 31
0.0
  0
LINE
  5
1D3
330
1E
100
AcDbEntity
  8
0
100
AcDbLine
 10
76.39499999999999
 20
831.9509
 30
0.0
 11
76.84981356437361
 21
832.926318449579
 31
0.0
  0
LINE
  5
1D4
330
1E
100
AcDbEntity
  8
0
100
AcDbLine
 10
76.39499999999999
 20
831.9509
 30
0.0
 11
77.733
 21
831.4618000000001
 31
0.0
  0
LINE
  5
1D5
330
1E
100
AcDbEntity
  8
0
100
AcDbLine
 10
77.733
 20
831.4618000000001
 30
0.0
 11
78.1568088720754
 21
832.370724063176
 31
0.0
  0
LINE
  5
1D6
330
1E
100
AcDbEntity
  8
0
100
AcDbLine
 10
77.733
 20
831.4618000000001
 30
0.0
 11
78.958
 21
830.7546999999999
 31
0.0
  0
LINE
  5
1D7
330
1E
100
AcDbEntity
  8
0
100
AcDbLine
 10
76.10130591511801
 20
831.9180066786289
 30
0.0
 11
81.31899999999999
 21
829.5498999999999
 31
0.0
  0
LINE
  5
1D8
330
1E
100
AcDbEntity
  8
0
100
AcDbLine
 10
71.291
 20
850.581
 30
0.0
 11
79.259
 21
845.9813999999999
 31
0.0
  0
LINE
  5
1D9
330
1E
100
AcDbEntity
  8
0
100
AcDbLine
 10
63.15
 20
855.281
 30
0.0
 11
71.291
 21
850.581
 31
0.0
  0
LINE
  5
1DA
330
1E
100
AcDbEntity
  8
0
100
AcDbLine
 10
19.264
 20
867.551
 30
0.0
 11
19.92599999999999
 21
867.1689999999999
 31
0.0
  0
LINE
  5
1DB
330
1E
100
AcDbEntity
  8
0
100
AcDbLine
 10
19.264
 20
867.551
 30
0.0
 11
20.06226921303269
 21
868.4708113502889
 31
0.0
  0
LINE
  5
1DC
330
1E
100
AcDbEntity
  8
0
100
AcDbLine
 10
19.264
 20
867.551
 30
0.0
 11
20.624
 21
866.291
 31
0.0
  0
LINE
  5
1DD
330
1E
100
AcDbEntity
  8
0
100
AcDbLine
 10
19.264
 20
867.551
 30
0.0
 11
19.5549105489956
 21
867.886203738934
 31
0.0
  0
LINE
  5
1DE
330
1E
100
AcDbEntity
  8
0
100
AcDbLine
 10
21.28699999999999
 20
865.9080000000001
 30
0.0
 11
22.0409943438576
 21
866.7767953189359
 31
0.0
  0
LINE
  5
1DF
330
1E
100
AcDbEntity
  8
0
100
AcDbLine
 10
21.28699999999999
 20
865.9080000000001
 30
0.0
 11
21.5395772481711
 21
866.1990339217641
 31
0.0
  0
LINE
  5
1E0
330
1E
100
AcDbEntity
  8
0
100
AcDbLine
 10
20.624
 20
866.291
 30
0.0
 11
20.7032054310843
 21
866.382134689436
 31
0.0
  0
LINE
  5
1E1
330
1E
100
AcDbEntity
  8
0
100
AcDbLine
 10
20.624
 20
866.291
 30
0.0
 11
21.28699999999999
 21
865.9080000000001
 31
0.0
  0
LINE
  5
1E2
330
1E
100
AcDbEntity
  8
0
100
AcDbLine
 10
19.92599999999999
 20
867.1689999999999
 30
0.0
 11
20.60301753197539
 21
867.9479842397729
 31
0.0
  0
LINE
  5
1E3
330
1E
100
AcDbEntity
  8
0
100
AcDbLine
 10
19.92599999999999
 20
867.1689999999999
 30
0.0
 11
21.28699999999999
 21
865.9080000000001
 31
0.0
  0
LINE
  5
1E4
330
1E
100
AcDbEntity
  8
0
100
AcDbLine
 10
18.41099999999999
 20
867.5689999999999
 30
0.0
 11
19.1791886291653
 21
868.428886821386
 31
0.0
  0
LINE
  5
1E5
330
1E
100
AcDbEntity
  8
0
100
AcDbLine
 10
18.185
 20
867.6989999999999
 30
0.0
 11
18.2213097443318
 21
867.7396440156149
 31
0.0
  0
LINE
  5
1E6
330
1E
100
AcDbEntity
  8
0
100
AcDbLine
 10
18.185
 20
867.6989999999999
 30
0.0
 11
18.41099999999999
 21
867.5689999999999
 31
0.0
  0
LINE
  5
1E7
330
1E
100
AcDbEntity
  8
0
100
AcDbLine
 10
16.71
 20
869.025
 30
0.0
 11
16.937
 21
868.895
 31
0.0
  0
LINE
  5
1E8
330
1E
100
AcDbEntity
  8
0
100
AcDbLine
 10
16.71
 20
869.025
 30
0.0
 11
17.4768511258762
 21
869.883965375231
 31
0.0
  0
LINE
  5
1E9
330
1E
100
AcDbEntity
  8
0
100
AcDbLine
 10
16.71
 20
869.025
 30
0.0
 11
18.185
 21
867.6989999999999
 31
0.0
  0
LINE
  5
1EA
330
1E
100
AcDbEntity
  8
0
100
AcDbLine
 10
16.937
 20
868.895
 30
0.0
 11
17.77882073348679
 21
869.8380163137711
 31
0.0
  0
LINE
  5
1EB
330
1E
100
AcDbEntity
  8
0
100
AcDbLine
 10
16.937
 20
868.895
 30
0.0
 11
18.41099999999999
 21
867.5689999999999
 31
0.0
  0
LINE
  5
1EC
330
1E
100
AcDbEntity
  8
0
100
AcDbLine
 10
19.0658176194805
 20
868.30198278577
 30
0.0
 11
19.5549105489956
 21
867.886203738934
 31
0.0
  0
LINE
  5
1ED
330
1E
100
AcDbEntity
  8
0
100
AcDbLine
 10
25.561
 20
863.441
 30
0.0
 11
26.615
 21
862.832
 31
0.0
  0
LINE
  5
1EE
330
1E
100
AcDbEntity
  8
0
100
AcDbLine
 10
26.615
 20
862.832
 30
0.0
 11
27.34290796642639
 21
863.715641049576
 31
0.0
  0
LINE
  5
1EF
330
1E
100
AcDbEntity
  8
0
100
AcDbLine
 10
26.392
 20
861.1039999999999
 30
0.0
 11
26.84
 21
860.8450000000001
 31
0.0
  0
LINE
  5
1F0
330
1E
100
AcDbEntity
  8
0
100
AcDbLine
 10
26.392
 20
861.1039999999999
 30
0.0
 11
27.0372320572669
 21
861.9657456524429
 31
0.0
  0
LINE
  5
1F1
330
1E
100
AcDbEntity
  8
0
100
AcDbLine
 10
26.392
 20
861.1039999999999
 30
0.0
 11
27.93
 21
859.932
 31
0.0
  0
LINE
  5
1F2
330
1E
100
AcDbEntity
  8
0
100
AcDbLine
 10
27.227307394435
 20
860.4674718684799
 30
0.0
 11
27.93
 21
859.932
 31
0.0
  0
LINE
  5
1F3
330
1E
100
AcDbEntity
  8
0
100
AcDbLine
 10
26.84
 20
860.8450000000001
 30
0.0
 11
27.5531579430061
 21
861.7974646985059
 31
0.0
  0
LINE
  5
1F4
330
1E
100
AcDbEntity
  8
0
100
AcDbLine
 10
26.84
 20
860.8450000000001
 30
0.0
 11
28.378
 21
859.673
 31
0.0
  0
LINE
  5
1F5
330
1E
100
AcDbEntity
  8
0
100
AcDbLine
 10
27.159
 20
860.3769999999999
 30
0.0
 11
27.227307394435
 21
860.4674718684799
 31
0.0
  0
LINE
  5
1F6
330
1E
100
AcDbEntity
  8
0
100
AcDbLine
 10
25.563
 20
861.5819999999999
 30
0.0
 11
26.20462827385749
 21
862.4323571397098
 31
0.0
  0
LINE
  5
1F7
330
1E
100
AcDbEntity
  8
0
100
AcDbLine
 10
25.563
 20
861.5819999999999
 30
0.0
 11
27.159
 21
860.3769999999999
 31
0.0
  0
LINE
  5
1F8
330
1E
100
AcDbEntity
  8
0
100
AcDbLine
 10
28.8814560079713
 20
860.345815583274
 30
0.0
 11
29.5584451384159
 21
859.833310588892
 31
0.0
  0
LINE
  5
1F9
330
1E
100
AcDbEntity
  8
0
100
AcDbLine
 10
33.052
 20
862.0880000000001
 30
0.0
 11
34.552
 21
861.2210000000001
 31
0.0
  0
LINE
  5
1FA
330
1E
100
AcDbEntity
  8
0
100
AcDbLine
 10
34.552
 20
861.2210000000001
 30
0.0
 11
35.35715419883939
 21
862.2236197620559
 31
0.0
  0
LINE
  5
1FB
330
1E
100
AcDbEntity
  8
0
100
AcDbLine
 10
34.01899999999999
 20
862.2100000000001
 30
0.0
 11
34.6308177899852
 21
862.9718672397169
 31
0.0
  0
LINE
  5
1FC
330
1E
100
AcDbEntity
  8
0
100
AcDbLine
 10
34.01899999999999
 20
862.2100000000001
 30
0.0
 11
34.552
 21
861.2210000000001
 31
0.0
  0
LINE
  5
1FD
330
1E
100
AcDbEntity
  8
0
100
AcDbLine
 10
31.834
 20
860.294
 30
0.0
 11
33.208
 21
859.501
 31
0.0
  0
LINE
  5
1FE
330
1E
100
AcDbEntity
  8
0
100
AcDbLine
 10
31.834
 20
860.294
 30
0.0
 11
32.46435467180079
 21
861.1221647152531
 31
0.0
  0
LINE
  5
1FF
330
1E
100
AcDbEntity
  8
0
100
AcDbLine
 10
31.834
 20
860.294
 30
0.0
 11
32.66
 21
859.342
 31
0.0
  0
LINE
  5
200
330
1E
100
AcDbEntity
  8
0
100
AcDbLine
 10
32.519
 20
863.076
 30
0.0
 11
34.01899999999999
 21
862.2100000000001
 31
0.0
  0
LINE
  5
201
330
1E
100
AcDbEntity
  8
0
100
AcDbLine
 10
32.519
 20
863.076
 30
0.0
 11
33.13081657064769
 21
863.8378657213349
 31
0.0
  0
LINE
  5
202
330
1E
100
AcDbEntity
  8
0
100
AcDbLine
 10
32.519
 20
863.076
 30
0.0
 11
33.052
 21
862.0880000000001
 31
0.0
  0
LINE
  5
203
330
1E
100
AcDbEntity
  8
0
100
AcDbLine
 10
38.773
 20
862.659
 30
0.0
 11
45.701
 21
858.6589999999999
 31
0.0
  0
LINE
  5
204
330
1E
100
AcDbEntity
  8
0
100
AcDbLine
 10
28.8814560079713
 20
860.345815583274
 30
0.0
 11
29.5584451384159
 21
859.833310588892
 31
0.0
  0
LINE
  5
205
330
1E
100
AcDbEntity
  8
0
100
AcDbLine
 10
24.153
 20
867.225
 30
0.0
 11
25.00117337446789
 21
868.1562518598939
 31
0.0
  0
LINE
  5
206
330
1E
100
AcDbEntity
  8
0
100
AcDbLine
 10
24.42199999999999
 20
864.573
 30
0.0
 11
25.476
 21
863.9650000000001
 31
0.0
  0
LINE
  5
207
330
1E
100
AcDbEntity
  8
0
100
AcDbLine
 10
24.42199999999999
 20
864.573
 30
0.0
 11
25.2384264458604
 21
865.5648836757
 31
0.0
  0
LINE
  5
208
330
1E
100
AcDbEntity
  8
0
100
AcDbLine
 10
24.42199999999999
 20
864.573
 30
0.0
 11
25.561
 21
863.441
 31
0.0
  0
LINE
  5
209
330
1E
100
AcDbEntity
  8
0
100
AcDbLine
 10
25.476
 20
863.9650000000001
 30
0.0
 11
26.0733025291223
 21
864.690194426714
 31
0.0
  0
LINE
  5
20A
330
1E
100
AcDbEntity
  8
0
100
AcDbLine
 10
25.476
 20
863.9650000000001
 30
0.0
 11
26.615
 21
862.832
 31
0.0
  0
LINE
  5
20B
330
1E
100
AcDbEntity
  8
0
100
AcDbLine
 10
32.191
 20
866.458
 30
0.0
 11
38.773
 21
862.659
 31
0.0
  0
LINE
  5
20C
330
1E
100
AcDbEntity
  8
0
100
AcDbLine
 10
22.928
 20
867.932
 30
0.0
 11
24.153
 21
867.225
 31
0.0
  0
LINE
  5
20D
330
1E
100
AcDbEntity
  8
0
100
AcDbLine
 10
23.278
 20
868.412
 30
0.0
 11
23.94322548837549
 21
869.1423842491959
 31
0.0
  0
LINE
  5
20E
330
1E
100
AcDbEntity
  8
0
100
AcDbLine
 10
23.278
 20
868.412
 30
0.0
 11
24.153
 21
867.225
 31
0.0
  0
LINE
  5
20F
330
1E
100
AcDbEntity
  8
0
100
AcDbLine
 10
32.691
 20
867.3250000000001
 30
0.0
 11
39.273
 21
863.5249999999999
 31
0.0
  0
LINE
  5
210
330
1E
100
AcDbEntity
  8
0
100
AcDbLine
 10
39.273
 20
863.5249999999999
 30
0.0
 11
46.20099999999999
 21
859.525
 31
0.0
  0
LINE
  5
211
330
1E
100
AcDbEntity
  8
0
100
AcDbLine
 10
24.71099999999999
 20
863.503
 30
0.0
 11
26.17577276349239
 21
862.3941146085451
 31
0.0
  0
LINE
  5
212
330
1E
100
AcDbEntity
  8
0
100
AcDbLine
 10
21.5395772481711
 20
866.1990339217641
 30
0.0
 11
24.71099999999999
 21
863.503
 31
0.0
  0
LINE
  5
213
330
1E
100
AcDbEntity
  8
0
100
AcDbLine
 10
22.053
 20
869.1189999999998
 30
0.0
 11
23.278
 21
868.412
 31
0.0
  0
LINE
  5
214
330
1E
100
AcDbEntity
  8
0
100
AcDbLine
 10
22.053
 20
869.1189999999998
 30
0.0
 11
22.71836668109399
 21
869.849539271725
 31
0.0
  0
LINE
  5
215
330
1E
100
AcDbEntity
  8
0
100
AcDbLine
 10
22.053
 20
869.1189999999998
 30
0.0
 11
22.928
 21
867.932
 31
0.0
  0
LINE
  5
216
330
1E
100
AcDbEntity
  8
0
100
AcDbLine
 10
16.101
 20
871.8739999999998
 30
0.0
 11
16.9709032519043
 21
872.745147748688
 31
0.0
  0
LINE
  5
217
330
1E
100
AcDbEntity
  8
0
100
AcDbLine
 10
26.043
 20
870.0079999999999
 30
0.0
 11
32.191
 21
866.458
 31
0.0
  0
LINE
  5
218
330
1E
100
AcDbEntity
  8
0
100
AcDbLine
 10
26.543
 20
870.875
 30
0.0
 11
32.691
 21
867.3250000000001
 31
0.0
  0
LINE
  5
219
330
1E
100
AcDbEntity
  8
0
100
AcDbLine
 10
39.248
 20
869.081
 30
0.0
 11
47.04299999999999
 21
864.581
 31
0.0
  0
LINE
  5
21A
330
1E
100
AcDbEntity
  8
0
100
AcDbLine
 10
47.04299999999999
 20
864.581
 30
0.0
 11
55.01
 21
859.9810000000001
 31
0.0
  0
LINE
  5
21B
330
1E
100
AcDbEntity
  8
0
100
AcDbLine
 10
55.01
 20
859.9810000000001
 30
0.0
 11
63.15
 21
855.281
 31
0.0
  0
LINE
  5
21C
330
1E
100
AcDbEntity
  8
0
100
AcDbLine
 10
81.912
 20
830.9063
 30
0.0
 11
83.15000000000001
 21
830.6665999999999
 31
0.0
  0
LINE
  5
21D
330
1E
100
AcDbEntity
  8
0
100
AcDbLine
 10
83.15000000000001
 20
830.6665999999999
 30
0.0
 11
83.55171425521501
 21
831.626233147989
 31
0.0
  0
LINE
  5
21E
330
1E
100
AcDbEntity
  8
0
100
AcDbLine
 10
94.4585
 20
830.5085
 30
0.0
 11
100.001
 21
827.3085
 31
0.0
  0
LINE
  5
21F
330
1E
100
AcDbEntity
  8
0
100
AcDbLine
 10
80.538
 20
831.6995999999999
 30
0.0
 11
81.912
 21
830.9063
 31
0.0
  0
LINE
  5
220
330
1E
100
AcDbEntity
  8
0
100
AcDbLine
 10
80.538
 20
831.6995999999999
 30
0.0
 11
80.97735235865529
 21
832.7490870908459
 31
0.0
  0
LINE
  5
221
330
1E
100
AcDbEntity
  8
0
100
AcDbLine
 10
80.538
 20
831.6995999999999
 30
0.0
 11
81.77600000000001
 21
831.46
 31
0.0
  0
LINE
  5
222
330
1E
100
AcDbEntity
  8
0
100
AcDbLine
 10
84.09399999999999
 20
832.6178999999999
 30
0.0
 11
85.21689999999999
 21
832.6512000000001
 31
0.0
  0
LINE
  5
223
330
1E
100
AcDbEntity
  8
0
100
AcDbLine
 10
85.21689999999999
 20
832.6512000000001
 30
0.0
 11
85.57042060136929
 21
833.5616456121851
 31
0.0
  0
LINE
  5
224
330
1E
100
AcDbEntity
  8
0
100
AcDbLine
 10
81.77600000000001
 20
831.46
 30
0.0
 11
83.15000000000001
 21
830.6665999999999
 31
0.0
  0
LINE
  5
225
330
1E
100
AcDbEntity
  8
0
100
AcDbLine
 10
81.77600000000001
 20
831.46
 30
0.0
 11
82.0901651680392
 21
832.2104507071719
 31
0.0
  0
LINE
  5
226
330
1E
100
AcDbEntity
  8
0
100
AcDbLine
 10
94.9585
 20
831.3745
 30
0.0
 11
100.5009999999999
 21
828.1744999999999
 31
0.0
  0
LINE
  5
227
330
1E
100
AcDbEntity
  8
0
100
AcDbLine
 10
107.231
 20
829.8314000000001
 30
0.0
 11
110.7638947371339
 21
827.791926315621
 31
0.0
  0
LINE
  5
228
330
1E
100
AcDbEntity
  8
0
100
AcDbLine
 10
82.59399999999999
 20
833.4839999999999
 30
0.0
 11
83.71700000000002
 21
833.5172
 31
0.0
  0
LINE
  5
229
330
1E
100
AcDbEntity
  8
0
100
AcDbLine
 10
82.59399999999999
 20
833.4839999999999
 30
0.0
 11
83.05946992277389
 21
834.6825185554401
 31
0.0
  0
LINE
  5
22A
330
1E
100
AcDbEntity
  8
0
100
AcDbLine
 10
82.59399999999999
 20
833.4839999999999
 30
0.0
 11
84.09399999999999
 21
832.6178999999999
 31
0.0
  0
LINE
  5
22B
330
1E
100
AcDbEntity
  8
0
100
AcDbLine
 10
83.71700000000002
 20
833.5172
 30
0.0
 11
85.21689999999999
 21
832.6512000000001
 31
0.0
  0
LINE
  5
22C
330
1E
100
AcDbEntity
  8
0
100
AcDbLine
 10
83.71700000000002
 20
833.5172
 30
0.0
 11
84.0705388917282
 21
834.4275626462
 31
0.0
  0
LINE
  5
22D
330
1E
100
AcDbEntity
  8
0
100
AcDbLine
 10
88.3098
 20
834.0585
 30
0.0
 11
94.4585
 21
830.5085
 31
0.0
  0
LINE
  5
22E
330
1E
100
AcDbEntity
  8
0
100
AcDbLine
 10
88.80979999999999
 20
834.9244999999999
 30
0.0
 11
94.9585
 21
831.3745
 31
0.0
  0
LINE
  5
22F
330
1E
100
AcDbEntity
  8
0
100
AcDbLine
 10
101.082
 20
833.3814
 30
0.0
 11
107.231
 21
829.8314000000001
 31
0.0
  0
LINE
  5
230
330
1E
100
AcDbEntity
  8
0
100
AcDbLine
 10
101.256
 20
833.2813999999999
 30
0.0
 11
107.318
 21
829.7813999999998
 31
0.0
  0
LINE
  5
232
330
1E
100
AcDbEntity
  8
0
100
AcDbLine
 10
81.728
 20
837.8585000000001
 30
0.0
 11
88.3098
 21
834.0585
 31
0.0
  0
LINE
  5
233
330
1E
100
AcDbEntity
  8
0
100
AcDbLine
 10
82.22799999999999
 20
838.7245
 30
0.0
 11
88.80979999999999
 21
834.9244999999999
 31
0.0
  0
LINE
  5
236
330
1E
100
AcDbEntity
  8
0
100
AcDbLine
 10
94.28277055388191
 20
837.3071668701639
 30
0.0
 11
101.082
 21
833.3814
 31
0.0
  0
LINE
  5
237
330
1E
100
AcDbEntity
  8
0
100
AcDbLine
 10
123.56
 20
845.1144000000001
 30
0.0
 11
134.7849999999999
 21
836.5555
 31
0.0
  0
LINE
  5
238
330
1E
100
AcDbEntity
  8
0
100
AcDbLine
 10
107.709
 20
856.46
 30
0.0
 11
123.56
 21
845.1144000000001
 31
0.0
  0
LINE
  5
239
330
1E
100
AcDbEntity
  8
0
100
AcDbLine
 10
94.28277055388191
 20
837.3071668701639
 30
0.0
 11
101.082
 21
833.3814
 31
0.0
  0
LINE
  5
23A
330
1E
100
AcDbEntity
  8
0
100
AcDbLine
 10
94.3274
 20
837.2813999999999
 30
0.0
 11
101.256
 21
833.2813999999999
 31
0.0
  0
LINE
  5
23B
330
1E
100
AcDbEntity
  8
0
100
AcDbLine
 10
87.0528
 20
841.4813999999999
 30
0.0
 11
94.3274
 21
837.2813999999999
 31
0.0
  0
LINE
  5
23D
330
1E
100
AcDbEntity
  8
0
100
AcDbLine
 10
79.259
 20
845.9813999999999
 30
0.0
 11
87.00800804413271
 21
841.5072620700298
 31
0.0
  0
LINE
  5
23E
330
1E
100
AcDbEntity
  8
0
100
AcDbLine
 10
79.259
 20
845.9813999999999
 30
0.0
 11
86.96620000000001
 21
841.5314
 31
0.0
  0
LINE
  5
23F
330
1E
100
AcDbEntity
  8
0
100
AcDbLine
 10
79.259
 20
845.9813999999999
 30
0.0
 11
87.00800804413271
 21
841.5072620700298
 31
0.0
  0
LINE
  5
240
330
1E
100
AcDbEntity
  8
0
100
AcDbLine
 10
79.259
 20
845.9813999999999
 30
0.0
 11
87.0528
 21
841.4813999999999
 31
0.0
  0
LINE
  5
241
330
1E
100
AcDbEntity
  8
0
100
AcDbLine
 10
107.318
 20
829.7813999999998
 30
0.0
 11
110.7638947371339
 21
827.791926315621
 31
0.0
  0
LINE
  5
242
330
1E
100
AcDbEntity
  8
0
100
AcDbLine
 10
107.318
 20
829.7813999999998
 30
0.0
 11
112.7739999999999
 21
826.6313999999999
 31
0.0
  0
LINE
  5
244
330
1E
100
AcDbEntity
  8
0
100
AcDbLine
 10
164.3679999999999
 20
761.3945
 30
0.0
 11
170.2479999999999
 21
753.3803599999999
 31
0.0
  0
LINE
  5
245
330
1E
100
AcDbEntity
  8
0
100
AcDbLine
 10
190.3079999999999
 20
776.3244999999999
 30
0.0
 11
194.4729999999999
 21
767.3382
 31
0.0
  0
LINE
  5
246
330
1E
100
AcDbEntity
  8
0
100
AcDbLine
 10
159.599
 20
768.5354
 30
0.0
 11
164.3679999999999
 21
761.3945
 31
0.0
  0
LINE
  5
247
330
1E
100
AcDbEntity
  8
0
100
AcDbLine
 10
185.5399999999999
 20
783.4654
 30
0.0
 11
190.3079999999999
 21
776.3244999999999
 31
0.0
  0
LINE
  5
248
330
1E
100
AcDbEntity
  8
0
100
AcDbLine
 10
153.6889999999999
 20
778.2985
 30
0.0
 11
159.599
 21
768.5354
 31
0.0
  0
LINE
  5
249
330
1E
100
AcDbEntity
  8
0
100
AcDbLine
 10
178.7959999999999
 20
792.7857
 30
0.0
 11
185.5399999999999
 21
783.4654
 31
0.0
  0
LINE
  5
24A
330
1E
100
AcDbEntity
  8
0
100
AcDbLine
 10
148.828
 20
786.8786
 30
0.0
 11
153.6889999999999
 21
778.2985
 31
0.0
  0
LINE
  5
24B
330
1E
100
AcDbEntity
  8
0
100
AcDbLine
 10
172.592
 20
800.6399999999999
 30
0.0
 11
178.7959999999999
 21
792.7857
 31
0.0
  0
LINE
  5
24C
330
1E
100
AcDbEntity
  8
0
100
AcDbLine
 10
144.7789999999999
 20
794.0659000000001
 30
0.0
 11
148.828
 21
786.8786
 31
0.0
  0
LINE
  5
24D
330
1E
100
AcDbEntity
  8
0
100
AcDbLine
 10
141.7229999999999
 20
801.3728999999999
 30
0.0
 11
144.7789999999999
 21
794.0659000000001
 31
0.0
  0
LINE
  5
24E
330
1E
100
AcDbEntity
  8
0
100
AcDbLine
 10
165.5949999999999
 20
808.7210999999999
 30
0.0
 11
172.592
 21
800.6399999999999
 31
0.0
  0
LINE
  5
24F
330
1E
100
AcDbEntity
  8
0
100
AcDbLine
 10
158.5679999999999
 20
815.5496000000001
 30
0.0
 11
165.5949999999999
 21
808.7210999999999
 31
0.0
  0
LINE
  5
250
330
1E
100
AcDbEntity
  8
0
100
AcDbLine
 10
137.9939999999999
 20
807.9138
 30
0.0
 11
141.7229999999999
 21
801.3728999999999
 31
0.0
  0
LINE
  5
251
330
1E
100
AcDbEntity
  8
0
100
AcDbLine
 10
131.5629999999999
 20
814.9751999999999
 30
0.0
 11
137.9939999999999
 21
807.9138
 31
0.0
  0
LINE
  5
252
330
1E
100
AcDbEntity
  8
0
100
AcDbLine
 10
126.1292372238359
 20
819.2927812947278
 30
0.0
 11
131.5629999999999
 21
814.9751999999999
 31
0.0
  0
LINE
  5
253
330
1E
100
AcDbEntity
  8
0
100
AcDbLine
 10
152.147
 20
822.028
 30
0.0
 11
158.5679999999999
 21
815.5496000000001
 31
0.0
  0
LINE
  5
254
330
1E
100
AcDbEntity
  8
0
100
AcDbLine
 10
143.561
 20
829.7565
 30
0.0
 11
152.147
 21
822.028
 31
0.0
  0
LINE
  5
255
330
1E
100
AcDbEntity
  8
0
100
AcDbLine
 10
134.7849999999999
 20
836.5555
 30
0.0
 11
143.561
 21
829.7565
 31
0.0
  0
LINE
  5
256
330
1E
100
AcDbEntity
  8
0
100
AcDbLine
 10
125.764
 20
819.1314
 30
0.0
 11
126.217097820715
 21
819.331602794713
 31
0.0
  0
LINE
  5
257
330
1E
100
AcDbEntity
  8
0
100
AcDbLine
 10
125.590886951527
 20
819.2313827837711
 30
0.0
 11
125.764
 21
819.1314
 31
0.0
  0
LINE
  5
258
330
1E
100
AcDbEntity
  8
0
100
AcDbLine
 10
0.190999999999985
 20
894.6330000000001
 30
0.0
 11
0.7989999999999901
 21
897.2849999999999
 31
0.0
  0
LINE
  5
259
330
1E
100
AcDbEntity
  8
0
100
AcDbLine
 10
0.190999999999985
 20
894.6330000000001
 30
0.0
 11
0.5369999999999891
 21
891.431
 31
0.0
  0
LINE
  5
25A
330
1E
100
AcDbEntity
  8
0
100
AcDbLine
 10
4.565000000000009
 20
882.408
 30
0.0
 11
5.950999999999949
 21
881.6080000000001
 31
0.0
  0
LINE
  5
25B
330
1E
100
AcDbEntity
  8
0
100
AcDbLine
 10
5.065000000000009
 20
883.275
 30
0.0
 11
6.450999999999949
 21
882.4749999999999
 31
0.0
  0
LINE
  5
25C
330
1E
100
AcDbEntity
  8
0
100
AcDbLine
 10
4.458999999999959
 20
883.6249999999999
 30
0.0
 11
5.065000000000009
 21
883.275
 31
0.0
  0
LINE
  5
25D
330
1E
100
AcDbEntity
  8
0
100
AcDbLine
 10
3.95899999999996
 20
882.7580000000001
 30
0.0
 11
4.458999999999959
 21
883.6249999999999
 31
0.0
  0
LINE
  5
25E
330
1E
100
AcDbEntity
  8
0
100
AcDbLine
 10
3.95899999999996
 20
882.7580000000001
 30
0.0
 11
7.90899999999997
 21
878.4
 31
0.0
  0
LINE
  5
25F
330
1E
100
AcDbEntity
  8
0
100
AcDbLine
 10
3.95899999999996
 20
882.7580000000001
 30
0.0
 11
4.565000000000009
 21
882.408
 31
0.0
  0
LINE
  5
260
330
1E
100
AcDbEntity
  8
0
100
AcDbLine
 10
2.107999999999989
 20
887.753
 30
0.0
 11
4.458999999999959
 21
883.6249999999999
 31
0.0
  0
LINE
  5
261
330
1E
100
AcDbEntity
  8
0
100
AcDbLine
 10
2.961999999999969
 20
890.0310000000001
 30
0.0
 11
5.560000000000009
 21
888.531
 31
0.0
  0
LINE
  5
262
330
1E
100
AcDbEntity
  8
0
100
AcDbLine
 10
5.386999999999949
 20
888.6310000000001
 30
0.0
 11
8.93699999999997
 21
886.5809999999999
 31
0.0
  0
LINE
  5
263
330
1E
100
AcDbEntity
  8
0
100
AcDbLine
 10
1.31599999999999
 20
890.9810000000002
 30
0.0
 11
2.961999999999969
 21
890.0310000000001
 31
0.0
  0
LINE
  5
264
330
1E
100
AcDbEntity
  8
0
100
AcDbLine
 10
2.78899999999997
 20
890.131
 30
0.0
 11
5.386999999999949
 21
888.6310000000001
 31
0.0
  0
LINE
  5
265
330
1E
100
AcDbEntity
  8
0
100
AcDbLine
 10
10.942
 20
874.8519999999999
 30
0.0
 11
11.8151175720318
 21
875.677514888671
 31
0.0
  0
LINE
  5
266
330
1E
100
AcDbEntity
  8
0
100
AcDbLine
 10
10.494
 20
875.111
 30
0.0
 11
10.58507117396499
 21
875.1971059408781
 31
0.0
  0
LINE
  5
267
330
1E
100
AcDbEntity
  8
0
100
AcDbLine
 10
10.494
 20
875.111
 30
0.0
 11
10.942
 21
874.8519999999999
 31
0.0
  0
LINE
  5
268
330
1E
100
AcDbEntity
  8
0
100
AcDbLine
 10
7.669999999999999
 20
877.4230000000001
 30
0.0
 11
8.410916034870899
 21
878.109875124352
 31
0.0
  0
LINE
  5
269
330
1E
100
AcDbEntity
  8
0
100
AcDbLine
 10
7.669999999999999
 20
877.4230000000001
 30
0.0
 11
9.03000000000001
 21
875.956
 31
0.0
  0
LINE
  5
26A
330
1E
100
AcDbEntity
  8
0
100
AcDbLine
 10
5.950999999999949
 20
881.6080000000001
 30
0.0
 11
8.37599999999999
 21
880.2080000000001
 31
0.0
  0
LINE
  5
26B
330
1E
100
AcDbEntity
  8
0
100
AcDbLine
 10
6.450999999999949
 20
882.4749999999999
 30
0.0
 11
8.87599999999999
 21
881.075
 31
0.0
  0
LINE
  5
26C
330
1E
100
AcDbEntity
  8
0
100
AcDbLine
 10
9.407878661928849
 20
876.3063169599339
 30
0.0
 11
10.494
 21
875.111
 31
0.0
  0
LINE
  5
26D
330
1E
100
AcDbEntity
  8
0
100
AcDbLine
 10
9.190999999999981
 20
876.5449999999999
 30
0.0
 11
9.63899999999999
 21
876.2860000000001
 31
0.0
  0
LINE
  5
26E
330
1E
100
AcDbEntity
  8
0
100
AcDbLine
 10
9.190999999999981
 20
876.5449999999999
 30
0.0
 11
9.89776113741887
 21
877.2132282665731
 31
0.0
  0
LINE
  5
26F
330
1E
100
AcDbEntity
  8
0
100
AcDbLine
 10
9.190999999999981
 20
876.5449999999999
 30
0.0
 11
10.494
 21
875.111
 31
0.0
  0
LINE
  5
270
330
1E
100
AcDbEntity
  8
0
100
AcDbLine
 10
9.63899999999999
 20
876.2860000000001
 30
0.0
 11
10.3710554371716
 21
876.9781435120259
 31
0.0
  0
LINE
  5
271
330
1E
100
AcDbEntity
  8
0
100
AcDbLine
 10
9.63899999999999
 20
876.2860000000001
 30
0.0
 11
10.942
 21
874.8519999999999
 31
0.0
  0
LINE
  5
272
330
1E
100
AcDbEntity
  8
0
100
AcDbLine
 10
9.03000000000001
 20
875.956
 30
0.0
 11
9.407878661928849
 21
876.3063169599339
 31
0.0
  0
LINE
  5
273
330
1E
100
AcDbEntity
  8
0
100
AcDbLine
 10
11.49299999999999
 20
878.4080000000001
 30
0.0
 11
15.65
 21
876.008
 31
0.0
  0
LINE
  5
274
330
1E
100
AcDbEntity
  8
0
100
AcDbLine
 10
8.37599999999999
 20
880.2080000000001
 30
0.0
 11
11.49299999999999
 21
878.4080000000001
 31
0.0
  0
LINE
  5
275
330
1E
100
AcDbEntity
  8
0
100
AcDbLine
 10
11.993
 20
879.2749999999999
 30
0.0
 11
16.15
 21
876.875
 31
0.0
  0
LINE
  5
276
330
1E
100
AcDbEntity
  8
0
100
AcDbLine
 10
8.87599999999999
 20
881.075
 30
0.0
 11
11.993
 21
879.2749999999999
 31
0.0
  0
LINE
  5
277
330
1E
100
AcDbEntity
  8
0
100
AcDbLine
 10
7.90899999999997
 20
878.4
 30
0.0
 11
8.32730103975188
 21
878.0323588371249
 31
0.0
  0
LINE
  5
278
330
1E
100
AcDbEntity
  8
0
100
AcDbLine
 10
11.4256311046892
 20
875.309263363302
 30
0.0
 11
12.888
 21
874.0239999999998
 31
0.0
  0
LINE
  5
279
330
1E
100
AcDbEntity
  8
0
100
AcDbLine
 10
12.888
 20
874.0239999999998
 30
0.0
 11
17.401319746912
 21
869.7993611579519
 31
0.0
  0
LINE
  5
27A
330
1E
100
AcDbEntity
  8
0
100
AcDbLine
 10
12.7475660378708
 20
884.3809999999219
 30
0.0
 11
13.7
 21
883.8309999999999
 31
0.0
  0
LINE
  5
27B
330
1E
100
AcDbEntity
  8
0
100
AcDbLine
 10
8.93699999999997
 20
886.5809999999999
 30
0.0
 11
13.527
 21
883.9310000000001
 31
0.0
  0
LINE
  5
27C
330
1E
100
AcDbEntity
  8
0
100
AcDbLine
 10
5.560000000000009
 20
888.531
 30
0.0
 11
6.166268292492469
 21
888.1810000001099
 31
0.0
  0
LINE
  5
27D
330
1E
100
AcDbEntity
  8
0
100
AcDbLine
 10
1.31599999999999
 20
890.9810000000002
 30
0.0
 11
2.961999999999969
 21
890.0310000000001
 31
0.0
  0
LINE
  5
27E
330
1E
100
AcDbEntity
  8
0
100
AcDbLine
 10
15.235
 20
872.3739999999999
 30
0.0
 11
16.101
 21
871.8739999999998
 31
0.0
  0
LINE
  5
27F
330
1E
100
AcDbEntity
  8
0
100
AcDbLine
 10
14.096
 20
873.713
 30
0.0
 11
14.96199999999999
 21
873.2130000000001
 31
0.0
  0
LINE
  5
280
330
1E
100
AcDbEntity
  8
0
100
AcDbLine
 10
14.096
 20
873.713
 30
0.0
 11
14.8024428032579
 21
874.419948127152
 31
0.0
  0
LINE
  5
281
330
1E
100
AcDbEntity
  8
0
100
AcDbLine
 10
14.096
 20
873.713
 30
0.0
 11
15.235
 21
872.3739999999999
 31
0.0
  0
LINE
  5
282
330
1E
100
AcDbEntity
  8
0
100
AcDbLine
 10
14.96199999999999
 20
873.2130000000001
 30
0.0
 11
15.6684134435906
 21
873.919918746483
 31
0.0
  0
LINE
  5
283
330
1E
100
AcDbEntity
  8
0
100
AcDbLine
 10
14.96199999999999
 20
873.2130000000001
 30
0.0
 11
16.101
 21
871.8739999999998
 31
0.0
  0
LINE
  5
284
330
1E
100
AcDbEntity
  8
0
100
AcDbLine
 10
20.5
 20
873.2080000000001
 30
0.0
 11
26.043
 21
870.0079999999999
 31
0.0
  0
LINE
  5
285
330
1E
100
AcDbEntity
  8
0
100
AcDbLine
 10
21.0
 20
874.075
 30
0.0
 11
26.543
 21
870.875
 31
0.0
  0
LINE
  5
286
330
1E
100
AcDbEntity
  8
0
100
AcDbLine
 10
15.65
 20
876.008
 30
0.0
 11
20.5
 21
873.2080000000001
 31
0.0
  0
LINE
  5
287
330
1E
100
AcDbEntity
  8
0
100
AcDbLine
 10
16.15
 20
876.875
 30
0.0
 11
21.0
 21
874.075
 31
0.0
  0
LINE
  5
288
330
1E
100
AcDbEntity
  8
0
100
AcDbLine
 10
29.040099099436
 20
874.974693693499
 30
0.0
 11
32.06
 21
873.2310000000001
 31
0.0
  0
LINE
  5
289
330
1E
100
AcDbEntity
  8
0
100
AcDbLine
 10
18.983
 20
880.7810000000001
 30
0.0
 11
25.045
 21
877.2810000000001
 31
0.0
  0
LINE
  5
28A
330
1E
100
AcDbEntity
  8
0
100
AcDbLine
 10
25.045
 20
877.2810000000001
 30
0.0
 11
31.974
 21
873.281
 31
0.0
  0
LINE
  5
28B
330
1E
100
AcDbEntity
  8
0
100
AcDbLine
 10
32.06
 20
873.2310000000001
 30
0.0
 11
36.39035714277379
 21
870.7310000000481
 31
0.0
  0
LINE
  5
28C
330
1E
100
AcDbEntity
  8
0
100
AcDbLine
 10
31.974
 20
873.281
 30
0.0
 11
39.248
 21
869.081
 31
0.0
  0
LINE
  5
28F
330
1E
100
AcDbEntity
  8
0
100
AcDbLine
 10
13.7
 20
883.8309999999999
 30
0.0
 11
15.5371052624786
 21
882.770473684603
 31
0.0
  0
LINE
  5
290
330
1E
100
AcDbEntity
  8
0
100
AcDbLine
 10
13.527
 20
883.9310000000001
 30
0.0
 11
15.5371052624786
 21
882.770473684603
 31
0.0
  0
LINE
  5
291
330
1E
100
AcDbEntity
  8
0
100
AcDbLine
 10
13.527
 20
883.9310000000001
 30
0.0
 11
18.983
 21
880.7810000000001
 31
0.0
  0
LINE
  5
292
330
1E
100
AcDbEntity
  8
0
100
AcDbLine
 10
0.7099999999999901
 20
891.331
 30
0.0
 11
1.31599999999999
 21
890.9810000000002
 31
0.0
  0
LINE
  5
293
330
1E
100
AcDbEntity
  8
0
100
AcDbLine
 10
0.7099999999999901
 20
891.331
 30
0.0
 11
2.107999999999989
 21
887.753
 31
0.0
  0
LINE
  5
294
330
1E
100
AcDbEntity
  8
0
100
AcDbLine
 10
1.14299999999998
 20
891.0809999999999
 30
0.0
 11
2.78899999999997
 21
890.131
 31
0.0
  0
LINE
  5
295
330
1E
100
AcDbEntity
  8
0
100
AcDbLine
 10
0.5369999999999891
 20
891.431
 30
0.0
 11
1.14299999999998
 21
891.0809999999999
 31
0.0
  0
LINE
  5
296
330
1E
100
AcDbEntity
  8
0
100
AcDbLine
 10
0.190999999999985
 20
894.6330000000001
 30
0.0
 11
0.7989999999999901
 21
897.2849999999999
 31
0.0
  0
LINE
  5
297
330
1E
100
AcDbEntity
  8
0
100
AcDbLine
 10
0.190999999999985
 20
894.6330000000001
 30
0.0
 11
0.5369999999999891
 21
891.431
 31
0.0
  0
LINE
  5
298
330
1E
100
AcDbEntity
  8
0
100
AcDbLine
 10
67.163
 20
881.8319999999999
 30
0.0
 11
75.75
 21
877.105
 31
0.0
  0
LINE
  5
299
330
1E
100
AcDbEntity
  8
0
100
AcDbLine
 10
58.6
 20
886.199
 30
0.0
 11
67.163
 21
881.8319999999999
 31
0.0
  0
LINE
  5
29A
330
1E
100
AcDbEntity
  8
0
100
AcDbLine
 10
50.182
 20
890.0199999999999
 30
0.0
 11
58.6
 21
886.199
 31
0.0
  0
LINE
  5
29B
330
1E
100
AcDbEntity
  8
0
100
AcDbLine
 10
42.011
 20
893.467
 30
0.0
 11
50.182
 21
890.0199999999999
 31
0.0
  0
LINE
  5
29C
330
1E
100
AcDbEntity
  8
0
100
AcDbLine
 10
34.15999999999999
 20
896.268
 30
0.0
 11
42.011
 21
893.467
 31
0.0
  0
LINE
  5
29D
330
1E
100
AcDbEntity
  8
0
100
AcDbLine
 10
26.988
 20
898.446
 30
0.0
 11
34.15999999999999
 21
896.268
 31
0.0
  0
LINE
  5
29E
330
1E
100
AcDbEntity
  8
0
100
AcDbLine
 10
20.409
 20
900.05
 30
0.0
 11
26.988
 21
898.446
 31
0.0
  0
LINE
  5
29F
330
1E
100
AcDbEntity
  8
0
100
AcDbLine
 10
14.459
 20
900.9450000000001
 30
0.0
 11
20.409
 21
900.05
 31
0.0
  0
LINE
  5
2A0
330
1E
100
AcDbEntity
  8
0
100
AcDbLine
 10
9.70799999999998
 20
900.9169999999999
 30
0.0
 11
14.459
 21
900.9450000000001
 31
0.0
  0
LINE
  5
2A1
330
1E
100
AcDbEntity
  8
0
100
AcDbLine
 10
5.73699999999998
 20
900.4379999999999
 30
0.0
 11
9.70799999999998
 21
900.9169999999999
 31
0.0
  0
LINE
  5
2A2
330
1E
100
AcDbEntity
  8
0
100
AcDbLine
 10
2.790999999999979
 20
899.136
 30
0.0
 11
5.73699999999998
 21
900.4379999999999
 31
0.0
  0
LINE
  5
2A3
330
1E
100
AcDbEntity
  8
0
100
AcDbLine
 10
0.7989999999999901
 20
897.2849999999999
 30
0.0
 11
2.790999999999979
 21
899.136
 31
0.0
  0
LINE
  5
2A4
330
1E
100
AcDbEntity
  8
0
100
AcDbLine
 10
75.75
 20
877.105
 30
0.0
 11
84.138
 21
872.0319999999999
 31
0.0
  0
LINE
  5
2A6
330
1E
100
AcDbEntity
  8
0
100
AcDbLine
 10
193.1409999999999
 20
760.8321999999999
 30
0.0
 11
193.5149999999999
 21
761.0786
 31
0.0
  0
LINE
  5
2A7
330
1E
100
AcDbEntity
  8
0
100
AcDbLine
 10
193.5149999999999
 20
761.0786
 30
0.0
 11
194.632
 21
764.0132999999999
 31
0.0
  0
LINE
  5
2A8
330
1E
100
AcDbEntity
  8
0
100
AcDbLine
 10
194.329
 20
761.1629999999999
 30
0.0
 11
195.2809999999999
 21
761.7130000000001
 31
0.0
  0
LINE
  5
2A9
330
1E
100
AcDbEntity
  8
0
100
AcDbLine
 10
195.2809999999999
 20
761.7130000000001
 30
0.0
 11
195.6279999999999
 21
761.913
 31
0.0
  0
LINE
  5
2AA
330
1E
100
AcDbEntity
  8
0
100
AcDbLine
 10
194.4729999999999
 20
767.3382
 30
0.0
 11
194.632
 21
764.0132999999999
 31
0.0
  0
LINE
  5
2AB
330
1E
100
AcDbEntity
  8
0
100
AcDbLine
 10
195.6279999999999
 20
761.913
 30
0.0
 11
196.666926209868
 21
759.8860285004029
 31
0.0
  0
LINE
  5
2AC
330
1E
100
AcDbEntity
  8
0
100
AcDbLine
 10
192.6829999999999
 20
760.213
 30
0.0
 11
194.329
 21
761.1629999999999
 31
0.0
  0
LINE
  5
2AD
330
1E
100
AcDbEntity
  8
0
100
AcDbLine
 10
195.447
 20
760.0
 30
0.0
 11
195.7799999999999
 21
760.0
 31
0.0
  0
LINE
  5
2AE
330
1E
100
AcDbEntity
  8
0
100
AcDbLine
 10
195.447
 20
760.0
 30
0.0
 11
195.6134999999999
 21
759.9786099691678
 31
0.0
  0
LINE
  5
2AF
330
1E
100
AcDbEntity
  8
0
100
AcDbLine
 10
195.7799999999999
 20
760.0
 30
0.0
 11
199.671
 21
759.4999999999999
 31
0.0
  0
LINE
  5
2B0
330
1E
100
AcDbEntity
  8
0
100
AcDbLine
 10
190.9270974380339
 20
759.2373736517401
 30
0.0
 11
191.167080368694
 21
759.3375892408239
 31
0.0
  0
LINE
  5
2B1
330
1E
100
AcDbEntity
  8
0
100
AcDbLine
 10
210.5929999999999
 20
680.893
 30
0.0
 11
216.793
 21
656.4960000000001
 31
0.0
  0
LINE
  5
2B2
330
1E
100
AcDbEntity
  8
0
100
AcDbLine
 10
202.692
 20
703.6889999999999
 30
0.0
 11
210.5929999999999
 21
680.893
 31
0.0
  0
LINE
  5
2B3
330
1E
100
AcDbEntity
  8
0
100
AcDbLine
 10
224.291
 20
610.592
 30
0.0
 11
226.092
 21
578.9909999999999
 31
0.0
  0
LINE
  5
2B4
330
1E
100
AcDbEntity
  8
0
100
AcDbLine
 10
221.3919999999999
 20
632.289
 30
0.0
 11
224.291
 21
610.592
 31
0.0
  0
LINE
  5
2B5
330
1E
100
AcDbEntity
  8
0
100
AcDbLine
 10
216.793
 20
656.4960000000001
 30
0.0
 11
221.3919999999999
 21
632.289
 31
0.0
  0
LINE
  5
2B6
330
1E
100
AcDbEntity
  8
0
100
AcDbLine
 10
235.4099999999999
 20
53.6486
 30
0.0
 11
238.3159999999999
 21
54.1569
 31
0.0
  0
LINE
  5
2B7
330
1E
100
AcDbEntity
  8
0
100
AcDbLine
 10
232.267
 20
53.7775
 30
0.0
 11
235.4099999999999
 21
53.6486
 31
0.0
  0
LINE
  5
2B8
330
1E
100
AcDbEntity
  8
0
100
AcDbLine
 10
229.468
 20
54.4802
 30
0.0
 11
232.267
 21
53.7775
 31
0.0
  0
LINE
  5
2B9
330
1E
100
AcDbEntity
  8
0
100
AcDbLine
 10
227.5279999999999
 20
55.6564
 30
0.0
 11
229.468
 21
54.4802
 31
0.0
  0
LINE
  5
2BA
330
1E
100
AcDbEntity
  8
0
100
AcDbLine
 10
233.497
 20
61.46209999999999
 30
0.0
 11
236.64
 21
61.331
 31
0.0
  0
LINE
  5
2BB
330
1E
100
AcDbEntity
  8
0
100
AcDbLine
 10
230.587
 20
60.9569
 30
0.0
 11
233.497
 21
61.46209999999999
 31
0.0
  0
LINE
  5
2BC
330
1E
100
AcDbEntity
  8
0
100
AcDbLine
 10
228.1919999999999
 20
60.0048
 30
0.0
 11
230.587
 21
60.9569
 31
0.0
  0
LINE
  5
2BD
330
1E
100
AcDbEntity
  8
0
100
AcDbLine
 10
226.759
 20
58.6311
 30
0.0
 11
228.1919999999999
 21
60.0048
 31
0.0
  0
LINE
  5
2BE
330
1E
100
AcDbEntity
  8
0
100
AcDbLine
 10
226.092
 20
578.9909999999999
 30
0.0
 11
226.494
 21
57.0861
 31
0.0
  0
LINE
  5
2BF
330
1E
100
AcDbEntity
  8
0
100
AcDbLine
 10
226.092
 20
578.9909999999999
 30
0.0
 11
226.494
 21
57.0861
 31
0.0
  0
LINE
  5
2C0
330
1E
100
AcDbEntity
  8
0
100
AcDbLine
 10
226.494
 20
57.0861
 30
0.0
 11
227.5279999999999
 21
55.6564
 31
0.0
  0
LINE
  5
2C1
330
1E
100
AcDbEntity
  8
0
100
AcDbLine
 10
226.494
 20
57.0861
 30
0.0
 11
226.759
 21
58.6311
 31
0.0
  0
LINE
  5
2C2
330
1E
100
AcDbEntity
  8
0
100
AcDbLine
 10
236.64
 20
61.331
 30
0.0
 11
239.434
 21
60.6272
 31
0.0
  0
LINE
  5
2C3
330
1E
100
AcDbEntity
  8
0
100
AcDbLine
 10
241.3699999999999
 20
59.45109999999999
 30
0.0
 11
242.3999999999999
 21
58.0235
 31
0.0
  0
LINE
  5
2C4
330
1E
100
AcDbEntity
  8
0
100
AcDbLine
 10
239.434
 20
60.6272
 30
0.0
 11
241.3699999999999
 21
59.45109999999999
 31
0.0
  0
LINE
  5
2C5
330
1E
100
AcDbEntity
  8
0
100
AcDbLine
 10
242.092
 20
578.995
 30
0.0
 11
242.3999999999999
 21
58.0235
 31
0.0
  0
LINE
  5
2C6
330
1E
100
AcDbEntity
  8
0
100
AcDbLine
 10
242.092
 20
578.995
 30
0.0
 11
242.3999999999999
 21
58.0235
 31
0.0
  0
LINE
  5
2C7
330
1E
100
AcDbEntity
  8
0
100
AcDbLine
 10
242.137
 20
56.4817
 30
0.0
 11
242.3999999999999
 21
58.0235
 31
0.0
  0
LINE
  5
2C8
330
1E
100
AcDbEntity
  8
0
100
AcDbLine
 10
240.708
 20
55.1079
 30
0.0
 11
242.137
 21
56.4817
 31
0.0
  0
LINE
  5
2C9
330
1E
100
AcDbEntity
  8
0
100
AcDbLine
 10
238.3159999999999
 20
54.1569
 30
0.0
 11
240.708
 21
55.1079
 31
0.0
  0
LINE
  5
2CA
330
1E
100
AcDbEntity
  8
0
100
AcDbLine
 10
240.092
 20
613.396
 30
0.0
 11
242.092
 21
578.995
 31
0.0
  0
LINE
  5
2CB
330
1E
100
AcDbEntity
  8
0
100
AcDbLine
 10
236.3919999999999
 20
637.7939999999999
 30
0.0
 11
240.092
 21
613.396
 31
0.0
  0
LINE
  5
2CC
330
1E
100
AcDbEntity
  8
0
100
AcDbLine
 10
231.292
 20
663.191
 30
0.0
 11
236.3919999999999
 21
637.7939999999999
 31
0.0
  0
LINE
  5
2CD
330
1E
100
AcDbEntity
  8
0
100
AcDbLine
 10
224.492
 20
688.8989999999998
 30
0.0
 11
231.292
 21
663.191
 31
0.0
  0
LINE
  5
2D0
330
1E
100
AcDbEntity
  8
0
100
AcDbLine
 10
329.309
 20
-0.0000000000000335
 30
0.0
 11
330.809
 21
-0.0000000000000336
 31
0.0
  0
LINE
  5
2D1
330
1E
100
AcDbEntity
  8
0
100
AcDbLine
 10
328.309
 20
-0.0000000000000335
 30
0.0
 11
329.309
 21
-0.0000000000000335
 31
0.0
  0
LINE
  5
2D2
330
1E
100
AcDbEntity
  8
0
100
AcDbLine
 10
329.309
 20
19.99999999999989
 30
0.0
 11
329.309
 21
948.0
 31
0.0
  0
LINE
  5
2D3
330
1E
100
AcDbEntity
  8
0
100
AcDbLine
 10
328.309
 20
20.0
 30
0.0
 11
329.309
 21
20.0
 31
0.0
  0
LINE
  5
2D4
330
1E
100
AcDbEntity
  8
0
100
AcDbLine
 10
327.809
 20
20.0
 30
0.0
 11
327.809
 21
-0.0000000000000336
 31
0.0
  0
LINE
  5
2D5
330
1E
100
AcDbEntity
  8
0
100
AcDbLine
 10
327.809
 20
20.0
 30
0.0
 11
328.309
 21
20.0
 31
0.0
  0
LINE
  5
2D6
330
1E
100
AcDbEntity
  8
0
100
AcDbLine
 10
327.809
 20
-0.0000000000000335
 30
0.0
 11
328.309
 21
-0.0000000000000335
 31
0.0
  0
LINE
  5
2D7
330
1E
100
AcDbEntity
  8
0
100
AcDbLine
 10
327.809
 20
-0.0000000000000335
 30
0.0
 11
327.809
 21
20.0
 31
0.0
  0
LINE
  5
2D8
330
1E
100
AcDbEntity
  8
0
100
AcDbLine
 10
348.309
 20
-0.0000000000000347
 30
0.0
 11
349.809
 21
-0.0000000000000348
 31
0.0
  0
LINE
  5
2D9
330
1E
100
AcDbEntity
  8
0
100
AcDbLine
 10
339.309
 20
-0.0000000000000342
 30
0.0
 11
342.309
 21
-0.0000000000000343
 31
0.0
  0
LINE
  5
2DA
330
1E
100
AcDbEntity
  8
0
100
AcDbLine
 10
336.309
 20
-0.000000000000034
 30
0.0
 11
339.309
 21
-0.0000000000000342
 31
0.0
  0
LINE
  5
2DB
330
1E
100
AcDbEntity
  8
0
100
AcDbLine
 10
333.309
 20
-0.0000000000000338
 30
0.0
 11
336.309
 21
-0.000000000000034
 31
0.0
  0
LINE
  5
2DC
330
1E
100
AcDbEntity
  8
0
100
AcDbLine
 10
330.809
 20
-0.0000000000000336
 30
0.0
 11
333.309
 21
-0.0000000000000338
 31
0.0
  0
LINE
  5
2DD
330
1E
100
AcDbEntity
  8
0
100
AcDbLine
 10
342.309
 20
-0.0000000000000343
 30
0.0
 11
345.309
 21
-0.0000000000000345
 31
0.0
  0
LINE
  5
2DE
330
1E
100
AcDbEntity
  8
0
100
AcDbLine
 10
345.309
 20
-0.0000000000000345
 30
0.0
 11
348.309
 21
-0.0000000000000347
 31
0.0
  0
LINE
  5
2DF
330
1E
100
AcDbEntity
  8
0
100
AcDbLine
 10
350.809
 20
20.0
 30
0.0
 11
350.809
 21
948.0
 31
0.0
  0
LINE
  5
2E0
330
1E
100
AcDbEntity
  8
0
100
AcDbLine
 10
350.809
 20
20.0
 30
0.0
 11
350.809
 21
-0.0000000000000336
 31
0.0
  0
LINE
  5
2E1
330
1E
100
AcDbEntity
  8
0
100
AcDbLine
 10
350.809
 20
19.99999999999989
 30
0.0
 11
350.809
 21
948.0
 31
0.0
  0
LINE
  5
2E2
330
1E
100
AcDbEntity
  8
0
100
AcDbLine
 10
349.809
 20
-0.0000000000000348
 30
0.0
 11
350.809
 21
-0.0000000000000349
 31
0.0
  0
LINE
  5
2E3
330
1E
100
AcDbEntity
  8
0
100
AcDbLine
 10
350.809
 20
-0.0000000000000349
 30
0.0
 11
350.809
 21
20.0
 31
0.0
  0
LINE
  5
2E4
330
1E
100
AcDbEntity
  8
0
100
AcDbLine
 10
329.309
 20
20.0
 30
0.0
 11
329.309
 21
606.194939620471
 31
0.0
  0
LINE
  5
2E6
330
1E
100
AcDbEntity
  8
0
100
AcDbLine
 10
319.971
 20
626.6
 30
0.0
 11
329.309
 21
606.194939620471
 31
0.0
  0
LINE
  5
2E8
330
1E
100
AcDbEntity
  8
0
100
AcDbLine
 10
329.309
 20
655.356828193833
 30
0.0
 11
329.309
 21
723.2464418546989
 31
0.0
  0
LINE
  5
2E9
330
1E
100
AcDbEntity
  8
0
100
AcDbLine
 10
323.3969999999999
 20
666.1
 30
0.0
 11
329.309
 21
655.356828193833
 31
0.0
  0
LINE
  5
2EA
330
1E
100
AcDbEntity
  8
0
100
AcDbLine
 10
307.233
 20
688.6
 30
0.0
 11
323.3969999999999
 21
666.1
 31
0.0
  0
LINE
  5
2EB
330
1E
100
AcDbEntity
  8
0
100
AcDbLine
 10
304.007
 20
651.5
 30
0.0
 11
319.971
 21
626.6
 31
0.0
  0
LINE
  5
2EC
330
1E
100
AcDbEntity
  8
0
100
AcDbLine
 10
285.4479999999999
 20
673.6
 30
0.0
 11
304.007
 21
651.5
 31
0.0
  0
LINE
  5
2ED
330
1E
100
AcDbEntity
  8
0
100
AcDbLine
 10
216.093
 20
712.385
 30
0.0
 11
224.492
 21
688.8989999999998
 31
0.0
  0
LINE
  5
2EE
330
1E
100
AcDbEntity
  8
0
100
AcDbLine
 10
240.547
 20
709.7
 30
0.0
 11
264.295
 21
693.0
 31
0.0
  0
LINE
  5
2EF
330
1E
100
AcDbEntity
  8
0
100
AcDbLine
 10
215.503
 20
722.2999999999999
 30
0.0
 11
240.547
 21
709.7
 31
0.0
  0
LINE
  5
2F2
330
1E
100
AcDbEntity
  8
0
100
AcDbLine
 10
288.973
 20
707.8999999999999
 30
0.0
 11
307.233
 21
688.6
 31
0.0
  0
LINE
  5
2F3
330
1E
100
AcDbEntity
  8
0
100
AcDbLine
 10
268.5179999999999
 20
724.6
 30
0.0
 11
288.973
 21
707.8999999999999
 31
0.0
  0
LINE
  5
2F4
330
1E
100
AcDbEntity
  8
0
100
AcDbLine
 10
308.357
 20
724.7999999999999
 30
0.0
 11
329.309
 21
723.2414579717329
 31
0.0
  0
LINE
  5
2F5
330
1E
100
AcDbEntity
  8
0
100
AcDbLine
 10
285.359
 20
727.2
 30
0.0
 11
308.357
 21
724.7999999999999
 31
0.0
  0
LINE
  5
2F6
330
1E
100
AcDbEntity
  8
0
100
AcDbLine
 10
264.0609999999999
 20
730.4
 30
0.0
 11
285.359
 21
727.2
 31
0.0
  0
LINE
  5
2F7
330
1E
100
AcDbEntity
  8
0
100
AcDbLine
 10
255.950932448123
 20
731.9712247325348
 30
0.0
 11
264.0609999999999
 21
730.4
 31
0.0
  0
LINE
  5
2F9
330
1E
100
AcDbEntity
  8
0
100
AcDbLine
 10
264.295
 20
693.0
 30
0.0
 11
285.4479999999999
 21
673.6
 31
0.0
  0
LINE
  5
2FA
330
1E
100
AcDbEntity
  8
0
100
AcDbLine
 10
210.749712531122
 20
723.974239749015
 30
0.0
 11
215.503
 21
722.2999999999999
 31
0.0
  0
LINE
  5
2FB
330
1E
100
AcDbEntity
  8
0
100
AcDbLine
 10
210.749712531122
 20
723.974239749015
 30
0.0
 11
216.093
 21
712.385
 31
0.0
  0
LINE
  5
300
330
1E
100
AcDbEntity
  8
0
100
AcDbLine
 10
329.309
 20
733.2464418546988
 30
0.0
 11
329.309
 21
948.0
 31
0.0
  0
LINE
  5
302
330
1E
100
AcDbEntity
  8
0
100
AcDbLine
 10
308.424
 20
734.7999999999999
 30
0.0
 11
329.309
 21
733.2464418546988
 31
0.0
  0
LINE
  5
303
330
1E
100
AcDbEntity
  8
0
100
AcDbLine
 10
285.426
 20
737.2
 30
0.0
 11
308.424
 21
734.7999999999999
 31
0.0
  0
LINE
  5
304
330
1E
100
AcDbEntity
  8
0
100
AcDbLine
 10
264.128
 20
740.3999999999999
 30
0.0
 11
285.426
 21
737.2
 31
0.0
  0
LINE
  5
305
330
1E
100
AcDbEntity
  8
0
100
AcDbLine
 10
245.0299999999999
 20
744.1
 30
0.0
 11
264.128
 21
740.3999999999999
 31
0.0
  0
LINE
  5
306
330
1E
100
AcDbEntity
  8
0
100
AcDbLine
 10
327.809
 20
968.0
 30
0.0
 11
327.809
 21
948.0
 31
0.0
  0
LINE
  5
307
330
1E
100
AcDbEntity
  8
0
100
AcDbLine
 10
327.809
 20
968.0
 30
0.0
 11
328.309
 21
968.0
 31
0.0
  0
LINE
  5
308
330
1E
100
AcDbEntity
  8
0
100
AcDbLine
 10
350.809
 20
948.0
 30
0.0
 11
350.809
 21
968.0
 31
0.0
  0
LINE
  5
309
330
1E
100
AcDbEntity
  8
0
100
AcDbLine
 10
339.309
 20
968.0
 30
0.0
 11
342.309
 21
968.0
 31
0.0
  0
LINE
  5
30A
330
1E
100
AcDbEntity
  8
0
100
AcDbLine
 10
342.309
 20
968.0
 30
0.0
 11
345.309
 21
968.0
 31
0.0
  0
LINE
  5
30B
330
1E
100
AcDbEntity
  8
0
100
AcDbLine
 10
345.309
 20
968.0
 30
0.0
 11
348.309
 21
968.0
 31
0.0
  0
LINE
  5
30C
330
1E
100
AcDbEntity
  8
0
100
AcDbLine
 10
350.809
 20
968.0
 30
0.0
 11
350.809
 21
948.0
 31
0.0
  0
LINE
  5
30D
330
1E
100
AcDbEntity
  8
0
100
AcDbLine
 10
348.309
 20
968.0
 30
0.0
 11
349.809
 21
968.0
 31
0.0
  0
LINE
  5
30E
330
1E
100
AcDbEntity
  8
0
100
AcDbLine
 10
349.809
 20
968.0
 30
0.0
 11
350.809
 21
968.0
 31
0.0
  0
LINE
  5
30F
330
1E
100
AcDbEntity
  8
0
100
AcDbLine
 10
336.309
 20
968.0
 30
0.0
 11
339.309
 21
968.0
 31
0.0
  0
LINE
  5
310
330
1E
100
AcDbEntity
  8
0
100
AcDbLine
 10
333.309
 20
968.0
 30
0.0
 11
336.309
 21
968.0
 31
0.0
  0
LINE
  5
311
330
1E
100
AcDbEntity
  8
0
100
AcDbLine
 10
330.809
 20
968.0
 30
0.0
 11
333.309
 21
968.0
 31
0.0
  0
LINE
  5
312
330
1E
100
AcDbEntity
  8
0
100
AcDbLine
 10
329.309
 20
968.0
 30
0.0
 11
330.809
 21
968.0
 31
0.0
  0
LINE
  5
313
330
1E
100
AcDbEntity
  8
0
100
AcDbLine
 10
328.309
 20
968.0
 30
0.0
 11
329.309
 21
968.0
 31
0.0
  0
LINE
  5
314
330
1E
100
AcDbEntity
  8
0
100
AcDbLine
 10
328.309
 20
948.0
 30
0.0
 11
329.309
 21
948.0
 31
0.0
  0
LINE
  5
315
330
1E
100
AcDbEntity
  8
0
100
AcDbLine
 10
327.809
 20
948.0
 30
0.0
 11
327.809
 21
968.0
 31
0.0
  0
LINE
  5
316
330
1E
100
AcDbEntity
  8
0
100
AcDbLine
 10
327.809
 20
948.0
 30
0.0
 11
328.309
 21
948.0
 31
0.0
  0
LINE
  5
317
330
1E
100
AcDbEntity
  8
0
100
AcDbLine
 10
228.3319999999999
 20
748.2999999999999
 30
0.0
 11
245.0299999999999
 21
744.1
 31
0.0
  0
LINE
  5
318
330
1E
100
AcDbEntity
  8
0
100
AcDbLine
 10
203.263
 20
758.0
 30
0.0
 11
228.3319999999999
 21
748.2999999999999
 31
0.0
  0
LINE
  5
319
330
1E
100
AcDbEntity
  8
0
100
AcDbLine
 10
255.950932448123
 20
731.9712247325348
 30
0.0
 11
268.5179999999999
 21
724.6
 31
0.0
  0
LINE
  5
31A
330
1E
100
AcDbEntity
  8
0
100
AcDbLine
 10
199.671
 20
759.4999999999999
 30
0.0
 11
203.263
 21
758.0
 31
0.0
  0
LINE
  5
31F
330
1E
100
AcDbEntity
  8
0
100
AcDbLine
 10
107.709
 20
856.46
 30
0.0
 11
84.138
 21
872.0319999999999
 31
0.0
  0
LINE
  5
320
330
1E
100
AcDbEntity
  8
0
100
AcDbLine
 10
189.154964588391
 20
758.6393521776409
 30
0.0
 11
185.269
 21
757.3279999999999
 31
0.0
  0
ENDSEC
  0
SECTION
  2
OBJECTS
  0
DICTIONARY
  5
C
330
0
100
AcDbDictionary
281
     1
  3
ACAD_GROUP
350
D
  3
ACAD_LAYOUT
350
19
  3
ACAD_MLINESTYLE
350
16
  3
ACAD_PLOTSETTINGS
350
18
  3
ACAD_PLOTSTYLENAME
350
E
  3
AcDbVariableDictionary
350
321
  0
DICTIONARY
  5
D
102
{ACAD_REACTORS
330
C
102
}
330
C
100
AcDbDictionary
281
     1
  0
DICTIONARY
  5
19
102
{ACAD_REACTORS
330
C
102
}
330
C
100
AcDbDictionary
281
     1
  3
Layout1
350
1D
  3
Model
350
21
  0
DICTIONARY
  5
16
102
{ACAD_REACTORS
330
C
102
}
330
C
100
AcDbDictionary
281
     1
  3
Standard
350
17
  0
DICTIONARY
  5
18
102
{ACAD_REACTORS
330
C
102
}
330
C
100
AcDbDictionary
281
     1
  0
ACDBDICTIONARYWDFLT
  5
E
102
{ACAD_REACTORS
330
C
102
}
330
C
100
AcDbDictionary
281
     1
  3
Normal
350
F
100
AcDbDictionaryWithDefault
340
F
  0
DICTIONARY
  5
321
102
{ACAD_REACTORS
330
C
102
}
330
C
100
AcDbDictionary
281
     1
  3
DIMASSOC
350
322
  0
LAYOUT
  5
1D
102
{ACAD_REACTORS
330
19
102
}
330
19
100
AcDbPlotSettings
  1

  2
hp deskjet 980c series
  4

  6

 40
0.0
 41
0.0
 42
0.0
 43
0.0
 44
0.0
 45
0.0
 46
0.0
 47
0.0
 48
0.0
 49
0.0
140
0.0
141
0.0
142
1.0
143
1.0
 70
   688
 72
     0
 73
     0
 74
     5
  7

 75
    16
147
1.0
148
0.0
149
0.0
100
AcDbLayout
  1
Layout1
 70
     1
 71
     1
 10
0.0
 20
0.0
 11
12.0
 21
9.0
 12
0.0
 22
0.0
 32
0.0
 14
1.000000000000000E+20
 24
1.000000000000000E+20
 34
1.000000000000000E+20
 15
-1.000000000000000E+20
 25
-1.000000000000000E+20
 35
-1.000000000000000E+20
146
0.0
 13
0.0
 23
0.0
 33
0.0
 16
1.0
 26
0.0
 36
0.0
 17
0.0
 27
1.0
 37
0.0
 76
     0
330
1A
  0
LAYOUT
  5
21
102
{ACAD_REACTORS
330
19
102
}
330
19
100
AcDbPlotSettings
  1

  2
hp deskjet 980c series
  4

  6

 40
0.0
 41
0.0
 42
0.0
 43
0.0
 44
0.0
 45
0.0
 46
0.0
 47
0.0
 48
0.0
 49
0.0
140
0.0
141
0.0
142
1.0
143
1.0
 70
  1712
 72
     0
 73
     0
 74
     0
  7

 75
     0
147
1.0
148
0.0
149
0.0
100
AcDbLayout
  1
Model
 70
     1
 71
     0
 10
0.0
 20
0.0
 11
12.0
 21
9.0
 12
0.0
 22
0.0
 32
0.0
 14
0.0
 24
0.0
 34
0.0
 15
0.0
 25
0.0
 35
0.0
146
0.0
 13
0.0
 23
0.0
 33
0.0
 16
1.0
 26
0.0
 36
0.0
 17
0.0
 27
1.0
 37
0.0
 76
     0
330
1E
  0
MLINESTYLE
  5
17
102
{ACAD_REACTORS
330
16
102
}
330
16
100
AcDbMlineStyle
  2
STANDARD
 70
     0
  3

 62
   256
 51
90.0
 52
90.0
 71
     2
 49
0.5
 62
   256
  6
BYLAYER
 49
-0.5
 62
   256
  6
BYLAYER
  0
ACDBPLACEHOLDER
  5
F
102
{ACAD_REACTORS
330
E
102
}
330
E
  0
DICTIONARYVAR
  5
322
102
{ACAD_REACTORS
330
321
102
}
330
321
100
DictionaryVariables
280
     0
  1
1
  0
ENDSEC
  0
EOF
