  0
SECTION
  2
HEADER
  9
$ACADVER
  1
AC1015
  9
$ACADMAINTVER
 70
     6
  9
$DWGCODEPAGE
  3
ANSI_1252
  9
$INSBASE
 10
0.0
 20
0.0
 30
0.0
  9
$EXTMIN
 10
-10.755
 20
-30.0
 30
0.0
  9
$EXTMAX
 10
283.755
 20
553.0
 30
0.0
  9
$LIMMIN
 10
0.0
 20
0.0
  9
$LIMMAX
 10
12.0
 20
9.0
  9
$ORTHOMODE
 70
     0
  9
$REGENMODE
 70
     1
  9
$FILLMODE
 70
     1
  9
$QTEXTMODE
 70
     0
  9
$MIRRTEXT
 70
     1
  9
$LTSCALE
 40
1.0
  9
$ATTMODE
 70
     1
  9
$TEXTSIZE
 40
0.2
  9
$TRACEWID
 40
0.05
  9
$TEXTSTYLE
  7
STANDARD
  9
$CLAYER
  8
0
  9
$CELTYPE
  6
CONTINUOUS
  9
$CECOLOR
 62
   256
  9
$CELTSCALE
 40
1.0
  9
$DISPSILH
 70
     0
  9
$DIMSCALE
 40
1.0
  9
$DIMASZ
 40
0.18
  9
$DIMEXO
 40
0.0625
  9
$DIMDLI
 40
0.38
  9
$DIMRND
 40
0.0
  9
$DIMDLE
 40
0.0
  9
$DIMEXE
 40
0.18
  9
$DIMTP
 40
0.0
  9
$DIMTM
 40
0.0
  9
$DIMTXT
 40
0.18
  9
$DIMCEN
 40
0.09
  9
$DIMTSZ
 40
0.0
  9
$DIMTOL
 70
     0
  9
$DIMLIM
 70
     0
  9
$DIMTIH
 70
     1
  9
$DIMTOH
 70
     1
  9
$DIMSE1
 70
     0
  9
$DIMSE2
 70
     0
  9
$DIMTAD
 70
     0
  9
$DIMZIN
 70
     0
  9
$DIMBLK
  1

  9
$DIMASO
 70
     1
  9
$DIMSHO
 70
     1
  9
$DIMPOST
  1

  9
$DIMAPOST
  1

  9
$DIMALT
 70
     0
  9
$DIMALTD
 70
     2
  9
$DIMALTF
 40
25.4
  9
$DIMLFAC
 40
1.0
  9
$DIMTOFL
 70
     0
  9
$DIMTVP
 40
0.0
  9
$DIMTIX
 70
     0
  9
$DIMSOXD
 70
     0
  9
$DIMSAH
 70
     0
  9
$DIMBLK1
  1

  9
$DIMBLK2
  1

  9
$DIMSTYLE
  2
STANDARD
  9
$DIMCLRD
 70
     0
  9
$DIMCLRE
 70
     0
  9
$DIMCLRT
 70
     0
  9
$DIMTFAC
 40
1.0
  9
$DIMGAP
 40
0.09
  9
$DIMJUST
 70
     0
  9
$DIMSD1
 70
     0
  9
$DIMSD2
 70
     0
  9
$DIMTOLJ
 70
     1
  9
$DIMTZIN
 70
     0
  9
$DIMALTZ
 70
     0
  9
$DIMALTTZ
 70
     0
  9
$DIMUPT
 70
     0
  9
$DIMDEC
 70
     4
  9
$DIMTDEC
 70
     4
  9
$DIMALTU
 70
     2
  9
$DIMALTTD
 70
     2
  9
$DIMTXSTY
  7
STANDARD
  9
$DIMAUNIT
 70
     0
  9
$DIMADEC
 70
     0
  9
$DIMALTRND
 40
0.0
  9
$DIMAZIN
 70
     0
  9
$DIMDSEP
 70
    46
  9
$DIMATFIT
 70
     3
  9
$DIMFRAC
 70
     0
  9
$DIMLDRBLK
  1

  9
$DIMLUNIT
 70
     2
  9
$DIMLWD
 70
    -2
  9
$DIMLWE
 70
    -2
  9
$DIMTMOVE
 70
     2
  9
$LUNITS
 70
     2
  9
$LUPREC
 70
     4
  9
$SKETCHINC
 40
0.1
  9
$FILLETRAD
 40
0.0
  9
$AUNITS
 70
     0
  9
$AUPREC
 70
     0
  9
$MENU
  1
.
  9
$ELEVATION
 40
0.0
  9
$PELEVATION
 40
0.0
  9
$THICKNESS
 40
0.0
  9
$LIMCHECK
 70
     0
  9
$CHAMFERA
 40
0.0
  9
$CHAMFERB
 40
0.0
  9
$CHAMFERC
 40
0.0
  9
$CHAMFERD
 40
0.0
  9
$SKPOLY
 70
     0
  9
$TDCREATE
 40
2454983.872862593
  9
$TDUCREATE
 40
2454983.789529259
  9
$TDUPDATE
 40
2456213.626404977
  9
$TDUUPDATE
 40
2456213.543071643
  9
$TDINDWG
 40
0.0038167245
  9
$TDUSRTIMER
 40
0.0038167245
  9
$USRTIMER
 70
     1
  9
$ANGBASE
 50
0.0
  9
$ANGDIR
 70
     0
  9
$PDMODE
 70
     0
  9
$PDSIZE
 40
0.0
  9
$PLINEWID
 40
0.0
  9
$SPLFRAME
 70
     0
  9
$SPLINETYPE
 70
     6
  9
$SPLINESEGS
 70
     8
  9
$HANDSEED
  5
11A7
  9
$SURFTAB1
 70
     6
  9
$SURFTAB2
 70
     6
  9
$SURFTYPE
 70
     6
  9
$SURFU
 70
     6
  9
$SURFV
 70
     6
  9
$UCSBASE
  2

  9
$UCSNAME
  2

  9
$UCSORG
 10
0.0
 20
0.0
 30
0.0
  9
$UCSXDIR
 10
1.0
 20
0.0
 30
0.0
  9
$UCSYDIR
 10
0.0
 20
1.0
 30
0.0
  9
$UCSORTHOREF
  2

  9
$UCSORTHOVIEW
 70
     0
  9
$UCSORGTOP
 10
0.0
 20
0.0
 30
0.0
  9
$UCSORGBOTTOM
 10
0.0
 20
0.0
 30
0.0
  9
$UCSORGLEFT
 10
0.0
 20
0.0
 30
0.0
  9
$UCSORGRIGHT
 10
0.0
 20
0.0
 30
0.0
  9
$UCSORGFRONT
 10
0.0
 20
0.0
 30
0.0
  9
$UCSORGBACK
 10
0.0
 20
0.0
 30
0.0
  9
$PUCSBASE
  2

  9
$PUCSNAME
  2

  9
$PUCSORG
 10
0.0
 20
0.0
 30
0.0
  9
$PUCSXDIR
 10
1.0
 20
0.0
 30
0.0
  9
$PUCSYDIR
 10
0.0
 20
1.0
 30
0.0
  9
$PUCSORTHOREF
  2

  9
$PUCSORTHOVIEW
 70
     0
  9
$PUCSORGTOP
 10
0.0
 20
0.0
 30
0.0
  9
$PUCSORGBOTTOM
 10
0.0
 20
0.0
 30
0.0
  9
$PUCSORGLEFT
 10
0.0
 20
0.0
 30
0.0
  9
$PUCSORGRIGHT
 10
0.0
 20
0.0
 30
0.0
  9
$PUCSORGFRONT
 10
0.0
 20
0.0
 30
0.0
  9
$PUCSORGBACK
 10
0.0
 20
0.0
 30
0.0
  9
$USERI1
 70
     0
  9
$USERI2
 70
     0
  9
$USERI3
 70
     0
  9
$USERI4
 70
     0
  9
$USERI5
 70
     0
  9
$USERR1
 40
0.0
  9
$USERR2
 40
0.0
  9
$USERR3
 40
0.0
  9
$USERR4
 40
0.0
  9
$USERR5
 40
0.0
  9
$WORLDVIEW
 70
     1
  9
$SHADEDGE
 70
     3
  9
$SHADEDIF
 70
    70
  9
$TILEMODE
 70
     1
  9
$MAXACTVP
 70
    64
  9
$PINSBASE
 10
0.0
 20
0.0
 30
0.0
  9
$PLIMCHECK
 70
     0
  9
$PEXTMIN
 10
1.000000000000E+20
 20
1.000000000000E+20
 30
1.000000000000E+20
  9
$PEXTMAX
 10
-1.000000000000E+20
 20
-1.000000000000E+20
 30
-1.000000000000E+20
  9
$PLIMMIN
 10
0.0
 20
0.0
  9
$PLIMMAX
 10
12.0
 20
9.0
  9
$UNITMODE
 70
     0
  9
$VISRETAIN
 70
     1
  9
$PLINEGEN
 70
     0
  9
$PSLTSCALE
 70
     1
  9
$TREEDEPTH
 70
  3020
  9
$CMLSTYLE
  2
STANDARD
  9
$CMLJUST
 70
     0
  9
$CMLSCALE
 40
1.0
  9
$PROXYGRAPHICS
 70
     1
  9
$MEASUREMENT
 70
     0
  9
$CELWEIGHT
370
    -1
  9
$ENDCAPS
280
     0
  9
$JOINSTYLE
280
     0
  9
$LWDISPLAY
290
     0
  9
$INSUNITS
 70
     0
  9
$HYPERLINKBASE
  1

  9
$STYLESHEET
  1

  9
$XEDIT
290
     1
  9
$CEPSNTYPE
380
     0
  9
$PSTYLEMODE
290
     1
  9
$FINGERPRINTGUID
  2
{E68403B8-AD81-4ED8-85C3-2480C316A2E0}
  9
$VERSIONGUID
  2
{9F564A44-C875-4D06-8535-FFDE148A39F4}
  9
$EXTNAMES
290
     1
  9
$PSVPSCALE
 40
0.0
  9
$OLESTARTUP
290
     0
  0
ENDSEC
  0
SECTION
  2
CLASSES
  0
CLASS
  1
ACDBDICTIONARYWDFLT
  2
AcDbDictionaryWithDefault
  3
ObjectDBX Classes
 90
        0
280
     0
281
     0
  0
CLASS
  1
ACDBPLACEHOLDER
  2
AcDbPlaceHolder
  3
ObjectDBX Classes
 90
        0
280
     0
281
     0
  0
CLASS
  1
LAYOUT
  2
AcDbLayout
  3
ObjectDBX Classes
 90
        0
280
     0
281
     0
  0
CLASS
  1
DICTIONARYVAR
  2
AcDbDictionaryVar
  3
ObjectDBX Classes
 90
        0
280
     0
281
     0
  0
CLASS
  1
DUMMY
  2
AcDbLongTransaction
  3
DUMMY
 90
        0
280
     0
281
     0
  0
CLASS
  1
LWPOLYLINE
  2
AcDbPolyline
  3
AutoCAD 2000
 90
        0
280
     0
281
     1
  0
CLASS
  1
HATCH
  2
AcDbHatch
  3
AutoCAD 2000
 90
        0
280
     0
281
     1
  0
CLASS
  1
XRECORD
  2
AcDbXrecord
  3
AutoCAD 2000
 90
        0
280
     0
281
     0
  0
CLASS
  1
SCALE
  2
AcDbScale
  3
ObjectDBX Classes
 90
     1153
280
     0
281
     0
  0
ENDSEC
  0
SECTION
  2
TABLES
  0
TABLE
  2
VPORT
  5
8
330
0
100
AcDbSymbolTable
 70
     1
  0
VPORT
  5
59C
330
8
100
AcDbSymbolTableRecord
100
AcDbViewportTableRecord
  2
*ACTIVE
 70
     0
 10
0.0
 20
0.0
 11
1.0
 21
1.0
 12
136.5
 22
261.5
 13
0.0
 23
0.0
 14
1.0
 24
1.0
 15
0.0
 25
0.0
 16
0.0
 26
0.0
 36
1.0
 17
0.0
 27
0.0
 37
0.0
 40
594.66
 41
1.863448275862
 42
50.0
 43
0.0
 44
0.0
 50
0.0
 51
0.0
 71
    16
 72
   100
 73
     1
 74
     3
 75
     0
 76
     0
 77
     0
 78
     0
281
     0
 65
     1
110
0.0
120
0.0
130
0.0
111
1.0
121
0.0
131
0.0
112
0.0
122
1.0
132
0.0
 79
     0
146
0.0
  0
ENDTAB
  0
TABLE
  2
LTYPE
  5
5
330
0
100
AcDbSymbolTable
 70
     1
  0
LTYPE
  5
13
330
5
100
AcDbSymbolTableRecord
100
AcDbLinetypeTableRecord
  2
BYBLOCK
 70
     0
  3

 72
    65
 73
     0
 40
0.0
  0
LTYPE
  5
14
330
5
100
AcDbSymbolTableRecord
100
AcDbLinetypeTableRecord
  2
BYLAYER
 70
     0
  3

 72
    65
 73
     0
 40
0.0
  0
LTYPE
  5
15
330
5
100
AcDbSymbolTableRecord
100
AcDbLinetypeTableRecord
  2
CONTINUOUS
 70
     0
  3
Solid line
 72
    65
 73
     0
 40
0.0
  0
ENDTAB
  0
TABLE
  2
LAYER
  5
2
330
0
100
AcDbSymbolTable
 70
     1
  0
LAYER
  5
10
330
2
100
AcDbSymbolTableRecord
100
AcDbLayerTableRecord
  2
0
 70
     0
 62
     7
  6
CONTINUOUS
370
    -3
390
F
  0
ENDTAB
  0
TABLE
  2
STYLE
  5
3
330
0
100
AcDbSymbolTable
 70
     1
  0
STYLE
  5
11
330
3
100
AcDbSymbolTableRecord
100
AcDbTextStyleTableRecord
  2
STANDARD
 70
     0
 40
0.0
 41
1.0
 50
0.0
 71
     0
 42
0.2
  3
txt
  4

  0
ENDTAB
  0
TABLE
  2
VIEW
  5
6
330
0
100
AcDbSymbolTable
 70
     0
  0
ENDTAB
  0
TABLE
  2
UCS
  5
7
330
0
100
AcDbSymbolTable
 70
     0
  0
ENDTAB
  0
TABLE
  2
APPID
  5
9
330
0
100
AcDbSymbolTable
 70
     1
  0
APPID
  5
12
330
9
100
AcDbSymbolTableRecord
100
AcDbRegAppTableRecord
  2
ACAD
 70
     0
  0
ENDTAB
  0
TABLE
  2
DIMSTYLE
  5
A
330
0
100
AcDbSymbolTable
 70
     1
100
AcDbDimStyleTable
  0
DIMSTYLE
105
3FF
330
A
100
AcDbSymbolTableRecord
100
AcDbDimStyleTableRecord
  2
STANDARD
 70
     0
340
11
  0
ENDTAB
  0
TABLE
  2
BLOCK_RECORD
  5
1
330
0
100
AcDbSymbolTable
 70
     1
  0
BLOCK_RECORD
  5
1E
330
1
100
AcDbSymbolTableRecord
100
AcDbBlockTableRecord
  2
*MODEL_SPACE
340
5C1
  0
BLOCK_RECORD
  5
1A
330
1
100
AcDbSymbolTableRecord
100
AcDbBlockTableRecord
  2
*PAPER_SPACE
340
5C2
  0
ENDTAB
  0
ENDSEC
  0
SECTION
  2
BLOCKS
  0
BLOCK
  5
1F
330
1E
100
AcDbEntity
  8
0
100
AcDbBlockBegin
  2
*MODEL_SPACE
 70
     0
 10
0.0
 20
0.0
 30
0.0
  3
*MODEL_SPACE
  1
*MODEL_SPACE
  0
ENDBLK
  5
20
330
1E
100
AcDbEntity
  8
0
100
AcDbBlockEnd
  0
BLOCK
  5
1B
330
1A
100
AcDbEntity
 67
     1
  8
0
100
AcDbBlockBegin
  2
*PAPER_SPACE
 70
     0
 10
0.0
 20
0.0
 30
0.0
  3
*PAPER_SPACE
  1
*PAPER_SPACE
  0
ENDBLK
  5
1C
330
1A
100
AcDbEntity
 67
     1
  8
0
100
AcDbBlockEnd
  0
ENDSEC
  0
SECTION
  2
ENTITIES
  0
LINE
  5
22
330
1E
100
AcDbEntity
  8
0
100
AcDbLine
 10
16.5097
 20
460.385
 30
0.0
 11
17.0391
 21
460.0
 31
0.0
  0
LINE
  5
26
330
1E
100
AcDbEntity
  8
0
100
AcDbLine
 10
17.6744
 20
460.0
 30
0.0
 11
19.3685
 21
460.0
 31
0.0
  0
LINE
  5
27
330
1E
100
AcDbEntity
  8
0
100
AcDbLine
 10
17.0391
 20
460.0
 30
0.0
 11
17.6744
 21
460.0
 31
0.0
  0
LINE
  5
28
330
1E
100
AcDbEntity
  8
0
100
AcDbLine
 10
16.245
 20
461.154
 30
0.0
 11
16.5097
 21
460.385
 31
0.0
  0
LINE
  5
29
330
1E
100
AcDbEntity
  8
0
100
AcDbLine
 10
16.245
 20
461.154
 30
0.0
 11
16.245
 21
505.0
 31
0.0
  0
LINE
  5
3E
330
1E
100
AcDbEntity
  8
0
100
AcDbLine
 10
19.3685
 20
460.0
 30
0.0
 11
22.0685
 21
460.0
 31
0.0
  0
LINE
  5
68
330
1E
100
AcDbEntity
  8
0
100
AcDbLine
 10
54.4554
 20
475.937
 30
0.0
 11
56.7954
 21
476.237
 31
0.0
  0
LINE
  5
69
330
1E
100
AcDbEntity
  8
0
100
AcDbLine
 10
61.745
 20
474.028
 30
0.0
 11
61.745
 21
474.604
 31
0.0
  0
LINE
  5
6A
330
1E
100
AcDbEntity
  8
0
100
AcDbLine
 10
61.745
 20
474.028
 30
0.0
 11
62.5142
 21
473.644
 31
0.0
  0
LINE
  5
6B
330
1E
100
AcDbEntity
  8
0
100
AcDbLine
 10
61.745
 20
474.604
 30
0.0
 11
61.745
 21
476.14
 31
0.0
  0
LINE
  5
6C
330
1E
100
AcDbEntity
  8
0
100
AcDbLine
 10
61.745
 20
474.604
 30
0.0
 11
61.745
 21
474.028
 31
0.0
  0
LINE
  5
6D
330
1E
100
AcDbEntity
  8
0
100
AcDbLine
 10
46.6554
 20
480.437
 30
0.0
 11
48.0954
 21
478.577
 31
0.0
  0
LINE
  5
6E
330
1E
100
AcDbEntity
  8
0
100
AcDbLine
 10
48.0954
 20
478.577
 30
0.0
 11
49.9554
 21
477.137
 31
0.0
  0
LINE
  5
6F
330
1E
100
AcDbEntity
  8
0
100
AcDbLine
 10
49.9554
 20
477.137
 30
0.0
 11
52.1154
 21
476.237
 31
0.0
  0
LINE
  5
70
330
1E
100
AcDbEntity
  8
0
100
AcDbLine
 10
60.8154
 20
478.577
 30
0.0
 11
61.745
 21
479.777733333333
 31
0.0
  0
LINE
  5
71
330
1E
100
AcDbEntity
  8
0
100
AcDbLine
 10
58.9554
 20
477.137
 30
0.0
 11
60.8154
 21
478.577
 31
0.0
  0
LINE
  5
72
330
1E
100
AcDbEntity
  8
0
100
AcDbLine
 10
56.7954
 20
476.237
 30
0.0
 11
58.9554
 21
477.137
 31
0.0
  0
LINE
  5
73
330
1E
100
AcDbEntity
  8
0
100
AcDbLine
 10
52.1154
 20
476.237
 30
0.0
 11
54.4554
 21
475.937
 31
0.0
  0
LINE
  5
74
330
1E
100
AcDbEntity
  8
0
100
AcDbLine
 10
61.745
 20
476.14
 30
0.0
 11
61.745
 21
478.636
 31
0.0
  0
LINE
  5
75
330
1E
100
AcDbEntity
  8
0
100
AcDbLine
 10
61.745
 20
476.14
 30
0.0
 11
61.745
 21
474.604
 31
0.0
  0
LINE
  5
76
330
1E
100
AcDbEntity
  8
0
100
AcDbLine
 10
61.745
 20
478.636
 30
0.0
 11
61.745
 21
481.9
 31
0.0
  0
LINE
  5
77
330
1E
100
AcDbEntity
  8
0
100
AcDbLine
 10
61.745
 20
478.636
 30
0.0
 11
61.745
 21
476.14
 31
0.0
  0
LINE
  5
78
330
1E
100
AcDbEntity
  8
0
100
AcDbLine
 10
45.7554
 20
487.277
 30
0.0
 11
46.6554
 21
489.437
 31
0.0
  0
LINE
  5
79
330
1E
100
AcDbEntity
  8
0
100
AcDbLine
 10
46.6554
 20
489.437
 30
0.0
 11
48.0954
 21
491.297
 31
0.0
  0
LINE
  5
7A
330
1E
100
AcDbEntity
  8
0
100
AcDbLine
 10
48.0954
 20
491.297
 30
0.0
 11
49.9554
 21
492.737
 31
0.0
  0
LINE
  5
7B
330
1E
100
AcDbEntity
  8
0
100
AcDbLine
 10
45.4554
 20
484.937
 30
0.0
 11
45.7554
 21
482.597
 31
0.0
  0
LINE
  5
7C
330
1E
100
AcDbEntity
  8
0
100
AcDbLine
 10
45.4554
 20
484.937
 30
0.0
 11
45.7554
 21
487.277
 31
0.0
  0
LINE
  5
7D
330
1E
100
AcDbEntity
  8
0
100
AcDbLine
 10
45.7554
 20
482.597
 30
0.0
 11
46.6554
 21
480.437
 31
0.0
  0
LINE
  5
7E
330
1E
100
AcDbEntity
  8
0
100
AcDbLine
 10
61.3037
 20
486.752
 30
0.0
 11
61.9884
 21
487.04
 31
0.0
  0
LINE
  5
7F
330
1E
100
AcDbEntity
  8
0
100
AcDbLine
 10
59.8429
 20
486.752
 30
0.0
 11
60.5733
 21
486.644
 31
0.0
  0
LINE
  5
80
330
1E
100
AcDbEntity
  8
0
100
AcDbLine
 10
60.5733
 20
486.644
 30
0.0
 11
62.5142
 21
486.644
 31
0.0
  0
LINE
  5
81
330
1E
100
AcDbEntity
  8
0
100
AcDbLine
 10
60.5733
 20
486.644
 30
0.0
 11
61.3037
 21
486.752
 31
0.0
  0
LINE
  5
82
330
1E
100
AcDbEntity
  8
0
100
AcDbLine
 10
59.1581
 20
487.04
 30
0.0
 11
59.8429
 21
486.752
 31
0.0
  0
LINE
  5
83
330
1E
100
AcDbEntity
  8
0
100
AcDbLine
 10
58.5532
 20
487.52
 30
0.0
 11
59.1581
 21
487.04
 31
0.0
  0
LINE
  5
84
330
1E
100
AcDbEntity
  8
0
100
AcDbLine
 10
58.0967
 20
488.156
 30
0.0
 11
58.5532
 21
487.52
 31
0.0
  0
LINE
  5
85
330
1E
100
AcDbEntity
  8
0
100
AcDbLine
 10
59.8429
 20
492.536
 30
0.0
 11
60.5733
 21
492.644
 31
0.0
  0
LINE
  5
86
330
1E
100
AcDbEntity
  8
0
100
AcDbLine
 10
59.1581
 20
492.248
 30
0.0
 11
59.8429
 21
492.536
 31
0.0
  0
LINE
  5
87
330
1E
100
AcDbEntity
  8
0
100
AcDbLine
 10
58.5532
 20
491.768
 30
0.0
 11
59.1581
 21
492.248
 31
0.0
  0
LINE
  5
88
330
1E
100
AcDbEntity
  8
0
100
AcDbLine
 10
58.0967
 20
491.132
 30
0.0
 11
58.5532
 21
491.768
 31
0.0
  0
LINE
  5
89
330
1E
100
AcDbEntity
  8
0
100
AcDbLine
 10
57.8228
 20
490.412
 30
0.0
 11
58.0967
 21
491.132
 31
0.0
  0
LINE
  5
8A
330
1E
100
AcDbEntity
  8
0
100
AcDbLine
 10
60.5733
 20
492.644
 30
0.0
 11
61.3037
 21
492.536
 31
0.0
  0
LINE
  5
8B
330
1E
100
AcDbEntity
  8
0
100
AcDbLine
 10
60.5733
 20
492.644
 30
0.0
 11
62.5142
 21
492.644
 31
0.0
  0
LINE
  5
8C
330
1E
100
AcDbEntity
  8
0
100
AcDbLine
 10
61.3037
 20
492.536
 30
0.0
 11
61.9884
 21
492.248
 31
0.0
  0
LINE
  5
8D
330
1E
100
AcDbEntity
  8
0
100
AcDbLine
 10
57.8228
 20
488.876
 30
0.0
 11
58.0967
 21
488.156
 31
0.0
  0
LINE
  5
8E
330
1E
100
AcDbEntity
  8
0
100
AcDbLine
 10
57.7201
 20
489.644
 30
0.0
 11
57.8228
 21
488.876
 31
0.0
  0
LINE
  5
8F
330
1E
100
AcDbEntity
  8
0
100
AcDbLine
 10
57.7201
 20
489.644
 30
0.0
 11
57.8228
 21
490.412
 31
0.0
  0
LINE
  5
90
330
1E
100
AcDbEntity
  8
0
100
AcDbLine
 10
49.9554
 20
492.737
 30
0.0
 11
52.1154
 21
493.637
 31
0.0
  0
LINE
  5
91
330
1E
100
AcDbEntity
  8
0
100
AcDbLine
 10
58.9554
 20
492.737
 30
0.0
 11
59.436040802422
 21
492.364890991673
 31
0.0
  0
LINE
  5
92
330
1E
100
AcDbEntity
  8
0
100
AcDbLine
 10
56.7954
 20
493.637
 30
0.0
 11
58.9554
 21
492.737
 31
0.0
  0
LINE
  5
93
330
1E
100
AcDbEntity
  8
0
100
AcDbLine
 10
54.4554
 20
493.937
 30
0.0
 11
56.7954
 21
493.637
 31
0.0
  0
LINE
  5
94
330
1E
100
AcDbEntity
  8
0
100
AcDbLine
 10
52.1154
 20
493.637
 30
0.0
 11
54.4554
 21
493.937
 31
0.0
  0
LINE
  5
95
330
1E
100
AcDbEntity
  8
0
100
AcDbLine
 10
11.245
 20
527.0
 30
0.0
 11
18.045
 21
527.0
 31
0.0
  0
LINE
  5
96
330
1E
100
AcDbEntity
  8
0
100
AcDbLine
 10
6.145
 20
527.0
 30
0.0
 11
11.245
 21
527.0
 31
0.0
  0
LINE
  5
97
330
1E
100
AcDbEntity
  8
0
100
AcDbLine
 10
2.945
 20
527.0
 30
0.0
 11
6.145
 21
527.0
 31
0.0
  0
LINE
  5
98
330
1E
100
AcDbEntity
  8
0
100
AcDbLine
 10
5.245
 20
527.5
 30
0.0
 11
10.545
 21
527.5
 31
0.0
  0
LINE
  5
99
330
1E
100
AcDbEntity
  8
0
100
AcDbLine
 10
1.945
 20
527.5
 30
0.0
 11
5.245
 21
527.5
 31
0.0
  0
LINE
  5
9A
330
1E
100
AcDbEntity
  8
0
100
AcDbLine
 10
10.545
 20
527.5
 30
0.0
 11
17.545
 21
527.5
 31
0.0
  0
LINE
  5
9B
330
1E
100
AcDbEntity
  8
0
100
AcDbLine
 10
1.745
 20
527.0
 30
0.0
 11
2.945
 21
527.0
 31
0.0
  0
LINE
  5
9C
330
1E
100
AcDbEntity
  8
0
100
AcDbLine
 10
0.745
 20
527.5
 30
0.0
 11
1.745
 21
527.0
 31
0.0
  0
LINE
  5
9D
330
1E
100
AcDbEntity
  8
0
100
AcDbLine
 10
0.745
 20
527.5
 30
0.0
 11
1.945
 21
527.5
 31
0.0
  0
LINE
  5
9E
330
1E
100
AcDbEntity
  8
0
100
AcDbLine
 10
0.245
 20
528.5
 30
0.0
 11
0.245
 21
553.0
 31
0.0
  0
LINE
  5
9F
330
1E
100
AcDbEntity
  8
0
100
AcDbLine
 10
0.245
 20
528.5
 30
0.0
 11
0.745
 21
527.5
 31
0.0
  0
LINE
  5
A0
330
1E
100
AcDbEntity
  8
0
100
AcDbLine
 10
20.245
 20
505.0
 30
0.0
 11
20.245
 21
513.0
 31
0.0
  0
LINE
  5
A1
330
1E
100
AcDbEntity
  8
0
100
AcDbLine
 10
18.6803
 20
505.0
 30
0.0
 11
21.5391
 21
505.0
 31
0.0
  0
LINE
  5
A2
330
1E
100
AcDbEntity
  8
0
100
AcDbLine
 10
16.8803
 20
505.0
 30
0.0
 11
18.6803
 21
505.0
 31
0.0
  0
LINE
  5
A3
330
1E
100
AcDbEntity
  8
0
100
AcDbLine
 10
21.5391
 20
505.0
 30
0.0
 11
25.2979
 21
505.0
 31
0.0
  0
LINE
  5
A4
330
1E
100
AcDbEntity
  8
0
100
AcDbLine
 10
34.245
 20
505.0
 30
0.0
 11
61.745
 21
505.0
 31
0.0
  0
LINE
  5
A5
330
1E
100
AcDbEntity
  8
0
100
AcDbLine
 10
34.245
 20
505.0
 30
0.0
 11
61.745
 21
505.0
 31
0.0
  0
LINE
  5
A6
330
1E
100
AcDbEntity
  8
0
100
AcDbLine
 10
48.245
 20
505.0
 30
0.0
 11
48.245
 21
513.0
 31
0.0
  0
LINE
  5
A7
330
1E
100
AcDbEntity
  8
0
100
AcDbLine
 10
25.2979
 20
505.0
 30
0.0
 11
29.6391
 21
505.0
 31
0.0
  0
LINE
  5
A8
330
1E
100
AcDbEntity
  8
0
100
AcDbLine
 10
18.245
 20
515.0
 30
0.0
 11
18.245
 21
525.0
 31
0.0
  0
LINE
  5
A9
330
1E
100
AcDbEntity
  8
0
100
AcDbLine
 10
18.245
 20
515.0
 30
0.0
 11
18.245
 21
514.0
 31
0.0
  0
LINE
  5
AA
330
1E
100
AcDbEntity
  8
0
100
AcDbLine
 10
18.245
 20
513.1
 30
0.0
 11
18.245
 21
513.24
 31
0.0
  0
LINE
  5
AB
330
1E
100
AcDbEntity
  8
0
100
AcDbLine
 10
18.245
 20
513.1
 30
0.0
 11
18.6661
 21
513.0
 31
0.0
  0
LINE
  5
AC
330
1E
100
AcDbEntity
  8
0
100
AcDbLine
 10
18.245
 20
526.0
 30
0.0
 11
18.245
 21
525.0
 31
0.0
  0
LINE
  5
AE
330
1E
100
AcDbEntity
  8
0
100
AcDbLine
 10
18.245
 20
526.0
 30
0.0
 11
18.245
 21
526.76
 31
0.0
  0
LINE
  5
AF
330
1E
100
AcDbEntity
  8
0
100
AcDbLine
 10
18.245
 20
525.0
 30
0.0
 11
18.245
 21
515.0
 31
0.0
  0
LINE
  5
B2
330
1E
100
AcDbEntity
  8
0
100
AcDbLine
 10
18.245
 20
525.0
 30
0.0
 11
18.245
 21
526.0
 31
0.0
  0
LINE
  5
B3
330
1E
100
AcDbEntity
  8
0
100
AcDbLine
 10
18.245
 20
525.0
 30
0.0
 11
19.6163
 21
526.0
 31
0.0
  0
LINE
  5
B4
330
1E
100
AcDbEntity
  8
0
100
AcDbLine
 10
18.245
 20
526.76
 30
0.0
 11
18.245
 21
526.0
 31
0.0
  0
LINE
  5
B5
330
1E
100
AcDbEntity
  8
0
100
AcDbLine
 10
18.245
 20
526.76
 30
0.0
 11
18.245
 21
526.9
 31
0.0
  0
LINE
  5
B9
330
1E
100
AcDbEntity
  8
0
100
AcDbLine
 10
18.245
 20
514.0
 30
0.0
 11
18.245
 21
513.24
 31
0.0
  0
LINE
  5
BA
330
1E
100
AcDbEntity
  8
0
100
AcDbLine
 10
18.245
 20
514.0
 30
0.0
 11
18.5818
 21
514.0
 31
0.0
  0
LINE
  5
BB
330
1E
100
AcDbEntity
  8
0
100
AcDbLine
 10
18.245
 20
514.0
 30
0.0
 11
18.245
 21
515.0
 31
0.0
  0
LINE
  5
BC
330
1E
100
AcDbEntity
  8
0
100
AcDbLine
 10
17.545
 20
527.5
 30
0.0
 11
25.645
 21
527.5
 31
0.0
  0
LINE
  5
BD
330
1E
100
AcDbEntity
  8
0
100
AcDbLine
 10
18.045
 20
527.0
 30
0.0
 11
18.6661
 21
527.0
 31
0.0
  0
LINE
  5
BE
330
1E
100
AcDbEntity
  8
0
100
AcDbLine
 10
18.245
 20
526.9
 30
0.0
 11
18.245
 21
526.76
 31
0.0
  0
LINE
  5
BF
330
1E
100
AcDbEntity
  8
0
100
AcDbLine
 10
18.245
 20
526.9
 30
0.0
 11
18.6661
 21
527.0
 31
0.0
  0
LINE
  5
C0
330
1E
100
AcDbEntity
  8
0
100
AcDbLine
 10
18.6661
 20
513.0
 30
0.0
 11
19.2555
 21
513.0
 31
0.0
  0
LINE
  5
C1
330
1E
100
AcDbEntity
  8
0
100
AcDbLine
 10
19.2555
 20
513.0
 30
0.0
 11
20.245
 21
513.0
 31
0.0
  0
LINE
  5
C3
330
1E
100
AcDbEntity
  8
0
100
AcDbLine
 10
18.5818
 20
514.0
 30
0.0
 11
19.6163
 21
514.0
 31
0.0
  0
LINE
  5
C4
330
1E
100
AcDbEntity
  8
0
100
AcDbLine
 10
20.245
 20
513.0
 30
0.0
 11
20.245
 21
505.0
 31
0.0
  0
LINE
  5
C5
330
1E
100
AcDbEntity
  8
0
100
AcDbLine
 10
22.2871
 20
513.364
 30
0.0
 11
26.1005
 21
513.202
 31
0.0
  0
LINE
  5
C6
330
1E
100
AcDbEntity
  8
0
100
AcDbLine
 10
19.6163
 20
514.0
 30
0.0
 11
22.2871
 21
513.364
 31
0.0
  0
LINE
  5
CD
330
1E
100
AcDbEntity
  8
0
100
AcDbLine
 10
22.2871
 20
526.636
 30
0.0
 11
26.1005
 21
526.798
 31
0.0
  0
LINE
  5
CF
330
1E
100
AcDbEntity
  8
0
100
AcDbLine
 10
19.6163
 20
526.0
 30
0.0
 11
22.2871
 21
526.636
 31
0.0
  0
LINE
  5
D2
330
1E
100
AcDbEntity
  8
0
100
AcDbLine
 10
26.1005
 20
513.202
 30
0.0
 11
29.8931
 21
513.419
 31
0.0
  0
LINE
  5
D3
330
1E
100
AcDbEntity
  8
0
100
AcDbLine
 10
19.2555
 20
527.0
 30
0.0
 11
20.7713
 21
527.0
 31
0.0
  0
LINE
  5
D4
330
1E
100
AcDbEntity
  8
0
100
AcDbLine
 10
20.7713
 20
527.0
 30
0.0
 11
23.2134
 21
527.0
 31
0.0
  0
LINE
  5
D5
330
1E
100
AcDbEntity
  8
0
100
AcDbLine
 10
23.2134
 20
527.0
 30
0.0
 11
26.4976
 21
527.0
 31
0.0
  0
LINE
  5
D8
330
1E
100
AcDbEntity
  8
0
100
AcDbLine
 10
26.1005
 20
526.798
 30
0.0
 11
29.8931
 21
526.581
 31
0.0
  0
LINE
  5
D9
330
1E
100
AcDbEntity
  8
0
100
AcDbLine
 10
48.245
 20
513.0
 30
0.0
 11
49.2345
 21
513.0
 31
0.0
  0
LINE
  5
DA
330
1E
100
AcDbEntity
  8
0
100
AcDbLine
 10
48.245
 20
513.0
 30
0.0
 11
48.245
 21
505.0
 31
0.0
  0
LINE
  5
DB
330
1E
100
AcDbEntity
  8
0
100
AcDbLine
 10
49.2345
 20
513.0
 30
0.0
 11
49.824
 21
513.0
 31
0.0
  0
LINE
  5
DC
330
1E
100
AcDbEntity
  8
0
100
AcDbLine
 10
49.824
 20
513.0
 30
0.0
 11
50.245
 21
513.1
 31
0.0
  0
LINE
  5
E3
330
1E
100
AcDbEntity
  8
0
100
AcDbLine
 10
36.2225
 20
514.0
 30
0.0
 11
38.5969
 21
513.419
 31
0.0
  0
LINE
  5
E4
330
1E
100
AcDbEntity
  8
0
100
AcDbLine
 10
38.5969
 20
513.419
 30
0.0
 11
42.3895
 21
513.202
 31
0.0
  0
LINE
  5
E5
330
1E
100
AcDbEntity
  8
0
100
AcDbLine
 10
42.3895
 20
513.202
 30
0.0
 11
46.2029
 21
513.364
 31
0.0
  0
LINE
  5
E7
330
1E
100
AcDbEntity
  8
0
100
AcDbLine
 10
48.8737
 20
514.0
 30
0.0
 11
49.9082
 21
514.0
 31
0.0
  0
LINE
  5
E8
330
1E
100
AcDbEntity
  8
0
100
AcDbLine
 10
50.245
 20
514.0
 30
0.0
 11
50.245
 21
513.24
 31
0.0
  0
LINE
  5
EB
330
1E
100
AcDbEntity
  8
0
100
AcDbLine
 10
49.9082
 20
514.0
 30
0.0
 11
50.245
 21
514.0
 31
0.0
  0
LINE
  5
EC
330
1E
100
AcDbEntity
  8
0
100
AcDbLine
 10
50.245
 20
513.24
 30
0.0
 11
50.245
 21
514.0
 31
0.0
  0
LINE
  5
ED
330
1E
100
AcDbEntity
  8
0
100
AcDbLine
 10
50.245
 20
513.24
 30
0.0
 11
50.245
 21
513.1
 31
0.0
  0
LINE
  5
EE
330
1E
100
AcDbEntity
  8
0
100
AcDbLine
 10
50.245
 20
513.1
 30
0.0
 11
50.245
 21
513.24
 31
0.0
  0
LINE
  5
EF
330
1E
100
AcDbEntity
  8
0
100
AcDbLine
 10
46.2029
 20
513.364
 30
0.0
 11
48.8737
 21
514.0
 31
0.0
  0
LINE
  5
F0
330
1E
100
AcDbEntity
  8
0
100
AcDbLine
 10
20.245
 20
513.0
 30
0.0
 11
48.245
 21
513.0
 31
0.0
  0
LINE
  5
F2
330
1E
100
AcDbEntity
  8
0
100
AcDbLine
 10
32.2675
 20
514.0
 30
0.0
 11
34.245
 21
514.0
 31
0.0
  0
LINE
  5
F4
330
1E
100
AcDbEntity
  8
0
100
AcDbLine
 10
34.245
 20
526.0
 30
0.0
 11
36.2225
 21
526.0
 31
0.0
  0
LINE
  5
F9
330
1E
100
AcDbEntity
  8
0
100
AcDbLine
 10
50.245
 20
514.0
 30
0.0
 11
50.245
 21
525.0
 31
0.0
  0
LINE
  5
FA
330
1E
100
AcDbEntity
  8
0
100
AcDbLine
 10
50.245
 20
525.0
 30
0.0
 11
50.245
 21
526.0
 31
0.0
  0
LINE
  5
FB
330
1E
100
AcDbEntity
  8
0
100
AcDbLine
 10
50.245
 20
525.0
 30
0.0
 11
50.245
 21
514.0
 31
0.0
  0
LINE
  5
FC
330
1E
100
AcDbEntity
  8
0
100
AcDbLine
 10
50.245
 20
526.0
 30
0.0
 11
50.245
 21
526.76
 31
0.0
  0
LINE
  5
FD
330
1E
100
AcDbEntity
  8
0
100
AcDbLine
 10
50.245
 20
526.0
 30
0.0
 11
50.245
 21
525.0
 31
0.0
  0
LINE
  5
FE
330
1E
100
AcDbEntity
  8
0
100
AcDbLine
 10
36.2225
 20
526.0
 30
0.0
 11
38.5969
 21
526.581
 31
0.0
  0
LINE
  5
FF
330
1E
100
AcDbEntity
  8
0
100
AcDbLine
 10
38.5969
 20
526.581
 30
0.0
 11
42.3895
 21
526.798
 31
0.0
  0
LINE
  5
103
330
1E
100
AcDbEntity
  8
0
100
AcDbLine
 10
48.8737
 20
526.0
 30
0.0
 11
50.245
 21
525.0
 31
0.0
  0
LINE
  5
104
330
1E
100
AcDbEntity
  8
0
100
AcDbLine
 10
32.2675
 20
526.0
 30
0.0
 11
34.245
 21
526.0
 31
0.0
  0
LINE
  5
106
330
1E
100
AcDbEntity
  8
0
100
AcDbLine
 10
34.245
 20
514.0
 30
0.0
 11
36.2225
 21
514.0
 31
0.0
  0
LINE
  5
108
330
1E
100
AcDbEntity
  8
0
100
AcDbLine
 10
29.8931
 20
513.419
 30
0.0
 11
32.2675
 21
514.0
 31
0.0
  0
LINE
  5
10B
330
1E
100
AcDbEntity
  8
0
100
AcDbLine
 10
46.2029
 20
526.636
 30
0.0
 11
48.8737
 21
526.0
 31
0.0
  0
LINE
  5
10E
330
1E
100
AcDbEntity
  8
0
100
AcDbLine
 10
50.245
 20
526.76
 30
0.0
 11
50.245
 21
526.9
 31
0.0
  0
LINE
  5
10F
330
1E
100
AcDbEntity
  8
0
100
AcDbLine
 10
50.245
 20
526.76
 30
0.0
 11
50.245
 21
526.0
 31
0.0
  0
LINE
  5
110
330
1E
100
AcDbEntity
  8
0
100
AcDbLine
 10
41.9923
 20
527.0
 30
0.0
 11
45.2765
 21
527.0
 31
0.0
  0
LINE
  5
112
330
1E
100
AcDbEntity
  8
0
100
AcDbLine
 10
57.245
 20
527.0
 30
0.0
 11
62.345
 21
527.0
 31
0.0
  0
LINE
  5
113
330
1E
100
AcDbEntity
  8
0
100
AcDbLine
 10
50.445
 20
527.0
 30
0.0
 11
57.245
 21
527.0
 31
0.0
  0
LINE
  5
114
330
1E
100
AcDbEntity
  8
0
100
AcDbLine
 10
49.824
 20
527.0
 30
0.0
 11
50.245
 21
526.9
 31
0.0
  0
LINE
  5
115
330
1E
100
AcDbEntity
  8
0
100
AcDbLine
 10
49.824
 20
527.0
 30
0.0
 11
50.445
 21
527.0
 31
0.0
  0
LINE
  5
117
330
1E
100
AcDbEntity
  8
0
100
AcDbLine
 10
49.2345
 20
527.0
 30
0.0
 11
49.824
 21
527.0
 31
0.0
  0
LINE
  5
118
330
1E
100
AcDbEntity
  8
0
100
AcDbLine
 10
45.2765
 20
527.0
 30
0.0
 11
47.7187
 21
527.0
 31
0.0
  0
LINE
  5
11A
330
1E
100
AcDbEntity
  8
0
100
AcDbLine
 10
47.7187
 20
527.0
 30
0.0
 11
49.2345
 21
527.0
 31
0.0
  0
LINE
  5
11E
330
1E
100
AcDbEntity
  8
0
100
AcDbLine
 10
38.2871
 20
527.0
 30
0.0
 11
41.9923
 21
527.0
 31
0.0
  0
LINE
  5
11F
330
1E
100
AcDbEntity
  8
0
100
AcDbLine
 10
42.3895
 20
526.798
 30
0.0
 11
46.2029
 21
526.636
 31
0.0
  0
LINE
  5
122
330
1E
100
AcDbEntity
  8
0
100
AcDbLine
 10
34.245
 20
527.0
 30
0.0
 11
38.2871
 21
527.0
 31
0.0
  0
LINE
  5
126
330
1E
100
AcDbEntity
  8
0
100
AcDbLine
 10
30.2029
 20
527.0
 30
0.0
 11
34.245
 21
527.0
 31
0.0
  0
LINE
  5
128
330
1E
100
AcDbEntity
  8
0
100
AcDbLine
 10
29.8931
 20
526.581
 30
0.0
 11
32.2675
 21
526.0
 31
0.0
  0
LINE
  5
12C
330
1E
100
AcDbEntity
  8
0
100
AcDbLine
 10
26.4976
 20
527.0
 30
0.0
 11
30.2029
 21
527.0
 31
0.0
  0
LINE
  5
12D
330
1E
100
AcDbEntity
  8
0
100
AcDbLine
 10
25.645
 20
527.5
 30
0.0
 11
34.245
 21
527.5
 31
0.0
  0
LINE
  5
12E
330
1E
100
AcDbEntity
  8
0
100
AcDbLine
 10
57.945
 20
527.5
 30
0.0
 11
63.245
 21
527.5
 31
0.0
  0
LINE
  5
12F
330
1E
100
AcDbEntity
  8
0
100
AcDbLine
 10
50.945
 20
527.5
 30
0.0
 11
57.945
 21
527.5
 31
0.0
  0
LINE
  5
130
330
1E
100
AcDbEntity
  8
0
100
AcDbLine
 10
42.845
 20
527.5
 30
0.0
 11
50.945
 21
527.5
 31
0.0
  0
LINE
  5
131
330
1E
100
AcDbEntity
  8
0
100
AcDbLine
 10
34.245
 20
527.5
 30
0.0
 11
42.845
 21
527.5
 31
0.0
  0
LINE
  5
132
330
1E
100
AcDbEntity
  8
0
100
AcDbLine
 10
18.6661
 20
527.0
 30
0.0
 11
19.2555
 21
527.0
 31
0.0
  0
LINE
  5
133
330
1E
100
AcDbEntity
  8
0
100
AcDbLine
 10
18.245
 20
513.24
 30
0.0
 11
18.245
 21
513.1
 31
0.0
  0
LINE
  5
134
330
1E
100
AcDbEntity
  8
0
100
AcDbLine
 10
18.245
 20
513.24
 30
0.0
 11
18.245
 21
514.0
 31
0.0
  0
LINE
  5
135
330
1E
100
AcDbEntity
  8
0
100
AcDbLine
 10
29.6391
 20
505.0
 30
0.0
 11
34.245
 21
505.0
 31
0.0
  0
LINE
  5
136
330
1E
100
AcDbEntity
  8
0
100
AcDbLine
 10
16.245
 20
505.0
 30
0.0
 11
16.245
 21
461.154
 31
0.0
  0
LINE
  5
137
330
1E
100
AcDbEntity
  8
0
100
AcDbLine
 10
16.245
 20
505.0
 30
0.0
 11
16.8803
 21
505.0
 31
0.0
  0
LINE
  5
138
330
1E
100
AcDbEntity
  8
0
100
AcDbLine
 10
61.745
 20
504.684
 30
0.0
 11
61.745
 21
505.26
 31
0.0
  0
LINE
  5
139
330
1E
100
AcDbEntity
  8
0
100
AcDbLine
 10
61.745
 20
504.684
 30
0.0
 11
61.745
 21
503.148
 31
0.0
  0
LINE
  5
13A
330
1E
100
AcDbEntity
  8
0
100
AcDbLine
 10
61.745
 20
505.26
 30
0.0
 11
62.5142
 21
505.644
 31
0.0
  0
LINE
  5
13B
330
1E
100
AcDbEntity
  8
0
100
AcDbLine
 10
61.745
 20
505.26
 30
0.0
 11
61.745
 21
504.684
 31
0.0
  0
LINE
  5
13C
330
1E
100
AcDbEntity
  8
0
100
AcDbLine
 10
61.745
 20
503.148
 30
0.0
 11
61.745
 21
504.684
 31
0.0
  0
LINE
  5
13D
330
1E
100
AcDbEntity
  8
0
100
AcDbLine
 10
61.745
 20
503.148
 30
0.0
 11
61.745
 21
500.652
 31
0.0
  0
LINE
  5
13E
330
1E
100
AcDbEntity
  8
0
100
AcDbLine
 10
61.745
 20
500.652
 30
0.0
 11
61.745
 21
503.148
 31
0.0
  0
LINE
  5
13F
330
1E
100
AcDbEntity
  8
0
100
AcDbLine
 10
61.745
 20
500.652
 30
0.0
 11
61.745
 21
497.388
 31
0.0
  0
LINE
  5
140
330
1E
100
AcDbEntity
  8
0
100
AcDbLine
 10
61.745
 20
497.388
 30
0.0
 11
61.745
 21
500.652
 31
0.0
  0
LINE
  5
141
330
1E
100
AcDbEntity
  8
0
100
AcDbLine
 10
61.745
 20
497.388
 30
0.0
 11
61.745
 21
493.676
 31
0.0
  0
LINE
  5
142
330
1E
100
AcDbEntity
  8
0
100
AcDbLine
 10
61.745
 20
493.676
 30
0.0
 11
61.745
 21
497.388
 31
0.0
  0
LINE
  5
143
330
1E
100
AcDbEntity
  8
0
100
AcDbLine
 10
61.745
 20
493.676
 30
0.0
 11
61.745
 21
492.644
 31
0.0
  0
LINE
  5
144
330
1E
100
AcDbEntity
  8
0
100
AcDbLine
 10
61.745
 20
492.644
 30
0.0
 11
61.745
 21
493.676
 31
0.0
  0
LINE
  5
145
330
1E
100
AcDbEntity
  8
0
100
AcDbLine
 10
61.745
 20
486.644
 30
0.0
 11
61.745
 21
485.612
 31
0.0
  0
LINE
  5
146
330
1E
100
AcDbEntity
  8
0
100
AcDbLine
 10
61.745
 20
481.9
 30
0.0
 11
61.745
 21
485.612
 31
0.0
  0
LINE
  5
147
330
1E
100
AcDbEntity
  8
0
100
AcDbLine
 10
61.745
 20
481.9
 30
0.0
 11
61.745
 21
478.636
 31
0.0
  0
LINE
  5
148
330
1E
100
AcDbEntity
  8
0
100
AcDbLine
 10
61.9884
 20
487.04
 30
0.0
 11
62.5933
 21
487.52
 31
0.0
  0
LINE
  5
149
330
1E
100
AcDbEntity
  8
0
100
AcDbLine
 10
62.5933
 20
487.52
 30
0.0
 11
63.0498
 21
488.156
 31
0.0
  0
LINE
  5
14A
330
1E
100
AcDbEntity
  8
0
100
AcDbLine
 10
61.9884
 20
492.248
 30
0.0
 11
62.5933
 21
491.768
 31
0.0
  0
LINE
  5
14B
330
1E
100
AcDbEntity
  8
0
100
AcDbLine
 10
62.5933
 20
491.768
 30
0.0
 11
63.0498
 21
491.132
 31
0.0
  0
LINE
  5
14C
330
1E
100
AcDbEntity
  8
0
100
AcDbLine
 10
63.0498
 20
491.132
 30
0.0
 11
63.3237
 21
490.412
 31
0.0
  0
LINE
  5
14D
330
1E
100
AcDbEntity
  8
0
100
AcDbLine
 10
63.3237
 20
490.412
 30
0.0
 11
63.4264
 21
489.644
 31
0.0
  0
LINE
  5
14E
330
1E
100
AcDbEntity
  8
0
100
AcDbLine
 10
63.0498
 20
488.156
 30
0.0
 11
63.3237
 21
488.876
 31
0.0
  0
LINE
  5
14F
330
1E
100
AcDbEntity
  8
0
100
AcDbLine
 10
63.3237
 20
488.876
 30
0.0
 11
63.4264
 21
489.644
 31
0.0
  0
LINE
  5
150
330
1E
100
AcDbEntity
  8
0
100
AcDbLine
 10
62.345
 20
527.0
 30
0.0
 11
65.545
 21
527.0
 31
0.0
  0
LINE
  5
151
330
1E
100
AcDbEntity
  8
0
100
AcDbLine
 10
66.745
 20
527.0
 30
0.0
 11
67.745
 21
527.5
 31
0.0
  0
LINE
  5
152
330
1E
100
AcDbEntity
  8
0
100
AcDbLine
 10
63.245
 20
527.5
 30
0.0
 11
66.545
 21
527.5
 31
0.0
  0
LINE
  5
153
330
1E
100
AcDbEntity
  8
0
100
AcDbLine
 10
66.545
 20
527.5
 30
0.0
 11
67.745
 21
527.5
 31
0.0
  0
LINE
  5
154
330
1E
100
AcDbEntity
  8
0
100
AcDbLine
 10
65.545
 20
527.0
 30
0.0
 11
66.745
 21
527.0
 31
0.0
  0
LINE
  5
155
330
1E
100
AcDbEntity
  8
0
100
AcDbLine
 10
68.245
 20
528.5
 30
0.0
 11
68.245
 21
553.0
 31
0.0
  0
LINE
  5
156
330
1E
100
AcDbEntity
  8
0
100
AcDbLine
 10
67.745
 20
527.5
 30
0.0
 11
68.245
 21
528.5
 31
0.0
  0
LINE
  5
157
330
1E
100
AcDbEntity
  8
0
100
AcDbLine
 10
62.5142
 20
505.644
 30
0.0
 11
90.976
 21
505.644
 31
0.0
  0
LINE
  5
158
330
1E
100
AcDbEntity
  8
0
100
AcDbLine
 10
61.745
 20
485.612
 30
0.0
 11
61.745
 21
486.644
 31
0.0
  0
LINE
  5
159
330
1E
100
AcDbEntity
  8
0
100
AcDbLine
 10
61.745
 20
485.612
 30
0.0
 11
61.745
 21
481.9
 31
0.0
  0
LINE
  5
15A
330
1E
100
AcDbEntity
  8
0
100
AcDbLine
 10
62.5142
 20
473.644
 30
0.0
 11
90.976
 21
473.644
 31
0.0
  0
LINE
  5
188
330
1E
100
AcDbEntity
  8
0
100
AcDbLine
 10
96.256
 20
355.869
 30
0.0
 11
97.245
 21
351.634514459665
 31
0.0
  0
LINE
  5
189
330
1E
100
AcDbEntity
  8
0
100
AcDbLine
 10
96.256
 20
366.369
 30
0.0
 11
97.245
 21
362.134514459665
 31
0.0
  0
LINE
  5
18A
330
1E
100
AcDbEntity
  8
0
100
AcDbLine
 10
95.745
 20
361.432
 30
0.0
 11
95.745
 21
371.932
 31
0.0
  0
LINE
  5
18B
330
1E
100
AcDbEntity
  8
0
100
AcDbLine
 10
95.745
 20
361.432
 30
0.0
 11
96.256
 21
355.869
 31
0.0
  0
LINE
  5
18C
330
1E
100
AcDbEntity
  8
0
100
AcDbLine
 10
88.045
 20
404.0
 30
0.0
 11
91.945
 21
404.0
 31
0.0
  0
LINE
  5
18D
330
1E
100
AcDbEntity
  8
0
100
AcDbLine
 10
85.645
 20
404.0
 30
0.0
 11
88.045
 21
404.0
 31
0.0
  0
LINE
  5
18E
330
1E
100
AcDbEntity
  8
0
100
AcDbLine
 10
84.745
 20
404.0
 30
0.0
 11
85.645
 21
404.0
 31
0.0
  0
LINE
  5
18F
330
1E
100
AcDbEntity
  8
0
100
AcDbLine
 10
91.545
 20
404.5
 30
0.0
 11
96.845
 21
404.5
 31
0.0
  0
LINE
  5
190
330
1E
100
AcDbEntity
  8
0
100
AcDbLine
 10
87.545
 20
404.5
 30
0.0
 11
91.545
 21
404.5
 31
0.0
  0
LINE
  5
191
330
1E
100
AcDbEntity
  8
0
100
AcDbLine
 10
85.145
 20
404.5
 30
0.0
 11
87.545
 21
404.5
 31
0.0
  0
LINE
  5
192
330
1E
100
AcDbEntity
  8
0
100
AcDbLine
 10
84.245
 20
404.5
 30
0.0
 11
84.245
 21
444.0
 31
0.0
  0
LINE
  5
193
330
1E
100
AcDbEntity
  8
0
100
AcDbLine
 10
84.245
 20
404.5
 30
0.0
 11
84.745
 21
404.0
 31
0.0
  0
LINE
  5
194
330
1E
100
AcDbEntity
  8
0
100
AcDbLine
 10
84.245
 20
404.5
 30
0.0
 11
85.145
 21
404.5
 31
0.0
  0
LINE
  5
195
330
1E
100
AcDbEntity
  8
0
100
AcDbLine
 10
91.945
 20
404.0
 30
0.0
 11
97.045
 21
404.0
 31
0.0
  0
LINE
  5
196
330
1E
100
AcDbEntity
  8
0
100
AcDbLine
 10
96.256
 20
377.494
 30
0.0
 11
97.245
 21
381.728485540335
 31
0.0
  0
LINE
  5
197
330
1E
100
AcDbEntity
  8
0
100
AcDbLine
 10
95.745
 20
371.932
 30
0.0
 11
96.256
 21
377.494
 31
0.0
  0
LINE
  5
198
330
1E
100
AcDbEntity
  8
0
100
AcDbLine
 10
95.745
 20
371.932
 30
0.0
 11
96.256
 21
366.369
 31
0.0
  0
LINE
  5
199
330
1E
100
AcDbEntity
  8
0
100
AcDbLine
 10
95.745
 20
371.932
 30
0.0
 11
95.745
 21
361.432
 31
0.0
  0
LINE
  5
19F
330
1E
100
AcDbEntity
  8
0
100
AcDbLine
 10
121.245
 20
323.778874111323
 30
0.0
 11
126.621
 21
321.481
 31
0.0
  0
LINE
  5
1A0
330
1E
100
AcDbEntity
  8
0
100
AcDbLine
 10
121.245
 20
334.278874111323
 30
0.0
 11
126.621
 21
331.981
 31
0.0
  0
LINE
  5
1A1
330
1E
100
AcDbEntity
  8
0
100
AcDbLine
 10
121.245
 20
335.441728614087
 30
0.0
 11
126.913
 21
333.113
 31
0.0
  0
LINE
  5
1A2
330
1E
100
AcDbEntity
  8
0
100
AcDbLine
 10
96.986
 20
366.932
 30
0.0
 11
97.245
 21
365.837145850121
 31
0.0
  0
LINE
  5
1A3
330
1E
100
AcDbEntity
  8
0
100
AcDbLine
 10
96.845
 20
409.5
 30
0.0
 11
97.245
 21
409.5
 31
0.0
  0
LINE
  5
1A4
330
1E
100
AcDbEntity
  8
0
100
AcDbLine
 10
97.045
 20
409.0
 30
0.0
 11
97.245
 21
409.0
 31
0.0
  0
LINE
  5
1A5
330
1E
100
AcDbEntity
  8
0
100
AcDbLine
 10
96.986
 20
377.931
 30
0.0
 11
97.245
 21
379.026062852538
 31
0.0
  0
LINE
  5
1A6
330
1E
100
AcDbEntity
  8
0
100
AcDbLine
 10
96.475
 20
372.432
 30
0.0
 11
96.986
 21
377.931
 31
0.0
  0
LINE
  5
1A7
330
1E
100
AcDbEntity
  8
0
100
AcDbLine
 10
96.475
 20
372.432
 30
0.0
 11
96.986
 21
366.932
 31
0.0
  0
LINE
  5
1A8
330
1E
100
AcDbEntity
  8
0
100
AcDbLine
 10
84.245
 20
444.0
 30
0.0
 11
85.145
 21
444.0
 31
0.0
  0
LINE
  5
1A9
330
1E
100
AcDbEntity
  8
0
100
AcDbLine
 10
84.245
 20
444.0
 30
0.0
 11
84.245
 21
404.5
 31
0.0
  0
LINE
  5
1AA
330
1E
100
AcDbEntity
  8
0
100
AcDbLine
 10
84.245
 20
444.0
 30
0.0
 11
85.145
 21
442.18
 31
0.0
  0
LINE
  5
1AB
330
1E
100
AcDbEntity
  8
0
100
AcDbLine
 10
84.245
 20
445.865
 30
0.0
 11
84.613
 21
445.288
 31
0.0
  0
LINE
  5
1AC
330
1E
100
AcDbEntity
  8
0
100
AcDbLine
 10
84.245
 20
445.865
 30
0.0
 11
84.245
 21
460.0
 31
0.0
  0
LINE
  5
1AD
330
1E
100
AcDbEntity
  8
0
100
AcDbLine
 10
85.145
 20
442.18
 30
0.0
 11
87.545
 21
440.603
 31
0.0
  0
LINE
  5
1AE
330
1E
100
AcDbEntity
  8
0
100
AcDbLine
 10
85.145
 20
444.0
 30
0.0
 11
85.245
 21
444.0
 31
0.0
  0
LINE
  5
1AF
330
1E
100
AcDbEntity
  8
0
100
AcDbLine
 10
85.245
 20
445.040359183673
 30
0.0
 11
85.245
 21
444.0
 31
0.0
  0
LINE
  5
1B0
330
1E
100
AcDbEntity
  8
0
100
AcDbLine
 10
85.245
 20
444.0
 30
0.0
 11
85.245
 21
445.040359183673
 31
0.0
  0
LINE
  5
1B1
330
1E
100
AcDbEntity
  8
0
100
AcDbLine
 10
85.245
 20
444.0
 30
0.0
 11
85.542293568942
 21
441.918945017408
 31
0.0
  0
LINE
  5
1B2
330
1E
100
AcDbEntity
  8
0
100
AcDbLine
 10
91.545
 20
439.081
 30
0.0
 11
96.845
 21
437.884
 31
0.0
  0
LINE
  5
1B3
330
1E
100
AcDbEntity
  8
0
100
AcDbLine
 10
87.545
 20
440.603
 30
0.0
 11
91.545
 21
439.081
 31
0.0
  0
LINE
  5
1B4
330
1E
100
AcDbEntity
  8
0
100
AcDbLine
 10
87.921
 20
445.288
 30
0.0
 11
91.819
 21
445.288
 31
0.0
  0
LINE
  5
1B5
330
1E
100
AcDbEntity
  8
0
100
AcDbLine
 10
85.495
 20
445.288
 30
0.0
 11
87.921
 21
445.288
 31
0.0
  0
LINE
  5
1B6
330
1E
100
AcDbEntity
  8
0
100
AcDbLine
 10
84.613
 20
445.288
 30
0.0
 11
85.298958507786
 21
445.019216258174
 31
0.0
  0
LINE
  5
1B7
330
1E
100
AcDbEntity
  8
0
100
AcDbLine
 10
84.613
 20
445.288
 30
0.0
 11
85.495
 21
445.288
 31
0.0
  0
LINE
  5
1B8
330
1E
100
AcDbEntity
  8
0
100
AcDbLine
 10
84.245
 20
460.0
 30
0.0
 11
84.245
 21
445.865
 31
0.0
  0
LINE
  5
1B9
330
1E
100
AcDbEntity
  8
0
100
AcDbLine
 10
91.745
 20
474.028
 30
0.0
 11
91.745
 21
474.604
 31
0.0
  0
LINE
  5
1BA
330
1E
100
AcDbEntity
  8
0
100
AcDbLine
 10
91.745
 20
474.604
 30
0.0
 11
91.745
 21
476.14
 31
0.0
  0
LINE
  5
1BB
330
1E
100
AcDbEntity
  8
0
100
AcDbLine
 10
91.745
 20
474.604
 30
0.0
 11
91.745
 21
474.028
 31
0.0
  0
LINE
  5
1BC
330
1E
100
AcDbEntity
  8
0
100
AcDbLine
 10
90.976
 20
473.644
 30
0.0
 11
91.745
 21
474.028
 31
0.0
  0
LINE
  5
1BD
330
1E
100
AcDbEntity
  8
0
100
AcDbLine
 10
91.745
 20
476.14
 30
0.0
 11
91.745
 21
478.636
 31
0.0
  0
LINE
  5
1BE
330
1E
100
AcDbEntity
  8
0
100
AcDbLine
 10
91.745
 20
476.14
 30
0.0
 11
91.745
 21
474.604
 31
0.0
  0
LINE
  5
1BF
330
1E
100
AcDbEntity
  8
0
100
AcDbLine
 10
91.745
 20
478.636
 30
0.0
 11
91.745
 21
481.9
 31
0.0
  0
LINE
  5
1C0
330
1E
100
AcDbEntity
  8
0
100
AcDbLine
 10
91.745
 20
478.636
 30
0.0
 11
91.745
 21
476.14
 31
0.0
  0
LINE
  5
1C1
330
1E
100
AcDbEntity
  8
0
100
AcDbLine
 10
91.745
 20
481.9
 30
0.0
 11
91.745
 21
485.612
 31
0.0
  0
LINE
  5
1C2
330
1E
100
AcDbEntity
  8
0
100
AcDbLine
 10
91.745
 20
481.9
 30
0.0
 11
91.745
 21
478.636
 31
0.0
  0
LINE
  5
1C3
330
1E
100
AcDbEntity
  8
0
100
AcDbLine
 10
91.745
 20
493.676
 30
0.0
 11
91.745
 21
497.388
 31
0.0
  0
LINE
  5
1C4
330
1E
100
AcDbEntity
  8
0
100
AcDbLine
 10
91.745
 20
493.676
 30
0.0
 11
91.745
 21
489.644
 31
0.0
  0
LINE
  5
1C5
330
1E
100
AcDbEntity
  8
0
100
AcDbLine
 10
91.745
 20
489.644
 30
0.0
 11
91.745
 21
485.612
 31
0.0
  0
LINE
  5
1C6
330
1E
100
AcDbEntity
  8
0
100
AcDbLine
 10
91.745
 20
489.644
 30
0.0
 11
91.745
 21
493.676
 31
0.0
  0
LINE
  5
1C7
330
1E
100
AcDbEntity
  8
0
100
AcDbLine
 10
91.745
 20
485.612
 30
0.0
 11
91.745
 21
489.644
 31
0.0
  0
LINE
  5
1C8
330
1E
100
AcDbEntity
  8
0
100
AcDbLine
 10
91.745
 20
485.612
 30
0.0
 11
91.745
 21
481.9
 31
0.0
  0
LINE
  5
1C9
330
1E
100
AcDbEntity
  8
0
100
AcDbLine
 10
91.745
 20
485.473
 30
0.0
 11
91.745
 21
481.622
 31
0.0
  0
LINE
  5
1CA
330
1E
100
AcDbEntity
  8
0
100
AcDbLine
 10
91.745
 20
489.6
 30
0.0
 11
91.745
 21
485.473
 31
0.0
  0
LINE
  5
1CB
330
1E
100
AcDbEntity
  8
0
100
AcDbLine
 10
91.745
 20
500.652
 30
0.0
 11
91.745
 21
503.148
 31
0.0
  0
LINE
  5
1CC
330
1E
100
AcDbEntity
  8
0
100
AcDbLine
 10
91.745
 20
500.652
 30
0.0
 11
91.745
 21
497.388
 31
0.0
  0
LINE
  5
1CD
330
1E
100
AcDbEntity
  8
0
100
AcDbLine
 10
91.745
 20
497.388
 30
0.0
 11
91.745
 21
500.652
 31
0.0
  0
LINE
  5
1CE
330
1E
100
AcDbEntity
  8
0
100
AcDbLine
 10
91.745
 20
497.388
 30
0.0
 11
91.745
 21
493.676
 31
0.0
  0
LINE
  5
1CF
330
1E
100
AcDbEntity
  8
0
100
AcDbLine
 10
91.745
 20
493.758
 30
0.0
 11
91.745
 21
489.6
 31
0.0
  0
LINE
  5
1D0
330
1E
100
AcDbEntity
  8
0
100
AcDbLine
 10
91.745
 20
497.66
 30
0.0
 11
91.745
 21
493.758
 31
0.0
  0
LINE
  5
1D1
330
1E
100
AcDbEntity
  8
0
100
AcDbLine
 10
91.745
 20
504.684
 30
0.0
 11
91.745
 21
505.26
 31
0.0
  0
LINE
  5
1D2
330
1E
100
AcDbEntity
  8
0
100
AcDbLine
 10
91.745
 20
504.684
 30
0.0
 11
91.745
 21
503.148
 31
0.0
  0
LINE
  5
1D3
330
1E
100
AcDbEntity
  8
0
100
AcDbLine
 10
91.745
 20
503.148
 30
0.0
 11
91.745
 21
504.684
 31
0.0
  0
LINE
  5
1D4
330
1E
100
AcDbEntity
  8
0
100
AcDbLine
 10
91.745
 20
503.148
 30
0.0
 11
91.745
 21
500.652
 31
0.0
  0
LINE
  5
1D5
330
1E
100
AcDbEntity
  8
0
100
AcDbLine
 10
90.976
 20
505.644
 30
0.0
 11
91.745
 21
505.26
 31
0.0
  0
LINE
  5
1D6
330
1E
100
AcDbEntity
  8
0
100
AcDbLine
 10
91.745
 20
500.909
 30
0.0
 11
91.745
 21
497.66
 31
0.0
  0
LINE
  5
1D7
330
1E
100
AcDbEntity
  8
0
100
AcDbLine
 10
91.745
 20
503.479
 30
0.0
 11
91.745
 21
500.909
 31
0.0
  0
LINE
  5
1D8
330
1E
100
AcDbEntity
  8
0
100
AcDbLine
 10
91.745
 20
481.622
 30
0.0
 11
91.745
 21
478.371
 31
0.0
  0
LINE
  5
1D9
330
1E
100
AcDbEntity
  8
0
100
AcDbLine
 10
91.745
 20
478.371
 30
0.0
 11
91.745
 21
475.744
 31
0.0
  0
LINE
  5
1DA
330
1E
100
AcDbEntity
  8
0
100
AcDbLine
 10
91.745
 20
475.744
 30
0.0
 11
91.745
 21
474.186
 31
0.0
  0
LINE
  5
1DB
330
1E
100
AcDbEntity
  8
0
100
AcDbLine
 10
91.745
 20
474.186
 30
0.0
 11
91.745
 21
473.584
 31
0.0
  0
LINE
  5
1DC
330
1E
100
AcDbEntity
  8
0
100
AcDbLine
 10
91.745
 20
473.584
 30
0.0
 11
91.745
 21
474.028
 31
0.0
  0
LINE
  5
1DD
330
1E
100
AcDbEntity
  8
0
100
AcDbLine
 10
91.745
 20
473.584
 30
0.0
 11
97.245
 21
473.584
 31
0.0
  0
LINE
  5
1DE
330
1E
100
AcDbEntity
  8
0
100
AcDbLine
 10
91.745
 20
505.26
 30
0.0
 11
91.745
 21
505.66
 31
0.0
  0
LINE
  5
1DF
330
1E
100
AcDbEntity
  8
0
100
AcDbLine
 10
91.745
 20
505.26
 30
0.0
 11
91.745
 21
504.684
 31
0.0
  0
LINE
  5
1E0
330
1E
100
AcDbEntity
  8
0
100
AcDbLine
 10
91.745
 20
505.66
 30
0.0
 11
91.745
 21
505.009
 31
0.0
  0
LINE
  5
1E1
330
1E
100
AcDbEntity
  8
0
100
AcDbLine
 10
91.745
 20
505.66
 30
0.0
 11
97.245
 21
505.66
 31
0.0
  0
LINE
  5
1E2
330
1E
100
AcDbEntity
  8
0
100
AcDbLine
 10
96.845
 20
442.884
 30
0.0
 11
97.245
 21
442.840533333333
 31
0.0
  0
LINE
  5
1E3
330
1E
100
AcDbEntity
  8
0
100
AcDbLine
 10
121.245
 20
437.840533333333
 30
0.0
 11
121.645
 21
437.884
 31
0.0
  0
LINE
  5
1E4
330
1E
100
AcDbEntity
  8
0
100
AcDbLine
 10
91.819
 20
445.288
 30
0.0
 11
96.966
 21
445.288
 31
0.0
  0
LINE
  5
1E5
330
1E
100
AcDbEntity
  8
0
100
AcDbLine
 10
96.966
 20
450.288
 30
0.0
 11
97.245
 21
450.288
 31
0.0
  0
LINE
  5
1E6
330
1E
100
AcDbEntity
  8
0
100
AcDbLine
 10
121.245
 20
445.288
 30
0.0
 11
121.524
 21
445.288
 31
0.0
  0
LINE
  5
1E8
330
1E
100
AcDbEntity
  8
0
100
AcDbLine
 10
121.245
 20
460.0
 30
0.0
 11
133.745
 21
460.0
 31
0.0
  0
LINE
  5
1E9
330
1E
100
AcDbEntity
  8
0
100
AcDbLine
 10
121.245
 20
473.584
 30
0.0
 11
131.745
 21
473.584
 31
0.0
  0
LINE
  5
1EA
330
1E
100
AcDbEntity
  8
0
100
AcDbLine
 10
121.245
 20
505.66
 30
0.0
 11
131.745
 21
505.66
 31
0.0
  0
LINE
  5
1EB
330
1E
100
AcDbEntity
  8
0
100
AcDbLine
 10
91.745
 20
505.009
 30
0.0
 11
91.745
 21
503.479
 31
0.0
  0
LINE
  5
1EC
330
1E
100
AcDbEntity
  8
0
100
AcDbLine
 10
121.245
 20
409.584125888677
 30
0.0
 11
126.621
 21
411.882
 31
0.0
  0
LINE
  5
1ED
330
1E
100
AcDbEntity
  8
0
100
AcDbLine
 10
121.245
 20
409.421271385912
 30
0.0
 11
126.913
 21
411.75
 31
0.0
  0
LINE
  5
1F5
330
1E
100
AcDbEntity
  8
0
100
AcDbLine
 10
126.621
 20
321.481
 30
0.0
 11
132.825
 21
319.711
 31
0.0
  0
LINE
  5
1F6
330
1E
100
AcDbEntity
  8
0
100
AcDbLine
 10
126.621
 20
331.981
 30
0.0
 11
132.825
 21
330.211
 31
0.0
  0
LINE
  5
1F8
330
1E
100
AcDbEntity
  8
0
100
AcDbLine
 10
126.913
 20
333.113
 30
0.0
 11
133.336
 21
331.28
 31
0.0
  0
LINE
  5
1F9
330
1E
100
AcDbEntity
  8
0
100
AcDbLine
 10
121.645
 20
437.884
 30
0.0
 11
126.945
 21
439.081
 31
0.0
  0
LINE
  5
1FA
330
1E
100
AcDbEntity
  8
0
100
AcDbLine
 10
121.524
 20
445.288
 30
0.0
 11
126.671
 21
445.288
 31
0.0
  0
LINE
  5
1FB
330
1E
100
AcDbEntity
  8
0
100
AcDbLine
 10
126.945
 20
439.081
 30
0.0
 11
130.945
 21
440.603
 31
0.0
  0
LINE
  5
1FC
330
1E
100
AcDbEntity
  8
0
100
AcDbLine
 10
126.671
 20
445.288
 30
0.0
 11
130.569
 21
445.288
 31
0.0
  0
LINE
  5
1FD
330
1E
100
AcDbEntity
  8
0
100
AcDbLine
 10
126.621
 20
411.882
 30
0.0
 11
132.825
 21
413.652
 31
0.0
  0
LINE
  5
1FE
330
1E
100
AcDbEntity
  8
0
100
AcDbLine
 10
126.913
 20
411.75
 30
0.0
 11
133.336
 21
413.583
 31
0.0
  0
LINE
  5
201
330
1E
100
AcDbEntity
  8
0
100
AcDbLine
 10
81.725
 20
545.0
 30
0.0
 11
89.885
 21
545.0
 31
0.0
  0
LINE
  5
202
330
1E
100
AcDbEntity
  8
0
100
AcDbLine
 10
89.885
 20
545.0
 30
0.0
 11
97.245
 21
545.0
 31
0.0
  0
LINE
  5
218
330
1E
100
AcDbEntity
  8
0
100
AcDbLine
 10
132.825
 20
319.711
 30
0.0
 11
139.322
 21
318.573
 31
0.0
  0
LINE
  5
219
330
1E
100
AcDbEntity
  8
0
100
AcDbLine
 10
139.322
 20
318.573
 30
0.0
 11
145.745
 21
318.131
 31
0.0
  0
LINE
  5
21A
330
1E
100
AcDbEntity
  8
0
100
AcDbLine
 10
145.745
 20
318.131
 30
0.0
 11
152.168
 21
318.573
 31
0.0
  0
LINE
  5
21B
330
1E
100
AcDbEntity
  8
0
100
AcDbLine
 10
132.825
 20
330.211
 30
0.0
 11
139.322
 21
329.073
 31
0.0
  0
LINE
  5
21C
330
1E
100
AcDbEntity
  8
0
100
AcDbLine
 10
139.322
 20
329.073
 30
0.0
 11
145.745
 21
328.631
 31
0.0
  0
LINE
  5
21D
330
1E
100
AcDbEntity
  8
0
100
AcDbLine
 10
133.336
 20
331.28
 30
0.0
 11
139.395
 21
330.205
 31
0.0
  0
LINE
  5
21E
330
1E
100
AcDbEntity
  8
0
100
AcDbLine
 10
139.395
 20
330.205
 30
0.0
 11
145.745
 21
329.763
 31
0.0
  0
LINE
  5
21F
330
1E
100
AcDbEntity
  8
0
100
AcDbLine
 10
134.245
 20
413.900724026474
 30
0.0
 11
134.245
 21
419.786836538461
 31
0.0
  0
LINE
  5
220
330
1E
100
AcDbEntity
  8
0
100
AcDbLine
 10
137.105
 20
414.401675234724
 30
0.0
 11
137.105
 21
421.575
 31
0.0
  0
LINE
  5
221
330
1E
100
AcDbEntity
  8
0
100
AcDbLine
 10
132.825
 20
413.652
 30
0.0
 11
139.322
 21
414.79
 31
0.0
  0
LINE
  5
222
330
1E
100
AcDbEntity
  8
0
100
AcDbLine
 10
139.322
 20
414.79
 30
0.0
 11
145.745
 21
415.233
 31
0.0
  0
LINE
  5
223
330
1E
100
AcDbEntity
  8
0
100
AcDbLine
 10
133.336
 20
413.583
 30
0.0
 11
139.395
 21
414.658
 31
0.0
  0
LINE
  5
224
330
1E
100
AcDbEntity
  8
0
100
AcDbLine
 10
139.395
 20
414.658
 30
0.0
 11
145.745
 21
415.101
 31
0.0
  0
LINE
  5
225
330
1E
100
AcDbEntity
  8
0
100
AcDbLine
 10
134.129
 20
419.931
 30
0.0
 11
135.377
 21
418.38
 31
0.0
  0
LINE
  5
226
330
1E
100
AcDbEntity
  8
0
100
AcDbLine
 10
133.745
 20
421.575
 30
0.0
 11
134.129
 21
423.266
 31
0.0
  0
LINE
  5
227
330
1E
100
AcDbEntity
  8
0
100
AcDbLine
 10
133.745
 20
421.575
 30
0.0
 11
134.129
 21
419.931
 31
0.0
  0
LINE
  5
228
330
1E
100
AcDbEntity
  8
0
100
AcDbLine
 10
133.745
 20
421.575
 30
0.0
 11
133.745
 21
475.548
 31
0.0
  0
LINE
  5
229
330
1E
100
AcDbEntity
  8
0
100
AcDbLine
 10
134.245
 20
419.786836538461
 30
0.0
 11
134.245
 21
413.900724026474
 31
0.0
  0
LINE
  5
22A
330
1E
100
AcDbEntity
  8
0
100
AcDbLine
 10
135.377
 20
418.38
 30
0.0
 11
137.105
 21
417.1533
 31
0.0
  0
LINE
  5
22B
330
1E
100
AcDbEntity
  8
0
100
AcDbLine
 10
134.129
 20
423.266
 30
0.0
 11
135.377
 21
424.817
 31
0.0
  0
LINE
  5
22C
330
1E
100
AcDbEntity
  8
0
100
AcDbLine
 10
135.377
 20
424.817
 30
0.0
 11
137.297
 21
426.179
 31
0.0
  0
LINE
  5
22D
330
1E
100
AcDbEntity
  8
0
100
AcDbLine
 10
137.297
 20
426.179
 30
0.0
 11
139.793
 21
427.213
 31
0.0
  0
LINE
  5
22E
330
1E
100
AcDbEntity
  8
0
100
AcDbLine
 10
139.793
 20
427.213
 30
0.0
 11
142.673
 21
427.823
 31
0.0
  0
LINE
  5
22F
330
1E
100
AcDbEntity
  8
0
100
AcDbLine
 10
142.673
 20
427.823
 30
0.0
 11
145.745
 21
428.058
 31
0.0
  0
LINE
  5
230
330
1E
100
AcDbEntity
  8
0
100
AcDbLine
 10
143.537
 20
426.085
 30
0.0
 11
145.745
 21
426.273
 31
0.0
  0
LINE
  5
231
330
1E
100
AcDbEntity
  8
0
100
AcDbLine
 10
141.425
 20
425.615
 30
0.0
 11
143.537
 21
426.085
 31
0.0
  0
LINE
  5
232
330
1E
100
AcDbEntity
  8
0
100
AcDbLine
 10
139.601
 20
424.864
 30
0.0
 11
141.425
 21
425.615
 31
0.0
  0
LINE
  5
233
330
1E
100
AcDbEntity
  8
0
100
AcDbLine
 10
138.257
 20
423.924
 30
0.0
 11
139.601
 21
424.864
 31
0.0
  0
LINE
  5
234
330
1E
100
AcDbEntity
  8
0
100
AcDbLine
 10
137.393
 20
422.796
 30
0.0
 11
138.257
 21
423.924
 31
0.0
  0
LINE
  5
235
330
1E
100
AcDbEntity
  8
0
100
AcDbLine
 10
137.105
 20
421.575
 30
0.0
 11
137.105
 21
414.401675234724
 31
0.0
  0
LINE
  5
236
330
1E
100
AcDbEntity
  8
0
100
AcDbLine
 10
137.105
 20
421.575
 30
0.0
 11
137.393
 21
422.796
 31
0.0
  0
LINE
  5
237
330
1E
100
AcDbEntity
  8
0
100
AcDbLine
 10
132.947706431058
 20
441.918945017408
 30
0.0
 11
133.245
 21
444.0
 31
0.0
  0
LINE
  5
238
330
1E
100
AcDbEntity
  8
0
100
AcDbLine
 10
130.945
 20
440.603
 30
0.0
 11
133.345
 21
442.18
 31
0.0
  0
LINE
  5
239
330
1E
100
AcDbEntity
  8
0
100
AcDbLine
 10
133.245
 20
444.0
 30
0.0
 11
133.345
 21
444.0
 31
0.0
  0
LINE
  5
23A
330
1E
100
AcDbEntity
  8
0
100
AcDbLine
 10
133.245
 20
444.0
 30
0.0
 11
133.245
 21
445.040359183673
 31
0.0
  0
LINE
  5
23B
330
1E
100
AcDbEntity
  8
0
100
AcDbLine
 10
130.569
 20
445.288
 30
0.0
 11
132.995
 21
445.288
 31
0.0
  0
LINE
  5
23C
330
1E
100
AcDbEntity
  8
0
100
AcDbLine
 10
132.995
 20
445.288
 30
0.0
 11
133.745
 21
445.288
 31
0.0
  0
LINE
  5
23D
330
1E
100
AcDbEntity
  8
0
100
AcDbLine
 10
133.245
 20
445.040359183673
 30
0.0
 11
133.745
 21
445.23627755102
 31
0.0
  0
LINE
  5
23E
330
1E
100
AcDbEntity
  8
0
100
AcDbLine
 10
133.245
 20
445.040359183673
 30
0.0
 11
133.245
 21
444.0
 31
0.0
  0
LINE
  5
23F
330
1E
100
AcDbEntity
  8
0
100
AcDbLine
 10
131.745
 20
473.584
 30
0.0
 11
132.761983695652
 21
473.584
 31
0.0
  0
LINE
  5
240
330
1E
100
AcDbEntity
  8
0
100
AcDbLine
 10
133.345
 20
442.18
 30
0.0
 11
133.745
 21
442.988888888889
 31
0.0
  0
LINE
  5
241
330
1E
100
AcDbEntity
  8
0
100
AcDbLine
 10
133.345
 20
444.0
 30
0.0
 11
133.745
 21
444.0
 31
0.0
  0
LINE
  5
242
330
1E
100
AcDbEntity
  8
0
100
AcDbLine
 10
133.245
 20
470.74
 30
0.0
 11
133.745
 21
469.62125
 31
0.0
  0
LINE
  5
243
330
1E
100
AcDbEntity
  8
0
100
AcDbLine
 10
133.245
 20
476.629
 30
0.0
 11
134.445
 21
479.313
 31
0.0
  0
LINE
  5
244
330
1E
100
AcDbEntity
  8
0
100
AcDbLine
 10
132.745
 20
473.684
 30
0.0
 11
133.245
 21
470.74
 31
0.0
  0
LINE
  5
245
330
1E
100
AcDbEntity
  8
0
100
AcDbLine
 10
132.745
 20
473.684
 30
0.0
 11
132.745
 21
505.66
 31
0.0
  0
LINE
  5
246
330
1E
100
AcDbEntity
  8
0
100
AcDbLine
 10
132.745
 20
473.684
 30
0.0
 11
133.245
 21
476.629
 31
0.0
  0
LINE
  5
247
330
1E
100
AcDbEntity
  8
0
100
AcDbLine
 10
133.745
 20
475.548
 30
0.0
 11
133.745
 21
421.575
 31
0.0
  0
LINE
  5
248
330
1E
100
AcDbEntity
  8
0
100
AcDbLine
 10
134.717
 20
479.62
 30
0.0
 11
136.293
 21
481.952
 31
0.0
  0
LINE
  5
249
330
1E
100
AcDbEntity
  8
0
100
AcDbLine
 10
134.445
 20
479.313
 30
0.0
 11
135.215071402077
 21
480.170712861647
 31
0.0
  0
LINE
  5
24A
330
1E
100
AcDbEntity
  8
0
100
AcDbLine
 10
134.129
 20
478.103
 30
0.0
 11
135.377
 21
480.479
 31
0.0
  0
LINE
  5
24B
330
1E
100
AcDbEntity
  8
0
100
AcDbLine
 10
136.293
 20
481.952
 30
0.0
 11
138.427
 21
483.907
 31
0.0
  0
LINE
  5
24C
330
1E
100
AcDbEntity
  8
0
100
AcDbLine
 10
135.377
 20
480.479
 30
0.0
 11
137.297
 21
482.544
 31
0.0
  0
LINE
  5
24D
330
1E
100
AcDbEntity
  8
0
100
AcDbLine
 10
138.427
 20
483.907
 30
0.0
 11
140.963
 21
485.201
 31
0.0
  0
LINE
  5
24E
330
1E
100
AcDbEntity
  8
0
100
AcDbLine
 10
137.297
 20
482.544
 30
0.0
 11
139.793
 21
484.071
 31
0.0
  0
LINE
  5
24F
330
1E
100
AcDbEntity
  8
0
100
AcDbLine
 10
139.793
 20
484.071
 30
0.0
 11
142.673
 21
485.014
 31
0.0
  0
LINE
  5
250
330
1E
100
AcDbEntity
  8
0
100
AcDbLine
 10
131.745
 20
505.66
 30
0.0
 11
134.745
 21
505.66
 31
0.0
  0
LINE
  5
251
330
1E
100
AcDbEntity
  8
0
100
AcDbLine
 10
143.886
 20
485.921
 30
0.0
 11
146.912
 21
485.941
 31
0.0
  0
LINE
  5
252
330
1E
100
AcDbEntity
  8
0
100
AcDbLine
 10
140.963
 20
485.201
 30
0.0
 11
143.886
 21
485.921
 31
0.0
  0
LINE
  5
253
330
1E
100
AcDbEntity
  8
0
100
AcDbLine
 10
134.745
 20
497.147142857143
 30
0.0
 11
134.745
 21
497.66
 31
0.0
  0
LINE
  5
254
330
1E
100
AcDbEntity
  8
0
100
AcDbLine
 10
134.745
 20
497.66
 30
0.0
 11
134.745
 21
500.909
 31
0.0
  0
LINE
  5
255
330
1E
100
AcDbEntity
  8
0
100
AcDbLine
 10
134.745
 20
500.909
 30
0.0
 11
134.745
 21
503.479
 31
0.0
  0
LINE
  5
256
330
1E
100
AcDbEntity
  8
0
100
AcDbLine
 10
136.67698626479
 20
499.240919635427
 30
0.0
 11
136.778
 21
504.512
 31
0.0
  0
LINE
  5
257
330
1E
100
AcDbEntity
  8
0
100
AcDbLine
 10
136.545
 20
499.152
 30
0.0
 11
139.245
 21
500.971
 31
0.0
  0
LINE
  5
258
330
1E
100
AcDbEntity
  8
0
100
AcDbLine
 10
134.745
 20
505.0
 30
0.0
 11
136.81597969724
 21
505.0
 31
0.0
  0
LINE
  5
259
330
1E
100
AcDbEntity
  8
0
100
AcDbLine
 10
134.745
 20
505.0
 30
0.0
 11
136.81597969724
 21
505.0
 31
0.0
  0
LINE
  5
25A
330
1E
100
AcDbEntity
  8
0
100
AcDbLine
 10
134.745
 20
505.009
 30
0.0
 11
134.745
 21
505.66
 31
0.0
  0
LINE
  5
25B
330
1E
100
AcDbEntity
  8
0
100
AcDbLine
 10
140.214
 20
522.625
 30
0.0
 11
142.488
 21
524.61
 31
0.0
  0
LINE
  5
25C
330
1E
100
AcDbEntity
  8
0
100
AcDbLine
 10
138.735
 20
519.923
 30
0.0
 11
140.214
 21
522.625
 31
0.0
  0
LINE
  5
25D
330
1E
100
AcDbEntity
  8
0
100
AcDbLine
 10
138.036
 20
517.142
 30
0.0
 11
138.735
 21
519.923
 31
0.0
  0
LINE
  5
25E
330
1E
100
AcDbEntity
  8
0
100
AcDbLine
 10
137.433
 20
513.014
 30
0.0
 11
138.036
 21
517.142
 31
0.0
  0
LINE
  5
25F
330
1E
100
AcDbEntity
  8
0
100
AcDbLine
 10
137.215
 20
510.127
 30
0.0
 11
137.433
 21
513.014
 31
0.0
  0
LINE
  5
260
330
1E
100
AcDbEntity
  8
0
100
AcDbLine
 10
136.778
 20
504.512
 30
0.0
 11
137.215
 21
510.127
 31
0.0
  0
LINE
  5
261
330
1E
100
AcDbEntity
  8
0
100
AcDbLine
 10
134.745
 20
503.479
 30
0.0
 11
134.745
 21
505.009
 31
0.0
  0
LINE
  5
262
330
1E
100
AcDbEntity
  8
0
100
AcDbLine
 10
139.245
 20
500.971
 30
0.0
 11
142.345
 21
502.01
 31
0.0
  0
LINE
  5
263
330
1E
100
AcDbEntity
  8
0
100
AcDbLine
 10
143.841
 20
525.683
 30
0.0
 11
146.849
 21
526.637
 31
0.0
  0
LINE
  5
264
330
1E
100
AcDbEntity
  8
0
100
AcDbLine
 10
142.488
 20
524.61
 30
0.0
 11
143.841
 21
525.683
 31
0.0
  0
LINE
  5
265
330
1E
100
AcDbEntity
  8
0
100
AcDbLine
 10
145.745
 20
502.443
 30
0.0
 11
149.145
 21
502.01
 31
0.0
  0
LINE
  5
266
330
1E
100
AcDbEntity
  8
0
100
AcDbLine
 10
142.345
 20
502.01
 30
0.0
 11
145.745
 21
502.443
 31
0.0
  0
LINE
  5
267
330
1E
100
AcDbEntity
  8
0
100
AcDbLine
 10
134.445
 20
496.813
 30
0.0
 11
136.545
 21
499.152
 31
0.0
  0
LINE
  5
268
330
1E
100
AcDbEntity
  8
0
100
AcDbLine
 10
132.745
 20
505.66
 30
0.0
 11
132.745
 21
473.684
 31
0.0
  0
LINE
  5
269
330
1E
100
AcDbEntity
  8
0
100
AcDbLine
 10
142.673
 20
485.014
 30
0.0
 11
145.745
 21
485.372
 31
0.0
  0
LINE
  5
26A
330
1E
100
AcDbEntity
  8
0
100
AcDbLine
 10
145.745
 20
485.372
 30
0.0
 11
148.817
 21
485.014
 31
0.0
  0
LINE
  5
26B
330
1E
100
AcDbEntity
  8
0
100
AcDbLine
 10
145.745
 20
428.058
 30
0.0
 11
148.817
 21
427.823
 31
0.0
  0
LINE
  5
26C
330
1E
100
AcDbEntity
  8
0
100
AcDbLine
 10
145.745
 20
426.273
 30
0.0
 11
147.953
 21
426.085
 31
0.0
  0
LINE
  5
26D
330
1E
100
AcDbEntity
  8
0
100
AcDbLine
 10
145.745
 20
415.233
 30
0.0
 11
152.168
 21
414.79
 31
0.0
  0
LINE
  5
26E
330
1E
100
AcDbEntity
  8
0
100
AcDbLine
 10
145.745
 20
415.101
 30
0.0
 11
152.095
 21
414.658
 31
0.0
  0
LINE
  5
26F
330
1E
100
AcDbEntity
  8
0
100
AcDbLine
 10
145.745
 20
328.631
 30
0.0
 11
152.168
 21
329.073
 31
0.0
  0
LINE
  5
272
330
1E
100
AcDbEntity
  8
0
100
AcDbLine
 10
146.849
 20
526.637
 30
0.0
 11
149.994
 21
526.397
 31
0.0
  0
LINE
  5
273
330
1E
100
AcDbEntity
  8
0
100
AcDbLine
 10
146.912
 20
485.941
 30
0.0
 11
149.73
 21
485.312
 31
0.0
  0
LINE
  5
274
330
1E
100
AcDbEntity
  8
0
100
AcDbLine
 10
148.817
 20
485.014
 30
0.0
 11
151.697
 21
484.071
 31
0.0
  0
LINE
  5
275
330
1E
100
AcDbEntity
  8
0
100
AcDbLine
 10
149.145
 20
502.01
 30
0.0
 11
152.245
 21
500.971
 31
0.0
  0
LINE
  5
276
330
1E
100
AcDbEntity
  8
0
100
AcDbLine
 10
148.817
 20
427.823
 30
0.0
 11
151.697
 21
427.213
 31
0.0
  0
LINE
  5
277
330
1E
100
AcDbEntity
  8
0
100
AcDbLine
 10
147.953
 20
426.085
 30
0.0
 11
150.065
 21
425.615
 31
0.0
  0
LINE
  5
278
330
1E
100
AcDbEntity
  8
0
100
AcDbLine
 10
145.745
 20
329.763
 30
0.0
 11
152.095
 21
330.205
 31
0.0
  0
LINE
  5
279
330
1E
100
AcDbEntity
  8
0
100
AcDbLine
 10
136.765
 20
545.0
 30
0.0
 11
143.005
 21
545.0
 31
0.0
  0
LINE
  5
27A
330
1E
100
AcDbEntity
  8
0
100
AcDbLine
 10
128.605
 20
545.0
 30
0.0
 11
136.765
 21
545.0
 31
0.0
  0
LINE
  5
27B
330
1E
100
AcDbEntity
  8
0
100
AcDbLine
 10
70.205
 20
545.0
 30
0.0
 11
71.645
 21
545.0
 31
0.0
  0
LINE
  5
27C
330
1E
100
AcDbEntity
  8
0
100
AcDbLine
 10
71.645
 20
545.0
 30
0.0
 11
75.485
 21
545.0
 31
0.0
  0
LINE
  5
27D
330
1E
100
AcDbEntity
  8
0
100
AcDbLine
 10
69.245
 20
545.48
 30
0.0
 11
70.685
 21
545.48
 31
0.0
  0
LINE
  5
27E
330
1E
100
AcDbEntity
  8
0
100
AcDbLine
 10
69.245
 20
545.48
 30
0.0
 11
70.205
 21
545.0
 31
0.0
  0
LINE
  5
27F
330
1E
100
AcDbEntity
  8
0
100
AcDbLine
 10
69.245
 20
545.48
 30
0.0
 11
69.245
 21
553.0
 31
0.0
  0
LINE
  5
280
330
1E
100
AcDbEntity
  8
0
100
AcDbLine
 10
70.685
 20
545.48
 30
0.0
 11
74.525
 21
545.48
 31
0.0
  0
LINE
  5
281
330
1E
100
AcDbEntity
  8
0
100
AcDbLine
 10
75.485
 20
545.0
 30
0.0
 11
81.725
 21
545.0
 31
0.0
  0
LINE
  5
282
330
1E
100
AcDbEntity
  8
0
100
AcDbLine
 10
74.525
 20
545.48
 30
0.0
 11
80.925
 21
545.48
 31
0.0
  0
LINE
  5
283
330
1E
100
AcDbEntity
  8
0
100
AcDbLine
 10
80.925
 20
545.48
 30
0.0
 11
89.405
 21
545.48
 31
0.0
  0
LINE
  5
285
330
1E
100
AcDbEntity
  8
0
100
AcDbLine
 10
97.245
 20
545.0
 30
0.0
 11
97.677
 21
545.0
 31
0.0
  0
LINE
  5
286
330
1E
100
AcDbEntity
  8
0
100
AcDbLine
 10
97.677
 20
545.0
 30
0.0
 11
98.829
 21
545.0
 31
0.0
  0
LINE
  5
287
330
1E
100
AcDbEntity
  8
0
100
AcDbLine
 10
98.829
 20
545.0
 30
0.0
 11
100.749
 21
545.0
 31
0.0
  0
LINE
  5
288
330
1E
100
AcDbEntity
  8
0
100
AcDbLine
 10
100.749
 20
545.0
 30
0.0
 11
103.293
 21
545.0
 31
0.0
  0
LINE
  5
289
330
1E
100
AcDbEntity
  8
0
100
AcDbLine
 10
103.293
 20
545.0
 30
0.0
 11
106.173
 21
545.0
 31
0.0
  0
LINE
  5
28A
330
1E
100
AcDbEntity
  8
0
100
AcDbLine
 10
106.173
 20
545.0
 30
0.0
 11
109.245
 21
545.0
 31
0.0
  0
LINE
  5
28B
330
1E
100
AcDbEntity
  8
0
100
AcDbLine
 10
117.741
 20
545.0
 30
0.0
 11
119.661
 21
545.0
 31
0.0
  0
LINE
  5
28C
330
1E
100
AcDbEntity
  8
0
100
AcDbLine
 10
115.197
 20
545.0
 30
0.0
 11
117.741
 21
545.0
 31
0.0
  0
LINE
  5
28D
330
1E
100
AcDbEntity
  8
0
100
AcDbLine
 10
112.317
 20
545.0
 30
0.0
 11
115.197
 21
545.0
 31
0.0
  0
LINE
  5
28E
330
1E
100
AcDbEntity
  8
0
100
AcDbLine
 10
109.245
 20
545.0
 30
0.0
 11
112.317
 21
545.0
 31
0.0
  0
LINE
  5
28F
330
1E
100
AcDbEntity
  8
0
100
AcDbLine
 10
89.405
 20
545.48
 30
0.0
 11
99.005
 21
545.48
 31
0.0
  0
LINE
  5
290
330
1E
100
AcDbEntity
  8
0
100
AcDbLine
 10
99.005
 20
545.48
 30
0.0
 11
109.245
 21
545.48
 31
0.0
  0
LINE
  5
291
330
1E
100
AcDbEntity
  8
0
100
AcDbLine
 10
119.485
 20
545.48
 30
0.0
 11
129.085
 21
545.48
 31
0.0
  0
LINE
  5
292
330
1E
100
AcDbEntity
  8
0
100
AcDbLine
 10
4.845
 20
553.0
 30
0.0
 11
10.245
 21
553.0
 31
0.0
  0
LINE
  5
293
330
1E
100
AcDbEntity
  8
0
100
AcDbLine
 10
1.445
 20
553.0
 30
0.0
 11
4.845
 21
553.0
 31
0.0
  0
LINE
  5
294
330
1E
100
AcDbEntity
  8
0
100
AcDbLine
 10
0.245
 20
553.0
 30
0.0
 11
1.445
 21
553.0
 31
0.0
  0
LINE
  5
295
330
1E
100
AcDbEntity
  8
0
100
AcDbLine
 10
0.245
 20
553.0
 30
0.0
 11
0.245
 21
528.5
 31
0.0
  0
LINE
  5
296
330
1E
100
AcDbEntity
  8
0
100
AcDbLine
 10
10.245
 20
553.0
 30
0.0
 11
17.345
 21
553.0
 31
0.0
  0
LINE
  5
297
330
1E
100
AcDbEntity
  8
0
100
AcDbLine
 10
17.345
 20
553.0
 30
0.0
 11
25.545
 21
553.0
 31
0.0
  0
LINE
  5
298
330
1E
100
AcDbEntity
  8
0
100
AcDbLine
 10
25.545
 20
553.0
 30
0.0
 11
34.245
 21
553.0
 31
0.0
  0
LINE
  5
299
330
1E
100
AcDbEntity
  8
0
100
AcDbLine
 10
58.245
 20
553.0
 30
0.0
 11
63.645
 21
553.0
 31
0.0
  0
LINE
  5
29A
330
1E
100
AcDbEntity
  8
0
100
AcDbLine
 10
63.645
 20
553.0
 30
0.0
 11
67.045
 21
553.0
 31
0.0
  0
LINE
  5
29B
330
1E
100
AcDbEntity
  8
0
100
AcDbLine
 10
67.045
 20
553.0
 30
0.0
 11
68.245
 21
553.0
 31
0.0
  0
LINE
  5
29C
330
1E
100
AcDbEntity
  8
0
100
AcDbLine
 10
51.145
 20
553.0
 30
0.0
 11
58.245
 21
553.0
 31
0.0
  0
LINE
  5
29D
330
1E
100
AcDbEntity
  8
0
100
AcDbLine
 10
42.945
 20
553.0
 30
0.0
 11
51.145
 21
553.0
 31
0.0
  0
LINE
  5
29E
330
1E
100
AcDbEntity
  8
0
100
AcDbLine
 10
34.245
 20
553.0
 30
0.0
 11
42.945
 21
553.0
 31
0.0
  0
LINE
  5
29F
330
1E
100
AcDbEntity
  8
0
100
AcDbLine
 10
68.245
 20
553.0
 30
0.0
 11
68.245
 21
528.5
 31
0.0
  0
LINE
  5
2A0
330
1E
100
AcDbEntity
  8
0
100
AcDbLine
 10
69.245
 20
553.0
 30
0.0
 11
70.685
 21
553.0
 31
0.0
  0
LINE
  5
2A1
330
1E
100
AcDbEntity
  8
0
100
AcDbLine
 10
69.245
 20
553.0
 30
0.0
 11
69.245
 21
545.48
 31
0.0
  0
LINE
  5
2A2
330
1E
100
AcDbEntity
  8
0
100
AcDbLine
 10
70.685
 20
553.0
 30
0.0
 11
74.525
 21
553.0
 31
0.0
  0
LINE
  5
2A3
330
1E
100
AcDbEntity
  8
0
100
AcDbLine
 10
74.525
 20
553.0
 30
0.0
 11
80.925
 21
553.0
 31
0.0
  0
LINE
  5
2A4
330
1E
100
AcDbEntity
  8
0
100
AcDbLine
 10
80.925
 20
553.0
 30
0.0
 11
89.405
 21
553.0
 31
0.0
  0
LINE
  5
2A5
330
1E
100
AcDbEntity
  8
0
100
AcDbLine
 10
89.405
 20
553.0
 30
0.0
 11
99.005
 21
553.0
 31
0.0
  0
LINE
  5
2A6
330
1E
100
AcDbEntity
  8
0
100
AcDbLine
 10
99.005
 20
553.0
 30
0.0
 11
109.245
 21
553.0
 31
0.0
  0
LINE
  5
2A7
330
1E
100
AcDbEntity
  8
0
100
AcDbLine
 10
109.245
 20
545.48
 30
0.0
 11
119.485
 21
545.48
 31
0.0
  0
LINE
  5
2A8
330
1E
100
AcDbEntity
  8
0
100
AcDbLine
 10
120.813
 20
545.0
 30
0.0
 11
121.245
 21
545.0
 31
0.0
  0
LINE
  5
2A9
330
1E
100
AcDbEntity
  8
0
100
AcDbLine
 10
119.661
 20
545.0
 30
0.0
 11
120.813
 21
545.0
 31
0.0
  0
LINE
  5
2AB
330
1E
100
AcDbEntity
  8
0
100
AcDbLine
 10
137.565
 20
545.48
 30
0.0
 11
143.965
 21
545.48
 31
0.0
  0
LINE
  5
2AC
330
1E
100
AcDbEntity
  8
0
100
AcDbLine
 10
129.085
 20
545.48
 30
0.0
 11
137.565
 21
545.48
 31
0.0
  0
LINE
  5
2AD
330
1E
100
AcDbEntity
  8
0
100
AcDbLine
 10
137.565
 20
553.0
 30
0.0
 11
143.965
 21
553.0
 31
0.0
  0
LINE
  5
2AE
330
1E
100
AcDbEntity
  8
0
100
AcDbLine
 10
129.085
 20
553.0
 30
0.0
 11
137.565
 21
553.0
 31
0.0
  0
LINE
  5
2AF
330
1E
100
AcDbEntity
  8
0
100
AcDbLine
 10
119.485
 20
553.0
 30
0.0
 11
129.085
 21
553.0
 31
0.0
  0
LINE
  5
2B0
330
1E
100
AcDbEntity
  8
0
100
AcDbLine
 10
109.245
 20
553.0
 30
0.0
 11
119.485
 21
553.0
 31
0.0
  0
LINE
  5
2B1
330
1E
100
AcDbEntity
  8
0
100
AcDbLine
 10
148.285
 20
545.0
 30
0.0
 11
149.245
 21
545.48
 31
0.0
  0
LINE
  5
2B2
330
1E
100
AcDbEntity
  8
0
100
AcDbLine
 10
143.965
 20
545.48
 30
0.0
 11
147.805
 21
545.48
 31
0.0
  0
LINE
  5
2B3
330
1E
100
AcDbEntity
  8
0
100
AcDbLine
 10
147.805
 20
545.48
 30
0.0
 11
149.245
 21
545.48
 31
0.0
  0
LINE
  5
2B4
330
1E
100
AcDbEntity
  8
0
100
AcDbLine
 10
149.245
 20
545.48
 30
0.0
 11
149.245
 21
553.0
 31
0.0
  0
LINE
  5
2B5
330
1E
100
AcDbEntity
  8
0
100
AcDbLine
 10
147.805
 20
553.0
 30
0.0
 11
149.245
 21
553.0
 31
0.0
  0
LINE
  5
2B6
330
1E
100
AcDbEntity
  8
0
100
AcDbLine
 10
143.965
 20
553.0
 30
0.0
 11
147.805
 21
553.0
 31
0.0
  0
LINE
  5
2B7
330
1E
100
AcDbEntity
  8
0
100
AcDbLine
 10
146.845
 20
545.0
 30
0.0
 11
148.285
 21
545.0
 31
0.0
  0
LINE
  5
2B8
330
1E
100
AcDbEntity
  8
0
100
AcDbLine
 10
143.005
 20
545.0
 30
0.0
 11
146.845
 21
545.0
 31
0.0
  0
LINE
  5
2B9
330
1E
100
AcDbEntity
  8
0
100
AcDbLine
 10
121.245
 20
545.0
 30
0.0
 11
128.605
 21
545.0
 31
0.0
  0
LINE
  5
2BA
330
1E
100
AcDbEntity
  8
0
100
AcDbLine
 10
152.168
 20
318.573
 30
0.0
 11
158.665
 21
319.711
 31
0.0
  0
LINE
  5
2DB
330
1E
100
AcDbEntity
  8
0
100
AcDbLine
 10
176.11
 20
327.107
 30
0.0
 11
181.074
 21
330.837
 31
0.0
  0
LINE
  5
2DC
330
1E
100
AcDbEntity
  8
0
100
AcDbLine
 10
170.636
 20
323.946
 30
0.0
 11
176.11
 21
327.107
 31
0.0
  0
LINE
  5
2DD
330
1E
100
AcDbEntity
  8
0
100
AcDbLine
 10
164.869
 20
321.481
 30
0.0
 11
170.636
 21
323.946
 31
0.0
  0
LINE
  5
2DE
330
1E
100
AcDbEntity
  8
0
100
AcDbLine
 10
158.665
 20
319.711
 30
0.0
 11
164.869
 21
321.481
 31
0.0
  0
LINE
  5
2DF
330
1E
100
AcDbEntity
  8
0
100
AcDbLine
 10
152.168
 20
329.073
 30
0.0
 11
158.665
 21
330.211
 31
0.0
  0
LINE
  5
2E0
330
1E
100
AcDbEntity
  8
0
100
AcDbLine
 10
154.385
 20
414.401675234724
 30
0.0
 11
154.385
 21
421.575
 31
0.0
  0
LINE
  5
2E1
330
1E
100
AcDbEntity
  8
0
100
AcDbLine
 10
158.154
 20
413.583
 30
0.0
 11
164.577
 21
411.75
 31
0.0
  0
LINE
  5
2E2
330
1E
100
AcDbEntity
  8
0
100
AcDbLine
 10
151.889
 20
424.864
 30
0.0
 11
153.233
 21
423.924
 31
0.0
  0
LINE
  5
2E3
330
1E
100
AcDbEntity
  8
0
100
AcDbLine
 10
149.994
 20
526.397
 30
0.0
 11
161.896
 21
523.104
 31
0.0
  0
LINE
  5
2E4
330
1E
100
AcDbEntity
  8
0
100
AcDbLine
 10
149.73
 20
485.312
 30
0.0
 11
152.354
 21
483.948
 31
0.0
  0
LINE
  5
2E5
330
1E
100
AcDbEntity
  8
0
100
AcDbLine
 10
150.245
 20
528.5
 30
0.0
 11
150.745
 21
527.5
 31
0.0
  0
LINE
  5
2E6
330
1E
100
AcDbEntity
  8
0
100
AcDbLine
 10
150.245
 20
528.5
 30
0.0
 11
150.245
 21
553.0
 31
0.0
  0
LINE
  5
2E7
330
1E
100
AcDbEntity
  8
0
100
AcDbLine
 10
151.445
 20
553.0
 30
0.0
 11
154.845
 21
553.0
 31
0.0
  0
LINE
  5
2E8
330
1E
100
AcDbEntity
  8
0
100
AcDbLine
 10
150.745
 20
527.5
 30
0.0
 11
151.745
 21
527.0
 31
0.0
  0
LINE
  5
2E9
330
1E
100
AcDbEntity
  8
0
100
AcDbLine
 10
150.745
 20
527.5
 30
0.0
 11
151.945
 21
527.5
 31
0.0
  0
LINE
  5
2EA
330
1E
100
AcDbEntity
  8
0
100
AcDbLine
 10
150.245
 20
553.0
 30
0.0
 11
150.245
 21
528.5
 31
0.0
  0
LINE
  5
2EB
330
1E
100
AcDbEntity
  8
0
100
AcDbLine
 10
150.245
 20
553.0
 30
0.0
 11
151.445
 21
553.0
 31
0.0
  0
LINE
  5
2EC
330
1E
100
AcDbEntity
  8
0
100
AcDbLine
 10
151.697
 20
484.071
 30
0.0
 11
154.193
 21
482.544
 31
0.0
  0
LINE
  5
2ED
330
1E
100
AcDbEntity
  8
0
100
AcDbLine
 10
151.945
 20
527.5
 30
0.0
 11
155.245
 21
527.5
 31
0.0
  0
LINE
  5
2EE
330
1E
100
AcDbEntity
  8
0
100
AcDbLine
 10
151.745
 20
527.0
 30
0.0
 11
152.945
 21
527.0
 31
0.0
  0
LINE
  5
2EF
330
1E
100
AcDbEntity
  8
0
100
AcDbLine
 10
151.697
 20
427.213
 30
0.0
 11
154.193
 21
426.179
 31
0.0
  0
LINE
  5
2F0
330
1E
100
AcDbEntity
  8
0
100
AcDbLine
 10
150.065
 20
425.615
 30
0.0
 11
151.889
 21
424.864
 31
0.0
  0
LINE
  5
2F1
330
1E
100
AcDbEntity
  8
0
100
AcDbLine
 10
154.385
 20
417.1533
 30
0.0
 11
156.113
 21
418.38
 31
0.0
  0
LINE
  5
2F2
330
1E
100
AcDbEntity
  8
0
100
AcDbLine
 10
156.113
 20
418.38
 30
0.0
 11
157.361
 21
419.931
 31
0.0
  0
LINE
  5
2F3
330
1E
100
AcDbEntity
  8
0
100
AcDbLine
 10
157.745
 20
421.575
 30
0.0
 11
157.745
 21
475.548
 31
0.0
  0
LINE
  5
2F4
330
1E
100
AcDbEntity
  8
0
100
AcDbLine
 10
157.361
 20
419.931
 30
0.0
 11
157.745
 21
421.575
 31
0.0
  0
LINE
  5
2F5
330
1E
100
AcDbEntity
  8
0
100
AcDbLine
 10
157.361
 20
423.266
 30
0.0
 11
157.745
 21
421.575
 31
0.0
  0
LINE
  5
2F6
330
1E
100
AcDbEntity
  8
0
100
AcDbLine
 10
154.385
 20
421.575
 30
0.0
 11
154.385
 21
414.401675234724
 31
0.0
  0
LINE
  5
2F7
330
1E
100
AcDbEntity
  8
0
100
AcDbLine
 10
154.097
 20
422.796
 30
0.0
 11
154.385
 21
421.575
 31
0.0
  0
LINE
  5
2F8
330
1E
100
AcDbEntity
  8
0
100
AcDbLine
 10
152.550743038352
 20
500.765019782681
 30
0.0
 11
152.657
 21
506.348
 31
0.0
  0
LINE
  5
2F9
330
1E
100
AcDbEntity
  8
0
100
AcDbLine
 10
152.655055640304
 20
506.245838959899
 30
0.0
 11
162.409802068056
 21
507.420870503076
 31
0.0
  0
LINE
  5
2FA
330
1E
100
AcDbEntity
  8
0
100
AcDbLine
 10
152.91184578672
 20
509.340006147272
 30
0.0
 11
161.485
 21
507.428
 31
0.0
  0
LINE
  5
2FB
330
1E
100
AcDbEntity
  8
0
100
AcDbLine
 10
153.47
 20
513.119
 30
0.0
 11
154.149
 21
515.635
 31
0.0
  0
LINE
  5
2FC
330
1E
100
AcDbEntity
  8
0
100
AcDbLine
 10
152.873
 20
509.077
 30
0.0
 11
153.47
 21
513.119
 31
0.0
  0
LINE
  5
2FD
330
1E
100
AcDbEntity
  8
0
100
AcDbLine
 10
152.656144666716
 20
506.303058861741
 30
0.0
 11
152.873
 21
509.077
 31
0.0
  0
LINE
  5
2FE
330
1E
100
AcDbEntity
  8
0
100
AcDbLine
 10
152.631344457847
 20
505.0
 30
0.0
 11
184.245
 21
505.0
 31
0.0
  0
LINE
  5
2FF
330
1E
100
AcDbEntity
  8
0
100
AcDbLine
 10
152.945
 20
527.0
 30
0.0
 11
156.145
 21
527.0
 31
0.0
  0
LINE
  5
300
330
1E
100
AcDbEntity
  8
0
100
AcDbLine
 10
152.245
 20
500.971
 30
0.0
 11
154.945
 21
499.152
 31
0.0
  0
LINE
  5
301
330
1E
100
AcDbEntity
  8
0
100
AcDbLine
 10
154.193
 20
482.544
 30
0.0
 11
156.113
 21
480.479
 31
0.0
  0
LINE
  5
302
330
1E
100
AcDbEntity
  8
0
100
AcDbLine
 10
155.245
 20
527.5
 30
0.0
 11
160.545
 21
527.5
 31
0.0
  0
LINE
  5
303
330
1E
100
AcDbEntity
  8
0
100
AcDbLine
 10
154.845
 20
553.0
 30
0.0
 11
160.245
 21
553.0
 31
0.0
  0
LINE
  5
304
330
1E
100
AcDbEntity
  8
0
100
AcDbLine
 10
154.945
 20
499.152
 30
0.0
 11
157.045
 21
496.813
 31
0.0
  0
LINE
  5
306
330
1E
100
AcDbEntity
  8
0
100
AcDbLine
 10
157.745
 20
460.0
 30
0.0
 11
184.245
 21
460.0
 31
0.0
  0
LINE
  5
307
330
1E
100
AcDbEntity
  8
0
100
AcDbLine
 10
157.745
 20
469.62125
 30
0.0
 11
158.245
 21
470.74
 31
0.0
  0
LINE
  5
308
330
1E
100
AcDbEntity
  8
0
100
AcDbLine
 10
156.274928597923
 20
480.170712861647
 30
0.0
 11
157.045
 21
479.313
 31
0.0
  0
LINE
  5
309
330
1E
100
AcDbEntity
  8
0
100
AcDbLine
 10
156.145
 20
527.0
 30
0.0
 11
161.245
 21
527.0
 31
0.0
  0
LINE
  5
30A
330
1E
100
AcDbEntity
  8
0
100
AcDbLine
 10
157.045
 20
496.813
 30
0.0
 11
158.245
 21
494.129
 31
0.0
  0
LINE
  5
30B
330
1E
100
AcDbEntity
  8
0
100
AcDbLine
 10
157.045
 20
479.313
 30
0.0
 11
158.245
 21
476.629
 31
0.0
  0
LINE
  5
30C
330
1E
100
AcDbEntity
  8
0
100
AcDbLine
 10
157.745
 20
475.548
 30
0.0
 11
157.745
 21
421.575
 31
0.0
  0
LINE
  5
30D
330
1E
100
AcDbEntity
  8
0
100
AcDbLine
 10
156.113
 20
480.479
 30
0.0
 11
157.361
 21
478.103
 31
0.0
  0
LINE
  5
30E
330
1E
100
AcDbEntity
  8
0
100
AcDbLine
 10
156.113
 20
424.817
 30
0.0
 11
157.361
 21
423.266
 31
0.0
  0
LINE
  5
30F
330
1E
100
AcDbEntity
  8
0
100
AcDbLine
 10
154.193
 20
426.179
 30
0.0
 11
156.113
 21
424.817
 31
0.0
  0
LINE
  5
310
330
1E
100
AcDbEntity
  8
0
100
AcDbLine
 10
153.233
 20
423.924
 30
0.0
 11
154.097
 21
422.796
 31
0.0
  0
LINE
  5
311
330
1E
100
AcDbEntity
  8
0
100
AcDbLine
 10
152.168
 20
414.79
 30
0.0
 11
158.665
 21
413.652
 31
0.0
  0
LINE
  5
312
330
1E
100
AcDbEntity
  8
0
100
AcDbLine
 10
152.095
 20
414.658
 30
0.0
 11
158.154
 21
413.583
 31
0.0
  0
LINE
  5
313
330
1E
100
AcDbEntity
  8
0
100
AcDbLine
 10
181.074
 20
330.837
 30
0.0
 11
185.38
 21
335.135
 31
0.0
  0
LINE
  5
314
330
1E
100
AcDbEntity
  8
0
100
AcDbLine
 10
164.869
 20
331.981
 30
0.0
 11
170.636
 21
334.446
 31
0.0
  0
LINE
  5
315
330
1E
100
AcDbEntity
  8
0
100
AcDbLine
 10
158.665
 20
330.211
 30
0.0
 11
164.869
 21
331.981
 31
0.0
  0
LINE
  5
316
330
1E
100
AcDbEntity
  8
0
100
AcDbLine
 10
170.27
 20
409.411
 30
0.0
 11
175.672
 21
406.251
 31
0.0
  0
LINE
  5
317
330
1E
100
AcDbEntity
  8
0
100
AcDbLine
 10
158.245
 20
494.129
 30
0.0
 11
158.745
 21
491.184
 31
0.0
  0
LINE
  5
318
330
1E
100
AcDbEntity
  8
0
100
AcDbLine
 10
158.245
 20
476.629
 30
0.0
 11
158.745
 21
473.684
 31
0.0
  0
LINE
  5
319
330
1E
100
AcDbEntity
  8
0
100
AcDbLine
 10
158.245
 20
470.74
 30
0.0
 11
158.745
 21
473.684
 31
0.0
  0
LINE
  5
31A
330
1E
100
AcDbEntity
  8
0
100
AcDbLine
 10
158.745
 20
473.684
 30
0.0
 11
158.745
 21
491.184
 31
0.0
  0
LINE
  5
31D
330
1E
100
AcDbEntity
  8
0
100
AcDbLine
 10
161.896
 20
523.104
 30
0.0
 11
189.088
 21
523.074
 31
0.0
  0
LINE
  5
31F
330
1E
100
AcDbEntity
  8
0
100
AcDbLine
 10
161.485
 20
507.428
 30
0.0
 11
191.06
 21
507.2
 31
0.0
  0
LINE
  5
326
330
1E
100
AcDbEntity
  8
0
100
AcDbLine
 10
168.245
 20
523.14989056966
 30
0.0
 11
168.245
 21
525.0
 31
0.0
  0
LINE
  5
327
330
1E
100
AcDbEntity
  8
0
100
AcDbLine
 10
170.245
 20
507.360467286559
 30
0.0
 11
170.245
 21
505.0
 31
0.0
  0
LINE
  5
328
330
1E
100
AcDbEntity
  8
0
100
AcDbLine
 10
170.245
 20
505.0
 30
0.0
 11
170.245
 21
507.360467286559
 31
0.0
  0
LINE
  5
329
330
1E
100
AcDbEntity
  8
0
100
AcDbLine
 10
168.245
 20
525.0
 30
0.0
 11
168.245
 21
523.14989056966
 31
0.0
  0
LINE
  5
32A
330
1E
100
AcDbEntity
  8
0
100
AcDbLine
 10
168.245
 20
525.0
 30
0.0
 11
168.245
 21
526.0
 31
0.0
  0
LINE
  5
32D
330
1E
100
AcDbEntity
  8
0
100
AcDbLine
 10
168.245
 20
525.0
 30
0.0
 11
169.616
 21
526.0
 31
0.0
  0
LINE
  5
331
330
1E
100
AcDbEntity
  8
0
100
AcDbLine
 10
160.545
 20
527.5
 30
0.0
 11
167.545
 21
527.5
 31
0.0
  0
LINE
  5
332
330
1E
100
AcDbEntity
  8
0
100
AcDbLine
 10
160.245
 20
553.0
 30
0.0
 11
167.345
 21
553.0
 31
0.0
  0
LINE
  5
333
330
1E
100
AcDbEntity
  8
0
100
AcDbLine
 10
167.545
 20
527.5
 30
0.0
 11
175.645
 21
527.5
 31
0.0
  0
LINE
  5
334
330
1E
100
AcDbEntity
  8
0
100
AcDbLine
 10
167.345
 20
553.0
 30
0.0
 11
175.545
 21
553.0
 31
0.0
  0
LINE
  5
335
330
1E
100
AcDbEntity
  8
0
100
AcDbLine
 10
161.245
 20
527.0
 30
0.0
 11
168.045
 21
527.0
 31
0.0
  0
LINE
  5
336
330
1E
100
AcDbEntity
  8
0
100
AcDbLine
 10
168.045
 20
527.0
 30
0.0
 11
168.666
 21
527.0
 31
0.0
  0
LINE
  5
337
330
1E
100
AcDbEntity
  8
0
100
AcDbLine
 10
168.245
 20
526.76
 30
0.0
 11
168.245
 21
526.0
 31
0.0
  0
LINE
  5
338
330
1E
100
AcDbEntity
  8
0
100
AcDbLine
 10
168.245
 20
526.76
 30
0.0
 11
168.245
 21
526.9
 31
0.0
  0
LINE
  5
33C
330
1E
100
AcDbEntity
  8
0
100
AcDbLine
 10
168.666
 20
527.0
 30
0.0
 11
169.255
 21
527.0
 31
0.0
  0
LINE
  5
33D
330
1E
100
AcDbEntity
  8
0
100
AcDbLine
 10
169.255
 20
527.0
 30
0.0
 11
170.771
 21
527.0
 31
0.0
  0
LINE
  5
33E
330
1E
100
AcDbEntity
  8
0
100
AcDbLine
 10
168.245
 20
526.9
 30
0.0
 11
168.245
 21
526.76
 31
0.0
  0
LINE
  5
33F
330
1E
100
AcDbEntity
  8
0
100
AcDbLine
 10
168.245
 20
526.9
 30
0.0
 11
168.666
 21
527.0
 31
0.0
  0
LINE
  5
340
330
1E
100
AcDbEntity
  8
0
100
AcDbLine
 10
168.245
 20
526.0
 30
0.0
 11
168.245
 21
526.76
 31
0.0
  0
LINE
  5
341
330
1E
100
AcDbEntity
  8
0
100
AcDbLine
 10
168.245
 20
526.0
 30
0.0
 11
168.245
 21
525.0
 31
0.0
  0
LINE
  5
345
330
1E
100
AcDbEntity
  8
0
100
AcDbLine
 10
169.616
 20
526.0
 30
0.0
 11
172.287
 21
526.636
 31
0.0
  0
LINE
  5
347
330
1E
100
AcDbEntity
  8
0
100
AcDbLine
 10
158.745
 20
491.184
 30
0.0
 11
158.745
 21
473.684
 31
0.0
  0
LINE
  5
348
330
1E
100
AcDbEntity
  8
0
100
AcDbLine
 10
164.869
 20
411.882
 30
0.0
 11
170.636
 21
409.417
 31
0.0
  0
LINE
  5
349
330
1E
100
AcDbEntity
  8
0
100
AcDbLine
 10
158.665
 20
413.652
 30
0.0
 11
164.869
 21
411.882
 31
0.0
  0
LINE
  5
34A
330
1E
100
AcDbEntity
  8
0
100
AcDbLine
 10
164.577
 20
411.75
 30
0.0
 11
170.27
 21
409.411
 31
0.0
  0
LINE
  5
34B
330
1E
100
AcDbEntity
  8
0
100
AcDbLine
 10
185.38
 20
335.135
 30
0.0
 11
189.03
 21
339.876
 31
0.0
  0
LINE
  5
34C
330
1E
100
AcDbEntity
  8
0
100
AcDbLine
 10
176.11
 20
337.607
 30
0.0
 11
181.074
 21
341.337
 31
0.0
  0
LINE
  5
34D
330
1E
100
AcDbEntity
  8
0
100
AcDbLine
 10
170.636
 20
334.446
 30
0.0
 11
176.11
 21
337.607
 31
0.0
  0
LINE
  5
34E
330
1E
100
AcDbEntity
  8
0
100
AcDbLine
 10
181.074
 20
341.337
 30
0.0
 11
185.38
 21
345.635
 31
0.0
  0
LINE
  5
34F
330
1E
100
AcDbEntity
  8
0
100
AcDbLine
 10
180.563
 20
342.279
 30
0.0
 11
184.796
 21
346.514
 31
0.0
  0
LINE
  5
350
330
1E
100
AcDbEntity
  8
0
100
AcDbLine
 10
189.03
 20
339.876
 30
0.0
 11
191.876
 21
344.87
 31
0.0
  0
LINE
  5
351
330
1E
100
AcDbEntity
  8
0
100
AcDbLine
 10
185.38
 20
345.635
 30
0.0
 11
189.03
 21
350.376
 31
0.0
  0
LINE
  5
352
330
1E
100
AcDbEntity
  8
0
100
AcDbLine
 10
189.03
 20
350.376
 30
0.0
 11
191.876
 21
355.37
 31
0.0
  0
LINE
  5
353
330
1E
100
AcDbEntity
  8
0
100
AcDbLine
 10
184.796
 20
346.514
 30
0.0
 11
188.446
 21
351.192
 31
0.0
  0
LINE
  5
354
330
1E
100
AcDbEntity
  8
0
100
AcDbLine
 10
188.446
 20
351.192
 30
0.0
 11
191.147
 21
356.123
 31
0.0
  0
LINE
  5
355
330
1E
100
AcDbEntity
  8
0
100
AcDbLine
 10
191.876
 20
344.87
 30
0.0
 11
193.92
 21
350.243
 31
0.0
  0
LINE
  5
356
330
1E
100
AcDbEntity
  8
0
100
AcDbLine
 10
193.92
 20
350.243
 30
0.0
 11
195.234
 21
355.869
 31
0.0
  0
LINE
  5
357
330
1E
100
AcDbEntity
  8
0
100
AcDbLine
 10
191.876
 20
355.37
 30
0.0
 11
193.92
 21
360.743
 31
0.0
  0
LINE
  5
358
330
1E
100
AcDbEntity
  8
0
100
AcDbLine
 10
193.92
 20
360.743
 30
0.0
 11
195.234
 21
366.369
 31
0.0
  0
LINE
  5
359
330
1E
100
AcDbEntity
  8
0
100
AcDbLine
 10
191.147
 20
356.123
 30
0.0
 11
193.263
 21
361.686
 31
0.0
  0
LINE
  5
35A
330
1E
100
AcDbEntity
  8
0
100
AcDbLine
 10
193.92
 20
383.12
 30
0.0
 11
195.234
 21
377.494
 31
0.0
  0
LINE
  5
35B
330
1E
100
AcDbEntity
  8
0
100
AcDbLine
 10
189.03
 20
393.487
 30
0.0
 11
191.876
 21
388.493
 31
0.0
  0
LINE
  5
35C
330
1E
100
AcDbEntity
  8
0
100
AcDbLine
 10
181.074
 20
402.527
 30
0.0
 11
185.38
 21
398.228
 31
0.0
  0
LINE
  5
35D
330
1E
100
AcDbEntity
  8
0
100
AcDbLine
 10
170.771
 20
527.0
 30
0.0
 11
173.214
 21
527.0
 31
0.0
  0
LINE
  5
35E
330
1E
100
AcDbEntity
  8
0
100
AcDbLine
 10
175.645
 20
527.5
 30
0.0
 11
184.245
 21
527.5
 31
0.0
  0
LINE
  5
35F
330
1E
100
AcDbEntity
  8
0
100
AcDbLine
 10
175.545
 20
553.0
 30
0.0
 11
184.245
 21
553.0
 31
0.0
  0
LINE
  5
360
330
1E
100
AcDbEntity
  8
0
100
AcDbLine
 10
173.214
 20
527.0
 30
0.0
 11
176.498
 21
527.0
 31
0.0
  0
LINE
  5
362
330
1E
100
AcDbEntity
  8
0
100
AcDbLine
 10
172.287
 20
526.636
 30
0.0
 11
176.1
 21
526.798
 31
0.0
  0
LINE
  5
364
330
1E
100
AcDbEntity
  8
0
100
AcDbLine
 10
170.636
 20
409.417
 30
0.0
 11
176.11
 21
406.256
 31
0.0
  0
LINE
  5
366
330
1E
100
AcDbEntity
  8
0
100
AcDbLine
 10
184.245
 20
505.0
 30
0.0
 11
188.851
 21
505.0
 31
0.0
  0
LINE
  5
367
330
1E
100
AcDbEntity
  8
0
100
AcDbLine
 10
184.245
 20
460.0
 30
0.0
 11
188.692
 21
460.0
 31
0.0
  0
LINE
  5
368
330
1E
100
AcDbEntity
  8
0
100
AcDbLine
 10
182.268
 20
526.0
 30
0.0
 11
184.245
 21
526.0
 31
0.0
  0
LINE
  5
369
330
1E
100
AcDbEntity
  8
0
100
AcDbLine
 10
176.498
 20
527.0
 30
0.0
 11
180.203
 21
527.0
 31
0.0
  0
LINE
  5
36B
330
1E
100
AcDbEntity
  8
0
100
AcDbLine
 10
179.893
 20
526.581
 30
0.0
 11
182.268
 21
526.0
 31
0.0
  0
LINE
  5
36F
330
1E
100
AcDbEntity
  8
0
100
AcDbLine
 10
176.1
 20
526.798
 30
0.0
 11
179.893
 21
526.581
 31
0.0
  0
LINE
  5
371
330
1E
100
AcDbEntity
  8
0
100
AcDbLine
 10
184.245
 20
527.5
 30
0.0
 11
192.845
 21
527.5
 31
0.0
  0
LINE
  5
372
330
1E
100
AcDbEntity
  8
0
100
AcDbLine
 10
184.245
 20
553.0
 30
0.0
 11
192.945
 21
553.0
 31
0.0
  0
LINE
  5
373
330
1E
100
AcDbEntity
  8
0
100
AcDbLine
 10
180.203
 20
527.0
 30
0.0
 11
184.245
 21
527.0
 31
0.0
  0
LINE
  5
378
330
1E
100
AcDbEntity
  8
0
100
AcDbLine
 10
184.245
 20
526.0
 30
0.0
 11
186.222
 21
526.0
 31
0.0
  0
LINE
  5
37A
330
1E
100
AcDbEntity
  8
0
100
AcDbLine
 10
184.245
 20
527.0
 30
0.0
 11
188.287
 21
527.0
 31
0.0
  0
LINE
  5
37C
330
1E
100
AcDbEntity
  8
0
100
AcDbLine
 10
176.11
 20
406.256
 30
0.0
 11
181.074
 21
402.527
 31
0.0
  0
LINE
  5
37D
330
1E
100
AcDbEntity
  8
0
100
AcDbLine
 10
175.672
 20
406.251
 30
0.0
 11
180.563
 21
402.584
 31
0.0
  0
LINE
  5
37E
330
1E
100
AcDbEntity
  8
0
100
AcDbLine
 10
180.563
 20
402.584
 30
0.0
 11
184.796
 21
398.349
 31
0.0
  0
LINE
  5
37F
330
1E
100
AcDbEntity
  8
0
100
AcDbLine
 10
186.222
 20
526.0
 30
0.0
 11
188.597
 21
526.581
 31
0.0
  0
LINE
  5
380
330
1E
100
AcDbEntity
  8
0
100
AcDbLine
 10
188.287
 20
527.0
 30
0.0
 11
191.992
 21
527.0
 31
0.0
  0
LINE
  5
383
330
1E
100
AcDbEntity
  8
0
100
AcDbLine
 10
189.088
 20
523.074
 30
0.0
 11
217.757
 21
522.863
 31
0.0
  0
LINE
  5
384
330
1E
100
AcDbEntity
  8
0
100
AcDbLine
 10
191.06
 20
507.2
 30
0.0
 11
219.746
 21
506.991
 31
0.0
  0
LINE
  5
385
330
1E
100
AcDbEntity
  8
0
100
AcDbLine
 10
188.851
 20
505.0
 30
0.0
 11
193.192
 21
505.0
 31
0.0
  0
LINE
  5
386
330
1E
100
AcDbEntity
  8
0
100
AcDbLine
 10
188.692
 20
460.0
 30
0.0
 11
192.821
 21
460.0
 31
0.0
  0
LINE
  5
388
330
1E
100
AcDbEntity
  8
0
100
AcDbLine
 10
188.597
 20
526.581
 30
0.0
 11
192.39
 21
526.798
 31
0.0
  0
LINE
  5
389
330
1E
100
AcDbEntity
  8
0
100
AcDbLine
 10
185.38
 20
398.228
 30
0.0
 11
189.03
 21
393.487
 31
0.0
  0
LINE
  5
38A
330
1E
100
AcDbEntity
  8
0
100
AcDbLine
 10
184.796
 20
398.349
 30
0.0
 11
188.446
 21
393.671
 31
0.0
  0
LINE
  5
38B
330
1E
100
AcDbEntity
  8
0
100
AcDbLine
 10
188.446
 20
393.671
 30
0.0
 11
191.147
 21
388.741
 31
0.0
  0
LINE
  5
38D
330
1E
100
AcDbEntity
  8
0
100
AcDbLine
 10
193.192
 20
505.0
 30
0.0
 11
196.951
 21
505.0
 31
0.0
  0
LINE
  5
38E
330
1E
100
AcDbEntity
  8
0
100
AcDbLine
 10
192.821
 20
460.0
 30
0.0
 11
196.421
 21
460.0
 31
0.0
  0
LINE
  5
38F
330
1E
100
AcDbEntity
  8
0
100
AcDbLine
 10
192.845
 20
527.5
 30
0.0
 11
200.945
 21
527.5
 31
0.0
  0
LINE
  5
390
330
1E
100
AcDbEntity
  8
0
100
AcDbLine
 10
192.945
 20
553.0
 30
0.0
 11
201.145
 21
553.0
 31
0.0
  0
LINE
  5
391
330
1E
100
AcDbEntity
  8
0
100
AcDbLine
 10
192.39
 20
526.798
 30
0.0
 11
196.203
 21
526.636
 31
0.0
  0
LINE
  5
394
330
1E
100
AcDbEntity
  8
0
100
AcDbLine
 10
191.992
 20
527.0
 30
0.0
 11
195.277
 21
527.0
 31
0.0
  0
LINE
  5
395
330
1E
100
AcDbEntity
  8
0
100
AcDbLine
 10
191.876
 20
388.493
 30
0.0
 11
193.92
 21
383.12
 31
0.0
  0
LINE
  5
396
330
1E
100
AcDbEntity
  8
0
100
AcDbLine
 10
191.147
 20
388.741
 30
0.0
 11
193.263
 21
383.178
 31
0.0
  0
LINE
  5
397
330
1E
100
AcDbEntity
  8
0
100
AcDbLine
 10
193.263
 20
383.178
 30
0.0
 11
194.504
 21
377.931
 31
0.0
  0
LINE
  5
398
330
1E
100
AcDbEntity
  8
0
100
AcDbLine
 10
194.504
 20
377.931
 30
0.0
 11
195.015
 21
372.432
 31
0.0
  0
LINE
  5
399
330
1E
100
AcDbEntity
  8
0
100
AcDbLine
 10
193.263
 20
361.686
 30
0.0
 11
194.504
 21
366.932
 31
0.0
  0
LINE
  5
39A
330
1E
100
AcDbEntity
  8
0
100
AcDbLine
 10
195.745
 20
361.432
 30
0.0
 11
195.745
 21
371.932
 31
0.0
  0
LINE
  5
39B
330
1E
100
AcDbEntity
  8
0
100
AcDbLine
 10
195.234
 20
355.869
 30
0.0
 11
195.745
 21
361.432
 31
0.0
  0
LINE
  5
39D
330
1E
100
AcDbEntity
  8
0
100
AcDbLine
 10
196.951
 20
505.0
 30
0.0
 11
199.81
 21
505.0
 31
0.0
  0
LINE
  5
39E
330
1E
100
AcDbEntity
  8
0
100
AcDbLine
 10
196.421
 20
460.0
 30
0.0
 11
199.121
 21
460.0
 31
0.0
  0
LINE
  5
39F
330
1E
100
AcDbEntity
  8
0
100
AcDbLine
 10
198.245
 20
505.0
 30
0.0
 11
198.245
 21
507.147651641916
 31
0.0
  0
LINE
  5
3A0
330
1E
100
AcDbEntity
  8
0
100
AcDbLine
 10
198.245
 20
507.147651641916
 30
0.0
 11
198.245
 21
505.0
 31
0.0
  0
LINE
  5
3A2
330
1E
100
AcDbEntity
  8
0
100
AcDbLine
 10
199.81
 20
505.0
 30
0.0
 11
201.61
 21
505.0
 31
0.0
  0
LINE
  5
3A3
330
1E
100
AcDbEntity
  8
0
100
AcDbLine
 10
199.121
 20
460.0
 30
0.0
 11
200.816
 21
460.0
 31
0.0
  0
LINE
  5
3A4
330
1E
100
AcDbEntity
  8
0
100
AcDbLine
 10
200.245
 20
522.991885974397
 30
0.0
 11
200.245
 21
525.0
 31
0.0
  0
LINE
  5
3AA
330
1E
100
AcDbEntity
  8
0
100
AcDbLine
 10
198.874
 20
526.0
 30
0.0
 11
200.245
 21
525.0
 31
0.0
  0
LINE
  5
3AD
330
1E
100
AcDbEntity
  8
0
100
AcDbLine
 10
196.203
 20
526.636
 30
0.0
 11
198.874
 21
526.0
 31
0.0
  0
LINE
  5
3B0
330
1E
100
AcDbEntity
  8
0
100
AcDbLine
 10
200.245
 20
526.0
 30
0.0
 11
200.245
 21
525.0
 31
0.0
  0
LINE
  5
3B1
330
1E
100
AcDbEntity
  8
0
100
AcDbLine
 10
200.245
 20
526.0
 30
0.0
 11
200.245
 21
526.76
 31
0.0
  0
LINE
  5
3B2
330
1E
100
AcDbEntity
  8
0
100
AcDbLine
 10
200.245
 20
525.0
 30
0.0
 11
200.245
 21
522.991885974397
 31
0.0
  0
LINE
  5
3B3
330
1E
100
AcDbEntity
  8
0
100
AcDbLine
 10
200.245
 20
525.0
 30
0.0
 11
200.245
 21
526.0
 31
0.0
  0
LINE
  5
3B5
330
1E
100
AcDbEntity
  8
0
100
AcDbLine
 10
197.719
 20
527.0
 30
0.0
 11
199.235
 21
527.0
 31
0.0
  0
LINE
  5
3B8
330
1E
100
AcDbEntity
  8
0
100
AcDbLine
 10
195.277
 20
527.0
 30
0.0
 11
197.719
 21
527.0
 31
0.0
  0
LINE
  5
3B9
330
1E
100
AcDbEntity
  8
0
100
AcDbLine
 10
199.824
 20
527.0
 30
0.0
 11
200.245
 21
526.9
 31
0.0
  0
LINE
  5
3BA
330
1E
100
AcDbEntity
  8
0
100
AcDbLine
 10
199.824
 20
527.0
 30
0.0
 11
200.445
 21
527.0
 31
0.0
  0
LINE
  5
3BC
330
1E
100
AcDbEntity
  8
0
100
AcDbLine
 10
199.235
 20
527.0
 30
0.0
 11
199.824
 21
527.0
 31
0.0
  0
LINE
  5
3BD
330
1E
100
AcDbEntity
  8
0
100
AcDbLine
 10
200.245
 20
526.76
 30
0.0
 11
200.245
 21
526.0
 31
0.0
  0
LINE
  5
3BE
330
1E
100
AcDbEntity
  8
0
100
AcDbLine
 10
200.245
 20
526.76
 30
0.0
 11
200.245
 21
526.9
 31
0.0
  0
LINE
  5
3C0
330
1E
100
AcDbEntity
  8
0
100
AcDbLine
 10
200.816
 20
460.0
 30
0.0
 11
201.451
 21
460.0
 31
0.0
  0
LINE
  5
3C1
330
1E
100
AcDbEntity
  8
0
100
AcDbLine
 10
201.451
 20
460.0
 30
0.0
 11
201.98
 21
460.385
 31
0.0
  0
LINE
  5
3C2
330
1E
100
AcDbEntity
  8
0
100
AcDbLine
 10
202.245
 20
496.323779068907
 30
0.0
 11
209.672
 21
497.294
 31
0.0
  0
LINE
  5
3C3
330
1E
100
AcDbEntity
  8
0
100
AcDbLine
 10
202.245
 20
505.0
 30
0.0
 11
202.245
 21
461.154
 31
0.0
  0
LINE
  5
3C4
330
1E
100
AcDbEntity
  8
0
100
AcDbLine
 10
201.61
 20
505.0
 30
0.0
 11
202.245
 21
505.0
 31
0.0
  0
LINE
  5
3C5
330
1E
100
AcDbEntity
  8
0
100
AcDbLine
 10
201.98
 20
460.385
 30
0.0
 11
202.245
 21
461.154
 31
0.0
  0
LINE
  5
3C6
330
1E
100
AcDbEntity
  8
0
100
AcDbLine
 10
202.245
 20
461.154
 30
0.0
 11
202.245
 21
505.0
 31
0.0
  0
LINE
  5
3C7
330
1E
100
AcDbEntity
  8
0
100
AcDbLine
 10
200.445
 20
527.0
 30
0.0
 11
207.245
 21
527.0
 31
0.0
  0
LINE
  5
3C8
330
1E
100
AcDbEntity
  8
0
100
AcDbLine
 10
209.672
 20
497.294
 30
0.0
 11
222.462
 21
499.009
 31
0.0
  0
LINE
  5
3C9
330
1E
100
AcDbEntity
  8
0
100
AcDbLine
 10
207.245
 20
527.0
 30
0.0
 11
212.345
 21
527.0
 31
0.0
  0
LINE
  5
3CA
330
1E
100
AcDbEntity
  8
0
100
AcDbLine
 10
212.345
 20
527.0
 30
0.0
 11
215.545
 21
527.0
 31
0.0
  0
LINE
  5
3CB
330
1E
100
AcDbEntity
  8
0
100
AcDbLine
 10
215.545
 20
527.0
 30
0.0
 11
216.745
 21
527.0
 31
0.0
  0
LINE
  5
3CC
330
1E
100
AcDbEntity
  8
0
100
AcDbLine
 10
207.945
 20
527.5
 30
0.0
 11
213.245
 21
527.5
 31
0.0
  0
LINE
  5
3CD
330
1E
100
AcDbEntity
  8
0
100
AcDbLine
 10
213.245
 20
527.5
 30
0.0
 11
216.545
 21
527.5
 31
0.0
  0
LINE
  5
3CE
330
1E
100
AcDbEntity
  8
0
100
AcDbLine
 10
216.545
 20
527.5
 30
0.0
 11
217.745
 21
527.5
 31
0.0
  0
LINE
  5
3CF
330
1E
100
AcDbEntity
  8
0
100
AcDbLine
 10
200.945
 20
527.5
 30
0.0
 11
207.945
 21
527.5
 31
0.0
  0
LINE
  5
3D0
330
1E
100
AcDbEntity
  8
0
100
AcDbLine
 10
216.745
 20
527.0
 30
0.0
 11
217.745
 21
527.5
 31
0.0
  0
LINE
  5
3D1
330
1E
100
AcDbEntity
  8
0
100
AcDbLine
 10
222.462
 20
499.009
 30
0.0
 11
234.315
 21
500.647
 31
0.0
  0
LINE
  5
3D2
330
1E
100
AcDbEntity
  8
0
100
AcDbLine
 10
234.315
 20
500.647
 30
0.0
 11
245.026
 21
502.18
 31
0.0
  0
LINE
  5
3D3
330
1E
100
AcDbEntity
  8
0
100
AcDbLine
 10
219.746
 20
506.991
 30
0.0
 11
245.153
 21
508.271
 31
0.0
  0
LINE
  5
3D4
330
1E
100
AcDbEntity
  8
0
100
AcDbLine
 10
243.172
 20
524.143
 30
0.0
 11
263.34
 21
525.245
 31
0.0
  0
LINE
  5
3D5
330
1E
100
AcDbEntity
  8
0
100
AcDbLine
 10
217.757
 20
522.863
 30
0.0
 11
243.172
 21
524.143
 31
0.0
  0
LINE
  5
3D6
330
1E
100
AcDbEntity
  8
0
100
AcDbLine
 10
245.153
 20
508.271
 30
0.0
 11
265.331
 21
509.373
 31
0.0
  0
LINE
  5
3D7
330
1E
100
AcDbEntity
  8
0
100
AcDbLine
 10
262.314
 20
504.822
 30
0.0
 11
268.595
 21
505.889
 31
0.0
  0
LINE
  5
3D8
330
1E
100
AcDbEntity
  8
0
100
AcDbLine
 10
268.595
 20
505.889
 30
0.0
 11
273.148
 21
506.759
 31
0.0
  0
LINE
  5
3D9
330
1E
100
AcDbEntity
  8
0
100
AcDbLine
 10
273.148
 20
506.759
 30
0.0
 11
275.895
 21
507.418
 31
0.0
  0
LINE
  5
3DA
330
1E
100
AcDbEntity
  8
0
100
AcDbLine
 10
275.895
 20
507.418
 30
0.0
 11
277.876
 21
507.945
 31
0.0
  0
LINE
  5
3DB
330
1E
100
AcDbEntity
  8
0
100
AcDbLine
 10
264.111980522456
 20
509.306424548307
 30
0.0
 11
269.049
 21
508.748
 31
0.0
  0
LINE
  5
3DC
330
1E
100
AcDbEntity
  8
0
100
AcDbLine
 10
269.049
 20
508.748
 30
0.0
 11
274.721
 21
507.892
 31
0.0
  0
LINE
  5
3DD
330
1E
100
AcDbEntity
  8
0
100
AcDbLine
 10
278.787
 20
508.391
 30
0.0
 11
280.599
 21
509.388
 31
0.0
  0
LINE
  5
3DE
330
1E
100
AcDbEntity
  8
0
100
AcDbLine
 10
277.876
 20
507.945
 30
0.0
 11
278.787
 21
508.391
 31
0.0
  0
LINE
  5
3DF
330
1E
100
AcDbEntity
  8
0
100
AcDbLine
 10
280.599
 20
509.388
 30
0.0
 11
282.126
 21
510.864
 31
0.0
  0
LINE
  5
3E0
330
1E
100
AcDbEntity
  8
0
100
AcDbLine
 10
282.126
 20
510.864
 30
0.0
 11
283.19
 21
512.703
 31
0.0
  0
LINE
  5
3E1
330
1E
100
AcDbEntity
  8
0
100
AcDbLine
 10
283.19
 20
512.703
 30
0.0
 11
283.719
 21
514.701
 31
0.0
  0
LINE
  5
3E2
330
1E
100
AcDbEntity
  8
0
100
AcDbLine
 10
271.208
 20
524.559
 30
0.0
 11
276.908
 21
523.696
 31
0.0
  0
LINE
  5
3E3
330
1E
100
AcDbEntity
  8
0
100
AcDbLine
 10
265.403
 20
525.216
 30
0.0
 11
271.208
 21
524.559
 31
0.0
  0
LINE
  5
3E4
330
1E
100
AcDbEntity
  8
0
100
AcDbLine
 10
263.34
 20
525.245
 30
0.0
 11
265.403
 21
525.216
 31
0.0
  0
LINE
  5
3E5
330
1E
100
AcDbEntity
  8
0
100
AcDbLine
 10
276.908
 20
523.696
 30
0.0
 11
278.907
 21
523.168
 31
0.0
  0
LINE
  5
3E6
330
1E
100
AcDbEntity
  8
0
100
AcDbLine
 10
278.907
 20
523.168
 30
0.0
 11
280.746
 21
522.104
 31
0.0
  0
LINE
  5
3E7
330
1E
100
AcDbEntity
  8
0
100
AcDbLine
 10
280.746
 20
522.104
 30
0.0
 11
282.223
 21
520.578
 31
0.0
  0
LINE
  5
3E8
330
1E
100
AcDbEntity
  8
0
100
AcDbLine
 10
282.223
 20
520.578
 30
0.0
 11
283.22
 21
518.766
 31
0.0
  0
LINE
  5
3E9
330
1E
100
AcDbEntity
  8
0
100
AcDbLine
 10
283.22
 20
518.766
 30
0.0
 11
283.755
 21
516.769
 31
0.0
  0
LINE
  5
3EA
330
1E
100
AcDbEntity
  8
0
100
AcDbLine
 10
283.719
 20
514.701
 30
0.0
 11
283.755
 21
516.769
 31
0.0
  0
LINE
  5
3EB
330
1E
100
AcDbEntity
  8
0
100
AcDbLine
 10
254.413
 20
503.579
 30
0.0
 11
262.314
 21
504.822
 31
0.0
  0
LINE
  5
3EC
330
1E
100
AcDbEntity
  8
0
100
AcDbLine
 10
245.026
 20
502.18
 30
0.0
 11
254.413
 21
503.579
 31
0.0
  0
LINE
  5
3ED
330
1E
100
AcDbEntity
  8
0
100
AcDbLine
 10
217.745
 20
527.5
 30
0.0
 11
218.245
 21
528.5
 31
0.0
  0
LINE
  5
3EE
330
1E
100
AcDbEntity
  8
0
100
AcDbLine
 10
208.245
 20
553.0
 30
0.0
 11
213.645
 21
553.0
 31
0.0
  0
LINE
  5
3EF
330
1E
100
AcDbEntity
  8
0
100
AcDbLine
 10
218.245
 20
553.0
 30
0.0
 11
218.245
 21
528.5
 31
0.0
  0
LINE
  5
3F0
330
1E
100
AcDbEntity
  8
0
100
AcDbLine
 10
213.645
 20
553.0
 30
0.0
 11
217.045
 21
553.0
 31
0.0
  0
LINE
  5
3F1
330
1E
100
AcDbEntity
  8
0
100
AcDbLine
 10
217.045
 20
553.0
 30
0.0
 11
218.245
 21
553.0
 31
0.0
  0
LINE
  5
3F2
330
1E
100
AcDbEntity
  8
0
100
AcDbLine
 10
201.145
 20
553.0
 30
0.0
 11
208.245
 21
553.0
 31
0.0
  0
LINE
  5
3F3
330
1E
100
AcDbEntity
  8
0
100
AcDbLine
 10
218.245
 20
528.5
 30
0.0
 11
218.245
 21
553.0
 31
0.0
  0
LINE
  5
3F4
330
1E
100
AcDbEntity
  8
0
100
AcDbLine
 10
200.245
 20
526.9
 30
0.0
 11
200.245
 21
526.76
 31
0.0
  0
LINE
  5
3F5
330
1E
100
AcDbEntity
  8
0
100
AcDbLine
 10
195.745
 20
371.932
 30
0.0
 11
195.745
 21
361.432
 31
0.0
  0
LINE
  5
3F6
330
1E
100
AcDbEntity
  8
0
100
AcDbLine
 10
195.234
 20
377.494
 30
0.0
 11
195.745
 21
371.932
 31
0.0
  0
LINE
  5
3F7
330
1E
100
AcDbEntity
  8
0
100
AcDbLine
 10
195.234
 20
366.369
 30
0.0
 11
195.745
 21
371.932
 31
0.0
  0
LINE
  5
3F8
330
1E
100
AcDbEntity
  8
0
100
AcDbLine
 10
194.504
 20
366.932
 30
0.0
 11
195.015
 21
372.432
 31
0.0
  0
LINE
  5
3F9
330
1E
100
AcDbEntity
  8
0
100
AcDbLine
 10
175.672
 20
338.613
 30
0.0
 11
180.563
 21
342.279
 31
0.0
  0
LINE
  5
3FA
330
1E
100
AcDbEntity
  8
0
100
AcDbLine
 10
170.27
 20
335.452
 30
0.0
 11
175.672
 21
338.613
 31
0.0
  0
LINE
  5
3FB
330
1E
100
AcDbEntity
  8
0
100
AcDbLine
 10
164.577
 20
333.113
 30
0.0
 11
170.27
 21
335.452
 31
0.0
  0
LINE
  5
3FC
330
1E
100
AcDbEntity
  8
0
100
AcDbLine
 10
158.154
 20
331.28
 30
0.0
 11
164.577
 21
333.113
 31
0.0
  0
LINE
  5
3FD
330
1E
100
AcDbEntity
  8
0
100
AcDbLine
 10
152.095
 20
330.205
 30
0.0
 11
158.154
 21
331.28
 31
0.0
  0
LINE
  5
3FE
330
1E
100
AcDbEntity
  8
0
100
AcDbLine
 10
149.245
 20
553.0
 30
0.0
 11
149.245
 21
545.48
 31
0.0
  0
LINE
  5
403
330
1E
100
AcDbEntity
  8
0
100
AcDbLine
 10
134.129
 20
478.103
 30
0.0
 11
133.745
 21
475.548
 31
0.0
  0
LINE
  5
404
330
1E
100
AcDbEntity
  8
0
100
AcDbLine
 10
157.745
 20
475.548
 30
0.0
 11
157.361
 21
478.103
 31
0.0
  0
LINE
  5
4E6
330
1E
100
AcDbEntity
  8
0
100
AcDbLine
 10
134.145
 20
46.7
 30
0.0
 11
139.645
 21
50.4
 31
0.0
  0
LINE
  5
4E7
330
1E
100
AcDbEntity
  8
0
100
AcDbLine
 10
134.145
 20
133.3
 30
0.0
 11
139.645
 21
129.6
 31
0.0
  0
LINE
  5
4E8
330
1E
100
AcDbEntity
  8
0
100
AcDbLine
 10
124.845
 20
208.8
 30
0.0
 11
140.245
 21
205.7
 31
0.0
  0
LINE
  5
4E9
330
1E
100
AcDbEntity
  8
0
100
AcDbLine
 10
124.845
 20
207.8
 30
0.0
 11
139.945
 21
204.7
 31
0.0
  0
LINE
  5
4EA
330
1E
100
AcDbEntity
  8
0
100
AcDbLine
 10
124.845
 20
-28.8
 30
0.0
 11
140.245
 21
-25.7
 31
0.0
  0
LINE
  5
4EB
330
1E
100
AcDbEntity
  8
0
100
AcDbLine
 10
124.845
 20
-27.8
 30
0.0
 11
139.945
 21
-24.7
 31
0.0
  0
LINE
  5
4EC
330
1E
100
AcDbEntity
  8
0
100
AcDbLine
 10
124.845
 20
-27.8
 30
0.0
 11
139.945
 21
-24.7
 31
0.0
  0
LINE
  5
4ED
330
1E
100
AcDbEntity
  8
0
100
AcDbLine
 10
121.245
 20
545.0
 30
0.0
 11
121.245
 21
68.6353
 31
0.0
  0
LINE
  5
4EE
330
1E
100
AcDbEntity
  8
0
100
AcDbLine
 10
121.245
 20
68.6353
 30
0.0
 11
121.245
 21
545.0
 31
0.0
  0
LINE
  5
4EF
330
1E
100
AcDbEntity
  8
0
100
AcDbLine
 10
97.245
 20
545.0
 30
0.0
 11
97.245
 21
68.6353
 31
0.0
  0
LINE
  5
4F0
330
1E
100
AcDbEntity
  8
0
100
AcDbLine
 10
97.245
 20
68.6353
 30
0.0
 11
97.245
 21
545.0
 31
0.0
  0
LINE
  5
4F1
330
1E
100
AcDbEntity
  8
0
100
AcDbLine
 10
36.345
 20
-5.0
 30
0.0
 11
49.545
 21
-13.9
 31
0.0
  0
LINE
  5
4F2
330
1E
100
AcDbEntity
  8
0
100
AcDbLine
 10
36.345
 20
-5.0
 30
0.0
 11
49.545
 21
-13.9
 31
0.0
  0
LINE
  5
4F3
330
1E
100
AcDbEntity
  8
0
100
AcDbLine
 10
36.945
 20
-4.2
 30
0.0
 11
50.045
 21
-13.1
 31
0.0
  0
LINE
  5
4F4
330
1E
100
AcDbEntity
  8
0
100
AcDbLine
 10
36.345
 20
185.0
 30
0.0
 11
49.545
 21
193.9
 31
0.0
  0
LINE
  5
4F5
330
1E
100
AcDbEntity
  8
0
100
AcDbLine
 10
36.945
 20
184.2
 30
0.0
 11
50.045
 21
193.1
 31
0.0
  0
LINE
  5
4F6
330
1E
100
AcDbEntity
  8
0
100
AcDbLine
 10
-10.755
 20
90.0
 30
0.0
 11
-9.555
 21
74.4
 31
0.0
  0
LINE
  5
4F7
330
1E
100
AcDbEntity
  8
0
100
AcDbLine
 10
-9.755
 20
90.0
 30
0.0
 11
-8.555
 21
74.4
 31
0.0
  0
LINE
  5
4F8
330
1E
100
AcDbEntity
  8
0
100
AcDbLine
 10
-6.455
 20
59.0
 30
0.0
 11
-1.355
 21
44.2
 31
0.0
  0
LINE
  5
4F9
330
1E
100
AcDbEntity
  8
0
100
AcDbLine
 10
-5.455
 20
59.3
 30
0.0
 11
-0.455
 21
44.5
 31
0.0
  0
LINE
  5
4FA
330
1E
100
AcDbEntity
  8
0
100
AcDbLine
 10
-9.555
 20
74.4
 30
0.0
 11
-6.455
 21
59.0
 31
0.0
  0
LINE
  5
4FB
330
1E
100
AcDbEntity
  8
0
100
AcDbLine
 10
-8.555
 20
74.4
 30
0.0
 11
-5.455
 21
59.3
 31
0.0
  0
LINE
  5
4FC
330
1E
100
AcDbEntity
  8
0
100
AcDbLine
 10
14.245
 20
17.1
 30
0.0
 11
24.545
 21
5.3
 31
0.0
  0
LINE
  5
4FD
330
1E
100
AcDbEntity
  8
0
100
AcDbLine
 10
15.045
 20
17.7
 30
0.0
 11
25.245
 21
6.0
 31
0.0
  0
LINE
  5
4FE
330
1E
100
AcDbEntity
  8
0
100
AcDbLine
 10
-1.355
 20
44.2
 30
0.0
 11
5.345
 21
30.3
 31
0.0
  0
LINE
  5
4FF
330
1E
100
AcDbEntity
  8
0
100
AcDbLine
 10
-0.455
 20
44.5
 30
0.0
 11
6.145
 21
30.8
 31
0.0
  0
LINE
  5
500
330
1E
100
AcDbEntity
  8
0
100
AcDbLine
 10
5.345
 20
30.3
 30
0.0
 11
14.245
 21
17.1
 31
0.0
  0
LINE
  5
501
330
1E
100
AcDbEntity
  8
0
100
AcDbLine
 10
6.145
 20
30.8
 30
0.0
 11
15.045
 21
17.7
 31
0.0
  0
LINE
  5
502
330
1E
100
AcDbEntity
  8
0
100
AcDbLine
 10
24.545
 20
5.3
 30
0.0
 11
36.345
 21
-5.0
 31
0.0
  0
LINE
  5
503
330
1E
100
AcDbEntity
  8
0
100
AcDbLine
 10
25.245
 20
6.0
 30
0.0
 11
36.945
 21
-4.2
 31
0.0
  0
LINE
  5
504
330
1E
100
AcDbEntity
  8
0
100
AcDbLine
 10
-6.455
 20
121.0
 30
0.0
 11
-1.355
 21
135.8
 31
0.0
  0
LINE
  5
505
330
1E
100
AcDbEntity
  8
0
100
AcDbLine
 10
-5.455
 20
120.7
 30
0.0
 11
-0.455
 21
135.5
 31
0.0
  0
LINE
  5
506
330
1E
100
AcDbEntity
  8
0
100
AcDbLine
 10
-10.755
 20
90.0
 30
0.0
 11
-9.555
 21
105.6
 31
0.0
  0
LINE
  5
507
330
1E
100
AcDbEntity
  8
0
100
AcDbLine
 10
-9.755
 20
90.0
 30
0.0
 11
-8.555
 21
105.6
 31
0.0
  0
LINE
  5
508
330
1E
100
AcDbEntity
  8
0
100
AcDbLine
 10
-9.555
 20
105.6
 30
0.0
 11
-6.455
 21
121.0
 31
0.0
  0
LINE
  5
509
330
1E
100
AcDbEntity
  8
0
100
AcDbLine
 10
-8.555
 20
105.6
 30
0.0
 11
-5.455
 21
120.7
 31
0.0
  0
LINE
  5
50A
330
1E
100
AcDbEntity
  8
0
100
AcDbLine
 10
14.245
 20
162.9
 30
0.0
 11
24.545
 21
174.7
 31
0.0
  0
LINE
  5
50B
330
1E
100
AcDbEntity
  8
0
100
AcDbLine
 10
15.045
 20
162.3
 30
0.0
 11
25.245
 21
174.0
 31
0.0
  0
LINE
  5
50C
330
1E
100
AcDbEntity
  8
0
100
AcDbLine
 10
5.345
 20
149.7
 30
0.0
 11
14.245
 21
162.9
 31
0.0
  0
LINE
  5
50D
330
1E
100
AcDbEntity
  8
0
100
AcDbLine
 10
6.145
 20
149.2
 30
0.0
 11
15.045
 21
162.3
 31
0.0
  0
LINE
  5
50E
330
1E
100
AcDbEntity
  8
0
100
AcDbLine
 10
-1.355
 20
135.8
 30
0.0
 11
5.345
 21
149.7
 31
0.0
  0
LINE
  5
50F
330
1E
100
AcDbEntity
  8
0
100
AcDbLine
 10
-0.455
 20
135.5
 30
0.0
 11
6.145
 21
149.2
 31
0.0
  0
LINE
  5
510
330
1E
100
AcDbEntity
  8
0
100
AcDbLine
 10
25.245
 20
174.0
 30
0.0
 11
36.945
 21
184.2
 31
0.0
  0
LINE
  5
511
330
1E
100
AcDbEntity
  8
0
100
AcDbLine
 10
24.545
 20
174.7
 30
0.0
 11
36.345
 21
185.0
 31
0.0
  0
LINE
  5
512
330
1E
100
AcDbEntity
  8
0
100
AcDbLine
 10
59.745
 20
83.5
 30
0.0
 11
61.045
 21
77.1
 31
0.0
  0
LINE
  5
513
330
1E
100
AcDbEntity
  8
0
100
AcDbLine
 10
90.145
 20
43.9
 30
0.0
 11
96.345
 21
41.8
 31
0.0
  0
LINE
  5
514
330
1E
100
AcDbEntity
  8
0
100
AcDbLine
 10
78.245
 20
-25.7
 30
0.0
 11
93.645
 21
-28.8
 31
0.0
  0
LINE
  5
515
330
1E
100
AcDbEntity
  8
0
100
AcDbLine
 10
78.245
 20
-25.7
 30
0.0
 11
93.645
 21
-28.8
 31
0.0
  0
LINE
  5
516
330
1E
100
AcDbEntity
  8
0
100
AcDbLine
 10
78.545
 20
-24.7
 30
0.0
 11
93.645
 21
-27.8
 31
0.0
  0
LINE
  5
517
330
1E
100
AcDbEntity
  8
0
100
AcDbLine
 10
78.545
 20
-24.7
 30
0.0
 11
93.645
 21
-27.8
 31
0.0
  0
LINE
  5
518
330
1E
100
AcDbEntity
  8
0
100
AcDbLine
 10
63.445
 20
-20.6
 30
0.0
 11
78.245
 21
-25.7
 31
0.0
  0
LINE
  5
519
330
1E
100
AcDbEntity
  8
0
100
AcDbLine
 10
63.445
 20
-20.6
 30
0.0
 11
78.245
 21
-25.7
 31
0.0
  0
LINE
  5
51A
330
1E
100
AcDbEntity
  8
0
100
AcDbLine
 10
63.445
 20
-20.6
 30
0.0
 11
78.245
 21
-25.7
 31
0.0
  0
LINE
  5
51B
330
1E
100
AcDbEntity
  8
0
100
AcDbLine
 10
63.445
 20
-20.6
 30
0.0
 11
78.245
 21
-25.7
 31
0.0
  0
LINE
  5
51C
330
1E
100
AcDbEntity
  8
0
100
AcDbLine
 10
63.745
 20
-19.7
 30
0.0
 11
78.545
 21
-24.7
 31
0.0
  0
LINE
  5
51D
330
1E
100
AcDbEntity
  8
0
100
AcDbLine
 10
50.045
 20
-13.1
 30
0.0
 11
63.745
 21
-19.7
 31
0.0
  0
LINE
  5
51E
330
1E
100
AcDbEntity
  8
0
100
AcDbLine
 10
49.545
 20
-13.9
 30
0.0
 11
63.445
 21
-20.6
 31
0.0
  0
LINE
  5
51F
330
1E
100
AcDbEntity
  8
0
100
AcDbLine
 10
49.545
 20
-13.9
 30
0.0
 11
63.445
 21
-20.6
 31
0.0
  0
LINE
  5
520
330
1E
100
AcDbEntity
  8
0
100
AcDbLine
 10
65.945
 20
65.1
 30
0.0
 11
69.645
 21
59.6
 31
0.0
  0
LINE
  5
521
330
1E
100
AcDbEntity
  8
0
100
AcDbLine
 10
61.045
 20
77.1
 30
0.0
 11
63.145
 21
70.9
 31
0.0
  0
LINE
  5
522
330
1E
100
AcDbEntity
  8
0
100
AcDbLine
 10
63.145
 20
70.9
 30
0.0
 11
65.945
 21
65.1
 31
0.0
  0
LINE
  5
523
330
1E
100
AcDbEntity
  8
0
100
AcDbLine
 10
73.945
 20
54.7
 30
0.0
 11
78.845
 21
50.4
 31
0.0
  0
LINE
  5
524
330
1E
100
AcDbEntity
  8
0
100
AcDbLine
 10
69.645
 20
59.6
 30
0.0
 11
73.945
 21
54.7
 31
0.0
  0
LINE
  5
525
330
1E
100
AcDbEntity
  8
0
100
AcDbLine
 10
84.345
 20
46.7
 30
0.0
 11
90.145
 21
43.9
 31
0.0
  0
LINE
  5
526
330
1E
100
AcDbEntity
  8
0
100
AcDbLine
 10
78.845
 20
50.4
 30
0.0
 11
84.345
 21
46.7
 31
0.0
  0
LINE
  5
527
330
1E
100
AcDbEntity
  8
0
100
AcDbLine
 10
109.245
 20
-29.0
 30
0.0
 11
124.845
 21
-27.8
 31
0.0
  0
LINE
  5
528
330
1E
100
AcDbEntity
  8
0
100
AcDbLine
 10
109.245
 20
-29.0
 30
0.0
 11
124.845
 21
-27.8
 31
0.0
  0
LINE
  5
529
330
1E
100
AcDbEntity
  8
0
100
AcDbLine
 10
109.245
 20
-29.0
 30
0.0
 11
124.845
 21
-27.8
 31
0.0
  0
LINE
  5
52A
330
1E
100
AcDbEntity
  8
0
100
AcDbLine
 10
109.245
 20
-29.0
 30
0.0
 11
124.845
 21
-27.8
 31
0.0
  0
LINE
  5
52B
330
1E
100
AcDbEntity
  8
0
100
AcDbLine
 10
109.245
 20
-30.0
 30
0.0
 11
124.845
 21
-28.8
 31
0.0
  0
LINE
  5
52C
330
1E
100
AcDbEntity
  8
0
100
AcDbLine
 10
109.245
 20
-30.0
 30
0.0
 11
124.845
 21
-28.8
 31
0.0
  0
LINE
  5
52D
330
1E
100
AcDbEntity
  8
0
100
AcDbLine
 10
93.645
 20
-27.8
 30
0.0
 11
109.245
 21
-29.0
 31
0.0
  0
LINE
  5
52E
330
1E
100
AcDbEntity
  8
0
100
AcDbLine
 10
93.645
 20
-27.8
 30
0.0
 11
109.245
 21
-29.0
 31
0.0
  0
LINE
  5
52F
330
1E
100
AcDbEntity
  8
0
100
AcDbLine
 10
93.645
 20
-28.8
 30
0.0
 11
109.245
 21
-30.0
 31
0.0
  0
LINE
  5
530
330
1E
100
AcDbEntity
  8
0
100
AcDbLine
 10
93.645
 20
-28.8
 30
0.0
 11
109.245
 21
-30.0
 31
0.0
  0
LINE
  5
531
330
1E
100
AcDbEntity
  8
0
100
AcDbLine
 10
93.645
 20
-28.8
 30
0.0
 11
109.245
 21
-30.0
 31
0.0
  0
LINE
  5
532
330
1E
100
AcDbEntity
  8
0
100
AcDbLine
 10
93.645
 20
-28.8
 30
0.0
 11
109.245
 21
-30.0
 31
0.0
  0
LINE
  5
533
330
1E
100
AcDbEntity
  8
0
100
AcDbLine
 10
112.269
 20
68.0
 30
0.0
 11
115.053
 21
68.0
 31
0.0
  0
LINE
  5
534
330
1E
100
AcDbEntity
  8
0
100
AcDbLine
 10
109.245
 20
40.0
 30
0.0
 11
115.745
 21
40.5
 31
0.0
  0
LINE
  5
535
330
1E
100
AcDbEntity
  8
0
100
AcDbLine
 10
100.989
 20
68.0
 30
0.0
 11
103.437
 21
68.0
 31
0.0
  0
LINE
  5
536
330
1E
100
AcDbEntity
  8
0
100
AcDbLine
 10
96.345
 20
41.8
 30
0.0
 11
102.745
 21
40.5
 31
0.0
  0
LINE
  5
537
330
1E
100
AcDbEntity
  8
0
100
AcDbLine
 10
97.965
 20
68.0
 30
0.0
 11
99.117
 21
68.0
 31
0.0
  0
LINE
  5
538
330
1E
100
AcDbEntity
  8
0
100
AcDbLine
 10
97.245
 20
68.6353
 30
0.0
 11
97.533
 21
68.0
 31
0.0
  0
LINE
  5
539
330
1E
100
AcDbEntity
  8
0
100
AcDbLine
 10
97.533
 20
68.0
 30
0.0
 11
97.965
 21
68.0
 31
0.0
  0
LINE
  5
53A
330
1E
100
AcDbEntity
  8
0
100
AcDbLine
 10
99.117
 20
68.0
 30
0.0
 11
100.989
 21
68.0
 31
0.0
  0
LINE
  5
53B
330
1E
100
AcDbEntity
  8
0
100
AcDbLine
 10
102.745
 20
40.5
 30
0.0
 11
109.245
 21
40.0
 31
0.0
  0
LINE
  5
53C
330
1E
100
AcDbEntity
  8
0
100
AcDbLine
 10
106.221
 20
68.0
 30
0.0
 11
109.245
 21
68.0
 31
0.0
  0
LINE
  5
53D
330
1E
100
AcDbEntity
  8
0
100
AcDbLine
 10
103.437
 20
68.0
 30
0.0
 11
106.221
 21
68.0
 31
0.0
  0
LINE
  5
53E
330
1E
100
AcDbEntity
  8
0
100
AcDbLine
 10
109.245
 20
68.0
 30
0.0
 11
112.269
 21
68.0
 31
0.0
  0
LINE
  5
53F
330
1E
100
AcDbEntity
  8
0
100
AcDbLine
 10
122.145
 20
41.8
 30
0.0
 11
128.345
 21
43.9
 31
0.0
  0
LINE
  5
540
330
1E
100
AcDbEntity
  8
0
100
AcDbLine
 10
115.745
 20
40.5
 30
0.0
 11
122.145
 21
41.8
 31
0.0
  0
LINE
  5
541
330
1E
100
AcDbEntity
  8
0
100
AcDbLine
 10
117.501
 20
68.0
 30
0.0
 11
119.373
 21
68.0
 31
0.0
  0
LINE
  5
542
330
1E
100
AcDbEntity
  8
0
100
AcDbLine
 10
115.053
 20
68.0
 30
0.0
 11
117.501
 21
68.0
 31
0.0
  0
LINE
  5
543
330
1E
100
AcDbEntity
  8
0
100
AcDbLine
 10
119.373
 20
68.0
 30
0.0
 11
120.525
 21
68.0
 31
0.0
  0
LINE
  5
544
330
1E
100
AcDbEntity
  8
0
100
AcDbLine
 10
120.525
 20
68.0
 30
0.0
 11
120.957
 21
68.0
 31
0.0
  0
LINE
  5
545
330
1E
100
AcDbEntity
  8
0
100
AcDbLine
 10
120.957
 20
68.0
 30
0.0
 11
121.245
 21
68.6353
 31
0.0
  0
LINE
  5
546
330
1E
100
AcDbEntity
  8
0
100
AcDbLine
 10
128.345
 20
43.9
 30
0.0
 11
134.145
 21
46.7
 31
0.0
  0
LINE
  5
547
330
1E
100
AcDbEntity
  8
0
100
AcDbLine
 10
90.145
 20
136.1
 30
0.0
 11
96.345
 21
138.2
 31
0.0
  0
LINE
  5
548
330
1E
100
AcDbEntity
  8
0
100
AcDbLine
 10
78.545
 20
204.7
 30
0.0
 11
93.645
 21
207.8
 31
0.0
  0
LINE
  5
549
330
1E
100
AcDbEntity
  8
0
100
AcDbLine
 10
78.245
 20
205.7
 30
0.0
 11
93.645
 21
208.8
 31
0.0
  0
LINE
  5
54A
330
1E
100
AcDbEntity
  8
0
100
AcDbLine
 10
65.945
 20
114.9
 30
0.0
 11
69.645
 21
120.4
 31
0.0
  0
LINE
  5
54B
330
1E
100
AcDbEntity
  8
0
100
AcDbLine
 10
59.745
 20
96.5
 30
0.0
 11
61.045
 21
102.9
 31
0.0
  0
LINE
  5
54C
330
1E
100
AcDbEntity
  8
0
100
AcDbLine
 10
59.245
 20
90.0
 30
0.0
 11
59.745
 21
96.5
 31
0.0
  0
LINE
  5
54D
330
1E
100
AcDbEntity
  8
0
100
AcDbLine
 10
59.245
 20
90.0
 30
0.0
 11
59.745
 21
83.5
 31
0.0
  0
LINE
  5
54E
330
1E
100
AcDbEntity
  8
0
100
AcDbLine
 10
61.045
 20
102.9
 30
0.0
 11
63.145
 21
109.1
 31
0.0
  0
LINE
  5
54F
330
1E
100
AcDbEntity
  8
0
100
AcDbLine
 10
63.145
 20
109.1
 30
0.0
 11
65.945
 21
114.9
 31
0.0
  0
LINE
  5
550
330
1E
100
AcDbEntity
  8
0
100
AcDbLine
 10
69.645
 20
120.4
 30
0.0
 11
73.945
 21
125.3
 31
0.0
  0
LINE
  5
551
330
1E
100
AcDbEntity
  8
0
100
AcDbLine
 10
73.945
 20
125.3
 30
0.0
 11
78.845
 21
129.6
 31
0.0
  0
LINE
  5
552
330
1E
100
AcDbEntity
  8
0
100
AcDbLine
 10
84.345
 20
133.3
 30
0.0
 11
90.145
 21
136.1
 31
0.0
  0
LINE
  5
553
330
1E
100
AcDbEntity
  8
0
100
AcDbLine
 10
78.845
 20
129.6
 30
0.0
 11
84.345
 21
133.3
 31
0.0
  0
LINE
  5
554
330
1E
100
AcDbEntity
  8
0
100
AcDbLine
 10
63.445
 20
200.6
 30
0.0
 11
78.245
 21
205.7
 31
0.0
  0
LINE
  5
555
330
1E
100
AcDbEntity
  8
0
100
AcDbLine
 10
63.745
 20
199.7
 30
0.0
 11
78.545
 21
204.7
 31
0.0
  0
LINE
  5
556
330
1E
100
AcDbEntity
  8
0
100
AcDbLine
 10
49.545
 20
193.9
 30
0.0
 11
63.445
 21
200.6
 31
0.0
  0
LINE
  5
557
330
1E
100
AcDbEntity
  8
0
100
AcDbLine
 10
50.045
 20
193.1
 30
0.0
 11
63.745
 21
199.7
 31
0.0
  0
LINE
  5
558
330
1E
100
AcDbEntity
  8
0
100
AcDbLine
 10
97.245
 20
90.0
 30
0.0
 11
97.264512102638
 21
90.151218795446
 31
0.0
  0
LINE
  5
559
330
1E
100
AcDbEntity
  8
0
100
AcDbLine
 10
97.245
 20
90.0
 30
0.0
 11
97.26423974579
 21
89.850891970131
 31
0.0
  0
LINE
  5
55A
330
1E
100
AcDbEntity
  8
0
100
AcDbLine
 10
96.345
 20
138.2
 30
0.0
 11
97.245
 21
138.3828125
 31
0.0
  0
LINE
  5
55B
330
1E
100
AcDbEntity
  8
0
100
AcDbLine
 10
122.145
 20
138.2
 30
0.0
 11
128.345
 21
136.1
 31
0.0
  0
LINE
  5
55C
330
1E
100
AcDbEntity
  8
0
100
AcDbLine
 10
121.245
 20
138.3828125
 30
0.0
 11
122.145
 21
138.2
 31
0.0
  0
LINE
  5
55D
330
1E
100
AcDbEntity
  8
0
100
AcDbLine
 10
128.345
 20
136.1
 30
0.0
 11
134.145
 21
133.3
 31
0.0
  0
LINE
  5
55E
330
1E
100
AcDbEntity
  8
0
100
AcDbLine
 10
93.645
 20
208.8
 30
0.0
 11
97.245
 21
209.076923076923
 31
0.0
  0
LINE
  5
55F
330
1E
100
AcDbEntity
  8
0
100
AcDbLine
 10
93.645
 20
207.8
 30
0.0
 11
97.245
 21
208.076923076923
 31
0.0
  0
LINE
  5
560
330
1E
100
AcDbEntity
  8
0
100
AcDbLine
 10
121.245
 20
209.076923076923
 30
0.0
 11
124.845
 21
208.8
 31
0.0
  0
LINE
  5
561
330
1E
100
AcDbEntity
  8
0
100
AcDbLine
 10
121.245
 20
208.076923076923
 30
0.0
 11
124.845
 21
207.8
 31
0.0
  0
LINE
  5
562
330
1E
100
AcDbEntity
  8
0
100
AcDbLine
 10
228.045
 20
74.4
 30
0.0
 11
229.245
 21
90.0
 31
0.0
  0
LINE
  5
563
330
1E
100
AcDbEntity
  8
0
100
AcDbLine
 10
228.045
 20
105.6
 30
0.0
 11
229.245
 21
90.0
 31
0.0
  0
LINE
  5
564
330
1E
100
AcDbEntity
  8
0
100
AcDbLine
 10
227.045
 20
74.4
 30
0.0
 11
228.245
 21
90.0
 31
0.0
  0
LINE
  5
565
330
1E
100
AcDbEntity
  8
0
100
AcDbLine
 10
157.445
 20
77.1
 30
0.0
 11
158.745
 21
83.5
 31
0.0
  0
LINE
  5
566
330
1E
100
AcDbEntity
  8
0
100
AcDbLine
 10
182.145
 20
-5.0
 30
0.0
 11
193.945
 21
5.3
 31
0.0
  0
LINE
  5
567
330
1E
100
AcDbEntity
  8
0
100
AcDbLine
 10
181.545
 20
-4.2
 30
0.0
 11
193.245
 21
6.0
 31
0.0
  0
LINE
  5
568
330
1E
100
AcDbEntity
  8
0
100
AcDbLine
 10
168.945
 20
-13.9
 30
0.0
 11
182.145
 21
-5.0
 31
0.0
  0
LINE
  5
569
330
1E
100
AcDbEntity
  8
0
100
AcDbLine
 10
168.445
 20
-13.1
 30
0.0
 11
181.545
 21
-4.2
 31
0.0
  0
LINE
  5
56A
330
1E
100
AcDbEntity
  8
0
100
AcDbLine
 10
154.745
 20
-19.7
 30
0.0
 11
168.445
 21
-13.1
 31
0.0
  0
LINE
  5
56B
330
1E
100
AcDbEntity
  8
0
100
AcDbLine
 10
154.745
 20
-19.7
 30
0.0
 11
168.445
 21
-13.1
 31
0.0
  0
LINE
  5
56C
330
1E
100
AcDbEntity
  8
0
100
AcDbLine
 10
155.045
 20
-20.6
 30
0.0
 11
168.945
 21
-13.9
 31
0.0
  0
LINE
  5
56D
330
1E
100
AcDbEntity
  8
0
100
AcDbLine
 10
140.245
 20
-25.7
 30
0.0
 11
155.045
 21
-20.6
 31
0.0
  0
LINE
  5
56E
330
1E
100
AcDbEntity
  8
0
100
AcDbLine
 10
140.245
 20
-25.7
 30
0.0
 11
155.045
 21
-20.6
 31
0.0
  0
LINE
  5
56F
330
1E
100
AcDbEntity
  8
0
100
AcDbLine
 10
139.945
 20
-24.7
 30
0.0
 11
154.745
 21
-19.7
 31
0.0
  0
LINE
  5
570
330
1E
100
AcDbEntity
  8
0
100
AcDbLine
 10
140.245
 20
-25.7
 30
0.0
 11
155.045
 21
-20.6
 31
0.0
  0
LINE
  5
571
330
1E
100
AcDbEntity
  8
0
100
AcDbLine
 10
140.245
 20
-25.7
 30
0.0
 11
155.045
 21
-20.6
 31
0.0
  0
LINE
  5
572
330
1E
100
AcDbEntity
  8
0
100
AcDbLine
 10
144.545
 20
54.7
 30
0.0
 11
148.845
 21
59.6
 31
0.0
  0
LINE
  5
573
330
1E
100
AcDbEntity
  8
0
100
AcDbLine
 10
139.645
 20
50.4
 30
0.0
 11
144.545
 21
54.7
 31
0.0
  0
LINE
  5
574
330
1E
100
AcDbEntity
  8
0
100
AcDbLine
 10
152.545
 20
65.1
 30
0.0
 11
155.345
 21
70.9
 31
0.0
  0
LINE
  5
575
330
1E
100
AcDbEntity
  8
0
100
AcDbLine
 10
148.845
 20
59.6
 30
0.0
 11
152.545
 21
65.1
 31
0.0
  0
LINE
  5
576
330
1E
100
AcDbEntity
  8
0
100
AcDbLine
 10
155.345
 20
70.9
 30
0.0
 11
157.445
 21
77.1
 31
0.0
  0
LINE
  5
577
330
1E
100
AcDbEntity
  8
0
100
AcDbLine
 10
204.245
 20
17.1
 30
0.0
 11
213.145
 21
30.3
 31
0.0
  0
LINE
  5
578
330
1E
100
AcDbEntity
  8
0
100
AcDbLine
 10
203.445
 20
17.7
 30
0.0
 11
212.345
 21
30.8
 31
0.0
  0
LINE
  5
579
330
1E
100
AcDbEntity
  8
0
100
AcDbLine
 10
193.245
 20
6.0
 30
0.0
 11
203.445
 21
17.7
 31
0.0
  0
LINE
  5
57A
330
1E
100
AcDbEntity
  8
0
100
AcDbLine
 10
193.945
 20
5.3
 30
0.0
 11
204.245
 21
17.1
 31
0.0
  0
LINE
  5
57B
330
1E
100
AcDbEntity
  8
0
100
AcDbLine
 10
213.145
 20
30.3
 30
0.0
 11
219.845
 21
44.2
 31
0.0
  0
LINE
  5
57C
330
1E
100
AcDbEntity
  8
0
100
AcDbLine
 10
212.345
 20
30.8
 30
0.0
 11
218.945
 21
44.5
 31
0.0
  0
LINE
  5
57D
330
1E
100
AcDbEntity
  8
0
100
AcDbLine
 10
219.845
 20
44.2
 30
0.0
 11
224.945
 21
59.0
 31
0.0
  0
LINE
  5
57E
330
1E
100
AcDbEntity
  8
0
100
AcDbLine
 10
218.945
 20
44.5
 30
0.0
 11
223.945
 21
59.3
 31
0.0
  0
LINE
  5
57F
330
1E
100
AcDbEntity
  8
0
100
AcDbLine
 10
224.945
 20
59.0
 30
0.0
 11
228.045
 21
74.4
 31
0.0
  0
LINE
  5
580
330
1E
100
AcDbEntity
  8
0
100
AcDbLine
 10
223.945
 20
59.3
 30
0.0
 11
227.045
 21
74.4
 31
0.0
  0
LINE
  5
581
330
1E
100
AcDbEntity
  8
0
100
AcDbLine
 10
182.145
 20
185.0
 30
0.0
 11
193.945
 21
174.7
 31
0.0
  0
LINE
  5
582
330
1E
100
AcDbEntity
  8
0
100
AcDbLine
 10
181.545
 20
184.2
 30
0.0
 11
193.245
 21
174.0
 31
0.0
  0
LINE
  5
583
330
1E
100
AcDbEntity
  8
0
100
AcDbLine
 10
144.545
 20
125.3
 30
0.0
 11
148.845
 21
120.4
 31
0.0
  0
LINE
  5
584
330
1E
100
AcDbEntity
  8
0
100
AcDbLine
 10
157.445
 20
102.9
 30
0.0
 11
158.745
 21
96.5
 31
0.0
  0
LINE
  5
585
330
1E
100
AcDbEntity
  8
0
100
AcDbLine
 10
158.745
 20
96.5
 30
0.0
 11
159.245
 21
90.0
 31
0.0
  0
LINE
  5
586
330
1E
100
AcDbEntity
  8
0
100
AcDbLine
 10
158.745
 20
83.5
 30
0.0
 11
159.245
 21
90.0
 31
0.0
  0
LINE
  5
587
330
1E
100
AcDbEntity
  8
0
100
AcDbLine
 10
152.545
 20
114.9
 30
0.0
 11
155.345
 21
109.1
 31
0.0
  0
LINE
  5
588
330
1E
100
AcDbEntity
  8
0
100
AcDbLine
 10
148.845
 20
120.4
 30
0.0
 11
152.545
 21
114.9
 31
0.0
  0
LINE
  5
589
330
1E
100
AcDbEntity
  8
0
100
AcDbLine
 10
155.345
 20
109.1
 30
0.0
 11
157.445
 21
102.9
 31
0.0
  0
LINE
  5
58A
330
1E
100
AcDbEntity
  8
0
100
AcDbLine
 10
139.645
 20
129.6
 30
0.0
 11
144.545
 21
125.3
 31
0.0
  0
LINE
  5
58B
330
1E
100
AcDbEntity
  8
0
100
AcDbLine
 10
155.045
 20
200.6
 30
0.0
 11
168.945
 21
193.9
 31
0.0
  0
LINE
  5
58C
330
1E
100
AcDbEntity
  8
0
100
AcDbLine
 10
154.745
 20
199.7
 30
0.0
 11
168.445
 21
193.1
 31
0.0
  0
LINE
  5
58D
330
1E
100
AcDbEntity
  8
0
100
AcDbLine
 10
140.245
 20
205.7
 30
0.0
 11
155.045
 21
200.6
 31
0.0
  0
LINE
  5
58E
330
1E
100
AcDbEntity
  8
0
100
AcDbLine
 10
139.945
 20
204.7
 30
0.0
 11
154.745
 21
199.7
 31
0.0
  0
LINE
  5
58F
330
1E
100
AcDbEntity
  8
0
100
AcDbLine
 10
168.945
 20
193.9
 30
0.0
 11
182.145
 21
185.0
 31
0.0
  0
LINE
  5
590
330
1E
100
AcDbEntity
  8
0
100
AcDbLine
 10
168.445
 20
193.1
 30
0.0
 11
181.545
 21
184.2
 31
0.0
  0
LINE
  5
591
330
1E
100
AcDbEntity
  8
0
100
AcDbLine
 10
193.945
 20
174.7
 30
0.0
 11
204.245
 21
162.9
 31
0.0
  0
LINE
  5
592
330
1E
100
AcDbEntity
  8
0
100
AcDbLine
 10
193.245
 20
174.0
 30
0.0
 11
203.445
 21
162.3
 31
0.0
  0
LINE
  5
593
330
1E
100
AcDbEntity
  8
0
100
AcDbLine
 10
204.245
 20
162.9
 30
0.0
 11
213.145
 21
149.7
 31
0.0
  0
LINE
  5
594
330
1E
100
AcDbEntity
  8
0
100
AcDbLine
 10
203.445
 20
162.3
 30
0.0
 11
212.345
 21
149.2
 31
0.0
  0
LINE
  5
595
330
1E
100
AcDbEntity
  8
0
100
AcDbLine
 10
219.845
 20
135.8
 30
0.0
 11
224.945
 21
121.0
 31
0.0
  0
LINE
  5
596
330
1E
100
AcDbEntity
  8
0
100
AcDbLine
 10
218.945
 20
135.5
 30
0.0
 11
223.945
 21
120.7
 31
0.0
  0
LINE
  5
597
330
1E
100
AcDbEntity
  8
0
100
AcDbLine
 10
227.045
 20
105.6
 30
0.0
 11
228.245
 21
90.0
 31
0.0
  0
LINE
  5
598
330
1E
100
AcDbEntity
  8
0
100
AcDbLine
 10
224.945
 20
121.0
 30
0.0
 11
228.045
 21
105.6
 31
0.0
  0
LINE
  5
599
330
1E
100
AcDbEntity
  8
0
100
AcDbLine
 10
223.945
 20
120.7
 30
0.0
 11
227.045
 21
105.6
 31
0.0
  0
LINE
  5
59A
330
1E
100
AcDbEntity
  8
0
100
AcDbLine
 10
213.145
 20
149.7
 30
0.0
 11
219.845
 21
135.8
 31
0.0
  0
LINE
  5
59B
330
1E
100
AcDbEntity
  8
0
100
AcDbLine
 10
212.345
 20
149.2
 30
0.0
 11
218.945
 21
135.5
 31
0.0
  0
LINE
  5
11A0
330
1E
100
AcDbEntity
  8
0
100
AcDbLine
 10
22.0685
 20
460.0
 30
0.0
 11
97.245
 21
460.0
 31
0.0
  0
ENDSEC
  0
SECTION
  2
OBJECTS
  0
DICTIONARY
  5
C
330
0
100
AcDbDictionary
281
     1
  3
ACAD_GROUP
350
D
  3
ACAD_LAYOUT
350
19
  3
ACAD_MLEADERSTYLE
350
11A3
  3
ACAD_MLINESTYLE
350
16
  3
ACAD_PLOTSETTINGS
350
18
  3
ACAD_PLOTSTYLENAME
350
E
  3
ACAD_SCALELIST
350
5C3
  3
ACDBVARIABLEDICTIONARY
350
405
  3
DWGPROPS
350
11A6
  0
DICTIONARY
  5
D
102
{ACAD_REACTORS
330
C
102
}
330
C
100
AcDbDictionary
281
     1
  0
DICTIONARY
  5
19
102
{ACAD_REACTORS
330
C
102
}
330
C
100
AcDbDictionary
281
     1
  3
Layout1
350
5C2
  3
Model
350
5C1
  0
DICTIONARY
  5
11A3
102
{ACAD_REACTORS
330
C
102
}
330
C
100
AcDbDictionary
281
     1
  0
DICTIONARY
  5
16
102
{ACAD_REACTORS
330
C
102
}
330
C
100
AcDbDictionary
281
     1
  3
STANDARD
350
17
  0
DICTIONARY
  5
18
102
{ACAD_REACTORS
330
C
102
}
330
C
100
AcDbDictionary
281
     1
  0
ACDBDICTIONARYWDFLT
  5
E
102
{ACAD_REACTORS
330
C
102
}
330
C
100
AcDbDictionary
281
     1
  3
Normal
350
F
100
AcDbDictionaryWithDefault
340
F
  0
DICTIONARY
  5
5C3
102
{ACAD_REACTORS
330
C
102
}
330
C
100
AcDbDictionary
281
     1
  3
A0
350
5C4
  3
A1
350
5C5
  3
A2
350
5C6
  3
A3
350
5C7
  3
A4
350
5C8
  3
A5
350
5C9
  3
A6
350
5CA
  3
A7
350
5CB
  3
A8
350
5CC
  3
A9
350
5CD
  3
B0
350
5CE
  3
B1
350
5CF
  3
B2
350
5D0
  3
B3
350
5D1
  3
B4
350
5D2
  3
B5
350
5D3
  3
B6
350
5D4
  3
B7
350
5D5
  3
B8
350
5D6
  3
B9
350
5D7
  3
C0
350
5D8
  3
C1
350
5D9
  3
C2
350
5DA
  3
C3
350
5DB
  3
C4
350
5DC
  3
C5
350
5DD
  3
C6
350
5DE
  3
C7
350
5DF
  3
C8
350
5E0
  3
C9
350
5E1
  3
D0
350
5E2
  3
D1
350
5E3
  3
D2
350
5E4
  0
DICTIONARY
  5
405
102
{ACAD_REACTORS
330
C
102
}
330
C
100
AcDbDictionary
281
     1
  3
CANNOSCALE
350
11A4
  3
DIMASSOC
350
406
  0
XRECORD
  5
11A6
102
{ACAD_REACTORS
330
C
102
}
330
C
100
AcDbXrecord
280
     1
  1
DWGPROPS COOKIE
  2

  3

  4

  6

  7

  8
MARTIN
  9

300
=
301
=
302
=
303
=
304
=
305
=
306
=
307
=
308
=
309
=
 40
0.0
 41
2454983.789529259
 42
2456213.543071643
  1

 90
        0
  0
LAYOUT
  5
5C2
102
{ACAD_REACTORS
330
19
102
}
330
19
100
AcDbPlotSettings
  1

  2
none_device
  4

  6

 40
0.0
 41
0.0
 42
0.0
 43
0.0
 44
0.0
 45
0.0
 46
0.0
 47
0.0
 48
0.0
 49
0.0
140
0.0
141
0.0
142
1.0
143
1.0
 70
   688
 72
     0
 73
     0
 74
     5
  7

 75
    16
147
1.0
148
0.0
149
0.0
100
AcDbLayout
  1
Layout1
 70
     1
 71
     1
 10
0.0
 20
0.0
 11
0.0
 21
0.0
 12
0.0
 22
0.0
 32
0.0
 14
0.0
 24
0.0
 34
0.0
 15
0.0
 25
0.0
 35
0.0
146
0.0
 13
0.0
 23
0.0
 33
0.0
 16
1.0
 26
0.0
 36
0.0
 17
0.0
 27
1.0
 37
0.0
 76
     0
330
1A
  0
LAYOUT
  5
5C1
102
{ACAD_REACTORS
330
19
102
}
330
19
100
AcDbPlotSettings
  1

  2
none_device
  4

  6

 40
0.0
 41
0.0
 42
0.0
 43
0.0
 44
0.0
 45
0.0
 46
0.0
 47
0.0
 48
0.0
 49
0.0
140
0.0
141
0.0
142
1.0
143
1.0
 70
   688
 72
     0
 73
     0
 74
     5
  7

 75
    16
147
1.0
148
0.0
149
0.0
100
AcDbLayout
  1
Model
 70
     1
 71
     0
 10
0.0
 20
0.0
 11
0.0
 21
0.0
 12
0.0
 22
0.0
 32
0.0
 14
0.0
 24
0.0
 34
0.0
 15
283.755
 25
553.0
 35
0.0
146
0.0
 13
0.0
 23
0.0
 33
0.0
 16
1.0
 26
0.0
 36
0.0
 17
0.0
 27
1.0
 37
0.0
 76
     0
330
1E
331
59C
  0
MLINESTYLE
  5
17
102
{ACAD_REACTORS
330
16
102
}
330
16
100
AcDbMlineStyle
  2
STANDARD
 70
     0
  3

 62
   256
 51
90.0
 52
90.0
 71
     2
 49
0.5
 62
   256
  6
BYLAYER
 49
-0.5
 62
   256
  6
BYLAYER
  0
ACDBPLACEHOLDER
  5
F
102
{ACAD_REACTORS
330
E
102
}
330
E
  0
SCALE
  5
5C4
102
{ACAD_REACTORS
330
5C3
102
}
330
5C3
100
AcDbScale
 70
     0
300
1:1
140
1.0
141
1.0
290
     1
  0
SCALE
  5
5C5
102
{ACAD_REACTORS
330
5C3
102
}
330
5C3
100
AcDbScale
 70
     0
300
1:2
140
1.0
141
2.0
290
     0
  0
SCALE
  5
5C6
102
{ACAD_REACTORS
330
5C3
102
}
330
5C3
100
AcDbScale
 70
     0
300
1:4
140
1.0
141
4.0
290
     0
  0
SCALE
  5
5C7
102
{ACAD_REACTORS
330
5C3
102
}
330
5C3
100
AcDbScale
 70
     0
300
1:5
140
1.0
141
5.0
290
     0
  0
SCALE
  5
5C8
102
{ACAD_REACTORS
330
5C3
102
}
330
5C3
100
AcDbScale
 70
     0
300
1:8
140
1.0
141
8.0
290
     0
  0
SCALE
  5
5C9
102
{ACAD_REACTORS
330
5C3
102
}
330
5C3
100
AcDbScale
 70
     0
300
1:10
140
1.0
141
10.0
290
     0
  0
SCALE
  5
5CA
102
{ACAD_REACTORS
330
5C3
102
}
330
5C3
100
AcDbScale
 70
     0
300
1:16
140
1.0
141
16.0
290
     0
  0
SCALE
  5
5CB
102
{ACAD_REACTORS
330
5C3
102
}
330
5C3
100
AcDbScale
 70
     0
300
1:20
140
1.0
141
20.0
290
     0
  0
SCALE
  5
5CC
102
{ACAD_REACTORS
330
5C3
102
}
330
5C3
100
AcDbScale
 70
     0
300
1:30
140
1.0
141
30.0
290
     0
  0
SCALE
  5
5CD
102
{ACAD_REACTORS
330
5C3
102
}
330
5C3
100
AcDbScale
 70
     0
300
1:40
140
1.0
141
40.0
290
     0
  0
SCALE
  5
5CE
102
{ACAD_REACTORS
330
5C3
102
}
330
5C3
100
AcDbScale
 70
     0
300
1:50
140
1.0
141
50.0
290
     0
  0
SCALE
  5
5CF
102
{ACAD_REACTORS
330
5C3
102
}
330
5C3
100
AcDbScale
 70
     0
300
1:100
140
1.0
141
100.0
290
     0
  0
SCALE
  5
5D0
102
{ACAD_REACTORS
330
5C3
102
}
330
5C3
100
AcDbScale
 70
     0
300
2:1
140
2.0
141
1.0
290
     0
  0
SCALE
  5
5D1
102
{ACAD_REACTORS
330
5C3
102
}
330
5C3
100
AcDbScale
 70
     0
300
4:1
140
4.0
141
1.0
290
     0
  0
SCALE
  5
5D2
102
{ACAD_REACTORS
330
5C3
102
}
330
5C3
100
AcDbScale
 70
     0
300
8:1
140
8.0
141
1.0
290
     0
  0
SCALE
  5
5D3
102
{ACAD_REACTORS
330
5C3
102
}
330
5C3
100
AcDbScale
 70
     0
300
10:1
140
10.0
141
1.0
290
     0
  0
SCALE
  5
5D4
102
{ACAD_REACTORS
330
5C3
102
}
330
5C3
100
AcDbScale
 70
     0
300
100:1
140
100.0
141
1.0
290
     0
  0
SCALE
  5
5D5
102
{ACAD_REACTORS
330
5C3
102
}
330
5C3
100
AcDbScale
 70
     0
300
1/128" = 1'-0"
140
0.0078125
141
12.0
290
     0
  0
SCALE
  5
5D6
102
{ACAD_REACTORS
330
5C3
102
}
330
5C3
100
AcDbScale
 70
     0
300
1/64" = 1'-0"
140
0.015625
141
12.0
290
     0
  0
SCALE
  5
5D7
102
{ACAD_REACTORS
330
5C3
102
}
330
5C3
100
AcDbScale
 70
     0
300
1/32" = 1'-0"
140
0.03125
141
12.0
290
     0
  0
SCALE
  5
5D8
102
{ACAD_REACTORS
330
5C3
102
}
330
5C3
100
AcDbScale
 70
     0
300
1/16" = 1'-0"
140
0.0625
141
12.0
290
     0
  0
SCALE
  5
5D9
102
{ACAD_REACTORS
330
5C3
102
}
330
5C3
100
AcDbScale
 70
     0
300
3/32" = 1'-0"
140
0.09375
141
12.0
290
     0
  0
SCALE
  5
5DA
102
{ACAD_REACTORS
330
5C3
102
}
330
5C3
100
AcDbScale
 70
     0
300
1/8" = 1'-0"
140
0.125
141
12.0
290
     0
  0
SCALE
  5
5DB
102
{ACAD_REACTORS
330
5C3
102
}
330
5C3
100
AcDbScale
 70
     0
300
3/16" = 1'-0"
140
0.1875
141
12.0
290
     0
  0
SCALE
  5
5DC
102
{ACAD_REACTORS
330
5C3
102
}
330
5C3
100
AcDbScale
 70
     0
300
1/4" = 1'-0"
140
0.25
141
12.0
290
     0
  0
SCALE
  5
5DD
102
{ACAD_REACTORS
330
5C3
102
}
330
5C3
100
AcDbScale
 70
     0
300
3/8" = 1'-0"
140
0.375
141
12.0
290
     0
  0
SCALE
  5
5DE
102
{ACAD_REACTORS
330
5C3
102
}
330
5C3
100
AcDbScale
 70
     0
300
1/2" = 1'-0"
140
0.5
141
12.0
290
     0
  0
SCALE
  5
5DF
102
{ACAD_REACTORS
330
5C3
102
}
330
5C3
100
AcDbScale
 70
     0
300
3/4" = 1'-0"
140
0.75
141
12.0
290
     0
  0
SCALE
  5
5E0
102
{ACAD_REACTORS
330
5C3
102
}
330
5C3
100
AcDbScale
 70
     0
300
1" = 1'-0"
140
1.0
141
12.0
290
     0
  0
SCALE
  5
5E1
102
{ACAD_REACTORS
330
5C3
102
}
330
5C3
100
AcDbScale
 70
     0
300
1-1/2" = 1'-0"
140
1.5
141
12.0
290
     0
  0
SCALE
  5
5E2
102
{ACAD_REACTORS
330
5C3
102
}
330
5C3
100
AcDbScale
 70
     0
300
3" = 1'-0"
140
3.0
141
12.0
290
     0
  0
SCALE
  5
5E3
102
{ACAD_REACTORS
330
5C3
102
}
330
5C3
100
AcDbScale
 70
     0
300
6" = 1'-0"
140
6.0
141
12.0
290
     0
  0
SCALE
  5
5E4
102
{ACAD_REACTORS
330
5C3
102
}
330
5C3
100
AcDbScale
 70
     0
300
1'-0" = 1'-0"
140
12.0
141
12.0
290
     0
  0
DICTIONARYVAR
  5
11A4
102
{ACAD_REACTORS
330
405
102
}
330
405
100
DictionaryVariables
280
     0
  1
1:1
  0
DICTIONARYVAR
  5
406
102
{ACAD_REACTORS
330
405
102
}
330
405
100
DictionaryVariables
280
     0
  1
1
  0
ENDSEC
  0
SECTION
  2
THUMBNAILIMAGE
 90
    16364
310
28000000B40000005500000001000800000000000000000000000000000000000000000000000000FFFFFF000000FF0000FFFF0000FF0000FFFF0000FF000000FF00FF000000000080808000C0C0C0000000FF007F7FFF000000A5005252A50000007F003F3F7F0000004C0026264C000000260013132600003FFF007F9FFF
310
000029A5005267A500001F7F003F4F7F0000134C00262F4C000009260013172600007FFF007FBFFF000052A500527CA500003F7F003F5F7F0000264C0026394C0000132600131C260000BFFF007FDFFF00007CA5005291A500005F7F003F6F7F0000394C0026424C00001C26001321260000FFFF007FFFFF0000A5A50052A5
310
A500007F7F003F7F7F00004C4C00264C4C00002626001326260000FFBF007FFFDF0000A57C0052A59100007F5F003F7F6F00004C3900264C420000261C001326210000FF7F007FFFBF0000A5520052A57C00007F3F003F7F5F00004C2600264C39000026130013261C0000FF3F007FFF9F0000A5290052A56700007F1F003F
310
7F4F00004C1300264C2F00002609001326170000FF00007FFF7F0000A5000052A55200007F00003F7F3F00004C0000264C260000260000132613003FFF00009FFF7F0029A5000067A552001F7F00004F7F3F00134C00002F4C260009260000172613007FFF0000BFFF7F0052A500007CA552003F7F00005F7F3F00264C0000
310
394C2600132600001C261300BFFF0000DFFF7F007CA5000091A552005F7F00006F7F3F00394C0000424C26001C26000021261300FFFF0000FFFF7F00A5A50000A5A552007F7F00007F7F3F004C4C00004C4C26002626000026261300FFBF0000FFDF7F00A57C0000A59152007F5F00007F6F3F004C3900004C422600261C00
310
0026211300FF7F0000FFBF7F00A5520000A57C52007F3F00007F5F3F004C2600004C39260026130000261C1300FF3F0000FF9F7F00A5290000A56752007F1F00007F4F3F004C1300004C2F26002609000026171300FF000000FF7F7F00A5000000A55252007F0000007F3F3F004C0000004C2626002600000026131300FF00
310
3F00FF7F9F00A5002900A55267007F001F007F3F4F004C0013004C262F002600090026131700FF007F00FF7FBF00A5005200A5527C007F003F007F3F5F004C0026004C2639002600130026131C00FF00BF00FF7FDF00A5007C00A55291007F005F007F3F6F004C0039004C26420026001C0026132100FF00FF00FF7FFF00A5
310
00A500A552A5007F007F007F3F7F004C004C004C264C002600260026132600BF00FF00DF7FFF007C00A5009152A5005F007F006F3F7F0039004C0042264C001C002600211326007F00FF00BF7FFF005200A5007C52A5003F007F005F3F7F0026004C0039264C00130026001C1326003F00FF009F7FFF002900A5006752A500
310
1F007F004F3F7F0013004C002F264C000900260017132600000000002D2D2D005B5B5B0089898900B7B7B700B3B3B30000000000000000000000000000000000000000000000000000000000000000000000000000000000000000000000000000000000000000000000000000000000000000000000000000000000000000
310
00000007070707070707070707000000000000000000000000000000000000000000000000000000000000000000000000000000000000000000000000000000000000000000000000000000000000000000000000000000000000000000000000000000000000000000000000000000000000000000000000000000000000
310
00000000000000000000000000000000000000000000000000000000000000000000000000000000000000000000000000000000000007070707000000000007070707070000000000000000000000000000000000000000000000000000000000000000000000000000000000000000000000000000000000000000000000
310
00000000000000000000000000000000000000000000000000000000000000000000000000000000000000000000000000000000000000000000000000000000000000000000000000000000000000000000000000000000000000000000000000000000000000000007070000000000000000000000000000070700000000
310
00000000000000000000000000000000000000000000000000000000000000000000000000000000000000000000000000000000000000000000000000000000000000000000000000000000000000000000000000000000000000000000000000000000000000000000000000000000000000000000000000000000000000
310
00000000000000000000000000000000000000000000000000000000000707000000000000000000000000000000000007070700000000000000000000000000000000000000000000000000000000000000000000000000000000000000000000000000000000000000000000000000000000000000000000000000000000
310
00000000000000000000000000000000000000000000000000000000000000000000000000000000000000000000000000000000000000000000000000000000000000000000000000000000000000000007070000000000000000000000000000000000000007070000000000000000000000000000000000000000000000
310
00000000000000000000000000000000000000000000000000000000000000000000000000000000000000000000000000000000000000000000000000000000000000000000000000000000000000000000000000000000000000000000000000000000000000000000000000000000000000000000000000000000000000
310
00000000000007070000000000000000000000000000000000000000000707000000000000000000000000000000000000000000000000000000000000000000000000000000000000000000000000000000000000000000000000000000000000000000000000000000000000000000000000000000000000000000000000
310
00000000000000000000000000000000000000000000000000000000000000000000000000000000000000000000000000000000000000000000070000000000000000000000000000000000000000000000000007000000000000000000000000000000000000000000000000000000000000000000000000000000000000
310
00000000000000000000000000000000000000000000000000000000000000000000000000000000000000000000000000000000000000000000000000000000000000000000000000000000000000000000000000000000000000000000000000000000000000000000000000000007000000000000000000000000000000
310
00000000000000000000000700000000000000000000000000000000000000000000000000000000000000000000000000000000000000000000000000000000000000000000000000000000000000000000000000000000000000000000000000000000000000000000000000000000000000000000000000000000000000
310
00000000000000000000000000000000000000000000000000000000000000000000000707000000000000000000000000000000000000000000000000000000070700000000000000000000000000000000000000000000000000000000000000000000000000000000000000000000000000000000000000000000000000
310
00000000000000000000000000000000000000000000000000000000000000000000000000000000000000000000000000000000000000000000000000000000000000000000000000000000000000000000000000000007070000000000000000000000000000000000000000000000000000000000070000000000000000
310
00000000000000000000000000000000000000000000000000000000000000000000000000000000000000000000000000000000000000000000000000000000000000000000000000000000000000000000000000000000000000000000000000000000000000000000000000000000000000000000000000000000000000
310
00000000000000000000000000070000000000000000000000000707070707070700000000000000000000000007000000000000000000000000000000000000000000000000000000000000000000000000000000000000000000000000000000000000000000000000000000000000000000000000000000000000000000
310
00000000000000000000000000000000000000000000000000000000000000000000000000000000000000000000000000000000000000000000000000000000000007000000000000000000000007070000000000000700000000000000000000000700000000000000000000000000000000000000000000000000000000
310
00000000000000000000000000000000000000000000000000000000000000000000000000000000000000000000000000000000000000000000000000000000000000000000000000000000000000000000000000000000000000000000000000000000000000000000000000000000000000000000000700000000000000
310
00000007000000000000000000070000000000000000000007070000000000000000000000000000000000000000000000000000000000000000000000000000000000000000000000000000000000000000000000000000000000000000000000000000000000000000000000000000000000000000000000000000000000
310
00000000000000000000000000000000000000000000000000000000000000000000000000000000000000000007000000000000000000070000000000000000000000070000000000000000000707000000000000000000000000000000000000000000000000000000000000000000000000000000000000000000000000
310
00000000000000000000000000000000000000000000000000000000000000000000000000000000000000000000000000000000000000000000000000000000000000000000000000000000000000000000000000000000000000000000000000070000000000000000000007000000070707070700000000070000000000
310
00000007070000000000000000000000000000000000000000000000000000000000000000000000000000000000000000000000000000000000000000000000000000000000000000000000000000000000000000000000000000000000000000000000000000000000000000000000000000000000000000000000000000
310
00000000000000000000000000000000000000000000000700000000000000000007000000000700000007000000000700000000000000000007000000000000000000000000000000000000000000000000000000000000000000000000000000000000000000000000000000000000000000000000000000000000000000
310
00000000000000000000000000000000000000000000000000000000000000000000000000000000000000000000000000000000000000000000000000000000000000000000000000000000070000000000000000000700000000070000000700000000070000000000000000000700000000000000000000000000000000
310
00000000000000000000000000000000000000000000000000000000000000000000000000000000000000000000000000000000000000000000000000000000000000000000000000000000000000000000000000000000000000000000000000000000000000000000000000000000000000000000000000000000000000
310
00000700000000000000000007000000000700000007000000000000000000000000000000000000000000000000000000000000000000000000000000000000000000000000000000000000000000000000000000000000000000000000000000000000000000000000000000000000000000000000000000000000000000
310
00000000000000000000000000000000000000000000000000000000000000000000000000000000000000000000000000000000000000070000000000000000000700000000070000000700000000070000000000000000000700000000000000000000000000000000000000000000000000000000000000000000000000
310
00000000000000000000000000000000000000000000000000000000000000000000000000000000000000000000000000000000000000000000000000000000000000000000000000000000000000000000000000000000000000000000000000000000000000000000000007000000000000000000070000000007000000
310
07000000000700000000000000000007000000000000000000000000000000000000000000000000000000000000000000000000000000000000000000000000000000000000000000000000000000000000000000000000000000000000000000000000000000000000000000000000000000000000000000000000000000
310
00000000000000000000000000000000000000000000000000000000000000000000070000000000000000000007000000070000000700000000070000000000000000070700000000000000000000000000000000000000000000000000000000000000000000000000000000000000000000000000000000000000000000
310
00000000000000000000000000000000000000000000000000000000000000000000000000000000000000000000000000000000000000000000000000000000000000000000000000000000000000000000000000000000070000000000000000000700000007000000070000000700000000000000000007070000000000
310
00000000000000000000000000000000000000000000000000000000000000000000000000000000000000000000000000000000000000000000000000000000000000000000000000000000000000000000000000000000000000000000000000000000000000000000000000000000000000000000000000000000000000
310
00000000000000000000000000000700000000000000000000070000070000000700000700000000000000000000070700000000000000000000000000000000000000000000000000000000000000000000000000000000000000000000000000000000000000000000000000000000000000000000000000000000000000
310
00000000000000000000000000000000000000000000000000000000000000000000000000000000000000000000000000000000000000000000000000000000000000070000000000000000000000070707000000070007000000000000000000000007000000000000000000000000000000000000000000000000000000
310
00000000000000000000000000000000000000000000000000000000000000000000000000000000000000000000000000000000000000000000000000000000000000000000000000000000000000000000000000000000000000000000000000000000000000000000000000000000000000000000000007000000000000
310
00000000000007070000000707000000000000000000000007070000000000000000000000000000000000000000000000000000000000000000000000000000000000000000000000000000000000000000000000000000000000000000000000000000000000000000000000000000000000000000000000000000000000
310
00000000000000000000000000000000000000000000000000000000000000000000000000000000000000000000070700000000000000000000000007000000070000000000000000000000000700000000000000000000000000000000000000000000000000000000000000000000000000000000000000000000000000
310
00000000000000000000000000000000000000000000000000000000000000000000000000000000000000000000000000000000000000000000000000000000000000000000000000000000000000000000000000000000000000000000000000000000070700000000000000000000000700000007000000000000000000
310
00000707000000000000000000000000000000000000000000000000000000000000000000000000000000000000000000000000000000000000000000000000000000000000000000000000000000000000000000000000000000000000000000000000000000000000000000000000000000000000000000000000000000
310
00000000000000000000000000000000000000000000000000000007070000000000000000000007000000070000000000000000000000070000000000000000000000000000000000000000000000000000000000000000000000000000000000000000000000000000000000000000000000000000000000000000000000
310
00000000000000000000000000000000000000000000000000000000000000000000000000000000000000000000000000000000000000000000000000000000000000000000000000000000000000000007000000000000000000000700000007000000000000000000000700000000000000000000000000000000000000
310
00000000000000000000000000000000000000000000000000000000000000000000000000000000000000000000000000000000000000000000000000000000000000000000000000000000000000000000000000000000000000000000000000000000000000000000000000000000000000000000000000000000000000
310
00000000000000000700000000000000000007000000070000000000000000000700000000000000000000000000000000000000000000000000000000000000000000000000000000000000000000000000000000000000000000000000000000000000000000000000000000000000000000000000000000000000000000
310
00000000000000000000000000000000000000000000000000000000000000000000000000000000000000000000000000000000000000000000000000000707000000000000000700000007000000000000000707000000000000000000000000000000000000000000000000000000000000000000000000000000000000
310
00000000000000000000000000000000000000000000000000000000000000000000000000000000000000000000000000000000000000000000000000000000000000000000000000000000000000000000000000000000000000000000000000000000000000000000000000000000000000000707000000000000070000
310
00070000000000000700070000000000000000000000000000000000000000000000000000000000000000000000000000000000000000000000000000000000000000000000000000000000000000000000000000000000000000000000000000000000000000000000000000000000000000000000000000000000000000
310
00000000000000000000000000000000000000000000000000000000000000000000000000000000000000070700000000000700000007000000000000070700000000000000000000000000000000000000000000000000000000000000000000000000000000000000000000000000000000000000000000000000000000
310
00000000000000000000000000000000000000000000000000000000000000000000000000000000000000000000000000000000000000000000000000000000000000000000000000000000000000000000000000000000000000000000000000000707070700070000000700070707070700000000000000000000000000
310
00000000000000000000000000000000000000000000000000000000000000000000000000000000000000000000000000000000000000000000000000000000000000000000000000000000000000000000000000000000000000000000000000000000000000000000000000000000000000000000000000000000000000
310
00000000000000000000000000000000000000000000000000000707070700000007070707070000000000000000000000000000000000000000000000000000000000000000000000000000000000000000000000000000000000000000000000000000000000000000000000000000000000000000000000000000000000
310
00000000000000000000000000000000000000000000000000000000000000000000000000000000000000000000000000000000000000000000000000000000000000000000000000000000000000000000070000000700000000000000000000000000000000000000000000000000000000000000000000000000000000
310
00000000000000000000000000000000000000000000000000000000000000000000000000000000000000000000000000000000000000000000000000000000000000000000000000000000000000000000000000000000000000000000000000000000000000000000000000000000000000000000000000000000000000
310
00000000000000000700000007000000000000000000000000000000000000000000000000000000000000000000000000000000000000000000000000000000000000000000000000000000000000000000000000000000000000000000000000000000000000000000000000000000000000000000000000000000000000
310
00000000000000000000000000000000000000000000000000000000000000000000000000000000000000000000000000000000000000000000000000070000000700000000000000000000000000000000000000000000000000000000000000000000000000000000000000000000000000000000000000000000000000
310
00000000000000000000000000000000000000000000000000000000000000000000000000000000000000000000000000000000000000000000000000000000000000000000000000000000000000000000000000000000000000000000000000000000000000000000000000000000000007000000070000000000000000
310
00000000000000000000000000000000000000000000000000000000000000000000000000000000000000000000000000000000000000000000000000000000000000000000000000000000000000000000000000000000000000000000000000000000000000000000000000000000000000000000000000000000000000
310
00000000000000000000000000000000000000000000000000000000000000000000000000000000070000000700000000000000000000000000000000000000000000000000000000000000000000000000000000000000000000000000000000000000000000000000000000000000000000000000000000000000000000
310
00000000000000000000000000000000000000000000000000000000000000000000000000000000000000000000000000000000000000000000000000000000000000000000000000000000000000000000000000000000000000000007000000070000000000000000000000000000000000000000000000000000000000
310
00000000000000000000000000000000000000000000000000000000000000000000000000000000000000000000000000000000000000000000000000000000000000000000000000000000000000000000000000000000000000000000000000000000000000000000000000000000000000000000000000000000000000
310
00000000000000000000000000000000000000070000000700000000000000000000000000000000000000000000000000000000000000000000000000000000000000000000000000000000000000000000000000000000000000000000000000000000000000000000000000000000000000000000000000000000000000
310
00000000000000000000000000000000000000000000000000000000000000000000000000000000000000000000000000000000000000000000000000000000000000000000000007000000070000000000000000000000000000000000000000000000000000000000000000000000000000000000000000000000000000
310
00000000000000000000000000000000000000000000000000000000000000000000000000000000000000000000000000000000000000000000000000000000000000000000000000000000000000000000000000000000000000000000000000000000000000000000000000000000000000000000000000000000000700
310
00000700000000000000000000000000000000000000000000000000000000000000000000000000000000000000000000000000000000000000000000000000000000000000000000000000000000000000000000000000000000000000000000000000000000000000000000000000000000000000000000000000000000
310
00000000000000000000000000000000000000000000000000000000000000000000000000000000000000000000000000000007000000070000000000000000000000000000000000000000000000000000000000000000000000000000000000000000000000000000000000000000000000000000000000000000000000
310
00000000000000000000000000000000000000000000000000000000000000000000000000000000000000000000000000000000000000000000000000000000000000000000000000000000000000000000000000000000000000000000000000000000000000000700000007000000000000000000000000000000000000
310
00000000000000000000000000000000000000000000000000000000000000000000000000000000000000000000000000000000000000000000000000000000000000000000000000000000000000000000000000000000000000000000000000000000000000000000000000000000000000000000000000000000000000
310
00000000000000000000000000000000000000000000000000000000000007000000070000000000000000000000000000000000000000000000000000000000000000000000000000000000000000000000000000000000000000000000000000000000000000000000000000000000000000000000000000000000000000
310
00000000000000000000000000000000000000000000000000000000000000000000000000000000000000000000000000000000000000000000000000000000000000000000000000000000000000000000000700000007000000000000000000000000000000000000000000000000000000000000000000000000000000
310
00000000000000000000000000000000000000000000000000000000000000000000000000000000000000000000000000000000000000000000000000000000000000000000000000000000000000000000000000000000000000000000000000000000000000000000000000000000000000000000000000000000000000
310
00000000000000000007000000070000000000000000000000000000000000000000000000000000000000000000000000000000000000000000000000000000000000000000000000000000000000000000000000000000000000000000000000000000000000000000000000000000000000000000000000000000000000
310
00000000000000000000000000000000000000000000000000000000000000000000000000000000000000000000000000000000000000000000000000000700000007000000000000000000000000000000000000000000000000000000000000000000000000000000000000000000000000000000000000000000000000
310
00000000000000000000000000000000000000000000000000000000000000000000000000000000000000000000000000000000000000000000000000000000000000000000000000000000000000000000000000000000000000000000000000000000000000000000000000000000000000070000000707070707070707
310
00000000000000000000000000000000000000000000000000000000000000000000000000000000000000000000000000000000000000000000000000000000000000000000000000000000000000000000000000000000000000000000000000000000000000000000000000000000000000000000000000000000000000
310
00000000000000000000000000000000000000000000000000000000000000000000000000000000000700000007070707070700000700000000000000000000000000000000000000000000000000000000000000000000000000000000000000000000000000000000000000000000000000000000000000000000000000
310
00000000000000000000000000000000000000000000000000000000000000000000000000000000000000000000000000000000000000000000000000000000000000000000000000000000000000000000000000000000000000000000070000000707000000000707070700000000000000000000000000000000000000
310
00000000000000000000000000000000000000000000000000000000000000000000000000000000000000000000000000000000000000000000000000000000000000000000000000000000000000000000000000000000000000000000000000000000000000000000000000000000000000000000000000000000000000
310
00000000000000000000000000000000000000000700000007000000000000000700070000000000000000000000000000000000000000000000000000000000000000000000000000000000000000000000000000000000000000000000000000000000000000000000000000000000000000000000000000000000000000
310
00000000000000000000000000000000000000000000000000000000000000000000000000000000000000000000000000000000000000000000000000000000000000000000000000070000000700000000000000000707000000000000000000000000000000000000000000000000000000000000000000000000000000
310
00000000000000000000000000000000000000000000000000000000000000000000000000000000000000000000000000000000000000000000000000000000000000000000000000000000000000000000000000000000000000000000000000000000000000000000000000000000000000000000000000000000000007
310
00000007000000000000000000070000000000000000000000000000000000000000000000000000000000000000000000000000000000000000000000000000000000000000000000000000000000000000000000000000000000000000000000000000000000000000000000000000000000000000000000000000000000
310
00000000000000000000000000000000000000000000000000000000000000000000000000000000000000000000000000000000070000000700000000000000000007000000000000000000000000000000000000000000000000000000000000000000000000000000000000000000000000000000000000000000000000
310
00000000000000000000000000000000000000000000000000000000000000000000000000000000000000000000000000000000000000000000000000000000000000000000000000000000000000000000000000000000000000000000000000000000000000000007000000070000000000000000000700000000000000
310
00000000000000000000000000000000000000000000000000000000000000000000000000000000000000000000000000000000000000000000000000000000000000000000000000000000000000000000000000000000000000000000000000000000000000000000000000000000000000000000000000000000000000
310
00000000000000000000000000000000000000000000000000000000000000070000000700000000000000000007000000000000000000000000000000000000000000000000000000000000000000000000000000000000000000000000000000000000000000000000000000000000000000000000000000000000000000
310
00000000000000000000000000000000000000000000000000000000000000000000000000000000000000000000000000000000000000000000000000000000000000000000000000000000000000000000000007000000070000000000000000000700000000000000000000000000000000000000000000000000000000
310
00000000000000000000000000000000000000000000000000000000000000000000000000000000000000000000000000000000000000000000000000000000000000000000000000000000000000000000000000000000000000000000000000000000000000000000000000000000000000000000000000000000000000
310
00000000000000000000070000000700000000000000000707000000000000000000000000000000000000000000000000000000000000000000000000000000000000000000000000000000000000000000000000000000000000000000000000000000000000000000000000000000000000000000000000000000000000
310
00000000000000000000000000000000000000000000000000000000000000000000000000000000000000000000000000000000000000000000000000000007000000070000000000000000070000000000000000000000000000000000000000000000000000000000000000000000000000000000000000000000000000
310
00000000000000000000000000000000000000000000000000000000000000000000000000000000000000000000000000000000000000000000000000000000000000000000000000000000000000000000000000000000000000000000000000000000000000000000000000000000000000070700000007000000000000
310
00070000000000000000000000000000000000000000000000000000000000000000000000000000000000000000000000000000000000000000000000000000000000000000000000000000000000000000000000000000000000000000000000000000000000000000000000000000000000000000000000000000000000
310
00000000000000000000000000000000000000000000000000000000000000000000000000000000000707000000070707070707070700000000000000000000000000000000000000000000000000000000000000000000000000000000000000000000000000000000000000000000000000000000000000000000000000
310
00000000000000000000000000000000000000000000000000000000000000000000000000000000000000000000000000000000000000000000000000000000000000000000000000000000000000000000000000000000000000000000070700000007000700000700000000000000000000000000000000000000000000
310
00000000000000000000000000000000000000000000000000000000000000000000000000000000000000000000000000000000000000000000000000000000000000000000000000000000000000000000000000000000000000000000000000000000000000000000000000000000000000000000000000000000000000
310
00000000000000000000000000000000000000000707000000070007070707000000000000000000000000000000000000000000000000000000000000000000000000000000000000000000000000000000000000000000000000000000000000000000000000000000000000000000000000000000000000000000000000
310
00000000000000000000000000000000000000000000000000000000000000000000000000000000000000000000000000000000000000000000000000000000000000000000000000070700000007000700000700000000000000000000000000000000000000000000000000000000000000000000000000000000000000
310
00000000000000000000000000000000000000000000000000000000000000000000000000000000000000000000000000000000000000000000000000000000000000000000000000000000000000000000000000000000000000000000000000000000000000000000000000000000000000000000000000000000000007
310
07000000070707000007000000000000000000000000000000000000000000000000000000000000000000000000000000000000000000000000000000000000000000000000000000000000000000000000000000000000000000000000000000000000000000000000000000000000000000000000000000000000000000
310
00000000000000000000000000000000000000000000000000000000000000000000000000000000000000000000000000000000070700000007070700000700000000000000000000000000000000000000000000000000000000000000000000000000000000000000000000000000000000000000000000000000000000
310
00000000000000000000000000000000000000000000000000000000000000000000000000000000000000000000000000000000000000000000000000000000000000000000000000000000000000000000000000000000000000000000000000000000000000000007070000000700070000070000000000000000000000
310
00000000000000000000000000000000000000000000000000000000000000000000000000000000000000000000000000000000000000000000000000000000000000000000000000000000000000000000000000000000000000000000000000000000000000000000000000000000000000000000000000000000000000
310
00000000000000000000000000000000000000000007070707070707070707070700000007070700000707070707070700000000000000000000000000000000000000000000000000000000000000000000000000000000000000000000000000000000000000000000000000000000000000000000000000000000000000
310
00000000000000000000000000000000000000000000000000000000000000000000000000000000000000000000000000000000000000000000000000000000000000000000000000000700000000000000000000070000000700070000070000000000070000000000000000000000000000000000000000000000000000
310
00000000000000000000000000000000000000000000000000000000000000000000000000000000000000000000000000000000000000000000000000000000000000000000000000000000000000000000000000000000000000000000000000000000000000000000000000000000000000000000000000000000000000
310
07000000000707070707070700000007070700000700000000000700000000000000000000000000000000000000000000000000000000000000000000000000000000000000000000000000000000000000000000000000000000000000000000000000000000000000000000000000000000000000000000000000000000
310
00000000000000000000000000000000000000000000000000000000000000000000000000000000000000000000000000000000000700000007000700000000070000000707070707070000000000070000000000000000000000000000000000000000000000000000000000000000000000000000000000000000000000
310
00000000000000000000000000000000000000000000000000000000000000000000000000000000000000000000000000000000000000000000000000000000000000000000000000000000000000000000000000000000000000000000000000000000000000000000070000000700070700000007000000070700070007
310
00000000000700000000000000000000000000000000000000000000000000000000000000000000000000000000000000000000000000000000000000000000000000000000000000000000000000000000000000000000000000000000000000000000000000000000000000000000000000000000000000000000000000
310
00000000000000000000000000000000000000000000000000000000000000000700000000070700000000070000000707070000070000000000070707070000000000000000000000000000000000000000000000000000000000000000000000000000000000000000000000000000000000000000000000000000000000
310
00000000000000000000000000000000000000000000000000000000000000000000000000000000000000000000000000000000000000000000000000000000000000000000000000000000000000000000000000070707070707070707070707000000070707070707070707070707000000070707070707070000000000
310
00000000000000000000000000000000000000000000000000000000000000000000000000000000000000000000000000000000000000000000000000000000000000000000000000000000000000000000000000000000000000000000000000000000000000000000000000000000000000000000000000000000000000
310
00000000000000000000000707070707070000000000070000000700070007070707070707070707070707070707070707070000000000000000000000000000000000000000000000000000000000000000000000000000000000000000000000000000000000000000000000000000000000000000000000000000000000
310
00000000000000000000000000000000000000000000000000000000000000000000000000000000000000000000000000000000000000000000000000000000070707070707000000000007000000070007000000000000000000000000000000000000000007000000000000000000000000000000000000000000000000
310
00000000000000000000000000000000000000000000000000000000000000000000000000000000000000000000000000000000000000000000000000000000000000000000000000000000000000000000000000000000000000000000000000000000000000000000000000000000000000070707070707070707070000
310
00070000000700000707070707070707070707070707070707070707070000000000000000000000000000000000000000000000000000000000000000000000000000000000000000000000000000000000000000000000000000000000000000000000000000000000000000000000000000000000000000000000000000
310
00000000000000000000000000000000000000000000000000000000000000000000000000000000000707070707070707070700000007000000070000000707070707070707070707000000000000000000000000000000000000000000000000000000000000000000000000000000000000000000000000000000000000
310
00000000000000000000000000000000000000000000000000000000000000000000000000000000000000000000000000000000000000000000000000000000000000000000000000000000000000000000000000000000000000000000070000000000000000070000000700000007000000070000000000000000000700
310
00000000000000000000000000000000000000000000000000000000000000000000000000000000000000000000000000000000000000000000000000000000000000000000000000000000000000000000000000000000000000000000000000000000000000000000000000000000000000000000000000000000000000
310
00000000000000000000000000000000000000000700000000000000000707070707070707070707070700000000000000000007000000000000000000000000000000000000000000000000000000000000000000000000000000000000000000000000000000000000000000000000000000000000000000000000000000
310
00000000000000000000000000000000000000000000000000000000000000000000000000000000000000000000000000000000000000000000000000000000000000000000000000070707070707070707070707070707070707070707070707070707070707070700000000000000000000000000000000000000000000
310
00000000000000000000000000000000000000000000000000000000000000000000000000000000000000000000000000000000000000000000000000000000000000000000000000000000000000000000000000000000000000000000000000000000000000000000000000000000000000000000000000000000000000
310
000000000000000000000000000000000000000000000000000000000000000000000000000000000000000000000000000000000000000000000000000000000000000000000000000000000000000000000000000000000000000000000000000000000000000000000000
  0
ENDSEC
  0
EOF
