  0
SECTION
  2
HEADER
  9
$ACADVER
  1
AC1015
  9
$ACADMAINTVER
 70
    13
  9
$DWGCODEPAGE
  3
ANSI_1252
  9
$INSBASE
 10
0.0
 20
0.0
 30
0.0
  9
$EXTMIN
 10
0.0
 20
0.013842
 30
0.0
  9
$EXTMAX
 10
380.0
 20
569.986158
 30
0.0
  9
$LIMMIN
 10
0.0
 20
0.0
  9
$LIMMAX
 10
12.0
 20
9.0
  9
$ORTHOMODE
 70
     0
  9
$REGENMODE
 70
     1
  9
$FILLMODE
 70
     1
  9
$QTEXTMODE
 70
     0
  9
$MIRRTEXT
 70
     1
  9
$LTSCALE
 40
1.0
  9
$ATTMODE
 70
     1
  9
$TEXTSIZE
 40
0.2
  9
$TRACEWID
 40
0.05
  9
$TEXTSTYLE
  7
Standard
  9
$CLAYER
  8
0
  9
$CELTYPE
  6
ByBlock
  9
$CECOLOR
 62
   256
  9
$CELTSCALE
 40
1.0
  9
$DISPSILH
 70
     0
  9
$DIMSCALE
 40
1.0
  9
$DIMASZ
 40
0.18
  9
$DIMEXO
 40
0.0625
  9
$DIMDLI
 40
0.38
  9
$DIMRND
 40
0.0
  9
$DIMDLE
 40
0.0
  9
$DIMEXE
 40
0.18
  9
$DIMTP
 40
0.0
  9
$DIMTM
 40
0.0
  9
$DIMTXT
 40
0.18
  9
$DIMCEN
 40
0.09
  9
$DIMTSZ
 40
0.0
  9
$DIMTOL
 70
     0
  9
$DIMLIM
 70
     0
  9
$DIMTIH
 70
     1
  9
$DIMTOH
 70
     1
  9
$DIMSE1
 70
     0
  9
$DIMSE2
 70
     0
  9
$DIMTAD
 70
     0
  9
$DIMZIN
 70
     0
  9
$DIMBLK
  1

  9
$DIMASO
 70
     1
  9
$DIMSHO
 70
     1
  9
$DIMPOST
  1

  9
$DIMAPOST
  1

  9
$DIMALT
 70
     0
  9
$DIMALTD
 70
     2
  9
$DIMALTF
 40
25.4
  9
$DIMLFAC
 40
1.0
  9
$DIMTOFL
 70
     0
  9
$DIMTVP
 40
0.0
  9
$DIMTIX
 70
     0
  9
$DIMSOXD
 70
     0
  9
$DIMSAH
 70
     0
  9
$DIMBLK1
  1

  9
$DIMBLK2
  1

  9
$DIMSTYLE
  2
Standard
  9
$DIMCLRD
 70
     0
  9
$DIMCLRE
 70
     0
  9
$DIMCLRT
 70
     0
  9
$DIMTFAC
 40
1.0
  9
$DIMGAP
 40
0.09
  9
$DIMJUST
 70
     0
  9
$DIMSD1
 70
     0
  9
$DIMSD2
 70
     0
  9
$DIMTOLJ
 70
     1
  9
$DIMTZIN
 70
     0
  9
$DIMALTZ
 70
     0
  9
$DIMALTTZ
 70
     0
  9
$DIMUPT
 70
     0
  9
$DIMDEC
 70
     4
  9
$DIMTDEC
 70
     4
  9
$DIMALTU
 70
     2
  9
$DIMALTTD
 70
     2
  9
$DIMTXSTY
  7
Standard
  9
$DIMAUNIT
 70
     0
  9
$DIMADEC
 70
     0
  9
$DIMALTRND
 40
0.0
  9
$DIMAZIN
 70
     0
  9
$DIMDSEP
 70
    46
  9
$DIMATFIT
 70
     3
  9
$DIMFRAC
 70
     0
  9
$DIMLDRBLK
  1

  9
$DIMLUNIT
 70
     2
  9
$DIMLWD
 70
    -2
  9
$DIMLWE
 70
    -2
  9
$DIMTMOVE
 70
     2
  9
$LUNITS
 70
     2
  9
$LUPREC
 70
     4
  9
$SKETCHINC
 40
0.1
  9
$FILLETRAD
 40
0.5
  9
$AUNITS
 70
     0
  9
$AUPREC
 70
     0
  9
$MENU
  1
.
  9
$ELEVATION
 40
0.0
  9
$PELEVATION
 40
0.0
  9
$THICKNESS
 40
0.0
  9
$LIMCHECK
 70
     0
  9
$CHAMFERA
 40
0.5
  9
$CHAMFERB
 40
0.5
  9
$CHAMFERC
 40
1.0
  9
$CHAMFERD
 40
0.0
  9
$SKPOLY
 70
     0
  9
$TDCREATE
 40
2455870.896207025
  9
$TDUCREATE
 40
2455870.812873692
  9
$TDUPDATE
 40
2456021.855828680
  9
$TDUUPDATE
 40
2456021.772495347
  9
$TDINDWG
 40
0.0012369907
  9
$TDUSRTIMER
 40
0.0012369907
  9
$USRTIMER
 70
     1
  9
$ANGBASE
 50
0.0
  9
$ANGDIR
 70
     0
  9
$PDMODE
 70
     0
  9
$PDSIZE
 40
0.0
  9
$PLINEWID
 40
0.0
  9
$SPLFRAME
 70
     0
  9
$SPLINETYPE
 70
     6
  9
$SPLINESEGS
 70
     8
  9
$HANDSEED
  5
1189
  9
$SURFTAB1
 70
     6
  9
$SURFTAB2
 70
     6
  9
$SURFTYPE
 70
     6
  9
$SURFU
 70
     6
  9
$SURFV
 70
     6
  9
$UCSBASE
  2

  9
$UCSNAME
  2

  9
$UCSORG
 10
0.0
 20
0.0
 30
0.0
  9
$UCSXDIR
 10
1.0
 20
0.0
 30
0.0
  9
$UCSYDIR
 10
0.0
 20
1.0
 30
0.0
  9
$UCSORTHOREF
  2

  9
$UCSORTHOVIEW
 70
     0
  9
$UCSORGTOP
 10
0.0
 20
0.0
 30
0.0
  9
$UCSORGBOTTOM
 10
0.0
 20
0.0
 30
0.0
  9
$UCSORGLEFT
 10
0.0
 20
0.0
 30
0.0
  9
$UCSORGRIGHT
 10
0.0
 20
0.0
 30
0.0
  9
$UCSORGFRONT
 10
0.0
 20
0.0
 30
0.0
  9
$UCSORGBACK
 10
0.0
 20
0.0
 30
0.0
  9
$PUCSBASE
  2

  9
$PUCSNAME
  2

  9
$PUCSORG
 10
0.0
 20
0.0
 30
0.0
  9
$PUCSXDIR
 10
1.0
 20
0.0
 30
0.0
  9
$PUCSYDIR
 10
0.0
 20
1.0
 30
0.0
  9
$PUCSORTHOREF
  2

  9
$PUCSORTHOVIEW
 70
     0
  9
$PUCSORGTOP
 10
0.0
 20
0.0
 30
0.0
  9
$PUCSORGBOTTOM
 10
0.0
 20
0.0
 30
0.0
  9
$PUCSORGLEFT
 10
0.0
 20
0.0
 30
0.0
  9
$PUCSORGRIGHT
 10
0.0
 20
0.0
 30
0.0
  9
$PUCSORGFRONT
 10
0.0
 20
0.0
 30
0.0
  9
$PUCSORGBACK
 10
0.0
 20
0.0
 30
0.0
  9
$USERI1
 70
     0
  9
$USERI2
 70
     0
  9
$USERI3
 70
     0
  9
$USERI4
 70
     0
  9
$USERI5
 70
     0
  9
$USERR1
 40
0.0
  9
$USERR2
 40
0.0
  9
$USERR3
 40
0.0
  9
$USERR4
 40
0.0
  9
$USERR5
 40
0.0
  9
$WORLDVIEW
 70
     1
  9
$SHADEDGE
 70
     3
  9
$SHADEDIF
 70
    70
  9
$TILEMODE
 70
     1
  9
$MAXACTVP
 70
    64
  9
$PINSBASE
 10
0.0
 20
0.0
 30
0.0
  9
$PLIMCHECK
 70
     0
  9
$PEXTMIN
 10
1.000000000000000E+20
 20
1.000000000000000E+20
 30
1.000000000000000E+20
  9
$PEXTMAX
 10
-1.000000000000000E+20
 20
-1.000000000000000E+20
 30
-1.000000000000000E+20
  9
$PLIMMIN
 10
0.0
 20
0.0
  9
$PLIMMAX
 10
12.0
 20
9.0
  9
$UNITMODE
 70
     0
  9
$VISRETAIN
 70
     1
  9
$PLINEGEN
 70
     0
  9
$PSLTSCALE
 70
     1
  9
$TREEDEPTH
 70
  3020
  9
$CMLSTYLE
  2
Standard
  9
$CMLJUST
 70
     0
  9
$CMLSCALE
 40
1.0
  9
$PROXYGRAPHICS
 70
     1
  9
$MEASUREMENT
 70
     0
  9
$CELWEIGHT
370
    -1
  9
$ENDCAPS
280
     0
  9
$JOINSTYLE
280
     0
  9
$LWDISPLAY
290
     0
  9
$INSUNITS
 70
     0
  9
$HYPERLINKBASE
  1

  9
$STYLESHEET
  1

  9
$XEDIT
290
     1
  9
$CEPSNTYPE
380
     0
  9
$PSTYLEMODE
290
     1
  9
$FINGERPRINTGUID
  2
{3FA9A3F7-DD10-4669-B93E-97B0284DDD32}
  9
$VERSIONGUID
  2
{FAEB1C32-E019-11D5-929B-00C0DF256EC4}
  9
$EXTNAMES
290
     1
  9
$PSVPSCALE
 40
0.0
  9
$OLESTARTUP
290
     0
  0
ENDSEC
  0
SECTION
  2
CLASSES
  0
CLASS
  1
ACDBDICTIONARYWDFLT
  2
AcDbDictionaryWithDefault
  3
AutoCAD 2000
 90
        0
280
     0
281
     0
  0
CLASS
  1
SCALE
  2
AcDbScale
  3
ObjectDBX Classes
 90
     1153
280
     0
281
     0
  0
CLASS
  1
DICTIONARYVAR
  2
AcDbDictionaryVar
  3
AutoCAD 2000
 90
        0
280
     0
281
     0
  0
CLASS
  1
ACDBPLACEHOLDER
  2
AcDbPlaceHolder
  3
AutoCAD 2000
 90
        0
280
     0
281
     0
  0
CLASS
  1
LAYOUT
  2
AcDbLayout
  3
AutoCAD 2000
 90
        0
280
     0
281
     0
  0
ENDSEC
  0
SECTION
  2
TABLES
  0
TABLE
  2
VPORT
  5
8
330
0
100
AcDbSymbolTable
 70
     3
  0
VPORT
  5
1188
330
8
100
AcDbSymbolTableRecord
100
AcDbViewportTableRecord
  2
*Active
 70
     0
 10
0.0
 20
0.0
 11
1.0
 21
1.0
 12
189.9999999999998
 22
308.3906029509718
 13
0.0
 23
0.0
 14
0.5
 24
0.5
 15
0.5
 25
0.5
 16
0.0
 26
0.0
 36
1.0
 17
0.0
 27
0.0
 37
0.0
 40
628.3117710133741
 41
2.102496714848883
 42
50.0
 43
0.0
 44
0.0
 50
0.0
 51
0.0
 71
    16
 72
   100
 73
     1
 74
     3
 75
     0
 76
     0
 77
     0
 78
     0
281
     0
 65
     1
110
0.0
120
0.0
130
0.0
111
1.0
121
0.0
131
0.0
112
0.0
122
1.0
132
0.0
 79
     0
146
0.0
  0
ENDTAB
  0
TABLE
  2
LTYPE
  5
5
330
0
100
AcDbSymbolTable
 70
     1
  0
LTYPE
  5
14
330
5
100
AcDbSymbolTableRecord
100
AcDbLinetypeTableRecord
  2
ByBlock
 70
     0
  3

 72
    65
 73
     0
 40
0.0
  0
LTYPE
  5
15
330
5
100
AcDbSymbolTableRecord
100
AcDbLinetypeTableRecord
  2
ByLayer
 70
     0
  3

 72
    65
 73
     0
 40
0.0
  0
LTYPE
  5
16
330
5
100
AcDbSymbolTableRecord
100
AcDbLinetypeTableRecord
  2
Continuous
 70
     0
  3
Solid line
 72
    65
 73
     0
 40
0.0
  0
ENDTAB
  0
TABLE
  2
LAYER
  5
2
330
0
100
AcDbSymbolTable
 70
     1
  0
LAYER
  5
10
330
2
100
AcDbSymbolTableRecord
100
AcDbLayerTableRecord
  2
0
 70
     0
 62
     7
  6
Continuous
370
    -3
390
F
  0
ENDTAB
  0
TABLE
  2
STYLE
  5
3
330
0
100
AcDbSymbolTable
 70
     1
  0
STYLE
  5
11
330
3
100
AcDbSymbolTableRecord
100
AcDbTextStyleTableRecord
  2
Standard
 70
     0
 40
0.0
 41
1.0
 50
0.0
 71
     0
 42
0.2
  3
txt
  4

  0
ENDTAB
  0
TABLE
  2
VIEW
  5
6
330
0
100
AcDbSymbolTable
 70
     0
  0
ENDTAB
  0
TABLE
  2
UCS
  5
7
330
0
100
AcDbSymbolTable
 70
     0
  0
ENDTAB
  0
TABLE
  2
APPID
  5
9
330
0
100
AcDbSymbolTable
 70
     1
  0
APPID
  5
12
330
9
100
AcDbSymbolTableRecord
100
AcDbRegAppTableRecord
  2
ACAD
 70
     0
  0
ENDTAB
  0
TABLE
  2
DIMSTYLE
  5
A
330
0
100
AcDbSymbolTable
 70
     1
100
AcDbDimStyleTable
 71
     0
  0
DIMSTYLE
105
20
330
A
100
AcDbSymbolTableRecord
100
AcDbDimStyleTableRecord
  2
Standard
 70
     0
340
11
  0
ENDTAB
  0
TABLE
  2
BLOCK_RECORD
  5
1
330
0
100
AcDbSymbolTable
 70
     0
  0
BLOCK_RECORD
  5
1D
330
1
100
AcDbSymbolTableRecord
100
AcDbBlockTableRecord
  2
*Model_Space
340
1E
  0
BLOCK_RECORD
  5
1B
330
1
100
AcDbSymbolTableRecord
100
AcDbBlockTableRecord
  2
*Paper_Space
340
1C
  0
ENDTAB
  0
ENDSEC
  0
SECTION
  2
BLOCKS
  0
BLOCK
  5
6BA
330
1D
100
AcDbEntity
  8
0
100
AcDbBlockBegin
  2
*Model_Space
 70
     0
 10
0.0
 20
0.0
 30
0.0
  3
*Model_Space
  1
*Model_Space
  0
ENDBLK
  5
6BB
330
1D
100
AcDbEntity
  8
0
100
AcDbBlockEnd
  0
BLOCK
  5
6B8
330
1B
100
AcDbEntity
 67
     1
  8
0
100
AcDbBlockBegin
  2
*Paper_Space
 70
     0
 10
0.0
 20
0.0
 30
0.0
  3
*Paper_Space
  1
*Paper_Space
  0
ENDBLK
  5
6B9
330
1B
100
AcDbEntity
 67
     1
  8
0
100
AcDbBlockEnd
  0
ENDSEC
  0
SECTION
  2
ENTITIES
  0
LINE
  5
1B3
330
1D
100
AcDbEntity
  8
0
100
AcDbLine
 10
47.6
 20
569.986158
 30
0.0
 11
53.0
 21
569.986158
 31
0.0
  0
LINE
  5
1B4
330
1D
100
AcDbEntity
  8
0
100
AcDbLine
 10
44.2
 20
569.986158
 30
0.0
 11
47.6
 21
569.986158
 31
0.0
  0
LINE
  5
1B7
330
1D
100
AcDbEntity
  8
0
100
AcDbLine
 10
53.0
 20
569.986158
 30
0.0
 11
60.1
 21
569.986158
 31
0.0
  0
LINE
  5
1B8
330
1D
100
AcDbEntity
  8
0
100
AcDbLine
 10
60.1
 20
569.986158
 30
0.0
 11
68.3
 21
569.986158
 31
0.0
  0
LINE
  5
1BF
330
1D
100
AcDbEntity
  8
0
100
AcDbLine
 10
43.0
 20
569.986158
 30
0.0
 11
44.2
 21
569.986158
 31
0.0
  0
LINE
  5
24D
330
1D
100
AcDbEntity
  8
0
100
AcDbLine
 10
68.3
 20
569.986158
 30
0.0
 11
77.0
 21
569.986158
 31
0.0
  0
LINE
  5
252
330
1D
100
AcDbEntity
  8
0
100
AcDbLine
 10
101.0
 20
569.986158
 30
0.0
 11
106.4
 21
569.986158
 31
0.0
  0
LINE
  5
253
330
1D
100
AcDbEntity
  8
0
100
AcDbLine
 10
93.9
 20
569.986158
 30
0.0
 11
101.0
 21
569.986158
 31
0.0
  0
LINE
  5
254
330
1D
100
AcDbEntity
  8
0
100
AcDbLine
 10
85.7
 20
569.986158
 30
0.0
 11
93.9
 21
569.986158
 31
0.0
  0
LINE
  5
255
330
1D
100
AcDbEntity
  8
0
100
AcDbLine
 10
77.0
 20
569.986158
 30
0.0
 11
85.7
 21
569.986158
 31
0.0
  0
LINE
  5
267
330
1D
100
AcDbEntity
  8
0
100
AcDbLine
 10
106.4
 20
569.986158
 30
0.0
 11
109.8
 21
569.986158
 31
0.0
  0
LINE
  5
269
330
1D
100
AcDbEntity
  8
0
100
AcDbLine
 10
109.8
 20
569.986158
 30
0.0
 11
111.0
 21
569.986158
 31
0.0
  0
LINE
  5
293
330
1D
100
AcDbEntity
  8
0
100
AcDbLine
 10
134.7562533262369
 20
474.986158
 30
0.0
 11
136.69803036218
 21
421.065974987162
 31
0.0
  0
LINE
  5
3AE
330
1D
100
AcDbEntity
  8
0
100
AcDbLine
 10
163.0
 20
490.486158
 30
0.0
 11
163.0
 21
496.492158
 31
0.0
  0
LINE
  5
3B1
330
1D
100
AcDbEntity
  8
0
100
AcDbLine
 10
163.0
 20
496.492158
 30
0.0
 11
163.0
 21
490.486158
 31
0.0
  0
LINE
  5
C2E
330
1D
100
AcDbEntity
  8
0
100
AcDbLine
 10
36.29999999999999
 20
88.09275799999999
 30
0.0
 11
41.39999999999999
 21
74.18525799999999
 31
0.0
  0
LINE
  5
C2F
330
1D
100
AcDbEntity
  8
0
100
AcDbLine
 10
37.29999999999999
 20
88.716658
 30
0.0
 11
42.29999999999999
 21
74.809258
 31
0.0
  0
LINE
  5
C30
330
1D
100
AcDbEntity
  8
0
100
AcDbLine
 10
42.29999999999999
 20
74.809258
 30
0.0
 11
48.9
 21
61.93545799999999
 31
0.0
  0
LINE
  5
C31
330
1D
100
AcDbEntity
  8
0
100
AcDbLine
 10
41.39999999999999
 20
74.18525799999999
 30
0.0
 11
48.1
 21
61.12355799999999
 31
0.0
  0
LINE
  5
C32
330
1D
100
AcDbEntity
  8
0
100
AcDbLine
 10
41.39999999999999
 20
69.739058
 30
0.0
 11
48.1
 21
56.67735799999999
 31
0.0
  0
LINE
  5
C33
330
1D
100
AcDbEntity
  8
0
100
AcDbLine
 10
36.29999999999999
 20
83.64645799999999
 30
0.0
 11
41.39999999999999
 21
69.739058
 31
0.0
  0
LINE
  5
C34
330
1D
100
AcDbEntity
  8
0
100
AcDbLine
 10
32.0
 20
117.223158
 30
0.0
 11
32.0
 21
112.777158
 31
0.0
  0
LINE
  5
C35
330
1D
100
AcDbEntity
  8
0
100
AcDbLine
 10
32.0
 20
117.223158
 30
0.0
 11
33.2
 21
102.5641579999999
 31
0.0
  0
LINE
  5
C36
330
1D
100
AcDbEntity
  8
0
100
AcDbLine
 10
32.0
 20
117.223158
 30
0.0
 11
33.2
 21
131.882158
 31
0.0
  0
LINE
  5
C37
330
1D
100
AcDbEntity
  8
0
100
AcDbLine
 10
33.2
 20
131.882158
 30
0.0
 11
36.29999999999999
 21
146.354158
 31
0.0
  0
LINE
  5
C38
330
1D
100
AcDbEntity
  8
0
100
AcDbLine
 10
33.0
 20
117.565158
 30
0.0
 11
34.2
 21
102.906158
 31
0.0
  0
LINE
  5
C39
330
1D
100
AcDbEntity
  8
0
100
AcDbLine
 10
33.0
 20
117.565158
 30
0.0
 11
34.2
 21
132.224158
 31
0.0
  0
LINE
  5
C3A
330
1D
100
AcDbEntity
  8
0
100
AcDbLine
 10
34.2
 20
132.224158
 30
0.0
 11
37.29999999999999
 21
146.414158
 31
0.0
  0
LINE
  5
C3B
330
1D
100
AcDbEntity
  8
0
100
AcDbLine
 10
37.29999999999999
 20
146.414158
 30
0.0
 11
42.29999999999999
 21
160.3211579999999
 31
0.0
  0
LINE
  5
C3C
330
1D
100
AcDbEntity
  8
0
100
AcDbLine
 10
42.29999999999999
 20
160.3211579999999
 30
0.0
 11
48.9
 21
173.195158
 31
0.0
  0
LINE
  5
C3D
330
1D
100
AcDbEntity
  8
0
100
AcDbLine
 10
41.39999999999999
 20
160.261158
 30
0.0
 11
48.1
 21
173.3231579999999
 31
0.0
  0
LINE
  5
C3E
330
1D
100
AcDbEntity
  8
0
100
AcDbLine
 10
36.29999999999999
 20
146.354158
 30
0.0
 11
41.39999999999999
 21
160.261158
 31
0.0
  0
LINE
  5
C3F
330
1D
100
AcDbEntity
  8
0
100
AcDbLine
 10
34.2
 20
102.906158
 30
0.0
 11
37.29999999999999
 21
88.716658
 31
0.0
  0
LINE
  5
C40
330
1D
100
AcDbEntity
  8
0
100
AcDbLine
 10
33.2
 20
102.5641579999999
 30
0.0
 11
36.29999999999999
 21
88.09275799999999
 31
0.0
  0
LINE
  5
C41
330
1D
100
AcDbEntity
  8
0
100
AcDbLine
 10
33.2
 20
98.11775799999999
 30
0.0
 11
36.29999999999999
 21
83.64645799999999
 31
0.0
  0
LINE
  5
C42
330
1D
100
AcDbEntity
  8
0
100
AcDbLine
 10
32.0
 20
112.777158
 30
0.0
 11
33.2
 21
98.11775799999999
 31
0.0
  0
LINE
  5
C43
330
1D
100
AcDbEntity
  8
0
100
AcDbLine
 10
32.0
 20
112.777158
 30
0.0
 11
32.0
 21
117.223158
 31
0.0
  0
LINE
  5
C44
330
1D
100
AcDbEntity
  8
0
100
AcDbLine
 10
57.0
 20
48.719658
 30
0.0
 11
67.3
 21
37.631258
 31
0.0
  0
LINE
  5
C45
330
1D
100
AcDbEntity
  8
0
100
AcDbLine
 10
57.8
 20
49.625458
 30
0.0
 11
68.0
 21
38.631058
 31
0.0
  0
LINE
  5
C46
330
1D
100
AcDbEntity
  8
0
100
AcDbLine
 10
57.0
 20
44.273358
 30
0.0
 11
67.3
 21
33.184958
 31
0.0
  0
LINE
  5
C47
330
1D
100
AcDbEntity
  8
0
100
AcDbLine
 10
48.1
 20
173.3231579999999
 30
0.0
 11
57.0
 21
185.727158
 31
0.0
  0
LINE
  5
C48
330
1D
100
AcDbEntity
  8
0
100
AcDbLine
 10
48.9
 20
173.195158
 30
0.0
 11
57.8
 21
185.5051579999999
 31
0.0
  0
LINE
  5
C49
330
1D
100
AcDbEntity
  8
0
100
AcDbLine
 10
57.8
 20
185.5051579999999
 30
0.0
 11
68.0
 21
196.4991579999999
 31
0.0
  0
LINE
  5
C4A
330
1D
100
AcDbEntity
  8
0
100
AcDbLine
 10
57.0
 20
185.727158
 30
0.0
 11
67.3
 21
196.8151579999999
 31
0.0
  0
LINE
  5
C4B
330
1D
100
AcDbEntity
  8
0
100
AcDbLine
 10
48.9
 20
61.93545799999999
 30
0.0
 11
57.8
 21
49.625458
 31
0.0
  0
LINE
  5
C4C
330
1D
100
AcDbEntity
  8
0
100
AcDbLine
 10
48.1
 20
61.12355799999999
 30
0.0
 11
57.0
 21
48.719658
 31
0.0
  0
LINE
  5
C4D
330
1D
100
AcDbEntity
  8
0
100
AcDbLine
 10
48.1
 20
56.67735799999999
 30
0.0
 11
57.0
 21
44.273358
 31
0.0
  0
LINE
  5
C4E
330
1D
100
AcDbEntity
  8
0
100
AcDbLine
 10
44.4759
 20
475.072158
 30
0.0
 11
45.49199999999999
 21
475.4651579999999
 31
0.0
  0
LINE
  5
C4F
330
1D
100
AcDbEntity
  8
0
100
AcDbLine
 10
23.0
 20
475.072158
 30
0.0
 11
44.4759
 21
475.072158
 31
0.0
  0
LINE
  5
C50
330
1D
100
AcDbEntity
  8
0
100
AcDbLine
 10
1.524059999999999
 20
475.072158
 30
0.0
 11
23.0
 21
475.072158
 31
0.0
  0
LINE
  5
C51
330
1D
100
AcDbEntity
  8
0
100
AcDbLine
 10
45.49199999999999
 20
475.4651579999999
 30
0.0
 11
45.49199999999999
 21
476.097158
 31
0.0
  0
LINE
  5
C52
330
1D
100
AcDbEntity
  8
0
100
AcDbLine
 10
45.49199999999999
 20
475.4651579999999
 30
0.0
 11
45.78047997930299
 21
476.029624731155
 31
0.0
  0
LINE
  5
C53
330
1D
100
AcDbEntity
  8
0
100
AcDbLine
 10
0.0
 20
477.048158
 30
0.0
 11
0.0
 21
476.459158
 31
0.0
  0
LINE
  5
C54
330
1D
100
AcDbEntity
  8
0
100
AcDbLine
 10
0.0
 20
477.048158
 30
0.0
 11
0.0
 21
478.889158
 31
0.0
  0
LINE
  5
C55
330
1D
100
AcDbEntity
  8
0
100
AcDbLine
 10
0.0
 20
476.459158
 30
0.0
 11
0.5080200000000001
 21
475.4651579999999
 31
0.0
  0
LINE
  5
C56
330
1D
100
AcDbEntity
  8
0
100
AcDbLine
 10
0.0
 20
476.459158
 30
0.0
 11
0.0
 21
477.048158
 31
0.0
  0
LINE
  5
C57
330
1D
100
AcDbEntity
  8
0
100
AcDbLine
 10
0.0
 20
481.897158
 30
0.0
 11
0.0
 21
478.889158
 31
0.0
  0
LINE
  5
C58
330
1D
100
AcDbEntity
  8
0
100
AcDbLine
 10
0.0
 20
481.897158
 30
0.0
 11
0.0
 21
485.752158
 31
0.0
  0
LINE
  5
C59
330
1D
100
AcDbEntity
  8
0
100
AcDbLine
 10
0.0
 20
485.752158
 30
0.0
 11
0.0
 21
481.897158
 31
0.0
  0
LINE
  5
C5A
330
1D
100
AcDbEntity
  8
0
100
AcDbLine
 10
0.0
 20
485.752158
 30
0.0
 11
0.0
 21
490.179158
 31
0.0
  0
LINE
  5
C5B
330
1D
100
AcDbEntity
  8
0
100
AcDbLine
 10
0.5080200000000001
 20
481.215158
 30
0.0
 11
0.5080200000000001
 21
478.073158
 31
0.0
  0
LINE
  5
C5C
330
1D
100
AcDbEntity
  8
0
100
AcDbLine
 10
0.5080200000000001
 20
481.215158
 30
0.0
 11
0.5080200000000001
 21
485.0522717159949
 31
0.0
  0
LINE
  5
C5D
330
1D
100
AcDbEntity
  8
0
100
AcDbLine
 10
0.1
 20
486.034158
 30
0.0
 11
0.1
 21
485.583158
 31
0.0
  0
LINE
  5
C5E
330
1D
100
AcDbEntity
  8
0
100
AcDbLine
 10
0.1
 20
486.034158
 30
0.0
 11
0.1
 21
486.613158
 31
0.0
  0
LINE
  5
C5F
330
1D
100
AcDbEntity
  8
0
100
AcDbLine
 10
0.1
 20
486.613158
 30
0.0
 11
0.1
 21
486.034158
 31
0.0
  0
LINE
  5
C60
330
1D
100
AcDbEntity
  8
0
100
AcDbLine
 10
0.1
 20
486.613158
 30
0.0
 11
0.1
 21
487.277158
 31
0.0
  0
LINE
  5
C61
330
1D
100
AcDbEntity
  8
0
100
AcDbLine
 10
0.1
 20
487.277158
 30
0.0
 11
0.1
 21
486.613158
 31
0.0
  0
LINE
  5
C62
330
1D
100
AcDbEntity
  8
0
100
AcDbLine
 10
0.1
 20
487.277158
 30
0.0
 11
0.1
 21
487.993158
 31
0.0
  0
LINE
  5
C63
330
1D
100
AcDbEntity
  8
0
100
AcDbLine
 10
0.1
 20
485.583158
 30
0.0
 11
0.1
 21
485.3071579999999
 31
0.0
  0
LINE
  5
C64
330
1D
100
AcDbEntity
  8
0
100
AcDbLine
 10
0.1
 20
485.583158
 30
0.0
 11
0.1
 21
486.034158
 31
0.0
  0
LINE
  5
C65
330
1D
100
AcDbEntity
  8
0
100
AcDbLine
 10
0.1
 20
485.3071579999999
 30
0.0
 11
0.1
 21
485.219158
 31
0.0
  0
LINE
  5
C66
330
1D
100
AcDbEntity
  8
0
100
AcDbLine
 10
0.1
 20
485.3071579999999
 30
0.0
 11
0.1
 21
485.583158
 31
0.0
  0
LINE
  5
C67
330
1D
100
AcDbEntity
  8
0
100
AcDbLine
 10
0.1
 20
485.3071579999999
 30
0.0
 11
0.1
 21
487.636158
 31
0.0
  0
LINE
  5
C68
330
1D
100
AcDbEntity
  8
0
100
AcDbLine
 10
0.1
 20
485.219158
 30
0.0
 11
0.35401
 21
485.0701579999999
 31
0.0
  0
LINE
  5
C69
330
1D
100
AcDbEntity
  8
0
100
AcDbLine
 10
0.1
 20
485.219158
 30
0.0
 11
0.1
 21
485.3071579999999
 31
0.0
  0
LINE
  5
C6A
330
1D
100
AcDbEntity
  8
0
100
AcDbLine
 10
0.35401
 20
485.0701579999999
 30
0.0
 11
0.86203
 21
485.011158
 31
0.0
  0
LINE
  5
C6B
330
1D
100
AcDbEntity
  8
0
100
AcDbLine
 10
0.5080200000000001
 20
485.0522717159949
 30
0.0
 11
0.5080200000000001
 21
481.215158
 31
0.0
  0
LINE
  5
C6C
330
1D
100
AcDbEntity
  8
0
100
AcDbLine
 10
0.0
 20
478.889158
 30
0.0
 11
0.0
 21
477.048158
 31
0.0
  0
LINE
  5
C6D
330
1D
100
AcDbEntity
  8
0
100
AcDbLine
 10
0.0
 20
478.889158
 30
0.0
 11
0.0
 21
481.897158
 31
0.0
  0
LINE
  5
C6E
330
1D
100
AcDbEntity
  8
0
100
AcDbLine
 10
0.5080200000000001
 20
478.073158
 30
0.0
 11
0.5080200000000001
 21
476.097158
 31
0.0
  0
LINE
  5
C6F
330
1D
100
AcDbEntity
  8
0
100
AcDbLine
 10
0.5080200000000001
 20
478.073158
 30
0.0
 11
0.5080200000000001
 21
481.215158
 31
0.0
  0
LINE
  5
C70
330
1D
100
AcDbEntity
  8
0
100
AcDbLine
 10
45.758265593561
 20
475.9861579999999
 30
0.0
 11
57.228679958027
 21
475.9861579999999
 31
0.0
  0
LINE
  5
C71
330
1D
100
AcDbEntity
  8
0
100
AcDbLine
 10
45.758265593561
 20
475.9861579999999
 30
0.0
 11
57.228679958027
 21
475.9861579999999
 31
0.0
  0
LINE
  5
C72
330
1D
100
AcDbEntity
  8
0
100
AcDbLine
 10
19.338
 20
485.011158
 30
0.0
 11
19.846
 21
485.0701579999999
 31
0.0
  0
LINE
  5
C73
330
1D
100
AcDbEntity
  8
0
100
AcDbLine
 10
10.1
 20
485.011158
 30
0.0
 11
19.338
 21
485.011158
 31
0.0
  0
LINE
  5
C74
330
1D
100
AcDbEntity
  8
0
100
AcDbLine
 10
20.1
 20
485.219158
 30
0.0
 11
20.1
 21
485.3071579999999
 31
0.0
  0
LINE
  5
C75
330
1D
100
AcDbEntity
  8
0
100
AcDbLine
 10
19.846
 20
485.0701579999999
 30
0.0
 11
20.1
 21
485.219158
 31
0.0
  0
LINE
  5
C76
330
1D
100
AcDbEntity
  8
0
100
AcDbLine
 10
0.86203
 20
485.011158
 30
0.0
 11
10.1
 21
485.011158
 31
0.0
  0
LINE
  5
C77
330
1D
100
AcDbEntity
  8
0
100
AcDbLine
 10
45.49199999999999
 20
481.215158
 30
0.0
 11
45.49199999999999
 21
485.230158
 31
0.0
  0
LINE
  5
C78
330
1D
100
AcDbEntity
  8
0
100
AcDbLine
 10
45.49199999999999
 20
481.215158
 30
0.0
 11
45.49199999999999
 21
478.073158
 31
0.0
  0
LINE
  5
C79
330
1D
100
AcDbEntity
  8
0
100
AcDbLine
 10
20.1
 20
486.034158
 30
0.0
 11
20.1
 21
486.613158
 31
0.0
  0
LINE
  5
C7A
330
1D
100
AcDbEntity
  8
0
100
AcDbLine
 10
20.1
 20
486.034158
 30
0.0
 11
20.1
 21
485.583158
 31
0.0
  0
LINE
  5
C7B
330
1D
100
AcDbEntity
  8
0
100
AcDbLine
 10
20.1
 20
486.613158
 30
0.0
 11
20.1
 21
487.277158
 31
0.0
  0
LINE
  5
C7C
330
1D
100
AcDbEntity
  8
0
100
AcDbLine
 10
20.1
 20
486.613158
 30
0.0
 11
20.1
 21
486.034158
 31
0.0
  0
LINE
  5
C7D
330
1D
100
AcDbEntity
  8
0
100
AcDbLine
 10
20.1
 20
485.583158
 30
0.0
 11
20.1
 21
485.3071579999999
 31
0.0
  0
LINE
  5
C7E
330
1D
100
AcDbEntity
  8
0
100
AcDbLine
 10
20.1
 20
485.583158
 30
0.0
 11
20.1
 21
486.034158
 31
0.0
  0
LINE
  5
C7F
330
1D
100
AcDbEntity
  8
0
100
AcDbLine
 10
20.1
 20
485.3071579999999
 30
0.0
 11
20.1
 21
485.583158
 31
0.0
  0
LINE
  5
C80
330
1D
100
AcDbEntity
  8
0
100
AcDbLine
 10
20.1
 20
485.3071579999999
 30
0.0
 11
20.1
 21
485.219158
 31
0.0
  0
LINE
  5
C81
330
1D
100
AcDbEntity
  8
0
100
AcDbLine
 10
20.1
 20
487.277158
 30
0.0
 11
20.1
 21
487.993158
 31
0.0
  0
LINE
  5
C82
330
1D
100
AcDbEntity
  8
0
100
AcDbLine
 10
20.1
 20
487.277158
 30
0.0
 11
20.1
 21
486.613158
 31
0.0
  0
LINE
  5
C83
330
1D
100
AcDbEntity
  8
0
100
AcDbLine
 10
45.49199999999999
 20
485.230158
 30
0.0
 11
45.49199999999999
 21
489.933158
 31
0.0
  0
LINE
  5
C84
330
1D
100
AcDbEntity
  8
0
100
AcDbLine
 10
45.49199999999999
 20
485.230158
 30
0.0
 11
45.49199999999999
 21
481.215158
 31
0.0
  0
LINE
  5
C85
330
1D
100
AcDbEntity
  8
0
100
AcDbLine
 10
45.49199999999999
 20
478.073158
 30
0.0
 11
45.49199999999999
 21
476.097158
 31
0.0
  0
LINE
  5
C86
330
1D
100
AcDbEntity
  8
0
100
AcDbLine
 10
45.49199999999999
 20
478.073158
 30
0.0
 11
45.49199999999999
 21
481.215158
 31
0.0
  0
LINE
  5
C87
330
1D
100
AcDbEntity
  8
0
100
AcDbLine
 10
45.49199999999999
 20
476.097158
 30
0.0
 11
45.49199999999999
 21
478.073158
 31
0.0
  0
LINE
  5
C88
330
1D
100
AcDbEntity
  8
0
100
AcDbLine
 10
45.49199999999999
 20
476.097158
 30
0.0
 11
45.49199999999999
 21
475.4651579999999
 31
0.0
  0
LINE
  5
C89
330
1D
100
AcDbEntity
  8
0
100
AcDbLine
 10
0.5080200000000001
 20
476.097158
 30
0.0
 11
0.5080200000000001
 21
475.4651579999999
 31
0.0
  0
LINE
  5
C8A
330
1D
100
AcDbEntity
  8
0
100
AcDbLine
 10
0.5080200000000001
 20
476.097158
 30
0.0
 11
0.5080200000000001
 21
478.073158
 31
0.0
  0
LINE
  5
C8B
330
1D
100
AcDbEntity
  8
0
100
AcDbLine
 10
0.5080200000000001
 20
475.4651579999999
 30
0.0
 11
1.524059999999999
 21
475.072158
 31
0.0
  0
LINE
  5
C8C
330
1D
100
AcDbEntity
  8
0
100
AcDbLine
 10
0.5080200000000001
 20
475.4651579999999
 30
0.0
 11
0.5080200000000001
 21
476.097158
 31
0.0
  0
LINE
  5
C8D
330
1D
100
AcDbEntity
  8
0
100
AcDbLine
 10
57.508
 20
485.2721579999999
 30
0.0
 11
57.508
 21
481.1761579999999
 31
0.0
  0
LINE
  5
C8E
330
1D
100
AcDbEntity
  8
0
100
AcDbLine
 10
57.508
 20
485.2721579999999
 30
0.0
 11
57.508
 21
489.938158
 31
0.0
  0
LINE
  5
C8F
330
1D
100
AcDbEntity
  8
0
100
AcDbLine
 10
57.508
 20
481.1761579999999
 30
0.0
 11
57.508
 21
478.0341579999999
 31
0.0
  0
LINE
  5
C90
330
1D
100
AcDbEntity
  8
0
100
AcDbLine
 10
57.508
 20
481.1761579999999
 30
0.0
 11
57.508
 21
485.2721579999999
 31
0.0
  0
LINE
  5
C91
330
1D
100
AcDbEntity
  8
0
100
AcDbLine
 10
57.508
 20
478.0341579999999
 30
0.0
 11
57.508
 21
476.1291579999999
 31
0.0
  0
LINE
  5
C92
330
1D
100
AcDbEntity
  8
0
100
AcDbLine
 10
57.508
 20
478.0341579999999
 30
0.0
 11
57.508
 21
481.1761579999999
 31
0.0
  0
LINE
  5
C93
330
1D
100
AcDbEntity
  8
0
100
AcDbLine
 10
57.508
 20
476.1291579999999
 30
0.0
 11
57.508
 21
475.462158
 31
0.0
  0
LINE
  5
C94
330
1D
100
AcDbEntity
  8
0
100
AcDbLine
 10
57.508
 20
476.1291579999999
 30
0.0
 11
57.508
 21
478.0341579999999
 31
0.0
  0
LINE
  5
C95
330
1D
100
AcDbEntity
  8
0
100
AcDbLine
 10
57.228679958027
 20
475.9861579999999
 30
0.0
 11
57.508
 21
475.462158
 31
0.0
  0
LINE
  5
C96
330
1D
100
AcDbEntity
  8
0
100
AcDbLine
 10
57.508
 20
475.462158
 30
0.0
 11
58.52409999999999
 21
474.986158
 31
0.0
  0
LINE
  5
C97
330
1D
100
AcDbEntity
  8
0
100
AcDbLine
 10
57.508
 20
475.462158
 30
0.0
 11
57.508
 21
476.1291579999999
 31
0.0
  0
LINE
  5
C98
330
1D
100
AcDbEntity
  8
0
100
AcDbLine
 10
92.3
 20
19.58915799999999
 30
0.0
 11
106.2
 21
13.29325799999999
 31
0.0
  0
LINE
  5
C99
330
1D
100
AcDbEntity
  8
0
100
AcDbLine
 10
79.7
 20
29.046158
 30
0.0
 11
92.79999999999999
 21
20.682958
 31
0.0
  0
LINE
  5
C9A
330
1D
100
AcDbEntity
  8
0
100
AcDbLine
 10
79.1
 20
27.952458
 30
0.0
 11
92.3
 21
19.58915799999999
 31
0.0
  0
LINE
  5
C9B
330
1D
100
AcDbEntity
  8
0
100
AcDbLine
 10
67.3
 20
33.184958
 30
0.0
 11
79.1
 21
23.50615799999999
 31
0.0
  0
LINE
  5
C9C
330
1D
100
AcDbEntity
  8
0
100
AcDbLine
 10
79.1
 20
23.50615799999999
 30
0.0
 11
92.3
 21
15.14285799999999
 31
0.0
  0
LINE
  5
C9D
330
1D
100
AcDbEntity
  8
0
100
AcDbLine
 10
92.79999999999999
 20
20.682958
 30
0.0
 11
106.4999999999999
 21
14.48095799999999
 31
0.0
  0
LINE
  5
C9E
330
1D
100
AcDbEntity
  8
0
100
AcDbLine
 10
92.3
 20
15.14285799999999
 30
0.0
 11
106.2
 21
8.846958
 31
0.0
  0
LINE
  5
C9F
330
1D
100
AcDbEntity
  8
0
100
AcDbLine
 10
68.0
 20
38.631058
 30
0.0
 11
79.7
 21
29.046158
 31
0.0
  0
LINE
  5
CA0
330
1D
100
AcDbEntity
  8
0
100
AcDbLine
 10
67.3
 20
37.631258
 30
0.0
 11
79.1
 21
27.952458
 31
0.0
  0
LINE
  5
CA1
330
1D
100
AcDbEntity
  8
0
100
AcDbLine
 10
68.0
 20
196.4991579999999
 30
0.0
 11
79.7
 21
206.0841579999999
 31
0.0
  0
LINE
  5
CA2
330
1D
100
AcDbEntity
  8
0
100
AcDbLine
 10
79.7
 20
206.0841579999999
 30
0.0
 11
92.79999999999999
 21
214.447158
 31
0.0
  0
LINE
  5
CA3
330
1D
100
AcDbEntity
  8
0
100
AcDbLine
 10
67.3
 20
196.8151579999999
 30
0.0
 11
79.1
 21
206.494158
 31
0.0
  0
LINE
  5
CA4
330
1D
100
AcDbEntity
  8
0
100
AcDbLine
 10
79.1
 20
206.494158
 30
0.0
 11
92.3
 21
214.857158
 31
0.0
  0
LINE
  5
CA5
330
1D
100
AcDbEntity
  8
0
100
AcDbLine
 10
92.79999999999999
 20
214.447158
 30
0.0
 11
106.4999999999999
 21
220.649158
 31
0.0
  0
LINE
  5
CA6
330
1D
100
AcDbEntity
  8
0
100
AcDbLine
 10
92.3
 20
214.857158
 30
0.0
 11
106.2
 21
221.153158
 31
0.0
  0
LINE
  5
CA7
330
1D
100
AcDbEntity
  8
0
100
AcDbLine
 10
102.0
 20
118.591158
 30
0.0
 11
102.0
 21
117.565158
 31
0.0
  0
LINE
  5
CA8
330
1D
100
AcDbEntity
  8
0
100
AcDbLine
 10
102.0
 20
118.591158
 30
0.0
 11
102.4999999999999
 21
112.483158
 31
0.0
  0
LINE
  5
CA9
330
1D
100
AcDbEntity
  8
0
100
AcDbLine
 10
102.0
 20
118.591158
 30
0.0
 11
102.4999999999999
 21
124.699158
 31
0.0
  0
LINE
  5
CAA
330
1D
100
AcDbEntity
  8
0
100
AcDbLine
 10
102.0
 20
117.565158
 30
0.0
 11
102.4999999999999
 21
111.457158
 31
0.0
  0
LINE
  5
CAB
330
1D
100
AcDbEntity
  8
0
100
AcDbLine
 10
102.0
 20
117.565158
 30
0.0
 11
102.0
 21
118.591158
 31
0.0
  0
LINE
  5
CAC
330
1D
100
AcDbEntity
  8
0
100
AcDbLine
 10
58.52409999999999
 20
474.986158
 30
0.0
 11
141.0
 21
474.986158
 31
0.0
  0
LINE
  5
CAD
330
1D
100
AcDbEntity
  8
0
100
AcDbLine
 10
0.1
 20
487.993158
 30
0.0
 11
0.1
 21
487.277158
 31
0.0
  0
LINE
  5
CAE
330
1D
100
AcDbEntity
  8
0
100
AcDbLine
 10
0.1
 20
487.993158
 30
0.0
 11
0.1
 21
488.7121579999999
 31
0.0
  0
LINE
  5
CAF
330
1D
100
AcDbEntity
  8
0
100
AcDbLine
 10
20.1
 20
487.993158
 30
0.0
 11
20.1
 21
488.7121579999999
 31
0.0
  0
LINE
  5
CB0
330
1D
100
AcDbEntity
  8
0
100
AcDbLine
 10
20.1
 20
487.993158
 30
0.0
 11
20.1
 21
487.277158
 31
0.0
  0
LINE
  5
CB1
330
1D
100
AcDbEntity
  8
0
100
AcDbLine
 10
0.1
 20
487.636158
 30
0.0
 11
0.1
 21
485.3071579999999
 31
0.0
  0
LINE
  5
CB2
330
1D
100
AcDbEntity
  8
0
100
AcDbLine
 10
0.1
 20
488.7121579999999
 30
0.0
 11
0.1
 21
487.993158
 31
0.0
  0
LINE
  5
CB3
330
1D
100
AcDbEntity
  8
0
100
AcDbLine
 10
0.1
 20
488.7121579999999
 30
0.0
 11
0.1
 21
489.3921579999999
 31
0.0
  0
LINE
  5
CB4
330
1D
100
AcDbEntity
  8
0
100
AcDbLine
 10
20.1
 20
488.7121579999999
 30
0.0
 11
20.1
 21
489.3921579999999
 31
0.0
  0
LINE
  5
CB5
330
1D
100
AcDbEntity
  8
0
100
AcDbLine
 10
20.1
 20
488.7121579999999
 30
0.0
 11
20.1
 21
487.993158
 31
0.0
  0
LINE
  5
CB6
330
1D
100
AcDbEntity
  8
0
100
AcDbLine
 10
20.1
 20
489.3921579999999
 30
0.0
 11
20.1
 21
489.9711579999999
 31
0.0
  0
LINE
  5
CB7
330
1D
100
AcDbEntity
  8
0
100
AcDbLine
 10
20.1
 20
489.3921579999999
 30
0.0
 11
20.1
 21
488.7121579999999
 31
0.0
  0
LINE
  5
CB8
330
1D
100
AcDbEntity
  8
0
100
AcDbLine
 10
20.1
 20
489.9711579999999
 30
0.0
 11
20.1
 21
490.407158
 31
0.0
  0
LINE
  5
CB9
330
1D
100
AcDbEntity
  8
0
100
AcDbLine
 10
20.1
 20
489.9711579999999
 30
0.0
 11
20.1
 21
489.3921579999999
 31
0.0
  0
LINE
  5
CBA
330
1D
100
AcDbEntity
  8
0
100
AcDbLine
 10
0.1
 20
489.3921579999999
 30
0.0
 11
0.1
 21
489.9711579999999
 31
0.0
  0
LINE
  5
CBB
330
1D
100
AcDbEntity
  8
0
100
AcDbLine
 10
0.1
 20
489.3921579999999
 30
0.0
 11
0.1
 21
488.7121579999999
 31
0.0
  0
LINE
  5
CBC
330
1D
100
AcDbEntity
  8
0
100
AcDbLine
 10
0.1
 20
489.9711579999999
 30
0.0
 11
0.1
 21
489.3921579999999
 31
0.0
  0
LINE
  5
CBD
330
1D
100
AcDbEntity
  8
0
100
AcDbLine
 10
0.1
 20
489.9711579999999
 30
0.0
 11
0.1
 21
490.407158
 31
0.0
  0
LINE
  5
CBE
330
1D
100
AcDbEntity
  8
0
100
AcDbLine
 10
45.49199999999999
 20
489.933158
 30
0.0
 11
45.49199999999999
 21
485.230158
 31
0.0
  0
LINE
  5
CBF
330
1D
100
AcDbEntity
  8
0
100
AcDbLine
 10
45.49199999999999
 20
489.933158
 30
0.0
 11
45.49199999999999
 21
494.981158
 31
0.0
  0
LINE
  5
CC0
330
1D
100
AcDbEntity
  8
0
100
AcDbLine
 10
0.1
 20
490.407158
 30
0.0
 11
0.1
 21
489.9711579999999
 31
0.0
  0
LINE
  5
CC1
330
1D
100
AcDbEntity
  8
0
100
AcDbLine
 10
0.1
 20
490.407158
 30
0.0
 11
0.1
 21
490.6891579999999
 31
0.0
  0
LINE
  5
CC2
330
1D
100
AcDbEntity
  8
0
100
AcDbLine
 10
20.1
 20
490.407158
 30
0.0
 11
20.1
 21
490.6891579999999
 31
0.0
  0
LINE
  5
CC3
330
1D
100
AcDbEntity
  8
0
100
AcDbLine
 10
20.1
 20
490.407158
 30
0.0
 11
20.1
 21
489.9711579999999
 31
0.0
  0
LINE
  5
CC4
330
1D
100
AcDbEntity
  8
0
100
AcDbLine
 10
20.1
 20
490.6891579999999
 30
0.0
 11
20.1
 21
493.018158
 31
0.0
  0
LINE
  5
CC5
330
1D
100
AcDbEntity
  8
0
100
AcDbLine
 10
20.1
 20
490.6891579999999
 30
0.0
 11
20.1
 21
490.407158
 31
0.0
  0
LINE
  5
CC6
330
1D
100
AcDbEntity
  8
0
100
AcDbLine
 10
0.1
 20
490.6891579999999
 30
0.0
 11
0.1
 21
493.018158
 31
0.0
  0
LINE
  5
CC7
330
1D
100
AcDbEntity
  8
0
100
AcDbLine
 10
0.1
 20
490.6891579999999
 30
0.0
 11
0.1
 21
490.407158
 31
0.0
  0
LINE
  5
CC8
330
1D
100
AcDbEntity
  8
0
100
AcDbLine
 10
0.0
 20
490.179158
 30
0.0
 11
0.0
 21
485.752158
 31
0.0
  0
LINE
  5
CC9
330
1D
100
AcDbEntity
  8
0
100
AcDbLine
 10
0.0
 20
490.179158
 30
0.0
 11
0.0
 21
494.9521579999999
 31
0.0
  0
LINE
  5
CCA
330
1D
100
AcDbEntity
  8
0
100
AcDbLine
 10
57.508
 20
489.938158
 30
0.0
 11
57.508
 21
485.2721579999999
 31
0.0
  0
LINE
  5
CCB
330
1D
100
AcDbEntity
  8
0
100
AcDbLine
 10
57.508
 20
489.938158
 30
0.0
 11
57.508
 21
494.986158
 31
0.0
  0
LINE
  5
CCC
330
1D
100
AcDbEntity
  8
0
100
AcDbLine
 10
102.0
 20
488.065158
 30
0.0
 11
102.0
 21
489.7721579999999
 31
0.0
  0
LINE
  5
CCD
330
1D
100
AcDbEntity
  8
0
100
AcDbLine
 10
102.0
 20
488.065158
 30
0.0
 11
102.0
 21
487.473158
 31
0.0
  0
LINE
  5
CCE
330
1D
100
AcDbEntity
  8
0
100
AcDbLine
 10
102.0
 20
488.069158
 30
0.0
 11
102.0
 21
487.473158
 31
0.0
  0
LINE
  5
CCF
330
1D
100
AcDbEntity
  8
0
100
AcDbLine
 10
102.0
 20
488.069158
 30
0.0
 11
102.0
 21
489.845158
 31
0.0
  0
LINE
  5
CD0
330
1D
100
AcDbEntity
  8
0
100
AcDbLine
 10
102.0
 20
487.473158
 30
0.0
 11
102.7538
 21
486.991158
 31
0.0
  0
LINE
  5
CD1
330
1D
100
AcDbEntity
  8
0
100
AcDbLine
 10
102.0
 20
487.473158
 30
0.0
 11
102.0
 21
488.065158
 31
0.0
  0
LINE
  5
CD2
330
1D
100
AcDbEntity
  8
0
100
AcDbLine
 10
102.0
 20
487.473158
 30
0.0
 11
102.0
 21
488.069158
 31
0.0
  0
LINE
  5
CD3
330
1D
100
AcDbEntity
  8
0
100
AcDbLine
 10
102.0
 20
489.845158
 30
0.0
 11
102.0
 21
488.069158
 31
0.0
  0
LINE
  5
CD4
330
1D
100
AcDbEntity
  8
0
100
AcDbLine
 10
102.0
 20
489.845158
 30
0.0
 11
102.0
 21
492.598158
 31
0.0
  0
LINE
  5
CD5
330
1D
100
AcDbEntity
  8
0
100
AcDbLine
 10
102.0
 20
492.598158
 30
0.0
 11
102.0
 21
489.845158
 31
0.0
  0
LINE
  5
CD6
330
1D
100
AcDbEntity
  8
0
100
AcDbLine
 10
102.0
 20
492.598158
 30
0.0
 11
102.0
 21
496.202158
 31
0.0
  0
LINE
  5
CD7
330
1D
100
AcDbEntity
  8
0
100
AcDbLine
 10
102.0
 20
489.7721579999999
 30
0.0
 11
102.0
 21
492.6011579999999
 31
0.0
  0
LINE
  5
CD8
330
1D
100
AcDbEntity
  8
0
100
AcDbLine
 10
102.0
 20
489.7721579999999
 30
0.0
 11
102.0
 21
488.065158
 31
0.0
  0
LINE
  5
CD9
330
1D
100
AcDbEntity
  8
0
100
AcDbLine
 10
0.1
 20
493.018158
 30
0.0
 11
0.1
 21
490.6891579999999
 31
0.0
  0
LINE
  5
CDA
330
1D
100
AcDbEntity
  8
0
100
AcDbLine
 10
0.5080200000000001
 20
493.177075857565
 30
0.0
 11
0.5080200000000001
 21
494.981158
 31
0.0
  0
LINE
  5
CDB
330
1D
100
AcDbEntity
  8
0
100
AcDbLine
 10
0.0
 20
494.9521579999999
 30
0.0
 11
0.0
 21
490.179158
 31
0.0
  0
LINE
  5
CDC
330
1D
100
AcDbEntity
  8
0
100
AcDbLine
 10
0.0
 20
494.9521579999999
 30
0.0
 11
0.0
 21
499.744158
 31
0.0
  0
LINE
  5
CDD
330
1D
100
AcDbEntity
  8
0
100
AcDbLine
 10
20.1
 20
493.018158
 30
0.0
 11
20.1
 21
490.6891579999999
 31
0.0
  0
LINE
  5
CDE
330
1D
100
AcDbEntity
  8
0
100
AcDbLine
 10
45.49199999999999
 20
494.981158
 30
0.0
 11
45.49199999999999
 21
499.982158
 31
0.0
  0
LINE
  5
CDF
330
1D
100
AcDbEntity
  8
0
100
AcDbLine
 10
45.49199999999999
 20
494.981158
 30
0.0
 11
45.49199999999999
 21
489.933158
 31
0.0
  0
LINE
  5
CE0
330
1D
100
AcDbEntity
  8
0
100
AcDbLine
 10
0.5080200000000001
 20
494.981158
 30
0.0
 11
0.5080200000000001
 21
493.177075857565
 31
0.0
  0
LINE
  5
CE1
330
1D
100
AcDbEntity
  8
0
100
AcDbLine
 10
0.5080200000000001
 20
494.981158
 30
0.0
 11
0.5080200000000001
 21
499.982158
 31
0.0
  0
LINE
  5
CE2
330
1D
100
AcDbEntity
  8
0
100
AcDbLine
 10
45.49199999999999
 20
499.982158
 30
0.0
 11
45.49199999999999
 21
504.751158
 31
0.0
  0
LINE
  5
CE3
330
1D
100
AcDbEntity
  8
0
100
AcDbLine
 10
45.49199999999999
 20
499.982158
 30
0.0
 11
45.49199999999999
 21
494.981158
 31
0.0
  0
LINE
  5
CE4
330
1D
100
AcDbEntity
  8
0
100
AcDbLine
 10
0.0
 20
499.744158
 30
0.0
 11
0.0
 21
494.9521579999999
 31
0.0
  0
LINE
  5
CE5
330
1D
100
AcDbEntity
  8
0
100
AcDbLine
 10
0.0
 20
499.744158
 30
0.0
 11
0.0
 21
504.279158
 31
0.0
  0
LINE
  5
CE6
330
1D
100
AcDbEntity
  8
0
100
AcDbLine
 10
0.5080200000000001
 20
499.982158
 30
0.0
 11
0.5080200000000001
 21
494.981158
 31
0.0
  0
LINE
  5
CE7
330
1D
100
AcDbEntity
  8
0
100
AcDbLine
 10
0.5080200000000001
 20
499.982158
 30
0.0
 11
0.5080200000000001
 21
504.751158
 31
0.0
  0
LINE
  5
CE8
330
1D
100
AcDbEntity
  8
0
100
AcDbLine
 10
57.508
 20
500.0341579999999
 30
0.0
 11
57.508
 21
494.986158
 31
0.0
  0
LINE
  5
CE9
330
1D
100
AcDbEntity
  8
0
100
AcDbLine
 10
57.508
 20
500.0341579999999
 30
0.0
 11
57.508
 21
504.7001579999999
 31
0.0
  0
LINE
  5
CEA
330
1D
100
AcDbEntity
  8
0
100
AcDbLine
 10
57.508
 20
494.986158
 30
0.0
 11
57.508
 21
489.938158
 31
0.0
  0
LINE
  5
CEB
330
1D
100
AcDbEntity
  8
0
100
AcDbLine
 10
57.508
 20
494.986158
 30
0.0
 11
57.508
 21
500.0341579999999
 31
0.0
  0
LINE
  5
CEC
330
1D
100
AcDbEntity
  8
0
100
AcDbLine
 10
102.0
 20
496.202158
 30
0.0
 11
102.0
 21
492.598158
 31
0.0
  0
LINE
  5
CED
330
1D
100
AcDbEntity
  8
0
100
AcDbLine
 10
102.0
 20
496.202158
 30
0.0
 11
102.0
 21
500.454158
 31
0.0
  0
LINE
  5
CEE
330
1D
100
AcDbEntity
  8
0
100
AcDbLine
 10
102.0
 20
492.6011579999999
 30
0.0
 11
102.0
 21
496.185158
 31
0.0
  0
LINE
  5
CEF
330
1D
100
AcDbEntity
  8
0
100
AcDbLine
 10
102.0
 20
492.6011579999999
 30
0.0
 11
102.0
 21
489.7721579999999
 31
0.0
  0
LINE
  5
CF0
330
1D
100
AcDbEntity
  8
0
100
AcDbLine
 10
102.0
 20
496.185158
 30
0.0
 11
102.0
 21
500.453158
 31
0.0
  0
LINE
  5
CF1
330
1D
100
AcDbEntity
  8
0
100
AcDbLine
 10
102.0
 20
496.185158
 30
0.0
 11
102.0
 21
492.6011579999999
 31
0.0
  0
LINE
  5
CF2
330
1D
100
AcDbEntity
  8
0
100
AcDbLine
 10
98.19450000000001
 20
502.1661579999999
 30
0.0
 11
98.3885
 21
502.0941579999999
 31
0.0
  0
LINE
  5
CF3
330
1D
100
AcDbEntity
  8
0
100
AcDbLine
 10
98.19450000000001
 20
502.1661579999999
 30
0.0
 11
98.90489999999999
 21
502.0581579999999
 31
0.0
  0
LINE
  5
CF4
330
1D
100
AcDbEntity
  8
0
100
AcDbLine
 10
97.54049999999999
 20
502.454158
 30
0.0
 11
98.19450000000001
 21
502.1661579999999
 31
0.0
  0
LINE
  5
CF5
330
1D
100
AcDbEntity
  8
0
100
AcDbLine
 10
96.9654
 20
502.922158
 30
0.0
 11
97.54049999999999
 21
502.454158
 31
0.0
  0
LINE
  5
CF6
330
1D
100
AcDbEntity
  8
0
100
AcDbLine
 10
96.52560000000001
 20
503.5341579999999
 30
0.0
 11
96.9654
 21
502.922158
 31
0.0
  0
LINE
  5
CF7
330
1D
100
AcDbEntity
  8
0
100
AcDbLine
 10
45.49199999999999
 20
504.751158
 30
0.0
 11
45.49199999999999
 21
499.982158
 31
0.0
  0
LINE
  5
CF8
330
1D
100
AcDbEntity
  8
0
100
AcDbLine
 10
45.49199999999999
 20
504.751158
 30
0.0
 11
45.49199999999999
 21
508.847158
 31
0.0
  0
LINE
  5
CF9
330
1D
100
AcDbEntity
  8
0
100
AcDbLine
 10
0.0
 20
504.279158
 30
0.0
 11
0.0
 21
499.744158
 31
0.0
  0
LINE
  5
CFA
330
1D
100
AcDbEntity
  8
0
100
AcDbLine
 10
0.0
 20
504.279158
 30
0.0
 11
0.0
 21
508.1421579999999
 31
0.0
  0
LINE
  5
CFB
330
1D
100
AcDbEntity
  8
0
100
AcDbLine
 10
0.5080200000000001
 20
504.751158
 30
0.0
 11
0.5080200000000001
 21
499.982158
 31
0.0
  0
LINE
  5
CFC
330
1D
100
AcDbEntity
  8
0
100
AcDbLine
 10
0.5080200000000001
 20
504.751158
 30
0.0
 11
0.5080200000000001
 21
508.847158
 31
0.0
  0
LINE
  5
CFD
330
1D
100
AcDbEntity
  8
0
100
AcDbLine
 10
57.508
 20
504.7001579999999
 30
0.0
 11
57.508
 21
500.0341579999999
 31
0.0
  0
LINE
  5
CFE
330
1D
100
AcDbEntity
  8
0
100
AcDbLine
 10
57.508
 20
504.7001579999999
 30
0.0
 11
57.508
 21
508.7961579999999
 31
0.0
  0
LINE
  5
CFF
330
1D
100
AcDbEntity
  8
0
100
AcDbLine
 10
96.255
 20
504.230158
 30
0.0
 11
96.52560000000001
 21
503.5341579999999
 31
0.0
  0
LINE
  5
D00
330
1D
100
AcDbEntity
  8
0
100
AcDbLine
 10
98.3885
 20
502.0941579999999
 30
0.0
 11
99.1102
 21
501.9861579999999
 31
0.0
  0
LINE
  5
D01
330
1D
100
AcDbEntity
  8
0
100
AcDbLine
 10
97.54049999999999
 20
507.518158
 30
0.0
 11
98.19450000000001
 21
507.8061579999999
 31
0.0
  0
LINE
  5
D02
330
1D
100
AcDbEntity
  8
0
100
AcDbLine
 10
98.19450000000001
 20
507.8061579999999
 30
0.0
 11
98.3885
 21
507.878158
 31
0.0
  0
LINE
  5
D03
330
1D
100
AcDbEntity
  8
0
100
AcDbLine
 10
98.19450000000001
 20
507.8061579999999
 30
0.0
 11
98.90489999999999
 21
507.9141579999999
 31
0.0
  0
LINE
  5
D04
330
1D
100
AcDbEntity
  8
0
100
AcDbLine
 10
96.9654
 20
507.050158
 30
0.0
 11
97.54049999999999
 21
507.518158
 31
0.0
  0
LINE
  5
D05
330
1D
100
AcDbEntity
  8
0
100
AcDbLine
 10
96.52560000000001
 20
506.438158
 30
0.0
 11
96.9654
 21
507.050158
 31
0.0
  0
LINE
  5
D06
330
1D
100
AcDbEntity
  8
0
100
AcDbLine
 10
96.255
 20
505.742158
 30
0.0
 11
96.52560000000001
 21
506.438158
 31
0.0
  0
LINE
  5
D07
330
1D
100
AcDbEntity
  8
0
100
AcDbLine
 10
96.15349999999999
 20
504.9861579999999
 30
0.0
 11
96.255
 21
505.742158
 31
0.0
  0
LINE
  5
D08
330
1D
100
AcDbEntity
  8
0
100
AcDbLine
 10
96.15349999999999
 20
504.9861579999999
 30
0.0
 11
96.255
 21
504.230158
 31
0.0
  0
LINE
  5
D09
330
1D
100
AcDbEntity
  8
0
100
AcDbLine
 10
98.90489999999999
 20
502.0581579999999
 30
0.0
 11
99.61539999999999
 21
502.1661579999999
 31
0.0
  0
LINE
  5
D0A
330
1D
100
AcDbEntity
  8
0
100
AcDbLine
 10
99.1102
 20
501.9861579999999
 30
0.0
 11
102.7538
 21
501.9861579999999
 31
0.0
  0
LINE
  5
D0B
330
1D
100
AcDbEntity
  8
0
100
AcDbLine
 10
98.3885
 20
507.878158
 30
0.0
 11
99.1102
 21
507.986158
 31
0.0
  0
LINE
  5
D0C
330
1D
100
AcDbEntity
  8
0
100
AcDbLine
 10
45.49199999999999
 20
508.847158
 30
0.0
 11
45.49199999999999
 21
511.894158
 31
0.0
  0
LINE
  5
D0D
330
1D
100
AcDbEntity
  8
0
100
AcDbLine
 10
45.49199999999999
 20
508.847158
 30
0.0
 11
45.49199999999999
 21
504.751158
 31
0.0
  0
LINE
  5
D0E
330
1D
100
AcDbEntity
  8
0
100
AcDbLine
 10
0.0
 20
508.1421579999999
 30
0.0
 11
0.0
 21
504.279158
 31
0.0
  0
LINE
  5
D0F
330
1D
100
AcDbEntity
  8
0
100
AcDbLine
 10
0.0
 20
508.1421579999999
 30
0.0
 11
0.0
 21
511.048158
 31
0.0
  0
LINE
  5
D10
330
1D
100
AcDbEntity
  8
0
100
AcDbLine
 10
0.5080200000000001
 20
508.847158
 30
0.0
 11
0.5080200000000001
 21
504.751158
 31
0.0
  0
LINE
  5
D11
330
1D
100
AcDbEntity
  8
0
100
AcDbLine
 10
0.5080200000000001
 20
508.847158
 30
0.0
 11
0.5080200000000001
 21
511.894158
 31
0.0
  0
LINE
  5
D12
330
1D
100
AcDbEntity
  8
0
100
AcDbLine
 10
57.508
 20
508.7961579999999
 30
0.0
 11
57.508
 21
504.7001579999999
 31
0.0
  0
LINE
  5
D13
330
1D
100
AcDbEntity
  8
0
100
AcDbLine
 10
57.508
 20
508.7961579999999
 30
0.0
 11
57.508
 21
511.9381579999999
 31
0.0
  0
LINE
  5
D14
330
1D
100
AcDbEntity
  8
0
100
AcDbLine
 10
98.90489999999999
 20
507.9141579999999
 30
0.0
 11
99.61539999999999
 21
507.8061579999999
 31
0.0
  0
LINE
  5
D15
330
1D
100
AcDbEntity
  8
0
100
AcDbLine
 10
99.61539999999999
 20
502.1661579999999
 30
0.0
 11
100.2693999999999
 21
502.454158
 31
0.0
  0
LINE
  5
D16
330
1D
100
AcDbEntity
  8
0
100
AcDbLine
 10
100.2693999999999
 20
502.454158
 30
0.0
 11
100.8445
 21
502.922158
 31
0.0
  0
LINE
  5
D17
330
1D
100
AcDbEntity
  8
0
100
AcDbLine
 10
100.8445
 20
502.922158
 30
0.0
 11
101.2842
 21
503.5341579999999
 31
0.0
  0
LINE
  5
D18
330
1D
100
AcDbEntity
  8
0
100
AcDbLine
 10
101.2842
 20
503.5341579999999
 30
0.0
 11
101.5549
 21
504.230158
 31
0.0
  0
LINE
  5
D19
330
1D
100
AcDbEntity
  8
0
100
AcDbLine
 10
101.5549
 20
504.230158
 30
0.0
 11
101.6564
 21
504.9861579999999
 31
0.0
  0
LINE
  5
D1A
330
1D
100
AcDbEntity
  8
0
100
AcDbLine
 10
99.61539999999999
 20
507.8061579999999
 30
0.0
 11
100.2693999999999
 21
507.518158
 31
0.0
  0
LINE
  5
D1B
330
1D
100
AcDbEntity
  8
0
100
AcDbLine
 10
100.2693999999999
 20
507.518158
 30
0.0
 11
100.8445
 21
507.050158
 31
0.0
  0
LINE
  5
D1C
330
1D
100
AcDbEntity
  8
0
100
AcDbLine
 10
100.8445
 20
507.050158
 30
0.0
 11
101.2842
 21
506.438158
 31
0.0
  0
LINE
  5
D1D
330
1D
100
AcDbEntity
  8
0
100
AcDbLine
 10
101.2842
 20
506.438158
 30
0.0
 11
101.5549
 21
505.742158
 31
0.0
  0
LINE
  5
D1E
330
1D
100
AcDbEntity
  8
0
100
AcDbLine
 10
101.5549
 20
505.742158
 30
0.0
 11
101.6564
 21
504.9861579999999
 31
0.0
  0
LINE
  5
D1F
330
1D
100
AcDbEntity
  8
0
100
AcDbLine
 10
99.1102
 20
507.986158
 30
0.0
 11
102.7538
 21
507.986158
 31
0.0
  0
LINE
  5
D20
330
1D
100
AcDbEntity
  8
0
100
AcDbLine
 10
102.0
 20
500.454158
 30
0.0
 11
102.0
 21
496.202158
 31
0.0
  0
LINE
  5
D21
330
1D
100
AcDbEntity
  8
0
100
AcDbLine
 10
102.0
 20
500.454158
 30
0.0
 11
102.0
 21
501.9861579999999
 31
0.0
  0
LINE
  5
D22
330
1D
100
AcDbEntity
  8
0
100
AcDbLine
 10
102.0
 20
501.9861579999999
 30
0.0
 11
102.0
 21
500.453158
 31
0.0
  0
LINE
  5
D23
330
1D
100
AcDbEntity
  8
0
100
AcDbLine
 10
102.0
 20
501.9861579999999
 30
0.0
 11
102.0
 21
500.454158
 31
0.0
  0
LINE
  5
D24
330
1D
100
AcDbEntity
  8
0
100
AcDbLine
 10
102.0
 20
500.453158
 30
0.0
 11
102.0
 21
501.9861579999999
 31
0.0
  0
LINE
  5
D25
330
1D
100
AcDbEntity
  8
0
100
AcDbLine
 10
102.0
 20
500.453158
 30
0.0
 11
102.0
 21
496.185158
 31
0.0
  0
LINE
  5
D26
330
1D
100
AcDbEntity
  8
0
100
AcDbLine
 10
103.8
 20
106.469158
 30
0.0
 11
105.9
 21
100.643158
 31
0.0
  0
LINE
  5
D27
330
1D
100
AcDbEntity
  8
0
100
AcDbLine
 10
106.2
 20
8.846958
 30
0.0
 11
121.0
 21
4.054517999999999
 31
0.0
  0
LINE
  5
D28
330
1D
100
AcDbEntity
  8
0
100
AcDbLine
 10
106.2
 20
13.29325799999999
 30
0.0
 11
121.0
 21
8.500778
 31
0.0
  0
LINE
  5
D29
330
1D
100
AcDbEntity
  8
0
100
AcDbLine
 10
106.4999999999999
 20
14.48095799999999
 30
0.0
 11
121.3
 21
9.782498
 31
0.0
  0
LINE
  5
D2A
330
1D
100
AcDbEntity
  8
0
100
AcDbLine
 10
106.2
 20
8.846958
 30
0.0
 11
121.0
 21
4.054517999999999
 31
0.0
  0
LINE
  5
D2B
330
1D
100
AcDbEntity
  8
0
100
AcDbLine
 10
108.6999999999999
 20
95.192958
 30
0.0
 11
112.4
 21
90.02465800000001
 31
0.0
  0
LINE
  5
D2C
330
1D
100
AcDbEntity
  8
0
100
AcDbLine
 10
121.0
 20
4.054517999999999
 30
0.0
 11
136.4
 21
1.141477999999999
 31
0.0
  0
LINE
  5
D2D
330
1D
100
AcDbEntity
  8
0
100
AcDbLine
 10
116.7
 20
85.42015799999999
 30
0.0
 11
121.5999999999999
 21
81.379458
 31
0.0
  0
LINE
  5
D2E
330
1D
100
AcDbEntity
  8
0
100
AcDbLine
 10
116.7
 20
84.39405800000001
 30
0.0
 11
121.5999999999999
 21
80.35345799999999
 31
0.0
  0
LINE
  5
D2F
330
1D
100
AcDbEntity
  8
0
100
AcDbLine
 10
121.0
 20
8.500778
 30
0.0
 11
136.4
 21
5.587737999999999
 31
0.0
  0
LINE
  5
D30
330
1D
100
AcDbEntity
  8
0
100
AcDbLine
 10
132.9
 20
75.27145799999999
 30
0.0
 11
139.1
 21
73.298158
 31
0.0
  0
LINE
  5
D31
330
1D
100
AcDbEntity
  8
0
100
AcDbLine
 10
121.5999999999999
 20
81.379458
 30
0.0
 11
127.0999999999999
 21
77.902658
 31
0.0
  0
LINE
  5
D32
330
1D
100
AcDbEntity
  8
0
100
AcDbLine
 10
127.0999999999999
 20
77.902658
 30
0.0
 11
132.9
 21
75.27145799999999
 31
0.0
  0
LINE
  5
D33
330
1D
100
AcDbEntity
  8
0
100
AcDbLine
 10
121.5999999999999
 20
80.35345799999999
 30
0.0
 11
127.0999999999999
 21
76.876558
 31
0.0
  0
LINE
  5
D34
330
1D
100
AcDbEntity
  8
0
100
AcDbLine
 10
127.0999999999999
 20
76.876558
 30
0.0
 11
132.9
 21
74.245458
 31
0.0
  0
LINE
  5
D35
330
1D
100
AcDbEntity
  8
0
100
AcDbLine
 10
132.9
 20
74.245458
 30
0.0
 11
139.1
 21
72.272058
 31
0.0
  0
LINE
  5
D36
330
1D
100
AcDbEntity
  8
0
100
AcDbLine
 10
121.3
 20
9.782498
 30
0.0
 11
136.4
 21
6.869447999999999
 31
0.0
  0
LINE
  5
D37
330
1D
100
AcDbEntity
  8
0
100
AcDbLine
 10
121.0
 20
4.054517999999999
 30
0.0
 11
136.4
 21
1.141477999999999
 31
0.0
  0
LINE
  5
D38
330
1D
100
AcDbEntity
  8
0
100
AcDbLine
 10
112.4
 20
90.02465800000001
 30
0.0
 11
116.7
 21
85.42015799999999
 31
0.0
  0
LINE
  5
D39
330
1D
100
AcDbEntity
  8
0
100
AcDbLine
 10
112.4
 20
88.998558
 30
0.0
 11
116.7
 21
84.39405800000001
 31
0.0
  0
LINE
  5
D3A
330
1D
100
AcDbEntity
  8
0
100
AcDbLine
 10
108.6999999999999
 20
94.16685799999999
 30
0.0
 11
112.4
 21
88.998558
 31
0.0
  0
LINE
  5
D3B
330
1D
100
AcDbEntity
  8
0
100
AcDbLine
 10
105.9
 20
100.643158
 30
0.0
 11
108.6999999999999
 21
95.192958
 31
0.0
  0
LINE
  5
D3C
330
1D
100
AcDbEntity
  8
0
100
AcDbLine
 10
105.9
 20
99.617158
 30
0.0
 11
108.6999999999999
 21
94.16685799999999
 31
0.0
  0
LINE
  5
D3D
330
1D
100
AcDbEntity
  8
0
100
AcDbLine
 10
103.8
 20
105.443158
 30
0.0
 11
105.9
 21
99.617158
 31
0.0
  0
LINE
  5
D3E
330
1D
100
AcDbEntity
  8
0
100
AcDbLine
 10
102.4999999999999
 20
124.699158
 30
0.0
 11
103.8
 21
130.713158
 31
0.0
  0
LINE
  5
D3F
330
1D
100
AcDbEntity
  8
0
100
AcDbLine
 10
105.9
 20
136.539158
 30
0.0
 11
108.6999999999999
 21
141.9891579999999
 31
0.0
  0
LINE
  5
D40
330
1D
100
AcDbEntity
  8
0
100
AcDbLine
 10
103.8
 20
130.713158
 30
0.0
 11
105.9
 21
136.539158
 31
0.0
  0
LINE
  5
D41
330
1D
100
AcDbEntity
  8
0
100
AcDbLine
 10
108.6999999999999
 20
141.9891579999999
 30
0.0
 11
112.4
 21
147.158158
 31
0.0
  0
LINE
  5
D42
330
1D
100
AcDbEntity
  8
0
100
AcDbLine
 10
112.4
 20
147.158158
 30
0.0
 11
116.7
 21
151.762158
 31
0.0
  0
LINE
  5
D43
330
1D
100
AcDbEntity
  8
0
100
AcDbLine
 10
116.7
 20
151.762158
 30
0.0
 11
121.5999999999999
 21
155.8031579999999
 31
0.0
  0
LINE
  5
D44
330
1D
100
AcDbEntity
  8
0
100
AcDbLine
 10
121.5999999999999
 20
155.8031579999999
 30
0.0
 11
127.0999999999999
 21
159.2801579999999
 31
0.0
  0
LINE
  5
D45
330
1D
100
AcDbEntity
  8
0
100
AcDbLine
 10
127.0999999999999
 20
159.2801579999999
 30
0.0
 11
132.9
 21
161.911158
 31
0.0
  0
LINE
  5
D46
330
1D
100
AcDbEntity
  8
0
100
AcDbLine
 10
132.9
 20
161.911158
 30
0.0
 11
139.1
 21
163.884158
 31
0.0
  0
LINE
  5
D47
330
1D
100
AcDbEntity
  8
0
100
AcDbLine
 10
106.4999999999999
 20
220.649158
 30
0.0
 11
121.3
 21
225.348158
 31
0.0
  0
LINE
  5
D48
330
1D
100
AcDbEntity
  8
0
100
AcDbLine
 10
121.3
 20
225.348158
 30
0.0
 11
136.4
 21
228.261158
 31
0.0
  0
LINE
  5
D49
330
1D
100
AcDbEntity
  8
0
100
AcDbLine
 10
106.2
 20
221.153158
 30
0.0
 11
121.0
 21
225.9461579999999
 31
0.0
  0
LINE
  5
D4A
330
1D
100
AcDbEntity
  8
0
100
AcDbLine
 10
112.471787710128
 20
363.181817175061
 30
0.0
 11
112.6239999999999
 21
362.595158
 31
0.0
  0
LINE
  5
D4B
330
1D
100
AcDbEntity
  8
0
100
AcDbLine
 10
114.62
 20
357.2821579999999
 30
0.0
 11
116.416
 21
353.613158
 31
0.0
  0
LINE
  5
D4C
330
1D
100
AcDbEntity
  8
0
100
AcDbLine
 10
113.54
 20
359.8941579999999
 30
0.0
 11
114.62
 21
357.2821579999999
 31
0.0
  0
LINE
  5
D4D
330
1D
100
AcDbEntity
  8
0
100
AcDbLine
 10
112.6239999999999
 20
362.595158
 30
0.0
 11
113.54
 21
359.8941579999999
 31
0.0
  0
LINE
  5
D4E
330
1D
100
AcDbEntity
  8
0
100
AcDbLine
 10
120.978
 20
346.489158
 30
0.0
 11
122.014
 21
345.269158
 31
0.0
  0
LINE
  5
D4F
330
1D
100
AcDbEntity
  8
0
100
AcDbLine
 10
122.014
 20
345.269158
 30
0.0
 11
124.1929999999999
 21
342.7091579999999
 31
0.0
  0
LINE
  5
D50
330
1D
100
AcDbEntity
  8
0
100
AcDbLine
 10
117.8299999999999
 20
351.1011579999999
 30
0.0
 11
120.978
 21
346.489158
 31
0.0
  0
LINE
  5
D51
330
1D
100
AcDbEntity
  8
0
100
AcDbLine
 10
116.416
 20
353.613158
 30
0.0
 11
117.8299999999999
 21
351.1011579999999
 31
0.0
  0
LINE
  5
D52
330
1D
100
AcDbEntity
  8
0
100
AcDbLine
 10
110.9639999999999
 20
368.993158
 30
0.0
 11
111.7839999999999
 21
365.4041579999999
 31
0.0
  0
LINE
  5
D53
330
1D
100
AcDbEntity
  8
0
100
AcDbLine
 10
111.7839999999999
 20
365.4041579999999
 30
0.0
 11
112.6239999999999
 21
362.595158
 31
0.0
  0
LINE
  5
D54
330
1D
100
AcDbEntity
  8
0
100
AcDbLine
 10
110.0
 20
378.126158
 30
0.0
 11
110.0149999999999
 21
378.6231579999999
 31
0.0
  0
LINE
  5
D55
330
1D
100
AcDbEntity
  8
0
100
AcDbLine
 10
110.0
 20
378.126158
 30
0.0
 11
110.1099999999999
 21
375.146158
 31
0.0
  0
LINE
  5
D56
330
1D
100
AcDbEntity
  8
0
100
AcDbLine
 10
110.441
 20
372.168158
 30
0.0
 11
110.9639999999999
 21
368.993158
 31
0.0
  0
LINE
  5
D57
330
1D
100
AcDbEntity
  8
0
100
AcDbLine
 10
110.1099999999999
 20
375.146158
 30
0.0
 11
110.441
 21
372.168158
 31
0.0
  0
LINE
  5
D58
330
1D
100
AcDbEntity
  8
0
100
AcDbLine
 10
110.22
 20
382.410158
 30
0.0
 11
110.316
 21
383.607158
 31
0.0
  0
LINE
  5
D59
330
1D
100
AcDbEntity
  8
0
100
AcDbLine
 10
110.085304656898
 20
379.7872723188739
 30
0.0
 11
110.22
 21
382.410158
 31
0.0
  0
LINE
  5
D5A
330
1D
100
AcDbEntity
  8
0
100
AcDbLine
 10
112.724
 20
393.423158
 30
0.0
 11
114.817
 21
398.172158
 31
0.0
  0
LINE
  5
D5B
330
1D
100
AcDbEntity
  8
0
100
AcDbLine
 10
111.219
 20
388.5551579999999
 30
0.0
 11
112.724
 21
393.423158
 31
0.0
  0
LINE
  5
D5C
330
1D
100
AcDbEntity
  8
0
100
AcDbLine
 10
110.316
 20
383.607158
 30
0.0
 11
111.219
 21
388.5551579999999
 31
0.0
  0
LINE
  5
D5D
330
1D
100
AcDbEntity
  8
0
100
AcDbLine
 10
114.817
 20
398.172158
 30
0.0
 11
117.271
 21
402.434158
 31
0.0
  0
LINE
  5
D5E
330
1D
100
AcDbEntity
  8
0
100
AcDbLine
 10
117.271
 20
402.434158
 30
0.0
 11
120.206
 21
406.5111579999999
 31
0.0
  0
LINE
  5
D5F
330
1D
100
AcDbEntity
  8
0
100
AcDbLine
 10
120.206
 20
406.5111579999999
 30
0.0
 11
123.151
 21
409.912158
 31
0.0
  0
LINE
  5
D60
330
1D
100
AcDbEntity
  8
0
100
AcDbLine
 10
123.151
 20
409.912158
 30
0.0
 11
123.5179999999999
 21
410.323158
 31
0.0
  0
LINE
  5
D61
330
1D
100
AcDbEntity
  8
0
100
AcDbLine
 10
123.5179999999999
 20
410.323158
 30
0.0
 11
126.7859999999999
 21
413.551158
 31
0.0
  0
LINE
  5
D62
330
1D
100
AcDbEntity
  8
0
100
AcDbLine
 10
126.553
 20
340.252158
 30
0.0
 11
128.751
 21
338.222158
 31
0.0
  0
LINE
  5
D63
330
1D
100
AcDbEntity
  8
0
100
AcDbLine
 10
124.6279999999999
 20
342.2001579999999
 30
0.0
 11
126.553
 21
340.252158
 31
0.0
  0
LINE
  5
D64
330
1D
100
AcDbEntity
  8
0
100
AcDbLine
 10
124.1929999999999
 20
342.7091579999999
 30
0.0
 11
124.6279999999999
 21
342.2001579999999
 31
0.0
  0
LINE
  5
D65
330
1D
100
AcDbEntity
  8
0
100
AcDbLine
 10
128.751
 20
338.222158
 30
0.0
 11
129.9339999999999
 21
337.1711579999999
 31
0.0
  0
LINE
  5
D66
330
1D
100
AcDbEntity
  8
0
100
AcDbLine
 10
129.9339999999999
 20
337.1711579999999
 30
0.0
 11
133.6029999999999
 21
334.285158
 31
0.0
  0
LINE
  5
D67
330
1D
100
AcDbEntity
  8
0
100
AcDbLine
 10
133.6029999999999
 20
334.285158
 30
0.0
 11
136.9629999999999
 21
331.977158
 31
0.0
  0
LINE
  5
D68
330
1D
100
AcDbEntity
  8
0
100
AcDbLine
 10
126.7859999999999
 20
413.551158
 30
0.0
 11
130.3429999999999
 21
416.590158
 31
0.0
  0
LINE
  5
D69
330
1D
100
AcDbEntity
  8
0
100
AcDbLine
 10
130.3429999999999
 20
416.590158
 30
0.0
 11
134.1639999999999
 21
419.432158
 31
0.0
  0
LINE
  5
D6A
330
1D
100
AcDbEntity
  8
0
100
AcDbLine
 10
121.0
 20
225.9461579999999
 30
0.0
 11
136.4
 21
228.859158
 31
0.0
  0
LINE
  5
D6B
330
1D
100
AcDbEntity
  8
0
100
AcDbLine
 10
102.4999999999999
 20
112.483158
 30
0.0
 11
103.8
 21
106.469158
 31
0.0
  0
LINE
  5
D6C
330
1D
100
AcDbEntity
  8
0
100
AcDbLine
 10
102.4999999999999
 20
111.457158
 30
0.0
 11
103.8
 21
105.443158
 31
0.0
  0
LINE
  5
D6D
330
1D
100
AcDbEntity
  8
0
100
AcDbLine
 10
133.9129999999999
 20
486.991158
 30
0.0
 11
134.667
 21
487.473158
 31
0.0
  0
LINE
  5
D6E
330
1D
100
AcDbEntity
  8
0
100
AcDbLine
 10
102.7538
 20
486.991158
 30
0.0
 11
133.9129999999999
 21
486.991158
 31
0.0
  0
LINE
  5
D6F
330
1D
100
AcDbEntity
  8
0
100
AcDbLine
 10
102.0
 20
507.986158
 30
0.0
 11
102.0
 21
509.518158
 31
0.0
  0
LINE
  5
D70
330
1D
100
AcDbEntity
  8
0
100
AcDbLine
 10
102.0
 20
507.986158
 30
0.0
 11
102.0
 21
509.5191579999999
 31
0.0
  0
LINE
  5
D71
330
1D
100
AcDbEntity
  8
0
100
AcDbLine
 10
0.0
 20
511.048158
 30
0.0
 11
0.0
 21
508.1421579999999
 31
0.0
  0
LINE
  5
D72
330
1D
100
AcDbEntity
  8
0
100
AcDbLine
 10
0.0
 20
511.048158
 30
0.0
 11
0.0
 21
512.925158
 31
0.0
  0
LINE
  5
D73
330
1D
100
AcDbEntity
  8
0
100
AcDbLine
 10
45.49199999999999
 20
511.894158
 30
0.0
 11
45.49199999999999
 21
513.8451579999999
 31
0.0
  0
LINE
  5
D74
330
1D
100
AcDbEntity
  8
0
100
AcDbLine
 10
45.49199999999999
 20
511.894158
 30
0.0
 11
45.49199999999999
 21
508.847158
 31
0.0
  0
LINE
  5
D75
330
1D
100
AcDbEntity
  8
0
100
AcDbLine
 10
0.5080200000000001
 20
511.894158
 30
0.0
 11
0.5080200000000001
 21
508.847158
 31
0.0
  0
LINE
  5
D76
330
1D
100
AcDbEntity
  8
0
100
AcDbLine
 10
0.5080200000000001
 20
511.894158
 30
0.0
 11
0.5080200000000001
 21
513.8451579999999
 31
0.0
  0
LINE
  5
D77
330
1D
100
AcDbEntity
  8
0
100
AcDbLine
 10
0.0
 20
512.925158
 30
0.0
 11
0.0
 21
513.5131579999999
 31
0.0
  0
LINE
  5
D78
330
1D
100
AcDbEntity
  8
0
100
AcDbLine
 10
0.0
 20
512.925158
 30
0.0
 11
0.0
 21
511.048158
 31
0.0
  0
LINE
  5
D79
330
1D
100
AcDbEntity
  8
0
100
AcDbLine
 10
0.0
 20
513.5131579999999
 30
0.0
 11
0.0
 21
512.925158
 31
0.0
  0
LINE
  5
D7A
330
1D
100
AcDbEntity
  8
0
100
AcDbLine
 10
0.0
 20
513.5131579999999
 30
0.0
 11
0.5080200000000001
 21
514.5071579999999
 31
0.0
  0
LINE
  5
D7B
330
1D
100
AcDbEntity
  8
0
100
AcDbLine
 10
57.508
 20
511.9381579999999
 30
0.0
 11
57.508
 21
508.7961579999999
 31
0.0
  0
LINE
  5
D7C
330
1D
100
AcDbEntity
  8
0
100
AcDbLine
 10
57.508
 20
511.9381579999999
 30
0.0
 11
57.508
 21
513.843158
 31
0.0
  0
LINE
  5
D7D
330
1D
100
AcDbEntity
  8
0
100
AcDbLine
 10
45.49199999999999
 20
513.8451579999999
 30
0.0
 11
45.49199999999999
 21
514.5071579999999
 31
0.0
  0
LINE
  5
D7E
330
1D
100
AcDbEntity
  8
0
100
AcDbLine
 10
45.49199999999999
 20
513.8451579999999
 30
0.0
 11
45.49199999999999
 21
511.894158
 31
0.0
  0
LINE
  5
D7F
330
1D
100
AcDbEntity
  8
0
100
AcDbLine
 10
0.5080200000000001
 20
513.8451579999999
 30
0.0
 11
0.5080200000000001
 21
514.5071579999999
 31
0.0
  0
LINE
  5
D80
330
1D
100
AcDbEntity
  8
0
100
AcDbLine
 10
0.5080200000000001
 20
513.8451579999999
 30
0.0
 11
0.5080200000000001
 21
511.894158
 31
0.0
  0
LINE
  5
D81
330
1D
100
AcDbEntity
  8
0
100
AcDbLine
 10
57.508
 20
513.843158
 30
0.0
 11
57.508
 21
511.9381579999999
 31
0.0
  0
LINE
  5
D82
330
1D
100
AcDbEntity
  8
0
100
AcDbLine
 10
57.508
 20
513.843158
 30
0.0
 11
57.508
 21
514.510158
 31
0.0
  0
LINE
  5
D83
330
1D
100
AcDbEntity
  8
0
100
AcDbLine
 10
0.5080200000000001
 20
514.5071579999999
 30
0.0
 11
0.5080200000000001
 21
513.8451579999999
 31
0.0
  0
LINE
  5
D84
330
1D
100
AcDbEntity
  8
0
100
AcDbLine
 10
0.5080200000000001
 20
514.5071579999999
 30
0.0
 11
1.524059999999999
 21
514.900158
 31
0.0
  0
LINE
  5
D85
330
1D
100
AcDbEntity
  8
0
100
AcDbLine
 10
45.758265593561
 20
513.986158
 30
0.0
 11
57.228679958027
 21
513.986158
 31
0.0
  0
LINE
  5
D86
330
1D
100
AcDbEntity
  8
0
100
AcDbLine
 10
45.49199999999999
 20
514.5071579999999
 30
0.0
 11
45.49199999999999
 21
513.8451579999999
 31
0.0
  0
LINE
  5
D87
330
1D
100
AcDbEntity
  8
0
100
AcDbLine
 10
45.49199999999999
 20
514.5071579999999
 30
0.0
 11
45.758265593561
 21
513.986158
 31
0.0
  0
LINE
  5
D88
330
1D
100
AcDbEntity
  8
0
100
AcDbLine
 10
44.4759
 20
514.900158
 30
0.0
 11
45.49199999999999
 21
514.5071579999999
 31
0.0
  0
LINE
  5
D89
330
1D
100
AcDbEntity
  8
0
100
AcDbLine
 10
23.0
 20
514.900158
 30
0.0
 11
44.4759
 21
514.900158
 31
0.0
  0
LINE
  5
D8A
330
1D
100
AcDbEntity
  8
0
100
AcDbLine
 10
1.524059999999999
 20
514.900158
 30
0.0
 11
23.0
 21
514.900158
 31
0.0
  0
LINE
  5
D8B
330
1D
100
AcDbEntity
  8
0
100
AcDbLine
 10
57.20508121979101
 20
513.941887138702
 30
0.0
 11
57.508
 21
514.510158
 31
0.0
  0
LINE
  5
D8C
330
1D
100
AcDbEntity
  8
0
100
AcDbLine
 10
57.508
 20
514.510158
 30
0.0
 11
58.52409999999999
 21
514.986158
 31
0.0
  0
LINE
  5
D8D
330
1D
100
AcDbEntity
  8
0
100
AcDbLine
 10
57.508
 20
514.510158
 30
0.0
 11
57.508
 21
513.843158
 31
0.0
  0
LINE
  5
D8E
330
1D
100
AcDbEntity
  8
0
100
AcDbLine
 10
58.52409999999999
 20
514.986158
 30
0.0
 11
60.0
 21
514.986158
 31
0.0
  0
LINE
  5
D8F
330
1D
100
AcDbEntity
  8
0
100
AcDbLine
 10
94.0
 20
514.986158
 30
0.0
 11
94.0
 21
527.386158
 31
0.0
  0
LINE
  5
D90
330
1D
100
AcDbEntity
  8
0
100
AcDbLine
 10
94.0
 20
514.986158
 30
0.0
 11
102.0
 21
514.986158
 31
0.0
  0
LINE
  5
D91
330
1D
100
AcDbEntity
  8
0
100
AcDbLine
 10
60.0
 20
514.986158
 30
0.0
 11
60.0
 21
527.386158
 31
0.0
  0
LINE
  5
D92
330
1D
100
AcDbEntity
  8
0
100
AcDbLine
 10
102.0
 20
517.371158
 30
0.0
 11
102.0
 21
513.7871579999999
 31
0.0
  0
LINE
  5
D93
330
1D
100
AcDbEntity
  8
0
100
AcDbLine
 10
102.0
 20
517.371158
 30
0.0
 11
102.0
 21
520.200158
 31
0.0
  0
LINE
  5
D94
330
1D
100
AcDbEntity
  8
0
100
AcDbLine
 10
102.0
 20
513.7871579999999
 30
0.0
 11
102.0
 21
509.5191579999999
 31
0.0
  0
LINE
  5
D95
330
1D
100
AcDbEntity
  8
0
100
AcDbLine
 10
102.0
 20
513.7871579999999
 30
0.0
 11
102.0
 21
517.371158
 31
0.0
  0
LINE
  5
D96
330
1D
100
AcDbEntity
  8
0
100
AcDbLine
 10
102.0
 20
509.5191579999999
 30
0.0
 11
102.0
 21
507.986158
 31
0.0
  0
LINE
  5
D97
330
1D
100
AcDbEntity
  8
0
100
AcDbLine
 10
102.0
 20
509.5191579999999
 30
0.0
 11
102.0
 21
513.7871579999999
 31
0.0
  0
LINE
  5
D98
330
1D
100
AcDbEntity
  8
0
100
AcDbLine
 10
102.0
 20
520.200158
 30
0.0
 11
102.0
 21
521.9071579999999
 31
0.0
  0
LINE
  5
D99
330
1D
100
AcDbEntity
  8
0
100
AcDbLine
 10
102.0
 20
520.200158
 30
0.0
 11
102.0
 21
517.371158
 31
0.0
  0
LINE
  5
D9A
330
1D
100
AcDbEntity
  8
0
100
AcDbLine
 10
102.0
 20
521.9071579999999
 30
0.0
 11
102.0
 21
520.200158
 31
0.0
  0
LINE
  5
D9B
330
1D
100
AcDbEntity
  8
0
100
AcDbLine
 10
102.0
 20
521.9071579999999
 30
0.0
 11
102.0
 21
522.499158
 31
0.0
  0
LINE
  5
D9C
330
1D
100
AcDbEntity
  8
0
100
AcDbLine
 10
102.0
 20
521.9031579999999
 30
0.0
 11
102.0
 21
522.499158
 31
0.0
  0
LINE
  5
D9D
330
1D
100
AcDbEntity
  8
0
100
AcDbLine
 10
102.0
 20
521.9031579999999
 30
0.0
 11
102.0
 21
520.127158
 31
0.0
  0
LINE
  5
D9E
330
1D
100
AcDbEntity
  8
0
100
AcDbLine
 10
60.408
 20
527.986158
 30
0.0
 11
61.02
 21
527.986158
 31
0.0
  0
LINE
  5
D9F
330
1D
100
AcDbEntity
  8
0
100
AcDbLine
 10
60.0
 20
527.386158
 30
0.0
 11
60.408
 21
527.986158
 31
0.0
  0
LINE
  5
DA0
330
1D
100
AcDbEntity
  8
0
100
AcDbLine
 10
60.0
 20
527.386158
 30
0.0
 11
60.0
 21
514.986158
 31
0.0
  0
LINE
  5
DA1
330
1D
100
AcDbEntity
  8
0
100
AcDbLine
 10
61.0
 20
531.986158
 30
0.0
 11
61.0
 21
541.986158
 31
0.0
  0
LINE
  5
DA2
330
1D
100
AcDbEntity
  8
0
100
AcDbLine
 10
61.0
 20
531.986158
 30
0.0
 11
61.0
 21
530.986158
 31
0.0
  0
LINE
  5
DA3
330
1D
100
AcDbEntity
  8
0
100
AcDbLine
 10
61.0
 20
541.986158
 30
0.0
 11
61.0
 21
542.986158
 31
0.0
  0
LINE
  5
DA4
330
1D
100
AcDbEntity
  8
0
100
AcDbLine
 10
61.0
 20
541.986158
 30
0.0
 11
61.0
 21
531.986158
 31
0.0
  0
LINE
  5
DA5
330
1D
100
AcDbEntity
  8
0
100
AcDbLine
 10
61.0
 20
541.986158
 30
0.0
 11
62.3713
 21
542.986158
 31
0.0
  0
LINE
  5
DA6
330
1D
100
AcDbEntity
  8
0
100
AcDbLine
 10
61.0
 20
530.986158
 30
0.0
 11
61.0
 21
531.986158
 31
0.0
  0
LINE
  5
DA7
330
1D
100
AcDbEntity
  8
0
100
AcDbLine
 10
61.0
 20
530.986158
 30
0.0
 11
61.3368
 21
530.986158
 31
0.0
  0
LINE
  5
DA8
330
1D
100
AcDbEntity
  8
0
100
AcDbLine
 10
61.0
 20
530.986158
 30
0.0
 11
61.0
 21
530.226158
 31
0.0
  0
LINE
  5
DA9
330
1D
100
AcDbEntity
  8
0
100
AcDbLine
 10
61.0
 20
542.986158
 30
0.0
 11
61.0
 21
543.746158
 31
0.0
  0
LINE
  5
DAA
330
1D
100
AcDbEntity
  8
0
100
AcDbLine
 10
61.0
 20
542.986158
 30
0.0
 11
61.0
 21
541.986158
 31
0.0
  0
LINE
  5
DAB
330
1D
100
AcDbEntity
  8
0
100
AcDbLine
 10
61.0
 20
530.226158
 30
0.0
 11
61.0
 21
530.986158
 31
0.0
  0
LINE
  5
DAC
330
1D
100
AcDbEntity
  8
0
100
AcDbLine
 10
61.0
 20
530.226158
 30
0.0
 11
61.0
 21
530.0861579999999
 31
0.0
  0
LINE
  5
DAD
330
1D
100
AcDbEntity
  8
0
100
AcDbLine
 10
54.0
 20
543.986158
 30
0.0
 11
60.8
 21
543.986158
 31
0.0
  0
LINE
  5
DAE
330
1D
100
AcDbEntity
  8
0
100
AcDbLine
 10
60.8
 20
543.986158
 30
0.0
 11
61.4211
 21
543.986158
 31
0.0
  0
LINE
  5
DAF
330
1D
100
AcDbEntity
  8
0
100
AcDbLine
 10
48.9
 20
543.986158
 30
0.0
 11
54.0
 21
543.986158
 31
0.0
  0
LINE
  5
DB0
330
1D
100
AcDbEntity
  8
0
100
AcDbLine
 10
45.7
 20
543.986158
 30
0.0
 11
48.9
 21
543.986158
 31
0.0
  0
LINE
  5
DB1
330
1D
100
AcDbEntity
  8
0
100
AcDbLine
 10
44.7
 20
544.486158
 30
0.0
 11
48.0
 21
544.486158
 31
0.0
  0
LINE
  5
DB2
330
1D
100
AcDbEntity
  8
0
100
AcDbLine
 10
48.0
 20
544.486158
 30
0.0
 11
53.3
 21
544.486158
 31
0.0
  0
LINE
  5
DB3
330
1D
100
AcDbEntity
  8
0
100
AcDbLine
 10
47.6
 20
569.986158
 30
0.0
 11
53.0
 21
569.986158
 31
0.0
  0
LINE
  5
DB4
330
1D
100
AcDbEntity
  8
0
100
AcDbLine
 10
44.2
 20
569.986158
 30
0.0
 11
47.6
 21
569.986158
 31
0.0
  0
LINE
  5
DB5
330
1D
100
AcDbEntity
  8
0
100
AcDbLine
 10
53.3
 20
544.486158
 30
0.0
 11
60.3
 21
544.486158
 31
0.0
  0
LINE
  5
DB6
330
1D
100
AcDbEntity
  8
0
100
AcDbLine
 10
60.3
 20
544.486158
 30
0.0
 11
68.4
 21
544.486158
 31
0.0
  0
LINE
  5
DB7
330
1D
100
AcDbEntity
  8
0
100
AcDbLine
 10
53.0
 20
569.986158
 30
0.0
 11
60.1
 21
569.986158
 31
0.0
  0
LINE
  5
DB8
330
1D
100
AcDbEntity
  8
0
100
AcDbLine
 10
60.1
 20
569.986158
 30
0.0
 11
68.3
 21
569.986158
 31
0.0
  0
LINE
  5
DB9
330
1D
100
AcDbEntity
  8
0
100
AcDbLine
 10
43.5
 20
544.486158
 30
0.0
 11
44.5
 21
543.986158
 31
0.0
  0
LINE
  5
DBA
330
1D
100
AcDbEntity
  8
0
100
AcDbLine
 10
43.5
 20
544.486158
 30
0.0
 11
44.7
 21
544.486158
 31
0.0
  0
LINE
  5
DBB
330
1D
100
AcDbEntity
  8
0
100
AcDbLine
 10
44.5
 20
543.986158
 30
0.0
 11
45.7
 21
543.986158
 31
0.0
  0
LINE
  5
DBC
330
1D
100
AcDbEntity
  8
0
100
AcDbLine
 10
43.0
 20
545.486158
 30
0.0
 11
43.5
 21
544.486158
 31
0.0
  0
LINE
  5
DBD
330
1D
100
AcDbEntity
  8
0
100
AcDbLine
 10
43.0
 20
545.486158
 30
0.0
 11
43.0
 21
569.986158
 31
0.0
  0
LINE
  5
DBE
330
1D
100
AcDbEntity
  8
0
100
AcDbLine
 10
43.0
 20
569.986158
 30
0.0
 11
43.0
 21
545.486158
 31
0.0
  0
LINE
  5
DBF
330
1D
100
AcDbEntity
  8
0
100
AcDbLine
 10
43.0
 20
569.986158
 30
0.0
 11
44.2
 21
569.986158
 31
0.0
  0
LINE
  5
DC0
330
1D
100
AcDbEntity
  8
0
100
AcDbLine
 10
61.0
 20
543.886158
 30
0.0
 11
61.0
 21
543.746158
 31
0.0
  0
LINE
  5
DC1
330
1D
100
AcDbEntity
  8
0
100
AcDbLine
 10
61.0
 20
543.886158
 30
0.0
 11
61.4211
 21
543.986158
 31
0.0
  0
LINE
  5
DC2
330
1D
100
AcDbEntity
  8
0
100
AcDbLine
 10
61.0
 20
543.746158
 30
0.0
 11
61.0
 21
543.886158
 31
0.0
  0
LINE
  5
DC3
330
1D
100
AcDbEntity
  8
0
100
AcDbLine
 10
61.0
 20
543.746158
 30
0.0
 11
61.0
 21
542.986158
 31
0.0
  0
LINE
  5
DC4
330
1D
100
AcDbEntity
  8
0
100
AcDbLine
 10
61.02
 20
527.986158
 30
0.0
 11
62.652
 21
527.986158
 31
0.0
  0
LINE
  5
DC5
330
1D
100
AcDbEntity
  8
0
100
AcDbLine
 10
61.4211
 20
529.986158
 30
0.0
 11
62.0105
 21
529.986158
 31
0.0
  0
LINE
  5
DC6
330
1D
100
AcDbEntity
  8
0
100
AcDbLine
 10
62.0105
 20
529.986158
 30
0.0
 11
63.0
 21
529.986158
 31
0.0
  0
LINE
  5
DC7
330
1D
100
AcDbEntity
  8
0
100
AcDbLine
 10
61.3368
 20
530.986158
 30
0.0
 11
62.3713
 21
530.986158
 31
0.0
  0
LINE
  5
DC8
330
1D
100
AcDbEntity
  8
0
100
AcDbLine
 10
62.652
 20
527.986158
 30
0.0
 11
65.304
 21
527.986158
 31
0.0
  0
LINE
  5
DC9
330
1D
100
AcDbEntity
  8
0
100
AcDbLine
 10
63.0
 20
529.986158
 30
0.0
 11
63.0
 21
527.986158
 31
0.0
  0
LINE
  5
DCA
330
1D
100
AcDbEntity
  8
0
100
AcDbLine
 10
65.304
 20
527.986158
 30
0.0
 11
68.77199999999999
 21
527.986158
 31
0.0
  0
LINE
  5
DCB
330
1D
100
AcDbEntity
  8
0
100
AcDbLine
 10
68.77199999999999
 20
527.986158
 30
0.0
 11
72.71600000000001
 21
527.986158
 31
0.0
  0
LINE
  5
DCC
330
1D
100
AcDbEntity
  8
0
100
AcDbLine
 10
63.0
 20
527.986158
 30
0.0
 11
63.0
 21
529.986158
 31
0.0
  0
LINE
  5
DCD
330
1D
100
AcDbEntity
  8
0
100
AcDbLine
 10
65.0421
 20
530.3501579999999
 30
0.0
 11
68.85550000000001
 21
530.188158
 31
0.0
  0
LINE
  5
DCE
330
1D
100
AcDbEntity
  8
0
100
AcDbLine
 10
62.3713
 20
530.986158
 30
0.0
 11
65.0421
 21
530.3501579999999
 31
0.0
  0
LINE
  5
DCF
330
1D
100
AcDbEntity
  8
0
100
AcDbLine
 10
62.3713
 20
530.986158
 30
0.0
 11
64.41892290921699
 21
530.498555719686
 31
0.0
  0
LINE
  5
DD0
330
1D
100
AcDbEntity
  8
0
100
AcDbLine
 10
65.0421
 20
543.622158
 30
0.0
 11
68.85550000000001
 21
543.784158
 31
0.0
  0
LINE
  5
DD1
330
1D
100
AcDbEntity
  8
0
100
AcDbLine
 10
62.3713
 20
542.986158
 30
0.0
 11
65.0421
 21
543.622158
 31
0.0
  0
LINE
  5
DD2
330
1D
100
AcDbEntity
  8
0
100
AcDbLine
 10
68.85550000000001
 20
530.188158
 30
0.0
 11
72.6481
 21
530.405158
 31
0.0
  0
LINE
  5
DD3
330
1D
100
AcDbEntity
  8
0
100
AcDbLine
 10
62.0105
 20
543.986158
 30
0.0
 11
63.5263
 21
543.986158
 31
0.0
  0
LINE
  5
DD4
330
1D
100
AcDbEntity
  8
0
100
AcDbLine
 10
63.5263
 20
543.986158
 30
0.0
 11
65.9684
 21
543.986158
 31
0.0
  0
LINE
  5
DD5
330
1D
100
AcDbEntity
  8
0
100
AcDbLine
 10
65.9684
 20
543.986158
 30
0.0
 11
69.2526
 21
543.986158
 31
0.0
  0
LINE
  5
DD6
330
1D
100
AcDbEntity
  8
0
100
AcDbLine
 10
68.85550000000001
 20
543.784158
 30
0.0
 11
72.6481
 21
543.5671580000001
 31
0.0
  0
LINE
  5
DD7
330
1D
100
AcDbEntity
  8
0
100
AcDbLine
 10
72.71600000000001
 20
527.986158
 30
0.0
 11
77.0
 21
527.986158
 31
0.0
  0
LINE
  5
DD8
330
1D
100
AcDbEntity
  8
0
100
AcDbLine
 10
77.0
 20
527.986158
 30
0.0
 11
81.28399999999999
 21
527.986158
 31
0.0
  0
LINE
  5
DD9
330
1D
100
AcDbEntity
  8
0
100
AcDbLine
 10
88.696
 20
527.986158
 30
0.0
 11
91.348
 21
527.986158
 31
0.0
  0
LINE
  5
DDA
330
1D
100
AcDbEntity
  8
0
100
AcDbLine
 10
85.228
 20
527.986158
 30
0.0
 11
88.696
 21
527.986158
 31
0.0
  0
LINE
  5
DDB
330
1D
100
AcDbEntity
  8
0
100
AcDbLine
 10
81.28399999999999
 20
527.986158
 30
0.0
 11
85.228
 21
527.986158
 31
0.0
  0
LINE
  5
DDC
330
1D
100
AcDbEntity
  8
0
100
AcDbLine
 10
91.348
 20
527.986158
 30
0.0
 11
92.98
 21
527.986158
 31
0.0
  0
LINE
  5
DDD
330
1D
100
AcDbEntity
  8
0
100
AcDbLine
 10
91.0
 20
527.986158
 30
0.0
 11
91.0
 21
529.986158
 31
0.0
  0
LINE
  5
DDE
330
1D
100
AcDbEntity
  8
0
100
AcDbLine
 10
63.0
 20
529.986158
 30
0.0
 11
91.98950000000001
 21
529.986158
 31
0.0
  0
LINE
  5
DDF
330
1D
100
AcDbEntity
  8
0
100
AcDbLine
 10
91.0
 20
529.986158
 30
0.0
 11
91.0
 21
527.986158
 31
0.0
  0
LINE
  5
DE0
330
1D
100
AcDbEntity
  8
0
100
AcDbLine
 10
92.98
 20
527.986158
 30
0.0
 11
93.59200000000001
 21
527.986158
 31
0.0
  0
LINE
  5
DE1
330
1D
100
AcDbEntity
  8
0
100
AcDbLine
 10
93.59200000000001
 20
527.986158
 30
0.0
 11
94.0
 21
527.386158
 31
0.0
  0
LINE
  5
DE2
330
1D
100
AcDbEntity
  8
0
100
AcDbLine
 10
94.0
 20
527.386158
 30
0.0
 11
94.0
 21
514.986158
 31
0.0
  0
LINE
  5
DE3
330
1D
100
AcDbEntity
  8
0
100
AcDbLine
 10
92.57899999999999
 20
529.986158
 30
0.0
 11
93.0
 21
530.0861579999999
 31
0.0
  0
LINE
  5
DE4
330
1D
100
AcDbEntity
  8
0
100
AcDbLine
 10
91.98950000000001
 20
529.986158
 30
0.0
 11
92.57899999999999
 21
529.986158
 31
0.0
  0
LINE
  5
DE5
330
1D
100
AcDbEntity
  8
0
100
AcDbLine
 10
93.0
 20
530.0861579999999
 30
0.0
 11
93.0
 21
530.226158
 31
0.0
  0
LINE
  5
DE6
330
1D
100
AcDbEntity
  8
0
100
AcDbLine
 10
93.0
 20
530.226158
 30
0.0
 11
93.0
 21
530.0861579999999
 31
0.0
  0
LINE
  5
DE7
330
1D
100
AcDbEntity
  8
0
100
AcDbLine
 10
93.0
 20
530.226158
 30
0.0
 11
93.0
 21
530.986158
 31
0.0
  0
LINE
  5
DE8
330
1D
100
AcDbEntity
  8
0
100
AcDbLine
 10
85.1445
 20
530.188158
 30
0.0
 11
88.95789999999999
 21
530.3501579999999
 31
0.0
  0
LINE
  5
DE9
330
1D
100
AcDbEntity
  8
0
100
AcDbLine
 10
75.0225
 20
542.986158
 30
0.0
 11
77.0
 21
542.986158
 31
0.0
  0
LINE
  5
DEA
330
1D
100
AcDbEntity
  8
0
100
AcDbLine
 10
77.0
 20
530.986158
 30
0.0
 11
78.97750000000001
 21
530.986158
 31
0.0
  0
LINE
  5
DEB
330
1D
100
AcDbEntity
  8
0
100
AcDbLine
 10
78.97750000000001
 20
542.986158
 30
0.0
 11
81.35189999999999
 21
543.5671580000001
 31
0.0
  0
LINE
  5
DEC
330
1D
100
AcDbEntity
  8
0
100
AcDbLine
 10
78.97750000000001
 20
530.986158
 30
0.0
 11
81.35189999999999
 21
530.405158
 31
0.0
  0
LINE
  5
DED
330
1D
100
AcDbEntity
  8
0
100
AcDbLine
 10
91.62869999999999
 20
530.986158
 30
0.0
 11
92.6632
 21
530.986158
 31
0.0
  0
LINE
  5
DEE
330
1D
100
AcDbEntity
  8
0
100
AcDbLine
 10
81.35189999999999
 20
530.405158
 30
0.0
 11
85.1445
 21
530.188158
 31
0.0
  0
LINE
  5
DEF
330
1D
100
AcDbEntity
  8
0
100
AcDbLine
 10
88.95789999999999
 20
530.3501579999999
 30
0.0
 11
91.62869999999999
 21
530.986158
 31
0.0
  0
LINE
  5
DF0
330
1D
100
AcDbEntity
  8
0
100
AcDbLine
 10
92.6632
 20
530.986158
 30
0.0
 11
93.0
 21
530.986158
 31
0.0
  0
LINE
  5
DF1
330
1D
100
AcDbEntity
  8
0
100
AcDbLine
 10
93.0
 20
542.986158
 30
0.0
 11
93.0
 21
541.986158
 31
0.0
  0
LINE
  5
DF2
330
1D
100
AcDbEntity
  8
0
100
AcDbLine
 10
93.0
 20
542.986158
 30
0.0
 11
93.0
 21
543.746158
 31
0.0
  0
LINE
  5
DF3
330
1D
100
AcDbEntity
  8
0
100
AcDbLine
 10
93.0
 20
541.986158
 30
0.0
 11
93.0
 21
531.986158
 31
0.0
  0
LINE
  5
DF4
330
1D
100
AcDbEntity
  8
0
100
AcDbLine
 10
93.0
 20
541.986158
 30
0.0
 11
93.0
 21
542.986158
 31
0.0
  0
LINE
  5
DF5
330
1D
100
AcDbEntity
  8
0
100
AcDbLine
 10
93.0
 20
531.986158
 30
0.0
 11
93.0
 21
530.986158
 31
0.0
  0
LINE
  5
DF6
330
1D
100
AcDbEntity
  8
0
100
AcDbLine
 10
93.0
 20
531.986158
 30
0.0
 11
93.0
 21
541.986158
 31
0.0
  0
LINE
  5
DF7
330
1D
100
AcDbEntity
  8
0
100
AcDbLine
 10
93.0
 20
530.986158
 30
0.0
 11
93.0
 21
530.226158
 31
0.0
  0
LINE
  5
DF8
330
1D
100
AcDbEntity
  8
0
100
AcDbLine
 10
93.0
 20
530.986158
 30
0.0
 11
93.0
 21
531.986158
 31
0.0
  0
LINE
  5
DF9
330
1D
100
AcDbEntity
  8
0
100
AcDbLine
 10
91.62869999999999
 20
542.986158
 30
0.0
 11
93.0
 21
541.986158
 31
0.0
  0
LINE
  5
DFA
330
1D
100
AcDbEntity
  8
0
100
AcDbLine
 10
81.35189999999999
 20
543.5671580000001
 30
0.0
 11
85.1445
 21
543.784158
 31
0.0
  0
LINE
  5
DFB
330
1D
100
AcDbEntity
  8
0
100
AcDbLine
 10
77.0
 20
542.986158
 30
0.0
 11
78.97750000000001
 21
542.986158
 31
0.0
  0
LINE
  5
DFC
330
1D
100
AcDbEntity
  8
0
100
AcDbLine
 10
75.0225
 20
530.986158
 30
0.0
 11
77.0
 21
530.986158
 31
0.0
  0
LINE
  5
DFD
330
1D
100
AcDbEntity
  8
0
100
AcDbLine
 10
72.6481
 20
530.405158
 30
0.0
 11
75.0225
 21
530.986158
 31
0.0
  0
LINE
  5
DFE
330
1D
100
AcDbEntity
  8
0
100
AcDbLine
 10
88.95789999999999
 20
543.622158
 30
0.0
 11
91.62869999999999
 21
542.986158
 31
0.0
  0
LINE
  5
DFF
330
1D
100
AcDbEntity
  8
0
100
AcDbLine
 10
93.0
 20
543.746158
 30
0.0
 11
93.0
 21
542.986158
 31
0.0
  0
LINE
  5
E00
330
1D
100
AcDbEntity
  8
0
100
AcDbLine
 10
84.74729999999999
 20
543.986158
 30
0.0
 11
88.0315
 21
543.986158
 31
0.0
  0
LINE
  5
E01
330
1D
100
AcDbEntity
  8
0
100
AcDbLine
 10
100.0
 20
543.986158
 30
0.0
 11
105.0999999999999
 21
543.986158
 31
0.0
  0
LINE
  5
E02
330
1D
100
AcDbEntity
  8
0
100
AcDbLine
 10
93.2
 20
543.986158
 30
0.0
 11
100.0
 21
543.986158
 31
0.0
  0
LINE
  5
E03
330
1D
100
AcDbEntity
  8
0
100
AcDbLine
 10
92.57899999999999
 20
543.986158
 30
0.0
 11
93.0
 21
543.886158
 31
0.0
  0
LINE
  5
E04
330
1D
100
AcDbEntity
  8
0
100
AcDbLine
 10
92.57899999999999
 20
543.986158
 30
0.0
 11
93.2
 21
543.986158
 31
0.0
  0
LINE
  5
E05
330
1D
100
AcDbEntity
  8
0
100
AcDbLine
 10
91.98950000000001
 20
543.986158
 30
0.0
 11
92.57899999999999
 21
543.986158
 31
0.0
  0
LINE
  5
E06
330
1D
100
AcDbEntity
  8
0
100
AcDbLine
 10
93.0
 20
543.886158
 30
0.0
 11
93.0
 21
543.746158
 31
0.0
  0
LINE
  5
E07
330
1D
100
AcDbEntity
  8
0
100
AcDbLine
 10
88.0315
 20
543.986158
 30
0.0
 11
90.47369999999999
 21
543.986158
 31
0.0
  0
LINE
  5
E08
330
1D
100
AcDbEntity
  8
0
100
AcDbLine
 10
90.47369999999999
 20
543.986158
 30
0.0
 11
91.98950000000001
 21
543.986158
 31
0.0
  0
LINE
  5
E09
330
1D
100
AcDbEntity
  8
0
100
AcDbLine
 10
81.0421
 20
543.986158
 30
0.0
 11
84.74729999999999
 21
543.986158
 31
0.0
  0
LINE
  5
E0A
330
1D
100
AcDbEntity
  8
0
100
AcDbLine
 10
85.1445
 20
543.784158
 30
0.0
 11
88.95789999999999
 21
543.622158
 31
0.0
  0
LINE
  5
E0B
330
1D
100
AcDbEntity
  8
0
100
AcDbLine
 10
77.0
 20
543.986158
 30
0.0
 11
81.0421
 21
543.986158
 31
0.0
  0
LINE
  5
E0C
330
1D
100
AcDbEntity
  8
0
100
AcDbLine
 10
72.9579
 20
543.986158
 30
0.0
 11
77.0
 21
543.986158
 31
0.0
  0
LINE
  5
E0D
330
1D
100
AcDbEntity
  8
0
100
AcDbLine
 10
72.6481
 20
543.5671580000001
 30
0.0
 11
75.0225
 21
542.986158
 31
0.0
  0
LINE
  5
E0E
330
1D
100
AcDbEntity
  8
0
100
AcDbLine
 10
69.2526
 20
543.986158
 30
0.0
 11
72.9579
 21
543.986158
 31
0.0
  0
LINE
  5
E0F
330
1D
100
AcDbEntity
  8
0
100
AcDbLine
 10
68.4
 20
544.486158
 30
0.0
 11
77.0
 21
544.486158
 31
0.0
  0
LINE
  5
E10
330
1D
100
AcDbEntity
  8
0
100
AcDbLine
 10
68.3
 20
569.986158
 30
0.0
 11
77.0
 21
569.986158
 31
0.0
  0
LINE
  5
E11
330
1D
100
AcDbEntity
  8
0
100
AcDbLine
 10
77.0
 20
544.486158
 30
0.0
 11
85.6
 21
544.486158
 31
0.0
  0
LINE
  5
E12
330
1D
100
AcDbEntity
  8
0
100
AcDbLine
 10
93.7
 20
544.486158
 30
0.0
 11
100.7
 21
544.486158
 31
0.0
  0
LINE
  5
E13
330
1D
100
AcDbEntity
  8
0
100
AcDbLine
 10
85.6
 20
544.486158
 30
0.0
 11
93.7
 21
544.486158
 31
0.0
  0
LINE
  5
E14
330
1D
100
AcDbEntity
  8
0
100
AcDbLine
 10
100.7
 20
544.486158
 30
0.0
 11
106.0
 21
544.486158
 31
0.0
  0
LINE
  5
E15
330
1D
100
AcDbEntity
  8
0
100
AcDbLine
 10
101.0
 20
569.986158
 30
0.0
 11
106.4
 21
569.986158
 31
0.0
  0
LINE
  5
E16
330
1D
100
AcDbEntity
  8
0
100
AcDbLine
 10
93.9
 20
569.986158
 30
0.0
 11
101.0
 21
569.986158
 31
0.0
  0
LINE
  5
E17
330
1D
100
AcDbEntity
  8
0
100
AcDbLine
 10
85.7
 20
569.986158
 30
0.0
 11
93.9
 21
569.986158
 31
0.0
  0
LINE
  5
E18
330
1D
100
AcDbEntity
  8
0
100
AcDbLine
 10
77.0
 20
569.986158
 30
0.0
 11
85.7
 21
569.986158
 31
0.0
  0
LINE
  5
E19
330
1D
100
AcDbEntity
  8
0
100
AcDbLine
 10
61.4211
 20
543.986158
 30
0.0
 11
62.0105
 21
543.986158
 31
0.0
  0
LINE
  5
E1A
330
1D
100
AcDbEntity
  8
0
100
AcDbLine
 10
61.0
 20
530.0861579999999
 30
0.0
 11
61.0
 21
530.226158
 31
0.0
  0
LINE
  5
E1B
330
1D
100
AcDbEntity
  8
0
100
AcDbLine
 10
61.0
 20
530.0861579999999
 30
0.0
 11
61.4211
 21
529.986158
 31
0.0
  0
LINE
  5
E1C
330
1D
100
AcDbEntity
  8
0
100
AcDbLine
 10
102.0
 20
522.499158
 30
0.0
 11
102.7538
 21
522.981158
 31
0.0
  0
LINE
  5
E1D
330
1D
100
AcDbEntity
  8
0
100
AcDbLine
 10
102.0
 20
522.499158
 30
0.0
 11
102.0
 21
521.9071579999999
 31
0.0
  0
LINE
  5
E1E
330
1D
100
AcDbEntity
  8
0
100
AcDbLine
 10
102.0
 20
522.499158
 30
0.0
 11
102.0
 21
521.9031579999999
 31
0.0
  0
LINE
  5
E1F
330
1D
100
AcDbEntity
  8
0
100
AcDbLine
 10
102.0
 20
520.127158
 30
0.0
 11
102.0
 21
521.9031579999999
 31
0.0
  0
LINE
  5
E20
330
1D
100
AcDbEntity
  8
0
100
AcDbLine
 10
102.0
 20
520.127158
 30
0.0
 11
102.0
 21
517.3741579999999
 31
0.0
  0
LINE
  5
E21
330
1D
100
AcDbEntity
  8
0
100
AcDbLine
 10
102.0
 20
517.3741579999999
 30
0.0
 11
102.0
 21
520.127158
 31
0.0
  0
LINE
  5
E22
330
1D
100
AcDbEntity
  8
0
100
AcDbLine
 10
102.0
 20
517.3741579999999
 30
0.0
 11
102.0
 21
513.770158
 31
0.0
  0
LINE
  5
E23
330
1D
100
AcDbEntity
  8
0
100
AcDbLine
 10
105.0999999999999
 20
543.986158
 30
0.0
 11
108.2999999999999
 21
543.986158
 31
0.0
  0
LINE
  5
E24
330
1D
100
AcDbEntity
  8
0
100
AcDbLine
 10
106.0
 20
544.486158
 30
0.0
 11
109.2999999999999
 21
544.486158
 31
0.0
  0
LINE
  5
E25
330
1D
100
AcDbEntity
  8
0
100
AcDbLine
 10
109.2999999999999
 20
544.486158
 30
0.0
 11
110.4999999999999
 21
544.486158
 31
0.0
  0
LINE
  5
E26
330
1D
100
AcDbEntity
  8
0
100
AcDbLine
 10
108.2999999999999
 20
543.986158
 30
0.0
 11
109.4999999999999
 21
543.986158
 31
0.0
  0
LINE
  5
E27
330
1D
100
AcDbEntity
  8
0
100
AcDbLine
 10
109.4999999999999
 20
543.986158
 30
0.0
 11
110.4999999999999
 21
544.486158
 31
0.0
  0
LINE
  5
E28
330
1D
100
AcDbEntity
  8
0
100
AcDbLine
 10
110.4999999999999
 20
544.486158
 30
0.0
 11
111.0
 21
545.486158
 31
0.0
  0
LINE
  5
E29
330
1D
100
AcDbEntity
  8
0
100
AcDbLine
 10
111.0
 20
545.486158
 30
0.0
 11
111.0
 21
569.986158
 31
0.0
  0
LINE
  5
E2A
330
1D
100
AcDbEntity
  8
0
100
AcDbLine
 10
106.4
 20
569.986158
 30
0.0
 11
109.8
 21
569.986158
 31
0.0
  0
LINE
  5
E2B
330
1D
100
AcDbEntity
  8
0
100
AcDbLine
 10
111.0
 20
569.986158
 30
0.0
 11
111.0
 21
545.486158
 31
0.0
  0
LINE
  5
E2C
330
1D
100
AcDbEntity
  8
0
100
AcDbLine
 10
109.8
 20
569.986158
 30
0.0
 11
111.0
 21
569.986158
 31
0.0
  0
LINE
  5
E2D
330
1D
100
AcDbEntity
  8
0
100
AcDbLine
 10
122.0
 20
560.586158
 30
0.0
 11
122.72
 21
559.986158
 31
0.0
  0
LINE
  5
E2E
330
1D
100
AcDbEntity
  8
0
100
AcDbLine
 10
122.0
 20
560.586158
 30
0.0
 11
122.0
 21
569.986158
 31
0.0
  0
LINE
  5
E2F
330
1D
100
AcDbEntity
  8
0
100
AcDbLine
 10
122.0
 20
560.586158
 30
0.0
 11
123.08
 21
560.586158
 31
0.0
  0
LINE
  5
E30
330
1D
100
AcDbEntity
  8
0
100
AcDbLine
 10
131.36
 20
559.986158
 30
0.0
 11
137.48
 21
559.986158
 31
0.0
  0
LINE
  5
E31
330
1D
100
AcDbEntity
  8
0
100
AcDbLine
 10
126.68
 20
559.986158
 30
0.0
 11
131.36
 21
559.986158
 31
0.0
  0
LINE
  5
E32
330
1D
100
AcDbEntity
  8
0
100
AcDbLine
 10
123.7999999999999
 20
559.986158
 30
0.0
 11
126.68
 21
559.986158
 31
0.0
  0
LINE
  5
E33
330
1D
100
AcDbEntity
  8
0
100
AcDbLine
 10
123.08
 20
560.586158
 30
0.0
 11
125.96
 21
560.586158
 31
0.0
  0
LINE
  5
E34
330
1D
100
AcDbEntity
  8
0
100
AcDbLine
 10
130.7599999999999
 20
560.586158
 30
0.0
 11
137.1199999999999
 21
560.586158
 31
0.0
  0
LINE
  5
E35
330
1D
100
AcDbEntity
  8
0
100
AcDbLine
 10
125.96
 20
560.586158
 30
0.0
 11
130.7599999999999
 21
560.586158
 31
0.0
  0
LINE
  5
E36
330
1D
100
AcDbEntity
  8
0
100
AcDbLine
 10
130.7599999999999
 20
569.986158
 30
0.0
 11
137.1199999999999
 21
569.986158
 31
0.0
  0
LINE
  5
E37
330
1D
100
AcDbEntity
  8
0
100
AcDbLine
 10
125.96
 20
569.986158
 30
0.0
 11
130.7599999999999
 21
569.986158
 31
0.0
  0
LINE
  5
E38
330
1D
100
AcDbEntity
  8
0
100
AcDbLine
 10
123.08
 20
569.986158
 30
0.0
 11
125.96
 21
569.986158
 31
0.0
  0
LINE
  5
E39
330
1D
100
AcDbEntity
  8
0
100
AcDbLine
 10
122.72
 20
559.986158
 30
0.0
 11
123.7999999999999
 21
559.986158
 31
0.0
  0
LINE
  5
E3A
330
1D
100
AcDbEntity
  8
0
100
AcDbLine
 10
122.0
 20
569.986158
 30
0.0
 11
122.0
 21
560.586158
 31
0.0
  0
LINE
  5
E3B
330
1D
100
AcDbEntity
  8
0
100
AcDbLine
 10
122.0
 20
569.986158
 30
0.0
 11
123.08
 21
569.986158
 31
0.0
  0
LINE
  5
E3C
330
1D
100
AcDbEntity
  8
0
100
AcDbLine
 10
102.7538
 20
522.981158
 30
0.0
 11
133.9129999999999
 21
522.981158
 31
0.0
  0
LINE
  5
E3D
330
1D
100
AcDbEntity
  8
0
100
AcDbLine
 10
102.0
 20
513.770158
 30
0.0
 11
102.0
 21
509.518158
 31
0.0
  0
LINE
  5
E3E
330
1D
100
AcDbEntity
  8
0
100
AcDbLine
 10
102.0
 20
513.770158
 30
0.0
 11
102.0
 21
517.3741579999999
 31
0.0
  0
LINE
  5
E3F
330
1D
100
AcDbEntity
  8
0
100
AcDbLine
 10
102.0
 20
509.518158
 30
0.0
 11
102.0
 21
513.770158
 31
0.0
  0
LINE
  5
E40
330
1D
100
AcDbEntity
  8
0
100
AcDbLine
 10
102.0
 20
509.518158
 30
0.0
 11
102.0
 21
507.986158
 31
0.0
  0
LINE
  5
E41
330
1D
100
AcDbEntity
  8
0
100
AcDbLine
 10
134.1639999999999
 20
419.432158
 30
0.0
 11
139.031
 21
422.5701579999999
 31
0.0
  0
LINE
  5
E42
330
1D
100
AcDbEntity
  8
0
100
AcDbLine
 10
134.667
 20
487.473158
 30
0.0
 11
134.667
 21
488.069158
 31
0.0
  0
LINE
  5
E43
330
1D
100
AcDbEntity
  8
0
100
AcDbLine
 10
134.667
 20
487.473158
 30
0.0
 11
135.4209999999999
 21
486.991158
 31
0.0
  0
LINE
  5
E44
330
1D
100
AcDbEntity
  8
0
100
AcDbLine
 10
134.667
 20
488.069158
 30
0.0
 11
134.667
 21
489.845158
 31
0.0
  0
LINE
  5
E45
330
1D
100
AcDbEntity
  8
0
100
AcDbLine
 10
134.667
 20
488.069158
 30
0.0
 11
134.667
 21
487.473158
 31
0.0
  0
LINE
  5
E46
330
1D
100
AcDbEntity
  8
0
100
AcDbLine
 10
134.667
 20
489.845158
 30
0.0
 11
134.667
 21
492.598158
 31
0.0
  0
LINE
  5
E47
330
1D
100
AcDbEntity
  8
0
100
AcDbLine
 10
134.667
 20
489.845158
 30
0.0
 11
134.667
 21
488.069158
 31
0.0
  0
LINE
  5
E48
330
1D
100
AcDbEntity
  8
0
100
AcDbLine
 10
134.667
 20
517.371158
 30
0.0
 11
134.667
 21
520.200158
 31
0.0
  0
LINE
  5
E49
330
1D
100
AcDbEntity
  8
0
100
AcDbLine
 10
134.667
 20
517.371158
 30
0.0
 11
134.667
 21
513.7871579999999
 31
0.0
  0
LINE
  5
E4A
330
1D
100
AcDbEntity
  8
0
100
AcDbLine
 10
134.667
 20
513.7871579999999
 30
0.0
 11
134.667
 21
517.371158
 31
0.0
  0
LINE
  5
E4B
330
1D
100
AcDbEntity
  8
0
100
AcDbLine
 10
134.667
 20
513.7871579999999
 30
0.0
 11
134.667
 21
509.5191579999999
 31
0.0
  0
LINE
  5
E4C
330
1D
100
AcDbEntity
  8
0
100
AcDbLine
 10
134.667
 20
509.5191579999999
 30
0.0
 11
134.667
 21
513.7871579999999
 31
0.0
  0
LINE
  5
E4D
330
1D
100
AcDbEntity
  8
0
100
AcDbLine
 10
134.667
 20
509.5191579999999
 30
0.0
 11
134.667
 21
504.9351579999999
 31
0.0
  0
LINE
  5
E4E
330
1D
100
AcDbEntity
  8
0
100
AcDbLine
 10
134.667
 20
504.9351579999999
 30
0.0
 11
134.667
 21
509.5191579999999
 31
0.0
  0
LINE
  5
E4F
330
1D
100
AcDbEntity
  8
0
100
AcDbLine
 10
134.667
 20
504.9351579999999
 30
0.0
 11
134.667
 21
500.454158
 31
0.0
  0
LINE
  5
E50
330
1D
100
AcDbEntity
  8
0
100
AcDbLine
 10
134.667
 20
500.454158
 30
0.0
 11
134.667
 21
504.9351579999999
 31
0.0
  0
LINE
  5
E51
330
1D
100
AcDbEntity
  8
0
100
AcDbLine
 10
134.667
 20
500.454158
 30
0.0
 11
134.667
 21
496.202158
 31
0.0
  0
LINE
  5
E52
330
1D
100
AcDbEntity
  8
0
100
AcDbLine
 10
134.667
 20
496.202158
 30
0.0
 11
134.667
 21
500.454158
 31
0.0
  0
LINE
  5
E53
330
1D
100
AcDbEntity
  8
0
100
AcDbLine
 10
134.667
 20
496.202158
 30
0.0
 11
134.667
 21
492.598158
 31
0.0
  0
LINE
  5
E54
330
1D
100
AcDbEntity
  8
0
100
AcDbLine
 10
134.667
 20
492.598158
 30
0.0
 11
134.667
 21
496.202158
 31
0.0
  0
LINE
  5
E55
330
1D
100
AcDbEntity
  8
0
100
AcDbLine
 10
134.667
 20
492.598158
 30
0.0
 11
134.667
 21
489.845158
 31
0.0
  0
LINE
  5
E56
330
1D
100
AcDbEntity
  8
0
100
AcDbLine
 10
136.4
 20
6.869447999999999
 30
0.0
 11
152.0
 21
5.741818
 31
0.0
  0
LINE
  5
E57
330
1D
100
AcDbEntity
  8
0
100
AcDbLine
 10
136.4
 20
5.587737999999999
 30
0.0
 11
152.0
 21
4.460107999999999
 31
0.0
  0
LINE
  5
E58
330
1D
100
AcDbEntity
  8
0
100
AcDbLine
 10
136.4
 20
1.141477999999999
 30
0.0
 11
152.0
 21
0.013842
 31
0.0
  0
LINE
  5
E59
330
1D
100
AcDbEntity
  8
0
100
AcDbLine
 10
136.4
 20
1.141477999999999
 30
0.0
 11
152.0
 21
0.013842
 31
0.0
  0
LINE
  5
E5A
330
1D
100
AcDbEntity
  8
0
100
AcDbLine
 10
138.84
 20
116.276158
 30
0.0
 11
140.1839999999999
 21
113.224158
 31
0.0
  0
LINE
  5
E5B
330
1D
100
AcDbEntity
  8
0
100
AcDbLine
 10
138.336
 20
119.592158
 30
0.0
 11
138.84
 21
122.907158
 31
0.0
  0
LINE
  5
E5C
330
1D
100
AcDbEntity
  8
0
100
AcDbLine
 10
138.336
 20
119.592158
 30
0.0
 11
138.84
 21
116.276158
 31
0.0
  0
LINE
  5
E5D
330
1D
100
AcDbEntity
  8
0
100
AcDbLine
 10
139.0
 20
119.738158
 30
0.0
 11
139.0
 21
122.181158
 31
0.0
  0
LINE
  5
E5E
330
1D
100
AcDbEntity
  8
0
100
AcDbLine
 10
139.0
 20
119.738158
 30
0.0
 11
139.4679999999999
 21
116.611158
 31
0.0
  0
LINE
  5
E5F
330
1D
100
AcDbEntity
  8
0
100
AcDbLine
 10
139.0
 20
122.181158
 30
0.0
 11
139.021993606138
 21
122.328158
 31
0.0
  0
LINE
  5
E60
330
1D
100
AcDbEntity
  8
0
100
AcDbLine
 10
139.0
 20
122.181158
 30
0.0
 11
139.0
 21
119.738158
 31
0.0
  0
LINE
  5
E61
330
1D
100
AcDbEntity
  8
0
100
AcDbLine
 10
138.84
 20
122.907158
 30
0.0
 11
139.0
 21
123.270491333333
 31
0.0
  0
LINE
  5
E62
330
1D
100
AcDbEntity
  8
0
100
AcDbLine
 10
139.0
 20
122.475158
 30
0.0
 11
139.0
 21
124.233158
 31
0.0
  0
LINE
  5
E63
330
1D
100
AcDbEntity
  8
0
100
AcDbLine
 10
139.1
 20
73.298158
 30
0.0
 11
145.5
 21
72.07655799999999
 31
0.0
  0
LINE
  5
E64
330
1D
100
AcDbEntity
  8
0
100
AcDbLine
 10
139.1
 20
72.272058
 30
0.0
 11
145.5
 21
71.05045799999999
 31
0.0
  0
LINE
  5
E65
330
1D
100
AcDbEntity
  8
0
100
AcDbLine
 10
139.4679999999999
 20
116.611158
 30
0.0
 11
140.716
 21
113.679158
 31
0.0
  0
LINE
  5
E66
330
1D
100
AcDbEntity
  8
0
100
AcDbLine
 10
139.4679999999999
 20
121.106158
 30
0.0
 11
140.716
 21
118.174158
 31
0.0
  0
LINE
  5
E67
330
1D
100
AcDbEntity
  8
0
100
AcDbLine
 10
139.7799999999999
 20
121.302158
 30
0.0
 11
141.028
 21
118.467158
 31
0.0
  0
LINE
  5
E68
330
1D
100
AcDbEntity
  8
0
100
AcDbLine
 10
139.312
 20
124.380158
 30
0.0
 11
139.7799999999999
 21
127.458158
 31
0.0
  0
LINE
  5
E69
330
1D
100
AcDbEntity
  8
0
100
AcDbLine
 10
139.312
 20
124.380158
 30
0.0
 11
139.7799999999999
 21
121.302158
 31
0.0
  0
LINE
  5
E6A
330
1D
100
AcDbEntity
  8
0
100
AcDbLine
 10
139.0
 20
124.233158
 30
0.0
 11
139.4679999999999
 21
127.361158
 31
0.0
  0
LINE
  5
E6B
330
1D
100
AcDbEntity
  8
0
100
AcDbLine
 10
139.0
 20
124.233158
 30
0.0
 11
139.0
 21
122.475158
 31
0.0
  0
LINE
  5
E6C
330
1D
100
AcDbEntity
  8
0
100
AcDbLine
 10
139.0
 20
124.233158
 30
0.0
 11
139.4679999999999
 21
121.106158
 31
0.0
  0
LINE
  5
E6D
330
1D
100
AcDbEntity
  8
0
100
AcDbLine
 10
139.7799999999999
 20
127.458158
 30
0.0
 11
140.0
 21
127.9579176153849
 31
0.0
  0
LINE
  5
E6E
330
1D
100
AcDbEntity
  8
0
100
AcDbLine
 10
139.4679999999999
 20
127.361158
 30
0.0
 11
140.0
 21
128.6110169743589
 31
0.0
  0
LINE
  5
E6F
330
1D
100
AcDbEntity
  8
0
100
AcDbLine
 10
140.0
 20
125.880158
 30
0.0
 11
140.0
 21
129.037158
 31
0.0
  0
LINE
  5
E70
330
1D
100
AcDbEntity
  8
0
100
AcDbLine
 10
140.0
 20
125.880158
 30
0.0
 11
140.432
 21
122.993158
 31
0.0
  0
LINE
  5
E71
330
1D
100
AcDbEntity
  8
0
100
AcDbLine
 10
140.1839999999999
 20
113.224158
 30
0.0
 11
142.368
 21
110.541158
 31
0.0
  0
LINE
  5
E72
330
1D
100
AcDbEntity
  8
0
100
AcDbLine
 10
140.716
 20
113.679158
 30
0.0
 11
142.7959999999999
 21
111.089158
 31
0.0
  0
LINE
  5
E73
330
1D
100
AcDbEntity
  8
0
100
AcDbLine
 10
140.716
 20
118.174158
 30
0.0
 11
142.7959999999999
 21
115.5851579999999
 31
0.0
  0
LINE
  5
E74
330
1D
100
AcDbEntity
  8
0
100
AcDbLine
 10
140.432
 20
122.993158
 30
0.0
 11
141.584
 21
120.287158
 31
0.0
  0
LINE
  5
E75
330
1D
100
AcDbEntity
  8
0
100
AcDbLine
 10
140.0
 20
129.037158
 30
0.0
 11
140.432
 21
131.924158
 31
0.0
  0
LINE
  5
E76
330
1D
100
AcDbEntity
  8
0
100
AcDbLine
 10
140.0
 20
129.037158
 30
0.0
 11
140.0
 21
125.880158
 31
0.0
  0
LINE
  5
E77
330
1D
100
AcDbEntity
  8
0
100
AcDbLine
 10
140.432
 20
131.924158
 30
0.0
 11
141.0
 21
133.2583663333329
 31
0.0
  0
LINE
  5
E78
330
1D
100
AcDbEntity
  8
0
100
AcDbLine
 10
141.0
 20
129.384158
 30
0.0
 11
141.0
 21
144.274158
 31
0.0
  0
LINE
  5
E79
330
1D
100
AcDbEntity
  8
0
100
AcDbLine
 10
141.0
 20
129.384158
 30
0.0
 11
141.396
 21
126.737158
 31
0.0
  0
LINE
  5
E7A
330
1D
100
AcDbEntity
  8
0
100
AcDbLine
 10
141.0
 20
144.274158
 30
0.0
 11
141.0
 21
147.171158
 31
0.0
  0
LINE
  5
E7B
330
1D
100
AcDbEntity
  8
0
100
AcDbLine
 10
141.0
 20
144.274158
 30
0.0
 11
141.0
 21
129.384158
 31
0.0
  0
LINE
  5
E7C
330
1D
100
AcDbEntity
  8
0
100
AcDbLine
 10
141.0
 20
147.171158
 30
0.0
 11
141.0
 21
151.7801579999999
 31
0.0
  0
LINE
  5
E7D
330
1D
100
AcDbEntity
  8
0
100
AcDbLine
 10
141.0
 20
147.171158
 30
0.0
 11
141.0
 21
144.274158
 31
0.0
  0
LINE
  5
E7E
330
1D
100
AcDbEntity
  8
0
100
AcDbLine
 10
139.1
 20
163.884158
 30
0.0
 11
141.0
 21
164.2469392499999
 31
0.0
  0
LINE
  5
E7F
330
1D
100
AcDbEntity
  8
0
100
AcDbLine
 10
141.0
 20
151.7801579999999
 30
0.0
 11
141.0
 21
157.7861579999999
 31
0.0
  0
LINE
  5
E80
330
1D
100
AcDbEntity
  8
0
100
AcDbLine
 10
141.0
 20
151.7801579999999
 30
0.0
 11
141.0
 21
147.171158
 31
0.0
  0
LINE
  5
E81
330
1D
100
AcDbEntity
  8
0
100
AcDbLine
 10
141.0
 20
157.7861579999999
 30
0.0
 11
141.0
 21
151.7801579999999
 31
0.0
  0
LINE
  5
E82
330
1D
100
AcDbEntity
  8
0
100
AcDbLine
 10
141.0
 20
157.7861579999999
 30
0.0
 11
141.0
 21
164.780158
 31
0.0
  0
LINE
  5
E83
330
1D
100
AcDbEntity
  8
0
100
AcDbLine
 10
141.0
 20
164.780158
 30
0.0
 11
141.0
 21
157.7861579999999
 31
0.0
  0
LINE
  5
E84
330
1D
100
AcDbEntity
  8
0
100
AcDbLine
 10
141.0
 20
164.780158
 30
0.0
 11
141.0
 21
172.286158
 31
0.0
  0
LINE
  5
E85
330
1D
100
AcDbEntity
  8
0
100
AcDbLine
 10
152.0
 20
0.013842
 30
0.0
 11
167.5999999999999
 21
1.141477999999999
 31
0.0
  0
LINE
  5
E86
330
1D
100
AcDbEntity
  8
0
100
AcDbLine
 10
152.0
 20
70.580658
 30
0.0
 11
158.4999999999999
 21
71.05045799999999
 31
0.0
  0
LINE
  5
E87
330
1D
100
AcDbEntity
  8
0
100
AcDbLine
 10
152.0
 20
5.741818
 30
0.0
 11
167.5999999999999
 21
6.869447999999999
 31
0.0
  0
LINE
  5
E88
330
1D
100
AcDbEntity
  8
0
100
AcDbLine
 10
152.0
 20
4.460107999999999
 30
0.0
 11
167.5999999999999
 21
5.587737999999999
 31
0.0
  0
LINE
  5
E89
330
1D
100
AcDbEntity
  8
0
100
AcDbLine
 10
152.0
 20
0.013842
 30
0.0
 11
167.5999999999999
 21
1.141477999999999
 31
0.0
  0
LINE
  5
E8A
330
1D
100
AcDbEntity
  8
0
100
AcDbLine
 10
152.0
 20
71.606658
 30
0.0
 11
158.4999999999999
 21
72.07655799999999
 31
0.0
  0
LINE
  5
E8B
330
1D
100
AcDbEntity
  8
0
100
AcDbLine
 10
145.5
 20
72.07655799999999
 30
0.0
 11
152.0
 21
71.606658
 31
0.0
  0
LINE
  5
E8C
330
1D
100
AcDbEntity
  8
0
100
AcDbLine
 10
145.5
 20
71.05045799999999
 30
0.0
 11
152.0
 21
70.580658
 31
0.0
  0
LINE
  5
E8D
330
1D
100
AcDbEntity
  8
0
100
AcDbLine
 10
152.0
 20
106.752158
 30
0.0
 11
155.5279999999999
 21
107.225158
 31
0.0
  0
LINE
  5
E8E
330
1D
100
AcDbEntity
  8
0
100
AcDbLine
 10
148.472
 20
107.225158
 30
0.0
 11
152.0
 21
106.752158
 31
0.0
  0
LINE
  5
E8F
330
1D
100
AcDbEntity
  8
0
100
AcDbLine
 10
145.2239999999999
 20
108.488158
 30
0.0
 11
148.472
 21
107.225158
 31
0.0
  0
LINE
  5
E90
330
1D
100
AcDbEntity
  8
0
100
AcDbLine
 10
145.552
 20
109.1351579999999
 30
0.0
 11
148.672
 21
107.9621579999999
 31
0.0
  0
LINE
  5
E91
330
1D
100
AcDbEntity
  8
0
100
AcDbLine
 10
148.672
 20
107.9621579999999
 30
0.0
 11
152.0
 21
107.522158
 31
0.0
  0
LINE
  5
E92
330
1D
100
AcDbEntity
  8
0
100
AcDbLine
 10
152.0
 20
107.522158
 30
0.0
 11
155.3279999999999
 21
107.9621579999999
 31
0.0
  0
LINE
  5
E93
330
1D
100
AcDbEntity
  8
0
100
AcDbLine
 10
142.368
 20
110.541158
 30
0.0
 11
145.2239999999999
 21
108.488158
 31
0.0
  0
LINE
  5
E94
330
1D
100
AcDbEntity
  8
0
100
AcDbLine
 10
142.7959999999999
 20
111.089158
 30
0.0
 11
145.552
 21
109.1351579999999
 31
0.0
  0
LINE
  5
E95
330
1D
100
AcDbEntity
  8
0
100
AcDbLine
 10
145.7079999999999
 20
114.0701579999999
 30
0.0
 11
148.7239999999999
 21
112.8971579999999
 31
0.0
  0
LINE
  5
E96
330
1D
100
AcDbEntity
  8
0
100
AcDbLine
 10
145.552
 20
113.630158
 30
0.0
 11
148.672
 21
112.457158
 31
0.0
  0
LINE
  5
E97
330
1D
100
AcDbEntity
  8
0
100
AcDbLine
 10
149.1399999999999
 20
114.457158
 30
0.0
 11
152.0
 21
114.043158
 31
0.0
  0
LINE
  5
E98
330
1D
100
AcDbEntity
  8
0
100
AcDbLine
 10
152.0
 20
114.043158
 30
0.0
 11
154.86
 21
114.457158
 31
0.0
  0
LINE
  5
E99
330
1D
100
AcDbEntity
  8
0
100
AcDbLine
 10
148.7239999999999
 20
112.8971579999999
 30
0.0
 11
152.0
 21
112.457158
 31
0.0
  0
LINE
  5
E9A
330
1D
100
AcDbEntity
  8
0
100
AcDbLine
 10
152.0
 20
112.457158
 30
0.0
 11
155.276
 21
112.8971579999999
 31
0.0
  0
LINE
  5
E9B
330
1D
100
AcDbEntity
  8
0
100
AcDbLine
 10
148.672
 20
112.457158
 30
0.0
 11
152.0
 21
112.017158
 31
0.0
  0
LINE
  5
E9C
330
1D
100
AcDbEntity
  8
0
100
AcDbLine
 10
152.0
 20
112.017158
 30
0.0
 11
155.3279999999999
 21
112.457158
 31
0.0
  0
LINE
  5
E9D
330
1D
100
AcDbEntity
  8
0
100
AcDbLine
 10
144.1899999999999
 20
117.041158
 30
0.0
 11
146.5
 21
115.387158
 31
0.0
  0
LINE
  5
E9E
330
1D
100
AcDbEntity
  8
0
100
AcDbLine
 10
143.056
 20
115.975158
 30
0.0
 11
145.7079999999999
 21
114.0701579999999
 31
0.0
  0
LINE
  5
E9F
330
1D
100
AcDbEntity
  8
0
100
AcDbLine
 10
142.7959999999999
 20
115.5851579999999
 30
0.0
 11
145.552
 21
113.630158
 31
0.0
  0
LINE
  5
EA0
330
1D
100
AcDbEntity
  8
0
100
AcDbLine
 10
146.5
 20
115.387158
 30
0.0
 11
149.1399999999999
 21
114.457158
 31
0.0
  0
LINE
  5
EA1
330
1D
100
AcDbEntity
  8
0
100
AcDbLine
 10
142.43
 20
119.212158
 30
0.0
 11
144.1899999999999
 21
117.041158
 31
0.0
  0
LINE
  5
EA2
330
1D
100
AcDbEntity
  8
0
100
AcDbLine
 10
141.028
 20
118.467158
 30
0.0
 11
143.056
 21
115.975158
 31
0.0
  0
LINE
  5
EA3
330
1D
100
AcDbEntity
  8
0
100
AcDbLine
 10
154.86
 20
114.457158
 30
0.0
 11
157.5
 21
115.387158
 31
0.0
  0
LINE
  5
EA4
330
1D
100
AcDbEntity
  8
0
100
AcDbLine
 10
155.3279999999999
 20
107.9621579999999
 30
0.0
 11
158.4479999999999
 21
109.1351579999999
 31
0.0
  0
LINE
  5
EA5
330
1D
100
AcDbEntity
  8
0
100
AcDbLine
 10
155.5279999999999
 20
107.225158
 30
0.0
 11
158.776
 21
108.488158
 31
0.0
  0
LINE
  5
EA6
330
1D
100
AcDbEntity
  8
0
100
AcDbLine
 10
157.5
 20
115.387158
 30
0.0
 11
159.81
 21
117.041158
 31
0.0
  0
LINE
  5
EA7
330
1D
100
AcDbEntity
  8
0
100
AcDbLine
 10
155.276
 20
112.8971579999999
 30
0.0
 11
158.292
 21
114.0701579999999
 31
0.0
  0
LINE
  5
EA8
330
1D
100
AcDbEntity
  8
0
100
AcDbLine
 10
155.3279999999999
 20
112.457158
 30
0.0
 11
158.4479999999999
 21
113.630158
 31
0.0
  0
LINE
  5
EA9
330
1D
100
AcDbEntity
  8
0
100
AcDbLine
 10
158.4479999999999
 20
109.1351579999999
 30
0.0
 11
161.204
 21
111.089158
 31
0.0
  0
LINE
  5
EAA
330
1D
100
AcDbEntity
  8
0
100
AcDbLine
 10
158.292
 20
114.0701579999999
 30
0.0
 11
160.944
 21
115.975158
 31
0.0
  0
LINE
  5
EAB
330
1D
100
AcDbEntity
  8
0
100
AcDbLine
 10
158.4999999999999
 20
72.07655799999999
 30
0.0
 11
164.9
 21
73.298158
 31
0.0
  0
LINE
  5
EAC
330
1D
100
AcDbEntity
  8
0
100
AcDbLine
 10
158.4999999999999
 20
71.05045799999999
 30
0.0
 11
164.9
 21
72.272058
 31
0.0
  0
LINE
  5
EAD
330
1D
100
AcDbEntity
  8
0
100
AcDbLine
 10
158.776
 20
108.488158
 30
0.0
 11
161.6319999999999
 21
110.541158
 31
0.0
  0
LINE
  5
EAE
330
1D
100
AcDbEntity
  8
0
100
AcDbLine
 10
161.204
 20
111.089158
 30
0.0
 11
163.2839999999999
 21
113.679158
 31
0.0
  0
LINE
  5
EAF
330
1D
100
AcDbEntity
  8
0
100
AcDbLine
 10
161.6319999999999
 20
110.541158
 30
0.0
 11
163.816
 21
113.224158
 31
0.0
  0
LINE
  5
EB0
330
1D
100
AcDbEntity
  8
0
100
AcDbLine
 10
167.5999999999999
 20
1.141477999999999
 30
0.0
 11
183.0
 21
4.054517999999999
 31
0.0
  0
LINE
  5
EB1
330
1D
100
AcDbEntity
  8
0
100
AcDbLine
 10
164.9
 20
73.298158
 30
0.0
 11
171.1
 21
75.27145799999999
 31
0.0
  0
LINE
  5
EB2
330
1D
100
AcDbEntity
  8
0
100
AcDbLine
 10
164.9
 20
72.272058
 30
0.0
 11
171.1
 21
74.245458
 31
0.0
  0
LINE
  5
EB3
330
1D
100
AcDbEntity
  8
0
100
AcDbLine
 10
167.5999999999999
 20
6.869447999999999
 30
0.0
 11
182.6999999999999
 21
9.782498
 31
0.0
  0
LINE
  5
EB4
330
1D
100
AcDbEntity
  8
0
100
AcDbLine
 10
167.5999999999999
 20
5.587737999999999
 30
0.0
 11
183.0
 21
8.500778
 31
0.0
  0
LINE
  5
EB5
330
1D
100
AcDbEntity
  8
0
100
AcDbLine
 10
171.1
 20
75.27145799999999
 30
0.0
 11
176.9
 21
77.902658
 31
0.0
  0
LINE
  5
EB6
330
1D
100
AcDbEntity
  8
0
100
AcDbLine
 10
171.1
 20
74.245458
 30
0.0
 11
176.9
 21
76.876558
 31
0.0
  0
LINE
  5
EB7
330
1D
100
AcDbEntity
  8
0
100
AcDbLine
 10
167.5999999999999
 20
1.141477999999999
 30
0.0
 11
183.0
 21
4.054517999999999
 31
0.0
  0
LINE
  5
EB8
330
1D
100
AcDbEntity
  8
0
100
AcDbLine
 10
163.816
 20
113.224158
 30
0.0
 11
165.16
 21
116.276158
 31
0.0
  0
LINE
  5
EB9
330
1D
100
AcDbEntity
  8
0
100
AcDbLine
 10
163.2839999999999
 20
113.679158
 30
0.0
 11
164.532
 21
116.611158
 31
0.0
  0
LINE
  5
EBA
330
1D
100
AcDbEntity
  8
0
100
AcDbLine
 10
159.81
 20
117.041158
 30
0.0
 11
162.416
 21
120.287158
 31
0.0
  0
LINE
  5
EBB
330
1D
100
AcDbEntity
  8
0
100
AcDbLine
 10
160.944
 20
115.975158
 30
0.0
 11
162.972
 21
118.467158
 31
0.0
  0
LINE
  5
EBC
330
1D
100
AcDbEntity
  8
0
100
AcDbLine
 10
165.16
 20
116.276158
 30
0.0
 11
165.664
 21
119.592158
 31
0.0
  0
LINE
  5
EBD
330
1D
100
AcDbEntity
  8
0
100
AcDbLine
 10
164.532
 20
116.611158
 30
0.0
 11
165.0
 21
119.738158
 31
0.0
  0
LINE
  5
EBE
330
1D
100
AcDbEntity
  8
0
100
AcDbLine
 10
161.204
 20
115.5851579999999
 30
0.0
 11
163.2839999999999
 21
118.174158
 31
0.0
  0
LINE
  5
EBF
330
1D
100
AcDbEntity
  8
0
100
AcDbLine
 10
158.4479999999999
 20
113.630158
 30
0.0
 11
161.204
 21
115.5851579999999
 31
0.0
  0
LINE
  5
EC0
330
1D
100
AcDbEntity
  8
0
100
AcDbLine
 10
162.972
 20
118.467158
 30
0.0
 11
164.22
 21
121.302158
 31
0.0
  0
LINE
  5
EC1
330
1D
100
AcDbEntity
  8
0
100
AcDbLine
 10
163.2839999999999
 20
118.174158
 30
0.0
 11
164.532
 21
121.106158
 31
0.0
  0
LINE
  5
EC2
330
1D
100
AcDbEntity
  8
0
100
AcDbLine
 10
154.816
 20
119.419158
 30
0.0
 11
157.456
 21
120.4111579999999
 31
0.0
  0
LINE
  5
EC3
330
1D
100
AcDbEntity
  8
0
100
AcDbLine
 10
152.0
 20
119.047158
 30
0.0
 11
154.816
 21
119.419158
 31
0.0
  0
LINE
  5
EC4
330
1D
100
AcDbEntity
  8
0
100
AcDbLine
 10
141.584
 20
120.287158
 30
0.0
 11
143.5039999999999
 21
117.896158
 31
0.0
  0
LINE
  5
EC5
330
1D
100
AcDbEntity
  8
0
100
AcDbLine
 10
141.396
 20
126.737158
 30
0.0
 11
142.452
 21
124.257158
 31
0.0
  0
LINE
  5
EC6
330
1D
100
AcDbEntity
  8
0
100
AcDbLine
 10
142.452
 20
124.257158
 30
0.0
 11
144.212
 21
122.065158
 31
0.0
  0
LINE
  5
EC7
330
1D
100
AcDbEntity
  8
0
100
AcDbLine
 10
144.212
 20
122.065158
 30
0.0
 11
146.5439999999999
 21
120.4111579999999
 31
0.0
  0
LINE
  5
EC8
330
1D
100
AcDbEntity
  8
0
100
AcDbLine
 10
165.0
 20
119.738158
 30
0.0
 11
165.0
 21
122.181158
 31
0.0
  0
LINE
  5
EC9
330
1D
100
AcDbEntity
  8
0
100
AcDbLine
 10
164.22
 20
121.302158
 30
0.0
 11
164.6879999999999
 21
124.380158
 31
0.0
  0
LINE
  5
ECA
330
1D
100
AcDbEntity
  8
0
100
AcDbLine
 10
164.532
 20
121.106158
 30
0.0
 11
165.0
 21
124.233158
 31
0.0
  0
LINE
  5
ECB
330
1D
100
AcDbEntity
  8
0
100
AcDbLine
 10
162.416
 20
120.287158
 30
0.0
 11
163.5679999999999
 21
122.993158
 31
0.0
  0
LINE
  5
ECC
330
1D
100
AcDbEntity
  8
0
100
AcDbLine
 10
165.0
 20
122.181158
 30
0.0
 11
165.0
 21
119.738158
 31
0.0
  0
LINE
  5
ECD
330
1D
100
AcDbEntity
  8
0
100
AcDbLine
 10
164.9780063938619
 20
122.328158
 30
0.0
 11
165.0
 21
122.181158
 31
0.0
  0
LINE
  5
ECE
330
1D
100
AcDbEntity
  8
0
100
AcDbLine
 10
165.16
 20
122.907158
 30
0.0
 11
165.664
 21
119.592158
 31
0.0
  0
LINE
  5
ECF
330
1D
100
AcDbEntity
  8
0
100
AcDbLine
 10
165.0
 20
122.475158
 30
0.0
 11
165.0
 21
124.233158
 31
0.0
  0
LINE
  5
ED0
330
1D
100
AcDbEntity
  8
0
100
AcDbLine
 10
165.0
 20
123.270491333333
 30
0.0
 11
165.16
 21
122.907158
 31
0.0
  0
LINE
  5
ED1
330
1D
100
AcDbEntity
  8
0
100
AcDbLine
 10
165.0
 20
124.233158
 30
0.0
 11
165.0
 21
122.475158
 31
0.0
  0
LINE
  5
ED2
330
1D
100
AcDbEntity
  8
0
100
AcDbLine
 10
164.0
 20
125.880158
 30
0.0
 11
164.0
 21
129.037158
 31
0.0
  0
LINE
  5
ED3
330
1D
100
AcDbEntity
  8
0
100
AcDbLine
 10
163.5679999999999
 20
122.993158
 30
0.0
 11
164.0
 21
125.880158
 31
0.0
  0
LINE
  5
ED4
330
1D
100
AcDbEntity
  8
0
100
AcDbLine
 10
163.0
 20
133.2583663333329
 30
0.0
 11
163.5679999999999
 21
131.924158
 31
0.0
  0
LINE
  5
ED5
330
1D
100
AcDbEntity
  8
0
100
AcDbLine
 10
164.0
 20
128.6110169743589
 30
0.0
 11
164.532
 21
127.361158
 31
0.0
  0
LINE
  5
ED6
330
1D
100
AcDbEntity
  8
0
100
AcDbLine
 10
164.532
 20
127.361158
 30
0.0
 11
165.0
 21
124.233158
 31
0.0
  0
LINE
  5
ED7
330
1D
100
AcDbEntity
  8
0
100
AcDbLine
 10
164.22
 20
127.458158
 30
0.0
 11
164.6879999999999
 21
124.380158
 31
0.0
  0
LINE
  5
ED8
330
1D
100
AcDbEntity
  8
0
100
AcDbLine
 10
164.0
 20
127.9579176153849
 30
0.0
 11
164.22
 21
127.458158
 31
0.0
  0
LINE
  5
ED9
330
1D
100
AcDbEntity
  8
0
100
AcDbLine
 10
164.0
 20
129.037158
 30
0.0
 11
164.0
 21
125.880158
 31
0.0
  0
LINE
  5
EDA
330
1D
100
AcDbEntity
  8
0
100
AcDbLine
 10
163.5679999999999
 20
131.924158
 30
0.0
 11
164.0
 21
129.037158
 31
0.0
  0
LINE
  5
EDB
330
1D
100
AcDbEntity
  8
0
100
AcDbLine
 10
163.0
 20
129.384158
 30
0.0
 11
163.0
 21
144.274158
 31
0.0
  0
LINE
  5
EDC
330
1D
100
AcDbEntity
  8
0
100
AcDbLine
 10
162.6039999999999
 20
126.737158
 30
0.0
 11
163.0
 21
129.384158
 31
0.0
  0
LINE
  5
EDD
330
1D
100
AcDbEntity
  8
0
100
AcDbLine
 10
161.5479999999999
 20
124.257158
 30
0.0
 11
162.6039999999999
 21
126.737158
 31
0.0
  0
LINE
  5
EDE
330
1D
100
AcDbEntity
  8
0
100
AcDbLine
 10
159.7879999999999
 20
122.065158
 30
0.0
 11
161.5479999999999
 21
124.257158
 31
0.0
  0
LINE
  5
EDF
330
1D
100
AcDbEntity
  8
0
100
AcDbLine
 10
157.456
 20
120.4111579999999
 30
0.0
 11
159.7879999999999
 21
122.065158
 31
0.0
  0
LINE
  5
EE0
330
1D
100
AcDbEntity
  8
0
100
AcDbLine
 10
163.0
 20
164.2469392499999
 30
0.0
 11
164.9
 21
163.884158
 31
0.0
  0
LINE
  5
EE1
330
1D
100
AcDbEntity
  8
0
100
AcDbLine
 10
163.0
 20
151.7801579999999
 30
0.0
 11
163.0
 21
147.171158
 31
0.0
  0
LINE
  5
EE2
330
1D
100
AcDbEntity
  8
0
100
AcDbLine
 10
163.0
 20
151.7801579999999
 30
0.0
 11
163.0
 21
157.7861579999999
 31
0.0
  0
LINE
  5
EE3
330
1D
100
AcDbEntity
  8
0
100
AcDbLine
 10
163.0
 20
147.171158
 30
0.0
 11
163.0
 21
144.274158
 31
0.0
  0
LINE
  5
EE4
330
1D
100
AcDbEntity
  8
0
100
AcDbLine
 10
163.0
 20
147.171158
 30
0.0
 11
163.0
 21
151.7801579999999
 31
0.0
  0
LINE
  5
EE5
330
1D
100
AcDbEntity
  8
0
100
AcDbLine
 10
163.0
 20
504.9861579999999
 30
0.0
 11
163.0
 21
164.780158
 31
0.0
  0
LINE
  5
EE6
330
1D
100
AcDbEntity
  8
0
100
AcDbLine
 10
163.0
 20
164.780158
 30
0.0
 11
163.0
 21
157.7861579999999
 31
0.0
  0
LINE
  5
EE7
330
1D
100
AcDbEntity
  8
0
100
AcDbLine
 10
163.0
 20
164.780158
 30
0.0
 11
163.0
 21
504.9861579999999
 31
0.0
  0
LINE
  5
EE8
330
1D
100
AcDbEntity
  8
0
100
AcDbLine
 10
171.1
 20
161.911158
 30
0.0
 11
176.9
 21
159.2801579999999
 31
0.0
  0
LINE
  5
EE9
330
1D
100
AcDbEntity
  8
0
100
AcDbLine
 10
164.9
 20
163.884158
 30
0.0
 11
171.1
 21
161.911158
 31
0.0
  0
LINE
  5
EEA
330
1D
100
AcDbEntity
  8
0
100
AcDbLine
 10
163.0
 20
157.7861579999999
 30
0.0
 11
163.0
 21
151.7801579999999
 31
0.0
  0
LINE
  5
EEB
330
1D
100
AcDbEntity
  8
0
100
AcDbLine
 10
163.0
 20
157.7861579999999
 30
0.0
 11
163.0
 21
164.780158
 31
0.0
  0
LINE
  5
EEC
330
1D
100
AcDbEntity
  8
0
100
AcDbLine
 10
163.0
 20
144.274158
 30
0.0
 11
163.0
 21
129.384158
 31
0.0
  0
LINE
  5
EED
330
1D
100
AcDbEntity
  8
0
100
AcDbLine
 10
163.0
 20
144.274158
 30
0.0
 11
163.0
 21
147.171158
 31
0.0
  0
LINE
  5
EEE
330
1D
100
AcDbEntity
  8
0
100
AcDbLine
 10
146.5439999999999
 20
120.4111579999999
 30
0.0
 11
149.184
 21
119.419158
 31
0.0
  0
LINE
  5
EEF
330
1D
100
AcDbEntity
  8
0
100
AcDbLine
 10
149.184
 20
119.419158
 30
0.0
 11
152.0
 21
119.047158
 31
0.0
  0
LINE
  5
EF0
330
1D
100
AcDbEntity
  8
0
100
AcDbLine
 10
141.0
 20
172.286158
 30
0.0
 11
141.0
 21
179.792158
 31
0.0
  0
LINE
  5
EF1
330
1D
100
AcDbEntity
  8
0
100
AcDbLine
 10
141.0
 20
172.286158
 30
0.0
 11
141.0
 21
164.780158
 31
0.0
  0
LINE
  5
EF2
330
1D
100
AcDbEntity
  8
0
100
AcDbLine
 10
136.4
 20
228.261158
 30
0.0
 11
141.0
 21
228.593478512821
 31
0.0
  0
LINE
  5
EF3
330
1D
100
AcDbEntity
  8
0
100
AcDbLine
 10
136.4
 20
228.859158
 30
0.0
 11
141.0
 21
229.1914785128209
 31
0.0
  0
LINE
  5
EF4
330
1D
100
AcDbEntity
  8
0
100
AcDbLine
 10
136.9629999999999
 20
331.977158
 30
0.0
 11
141.0
 21
329.573783844411
 31
0.0
  0
LINE
  5
EF5
330
1D
100
AcDbEntity
  8
0
100
AcDbLine
 10
139.031
 20
422.5701579999999
 30
0.0
 11
141.0
 21
423.679789990614
 31
0.0
  0
LINE
  5
EF6
330
1D
100
AcDbEntity
  8
0
100
AcDbLine
 10
163.0
 20
228.59347851282
 30
0.0
 11
167.5999999999999
 21
228.261158
 31
0.0
  0
LINE
  5
EF7
330
1D
100
AcDbEntity
  8
0
100
AcDbLine
 10
163.0
 20
229.1914785128209
 30
0.0
 11
167.5999999999999
 21
228.859158
 31
0.0
  0
LINE
  5
EF8
330
1D
100
AcDbEntity
  8
0
100
AcDbLine
 10
163.0
 20
474.986158
 30
0.0
 11
171.0776159885799
 21
474.986158
 31
0.0
  0
LINE
  5
EF9
330
1D
100
AcDbEntity
  8
0
100
AcDbLine
 10
167.5999999999999
 20
228.261158
 30
0.0
 11
182.6999999999999
 21
225.348158
 31
0.0
  0
LINE
  5
EFA
330
1D
100
AcDbEntity
  8
0
100
AcDbLine
 10
163.0
 20
321.107507399687
 30
0.0
 11
168.108
 21
320.0151579999999
 31
0.0
  0
LINE
  5
EFB
330
1D
100
AcDbEntity
  8
0
100
AcDbLine
 10
163.0
 20
436.1045102613069
 30
0.0
 11
163.793
 21
436.779158
 31
0.0
  0
LINE
  5
EFC
330
1D
100
AcDbEntity
  8
0
100
AcDbLine
 10
163.793
 20
436.779158
 30
0.0
 11
164.9183333019539
 21
438.0323540311779
 31
0.0
  0
LINE
  5
EFD
330
1D
100
AcDbEntity
  8
0
100
AcDbLine
 10
166.4765857192089
 20
440.718415749186
 30
0.0
 11
167.0149999999999
 21
442.725158
 31
0.0
  0
LINE
  5
EFE
330
1D
100
AcDbEntity
  8
0
100
AcDbLine
 10
165.905
 20
439.518158
 30
0.0
 11
166.4765857192089
 21
440.718415749186
 31
0.0
  0
LINE
  5
EFF
330
1D
100
AcDbEntity
  8
0
100
AcDbLine
 10
164.9183333019539
 20
438.0323540311779
 30
0.0
 11
165.905
 21
439.518158
 31
0.0
  0
LINE
  5
F00
330
1D
100
AcDbEntity
  8
0
100
AcDbLine
 10
167.007466034938
 20
442.6970779015599
 30
0.0
 11
167.1969999999999
 21
444.3091579999999
 31
0.0
  0
LINE
  5
F01
330
1D
100
AcDbEntity
  8
0
100
AcDbLine
 10
167.4889999999999
 20
448.8891579999999
 30
0.0
 11
167.812
 21
453.611158
 31
0.0
  0
LINE
  5
F02
330
1D
100
AcDbEntity
  8
0
100
AcDbLine
 10
167.1969999999999
 20
444.3091579999999
 30
0.0
 11
167.4889999999999
 21
448.8891579999999
 31
0.0
  0
LINE
  5
F03
330
1D
100
AcDbEntity
  8
0
100
AcDbLine
 10
168.108
 20
320.0151579999999
 30
0.0
 11
171.86
 21
319.4071579999999
 31
0.0
  0
LINE
  5
F04
330
1D
100
AcDbEntity
  8
0
100
AcDbLine
 10
171.86
 20
319.4071579999999
 30
0.0
 11
175.699
 21
318.938158
 31
0.0
  0
LINE
  5
F05
330
1D
100
AcDbEntity
  8
0
100
AcDbLine
 10
168.2232889240389
 20
457.350009050164
 30
0.0
 11
168.2459999999999
 21
457.600158
 31
0.0
  0
LINE
  5
F06
330
1D
100
AcDbEntity
  8
0
100
AcDbLine
 10
168.2459999999999
 20
457.600158
 30
0.0
 11
168.618
 21
460.9381579999999
 31
0.0
  0
LINE
  5
F07
330
1D
100
AcDbEntity
  8
0
100
AcDbLine
 10
168.2459999999999
 20
457.600158
 30
0.0
 11
168.26195554083
 21
457.7015106645959
 31
0.0
  0
LINE
  5
F08
330
1D
100
AcDbEntity
  8
0
100
AcDbLine
 10
168.2459999999999
 20
457.600158
 30
0.0
 11
168.262748251581
 21
457.7087168577359
 31
0.0
  0
LINE
  5
F09
330
1D
100
AcDbEntity
  8
0
100
AcDbLine
 10
167.812
 20
453.611158
 30
0.0
 11
168.618
 21
460.9381579999999
 31
0.0
  0
LINE
  5
F0A
330
1D
100
AcDbEntity
  8
0
100
AcDbLine
 10
168.618
 20
460.9381579999999
 30
0.0
 11
169.777
 21
468.2181579999999
 31
0.0
  0
LINE
  5
F0B
330
1D
100
AcDbEntity
  8
0
100
AcDbLine
 10
169.777
 20
468.2181579999999
 30
0.0
 11
170.717
 21
473.0651579999999
 31
0.0
  0
LINE
  5
F0C
330
1D
100
AcDbEntity
  8
0
100
AcDbLine
 10
170.717
 20
473.0651579999999
 30
0.0
 11
171.769
 21
478.669158
 31
0.0
  0
LINE
  5
F0D
330
1D
100
AcDbEntity
  8
0
100
AcDbLine
 10
171.769
 20
478.669158
 30
0.0
 11
172.4499999999999
 21
481.381158
 31
0.0
  0
LINE
  5
F0E
330
1D
100
AcDbEntity
  8
0
100
AcDbLine
 10
167.5999999999999
 20
228.859158
 30
0.0
 11
183.0
 21
225.9461579999999
 31
0.0
  0
LINE
  5
F0F
330
1D
100
AcDbEntity
  8
0
100
AcDbLine
 10
141.0
 20
179.792158
 30
0.0
 11
141.0
 21
490.486158
 31
0.0
  0
LINE
  5
F10
330
1D
100
AcDbEntity
  8
0
100
AcDbLine
 10
141.0
 20
179.792158
 30
0.0
 11
141.0
 21
172.286158
 31
0.0
  0
LINE
  5
F11
330
1D
100
AcDbEntity
  8
0
100
AcDbLine
 10
172.0
 20
479.5890875154189
 30
0.0
 11
172.0
 21
494.986158
 31
0.0
  0
LINE
  5
F12
330
1D
100
AcDbEntity
  8
0
100
AcDbLine
 10
163.0
 20
486.991158
 30
0.0
 11
172.0
 21
486.991158
 31
0.0
  0
LINE
  5
F13
330
1D
100
AcDbEntity
  8
0
100
AcDbLine
 10
135.4209999999999
 20
486.991158
 30
0.0
 11
141.0
 21
486.991158
 31
0.0
  0
LINE
  5
F14
330
1D
100
AcDbEntity
  8
0
100
AcDbLine
 10
172.0
 20
486.991158
 30
0.0
 11
172.0
 21
487.577158
 31
0.0
  0
LINE
  5
F15
330
1D
100
AcDbEntity
  8
0
100
AcDbLine
 10
172.0
 20
487.577158
 30
0.0
 11
172.0
 21
489.442158
 31
0.0
  0
LINE
  5
F16
330
1D
100
AcDbEntity
  8
0
100
AcDbLine
 10
172.0
 20
487.577158
 30
0.0
 11
172.0
 21
486.991158
 31
0.0
  0
LINE
  5
F17
330
1D
100
AcDbEntity
  8
0
100
AcDbLine
 10
141.0
 20
490.486158
 30
0.0
 11
141.0
 21
496.492158
 31
0.0
  0
LINE
  5
F18
330
1D
100
AcDbEntity
  8
0
100
AcDbLine
 10
141.0
 20
490.486158
 30
0.0
 11
141.0
 21
179.792158
 31
0.0
  0
LINE
  5
F19
330
1D
100
AcDbEntity
  8
0
100
AcDbLine
 10
163.0
 20
496.492158
 30
0.0
 11
163.0
 21
501.1011579999999
 31
0.0
  0
LINE
  5
F1A
330
1D
100
AcDbEntity
  8
0
100
AcDbLine
 10
141.0
 20
496.492158
 30
0.0
 11
141.0
 21
501.1011579999999
 31
0.0
  0
LINE
  5
F1B
330
1D
100
AcDbEntity
  8
0
100
AcDbLine
 10
141.0
 20
496.492158
 30
0.0
 11
141.0
 21
490.486158
 31
0.0
  0
LINE
  5
F1C
330
1D
100
AcDbEntity
  8
0
100
AcDbLine
 10
172.0
 20
494.986158
 30
0.0
 11
172.0
 21
479.5890875154189
 31
0.0
  0
LINE
  5
F1D
330
1D
100
AcDbEntity
  8
0
100
AcDbLine
 10
172.0
 20
494.986158
 30
0.0
 11
172.504
 21
498.041158
 31
0.0
  0
LINE
  5
F1E
330
1D
100
AcDbEntity
  8
0
100
AcDbLine
 10
172.0
 20
494.986158
 30
0.0
 11
172.0
 21
495.986158
 31
0.0
  0
LINE
  5
F1F
330
1D
100
AcDbEntity
  8
0
100
AcDbLine
 10
141.0
 20
504.9861579999999
 30
0.0
 11
141.0
 21
503.998158
 31
0.0
  0
LINE
  5
F20
330
1D
100
AcDbEntity
  8
0
100
AcDbLine
 10
141.0
 20
504.9861579999999
 30
0.0
 11
141.396
 21
507.802158
 31
0.0
  0
LINE
  5
F21
330
1D
100
AcDbEntity
  8
0
100
AcDbLine
 10
141.0
 20
503.998158
 30
0.0
 11
141.0
 21
504.9861579999999
 31
0.0
  0
LINE
  5
F22
330
1D
100
AcDbEntity
  8
0
100
AcDbLine
 10
141.0
 20
503.998158
 30
0.0
 11
141.0
 21
501.1011579999999
 31
0.0
  0
LINE
  5
F23
330
1D
100
AcDbEntity
  8
0
100
AcDbLine
 10
163.0
 20
501.1011579999999
 30
0.0
 11
163.0
 21
503.998158
 31
0.0
  0
LINE
  5
F24
330
1D
100
AcDbEntity
  8
0
100
AcDbLine
 10
163.0
 20
501.1011579999999
 30
0.0
 11
163.0
 21
496.492158
 31
0.0
  0
LINE
  5
F25
330
1D
100
AcDbEntity
  8
0
100
AcDbLine
 10
162.6039999999999
 20
507.802158
 30
0.0
 11
163.0
 21
504.9861579999999
 31
0.0
  0
LINE
  5
F26
330
1D
100
AcDbEntity
  8
0
100
AcDbLine
 10
163.0
 20
503.998158
 30
0.0
 11
163.0
 21
501.1011579999999
 31
0.0
  0
LINE
  5
F27
330
1D
100
AcDbEntity
  8
0
100
AcDbLine
 10
163.0
 20
503.998158
 30
0.0
 11
163.0
 21
504.9861579999999
 31
0.0
  0
LINE
  5
F28
330
1D
100
AcDbEntity
  8
0
100
AcDbLine
 10
163.0
 20
504.9861579999999
 30
0.0
 11
163.0
 21
503.998158
 31
0.0
  0
LINE
  5
F29
330
1D
100
AcDbEntity
  8
0
100
AcDbLine
 10
141.396
 20
507.802158
 30
0.0
 11
142.452
 21
510.442158
 31
0.0
  0
LINE
  5
F2A
330
1D
100
AcDbEntity
  8
0
100
AcDbLine
 10
141.0
 20
501.1011579999999
 30
0.0
 11
141.0
 21
496.492158
 31
0.0
  0
LINE
  5
F2B
330
1D
100
AcDbEntity
  8
0
100
AcDbLine
 10
141.0
 20
501.1011579999999
 30
0.0
 11
141.0
 21
503.998158
 31
0.0
  0
LINE
  5
F2C
330
1D
100
AcDbEntity
  8
0
100
AcDbLine
 10
143.0
 20
511.168258
 30
0.0
 11
143.0
 21
559.986158
 31
0.0
  0
LINE
  5
F2D
330
1D
100
AcDbEntity
  8
0
100
AcDbLine
 10
161.0
 20
511.168258
 30
0.0
 11
161.0
 21
559.986158
 31
0.0
  0
LINE
  5
F2E
330
1D
100
AcDbEntity
  8
0
100
AcDbLine
 10
159.7879999999999
 20
512.774158
 30
0.0
 11
161.5479999999999
 21
510.442158
 31
0.0
  0
LINE
  5
F2F
330
1D
100
AcDbEntity
  8
0
100
AcDbLine
 10
161.5479999999999
 20
510.442158
 30
0.0
 11
162.6039999999999
 21
507.802158
 31
0.0
  0
LINE
  5
F30
330
1D
100
AcDbEntity
  8
0
100
AcDbLine
 10
154.816
 20
515.590158
 30
0.0
 11
157.456
 21
514.534158
 31
0.0
  0
LINE
  5
F31
330
1D
100
AcDbEntity
  8
0
100
AcDbLine
 10
157.456
 20
514.534158
 30
0.0
 11
159.7879999999999
 21
512.774158
 31
0.0
  0
LINE
  5
F32
330
1D
100
AcDbEntity
  8
0
100
AcDbLine
 10
152.0
 20
515.986158
 30
0.0
 11
154.816
 21
515.590158
 31
0.0
  0
LINE
  5
F33
330
1D
100
AcDbEntity
  8
0
100
AcDbLine
 10
149.184
 20
515.590158
 30
0.0
 11
152.0
 21
515.986158
 31
0.0
  0
LINE
  5
F34
330
1D
100
AcDbEntity
  8
0
100
AcDbLine
 10
146.5439999999999
 20
514.534158
 30
0.0
 11
149.184
 21
515.590158
 31
0.0
  0
LINE
  5
F35
330
1D
100
AcDbEntity
  8
0
100
AcDbLine
 10
144.212
 20
512.774158
 30
0.0
 11
146.5439999999999
 21
514.534158
 31
0.0
  0
LINE
  5
F36
330
1D
100
AcDbEntity
  8
0
100
AcDbLine
 10
142.452
 20
510.442158
 30
0.0
 11
144.212
 21
512.774158
 31
0.0
  0
LINE
  5
F37
330
1D
100
AcDbEntity
  8
0
100
AcDbLine
 10
172.0
 20
517.7091579999999
 30
0.0
 11
172.0
 21
520.575158
 31
0.0
  0
LINE
  5
F38
330
1D
100
AcDbEntity
  8
0
100
AcDbLine
 10
172.0
 20
517.7091579999999
 30
0.0
 11
172.0
 21
514.053158
 31
0.0
  0
LINE
  5
F39
330
1D
100
AcDbEntity
  8
0
100
AcDbLine
 10
172.0
 20
514.053158
 30
0.0
 11
172.0
 21
517.7091579999999
 31
0.0
  0
LINE
  5
F3A
330
1D
100
AcDbEntity
  8
0
100
AcDbLine
 10
172.0
 20
514.053158
 30
0.0
 11
172.0
 21
509.651158
 31
0.0
  0
LINE
  5
F3B
330
1D
100
AcDbEntity
  8
0
100
AcDbLine
 10
172.0
 20
509.651158
 30
0.0
 11
172.0
 21
514.053158
 31
0.0
  0
LINE
  5
F3C
330
1D
100
AcDbEntity
  8
0
100
AcDbLine
 10
172.0
 20
509.651158
 30
0.0
 11
172.0
 21
504.906158
 31
0.0
  0
LINE
  5
F3D
330
1D
100
AcDbEntity
  8
0
100
AcDbLine
 10
172.0
 20
504.906158
 30
0.0
 11
172.0
 21
509.651158
 31
0.0
  0
LINE
  5
F3E
330
1D
100
AcDbEntity
  8
0
100
AcDbLine
 10
172.0
 20
504.906158
 30
0.0
 11
172.0
 21
500.3011579999999
 31
0.0
  0
LINE
  5
F3F
330
1D
100
AcDbEntity
  8
0
100
AcDbLine
 10
172.0
 20
500.3011579999999
 30
0.0
 11
172.0
 21
504.906158
 31
0.0
  0
LINE
  5
F40
330
1D
100
AcDbEntity
  8
0
100
AcDbLine
 10
172.0
 20
500.3011579999999
 30
0.0
 11
172.0
 21
495.986158
 31
0.0
  0
LINE
  5
F41
330
1D
100
AcDbEntity
  8
0
100
AcDbLine
 10
172.0
 20
495.986158
 30
0.0
 11
172.0
 21
500.3011579999999
 31
0.0
  0
LINE
  5
F42
330
1D
100
AcDbEntity
  8
0
100
AcDbLine
 10
172.0
 20
495.986158
 30
0.0
 11
172.0
 21
494.986158
 31
0.0
  0
LINE
  5
F43
330
1D
100
AcDbEntity
  8
0
100
AcDbLine
 10
172.0
 20
495.986158
 30
0.0
 11
172.0
 21
492.319158
 31
0.0
  0
LINE
  5
F44
330
1D
100
AcDbEntity
  8
0
100
AcDbLine
 10
172.0
 20
489.442158
 30
0.0
 11
172.0
 21
492.319158
 31
0.0
  0
LINE
  5
F45
330
1D
100
AcDbEntity
  8
0
100
AcDbLine
 10
172.0
 20
489.442158
 30
0.0
 11
172.0
 21
487.577158
 31
0.0
  0
LINE
  5
F46
330
1D
100
AcDbEntity
  8
0
100
AcDbLine
 10
183.0
 20
4.054517999999999
 30
0.0
 11
197.8
 21
8.846958
 31
0.0
  0
LINE
  5
F47
330
1D
100
AcDbEntity
  8
0
100
AcDbLine
 10
182.4
 20
155.8031579999999
 30
0.0
 11
187.3
 21
151.762158
 31
0.0
  0
LINE
  5
F48
330
1D
100
AcDbEntity
  8
0
100
AcDbLine
 10
172.958
 20
482.8321579999999
 30
0.0
 11
173.089
 21
483.070158
 31
0.0
  0
LINE
  5
F49
330
1D
100
AcDbEntity
  8
0
100
AcDbLine
 10
172.6049999999999
 20
481.932158
 30
0.0
 11
172.958
 21
482.8321579999999
 31
0.0
  0
LINE
  5
F4A
330
1D
100
AcDbEntity
  8
0
100
AcDbLine
 10
172.4499999999999
 20
481.381158
 30
0.0
 11
172.6049999999999
 21
481.932158
 31
0.0
  0
LINE
  5
F4B
330
1D
100
AcDbEntity
  8
0
100
AcDbLine
 10
173.089
 20
483.070158
 30
0.0
 11
173.398
 21
483.420158
 31
0.0
  0
LINE
  5
F4C
330
1D
100
AcDbEntity
  8
0
100
AcDbLine
 10
173.4239999999999
 20
483.437158
 30
0.0
 11
174.4009999999999
 21
484.258158
 31
0.0
  0
LINE
  5
F4D
330
1D
100
AcDbEntity
  8
0
100
AcDbLine
 10
175.5379999999999
 20
484.7301579999999
 30
0.0
 11
175.8799999999999
 21
484.8331579999999
 31
0.0
  0
LINE
  5
F4E
330
1D
100
AcDbEntity
  8
0
100
AcDbLine
 10
174.697
 20
484.396158
 30
0.0
 11
175.0125499944509
 21
484.521477498391
 31
0.0
  0
LINE
  5
F4F
330
1D
100
AcDbEntity
  8
0
100
AcDbLine
 10
174.4009999999999
 20
484.258158
 30
0.0
 11
174.697
 21
484.396158
 31
0.0
  0
LINE
  5
F50
330
1D
100
AcDbEntity
  8
0
100
AcDbLine
 10
175.699
 20
318.938158
 30
0.0
 11
179.6179999999999
 21
318.614158
 31
0.0
  0
LINE
  5
F51
330
1D
100
AcDbEntity
  8
0
100
AcDbLine
 10
179.6179999999999
 20
318.614158
 30
0.0
 11
183.617
 21
318.457158
 31
0.0
  0
LINE
  5
F52
330
1D
100
AcDbEntity
  8
0
100
AcDbLine
 10
175.8799999999999
 20
484.8331579999999
 30
0.0
 11
176.622
 21
485.037158
 31
0.0
  0
LINE
  5
F53
330
1D
100
AcDbEntity
  8
0
100
AcDbLine
 10
176.559
 20
485.0141579999999
 30
0.0
 11
181.219
 21
485.6781579999999
 31
0.0
  0
LINE
  5
F54
330
1D
100
AcDbEntity
  8
0
100
AcDbLine
 10
176.559
 20
485.0141579999999
 30
0.0
 11
176.622
 21
485.037158
 31
0.0
  0
LINE
  5
F55
330
1D
100
AcDbEntity
  8
0
100
AcDbLine
 10
176.9
 20
159.2801579999999
 30
0.0
 11
182.4
 21
155.8031579999999
 31
0.0
  0
LINE
  5
F56
330
1D
100
AcDbEntity
  8
0
100
AcDbLine
 10
182.4
 20
81.379458
 30
0.0
 11
187.3
 21
85.42015799999999
 31
0.0
  0
LINE
  5
F57
330
1D
100
AcDbEntity
  8
0
100
AcDbLine
 10
176.9
 20
77.902658
 30
0.0
 11
182.4
 21
81.379458
 31
0.0
  0
LINE
  5
F58
330
1D
100
AcDbEntity
  8
0
100
AcDbLine
 10
182.6999999999999
 20
225.348158
 30
0.0
 11
197.5
 21
220.649158
 31
0.0
  0
LINE
  5
F59
330
1D
100
AcDbEntity
  8
0
100
AcDbLine
 10
182.4
 20
80.35345799999999
 30
0.0
 11
187.3
 21
84.39405800000001
 31
0.0
  0
LINE
  5
F5A
330
1D
100
AcDbEntity
  8
0
100
AcDbLine
 10
176.9
 20
76.876558
 30
0.0
 11
182.4
 21
80.35345799999999
 31
0.0
  0
LINE
  5
F5B
330
1D
100
AcDbEntity
  8
0
100
AcDbLine
 10
183.0
 20
225.9461579999999
 30
0.0
 11
197.8
 21
221.153158
 31
0.0
  0
LINE
  5
F5C
330
1D
100
AcDbEntity
  8
0
100
AcDbLine
 10
182.6999999999999
 20
9.782498
 30
0.0
 11
197.5
 21
14.48095799999999
 31
0.0
  0
LINE
  5
F5D
330
1D
100
AcDbEntity
  8
0
100
AcDbLine
 10
183.0
 20
8.500778
 30
0.0
 11
197.8
 21
13.29325799999999
 31
0.0
  0
LINE
  5
F5E
330
1D
100
AcDbEntity
  8
0
100
AcDbLine
 10
187.3
 20
85.42015799999999
 30
0.0
 11
191.6
 21
90.02465800000001
 31
0.0
  0
LINE
  5
F5F
330
1D
100
AcDbEntity
  8
0
100
AcDbLine
 10
187.3
 20
84.39405800000001
 30
0.0
 11
191.6
 21
88.998558
 31
0.0
  0
LINE
  5
F60
330
1D
100
AcDbEntity
  8
0
100
AcDbLine
 10
183.617
 20
318.457158
 30
0.0
 11
186.0
 21
318.4351579999999
 31
0.0
  0
LINE
  5
F61
330
1D
100
AcDbEntity
  8
0
100
AcDbLine
 10
183.6169651283879
 20
485.813078020819
 30
0.0
 11
186.0
 21
485.9641579999999
 31
0.0
  0
LINE
  5
F62
330
1D
100
AcDbEntity
  8
0
100
AcDbLine
 10
186.0
 20
318.4351579999999
 30
0.0
 11
188.3829999999999
 21
318.457158
 31
0.0
  0
LINE
  5
F63
330
1D
100
AcDbEntity
  8
0
100
AcDbLine
 10
186.0
 20
485.9641579999999
 30
0.0
 11
188.383034871612
 21
485.813078020819
 31
0.0
  0
LINE
  5
F64
330
1D
100
AcDbEntity
  8
0
100
AcDbLine
 10
186.0
 20
485.9641579999999
 30
0.0
 11
188.383034871612
 21
485.813078020819
 31
0.0
  0
LINE
  5
F65
330
1D
100
AcDbEntity
  8
0
100
AcDbLine
 10
188.3829999999999
 20
318.457158
 30
0.0
 11
192.382
 21
318.614158
 31
0.0
  0
LINE
  5
F66
330
1D
100
AcDbEntity
  8
0
100
AcDbLine
 10
192.382
 20
318.614158
 30
0.0
 11
196.3009999999999
 21
318.938158
 31
0.0
  0
LINE
  5
F67
330
1D
100
AcDbEntity
  8
0
100
AcDbLine
 10
190.7809999999999
 20
485.6781579999999
 30
0.0
 11
195.4409999999999
 21
485.0141579999999
 31
0.0
  0
LINE
  5
F68
330
1D
100
AcDbEntity
  8
0
100
AcDbLine
 10
187.3
 20
151.762158
 30
0.0
 11
191.6
 21
147.158158
 31
0.0
  0
LINE
  5
F69
330
1D
100
AcDbEntity
  8
0
100
AcDbLine
 10
191.6
 20
147.158158
 30
0.0
 11
195.3
 21
141.9891579999999
 31
0.0
  0
LINE
  5
F6A
330
1D
100
AcDbEntity
  8
0
100
AcDbLine
 10
195.3
 20
141.9891579999999
 30
0.0
 11
198.1
 21
136.539158
 31
0.0
  0
LINE
  5
F6B
330
1D
100
AcDbEntity
  8
0
100
AcDbLine
 10
191.6
 20
90.02465800000001
 30
0.0
 11
195.3
 21
95.192958
 31
0.0
  0
LINE
  5
F6C
330
1D
100
AcDbEntity
  8
0
100
AcDbLine
 10
195.3
 20
95.192958
 30
0.0
 11
198.1
 21
100.643158
 31
0.0
  0
LINE
  5
F6D
330
1D
100
AcDbEntity
  8
0
100
AcDbLine
 10
191.6
 20
88.998558
 30
0.0
 11
195.3
 21
94.16685799999999
 31
0.0
  0
LINE
  5
F6E
330
1D
100
AcDbEntity
  8
0
100
AcDbLine
 10
197.5
 20
220.649158
 30
0.0
 11
211.2
 21
214.447158
 31
0.0
  0
LINE
  5
F6F
330
1D
100
AcDbEntity
  8
0
100
AcDbLine
 10
196.3009999999999
 20
318.938158
 30
0.0
 11
200.1399999999999
 21
319.4071579999999
 31
0.0
  0
LINE
  5
F70
330
1D
100
AcDbEntity
  8
0
100
AcDbLine
 10
196.12
 20
484.8331579999999
 30
0.0
 11
196.462
 21
484.7301579999999
 31
0.0
  0
LINE
  5
F71
330
1D
100
AcDbEntity
  8
0
100
AcDbLine
 10
195.4409999999999
 20
485.0141579999999
 30
0.0
 11
195.4409999999999
 21
485.0141579999999
 31
0.0
  0
LINE
  5
F72
330
1D
100
AcDbEntity
  8
0
100
AcDbLine
 10
195.4409999999999
 20
485.0141579999999
 30
0.0
 11
196.12
 21
484.8331579999999
 31
0.0
  0
LINE
  5
F73
330
1D
100
AcDbEntity
  8
0
100
AcDbLine
 10
196.987450005549
 20
484.521477498391
 30
0.0
 11
197.3029999999999
 21
484.396158
 31
0.0
  0
LINE
  5
F74
330
1D
100
AcDbEntity
  8
0
100
AcDbLine
 10
197.3029999999999
 20
484.396158
 30
0.0
 11
197.599
 21
484.258158
 31
0.0
  0
LINE
  5
F75
330
1D
100
AcDbEntity
  8
0
100
AcDbLine
 10
197.599
 20
484.258158
 30
0.0
 11
198.5759999999999
 21
483.437158
 31
0.0
  0
LINE
  5
F76
330
1D
100
AcDbEntity
  8
0
100
AcDbLine
 10
197.8
 20
221.153158
 30
0.0
 11
211.6999999999999
 21
214.857158
 31
0.0
  0
LINE
  5
F77
330
1D
100
AcDbEntity
  8
0
100
AcDbLine
 10
195.3
 20
94.16685799999999
 30
0.0
 11
198.1
 21
99.617158
 31
0.0
  0
LINE
  5
F78
330
1D
100
AcDbEntity
  8
0
100
AcDbLine
 10
197.5
 20
14.48095799999999
 30
0.0
 11
211.2
 21
20.682958
 31
0.0
  0
LINE
  5
F79
330
1D
100
AcDbEntity
  8
0
100
AcDbLine
 10
198.1
 20
136.539158
 30
0.0
 11
200.1999999999999
 21
130.713158
 31
0.0
  0
LINE
  5
F7A
330
1D
100
AcDbEntity
  8
0
100
AcDbLine
 10
198.9109999999999
 20
483.070158
 30
0.0
 11
199.042
 21
482.8321579999999
 31
0.0
  0
LINE
  5
F7B
330
1D
100
AcDbEntity
  8
0
100
AcDbLine
 10
198.602
 20
483.420158
 30
0.0
 11
198.9109999999999
 21
483.070158
 31
0.0
  0
LINE
  5
F7C
330
1D
100
AcDbEntity
  8
0
100
AcDbLine
 10
199.042
 20
482.8321579999999
 30
0.0
 11
199.395
 21
481.932158
 31
0.0
  0
LINE
  5
F7D
330
1D
100
AcDbEntity
  8
0
100
AcDbLine
 10
199.55
 20
481.381158
 30
0.0
 11
200.231
 21
478.669158
 31
0.0
  0
LINE
  5
F7E
330
1D
100
AcDbEntity
  8
0
100
AcDbLine
 10
199.395
 20
481.932158
 30
0.0
 11
199.55
 21
481.381158
 31
0.0
  0
LINE
  5
F7F
330
1D
100
AcDbEntity
  8
0
100
AcDbLine
 10
198.1
 20
100.643158
 30
0.0
 11
200.1999999999999
 21
106.469158
 31
0.0
  0
LINE
  5
F80
330
1D
100
AcDbEntity
  8
0
100
AcDbLine
 10
198.1
 20
99.617158
 30
0.0
 11
200.1999999999999
 21
105.443158
 31
0.0
  0
LINE
  5
F81
330
1D
100
AcDbEntity
  8
0
100
AcDbLine
 10
197.8
 20
13.29325799999999
 30
0.0
 11
211.6999999999999
 21
19.58915799999999
 31
0.0
  0
LINE
  5
F82
330
1D
100
AcDbEntity
  8
0
100
AcDbLine
 10
197.8
 20
8.846958
 30
0.0
 11
211.6999999999999
 21
15.14285799999999
 31
0.0
  0
LINE
  5
F83
330
1D
100
AcDbEntity
  8
0
100
AcDbLine
 10
183.0
 20
4.054517999999999
 30
0.0
 11
197.8
 21
8.846958
 31
0.0
  0
LINE
  5
F84
330
1D
100
AcDbEntity
  8
0
100
AcDbLine
 10
199.4959999999999
 20
498.041158
 30
0.0
 11
200.0
 21
503.986158
 31
0.0
  0
LINE
  5
F85
330
1D
100
AcDbEntity
  8
0
100
AcDbLine
 10
200.1399999999999
 20
319.4071579999999
 30
0.0
 11
203.892
 21
320.0151579999999
 31
0.0
  0
LINE
  5
F86
330
1D
100
AcDbEntity
  8
0
100
AcDbLine
 10
200.1999999999999
 20
130.713158
 30
0.0
 11
201.5
 21
124.699158
 31
0.0
  0
LINE
  5
F87
330
1D
100
AcDbEntity
  8
0
100
AcDbLine
 10
200.231
 20
478.669158
 30
0.0
 11
201.283
 21
473.0651579999999
 31
0.0
  0
LINE
  5
F88
330
1D
100
AcDbEntity
  8
0
100
AcDbLine
 10
200.1999999999999
 20
106.469158
 30
0.0
 11
201.5
 21
112.483158
 31
0.0
  0
LINE
  5
F89
330
1D
100
AcDbEntity
  8
0
100
AcDbLine
 10
200.1999999999999
 20
105.443158
 30
0.0
 11
201.5
 21
111.457158
 31
0.0
  0
LINE
  5
F8A
330
1D
100
AcDbEntity
  8
0
100
AcDbLine
 10
201.283
 20
473.0651579999999
 30
0.0
 11
202.2229999999999
 21
468.2181579999999
 31
0.0
  0
LINE
  5
F8B
330
1D
100
AcDbEntity
  8
0
100
AcDbLine
 10
201.5
 20
124.699158
 30
0.0
 11
202.0
 21
118.591158
 31
0.0
  0
LINE
  5
F8C
330
1D
100
AcDbEntity
  8
0
100
AcDbLine
 10
203.892
 20
320.0151579999999
 30
0.0
 11
209.6389999999999
 21
321.244158
 31
0.0
  0
LINE
  5
F8D
330
1D
100
AcDbEntity
  8
0
100
AcDbLine
 10
204.1879999999999
 20
453.611158
 30
0.0
 11
204.511
 21
448.8891579999999
 31
0.0
  0
LINE
  5
F8E
330
1D
100
AcDbEntity
  8
0
100
AcDbLine
 10
203.754
 20
457.600158
 30
0.0
 11
203.776711075961
 21
457.350009050168
 31
0.0
  0
LINE
  5
F8F
330
1D
100
AcDbEntity
  8
0
100
AcDbLine
 10
203.737251748419
 20
457.708716857734
 30
0.0
 11
203.754
 21
457.600158
 31
0.0
  0
LINE
  5
F90
330
1D
100
AcDbEntity
  8
0
100
AcDbLine
 10
203.73804445917
 20
457.7015106645939
 30
0.0
 11
203.754
 21
457.600158
 31
0.0
  0
LINE
  5
F91
330
1D
100
AcDbEntity
  8
0
100
AcDbLine
 10
203.3819999999999
 20
460.9381579999999
 30
0.0
 11
204.1879999999999
 21
453.611158
 31
0.0
  0
LINE
  5
F92
330
1D
100
AcDbEntity
  8
0
100
AcDbLine
 10
203.3819999999999
 20
460.9381579999999
 30
0.0
 11
203.754
 21
457.600158
 31
0.0
  0
LINE
  5
F93
330
1D
100
AcDbEntity
  8
0
100
AcDbLine
 10
202.2229999999999
 20
468.2181579999999
 30
0.0
 11
203.3819999999999
 21
460.9381579999999
 31
0.0
  0
LINE
  5
F94
330
1D
100
AcDbEntity
  8
0
100
AcDbLine
 10
209.6389999999999
 20
321.244158
 30
0.0
 11
215.1489999999999
 21
322.782158
 31
0.0
  0
LINE
  5
F95
330
1D
100
AcDbEntity
  8
0
100
AcDbLine
 10
204.985
 20
442.725158
 30
0.0
 11
205.5234142807909
 21
440.718415749186
 31
0.0
  0
LINE
  5
F96
330
1D
100
AcDbEntity
  8
0
100
AcDbLine
 10
204.8029999999999
 20
444.3091579999999
 30
0.0
 11
204.992533965062
 21
442.6970779015599
 31
0.0
  0
LINE
  5
F97
330
1D
100
AcDbEntity
  8
0
100
AcDbLine
 10
204.511
 20
448.8891579999999
 30
0.0
 11
204.8029999999999
 21
444.3091579999999
 31
0.0
  0
LINE
  5
F98
330
1D
100
AcDbEntity
  8
0
100
AcDbLine
 10
205.5234142807909
 20
440.718415749186
 30
0.0
 11
206.095
 21
439.518158
 31
0.0
  0
LINE
  5
F99
330
1D
100
AcDbEntity
  8
0
100
AcDbLine
 10
206.095
 20
439.518158
 30
0.0
 11
207.0816666980459
 21
438.0323540311779
 31
0.0
  0
LINE
  5
F9A
330
1D
100
AcDbEntity
  8
0
100
AcDbLine
 10
207.0816666980459
 20
438.0323540311779
 30
0.0
 11
208.2069999999999
 21
436.779158
 31
0.0
  0
LINE
  5
F9B
330
1D
100
AcDbEntity
  8
0
100
AcDbLine
 10
208.2069999999999
 20
436.779158
 30
0.0
 11
210.197
 21
435.086158
 31
0.0
  0
LINE
  5
F9C
330
1D
100
AcDbEntity
  8
0
100
AcDbLine
 10
210.197
 20
435.086158
 30
0.0
 11
212.495
 21
433.498158
 31
0.0
  0
LINE
  5
F9D
330
1D
100
AcDbEntity
  8
0
100
AcDbLine
 10
211.2
 20
214.447158
 30
0.0
 11
224.3
 21
206.0841579999999
 31
0.0
  0
LINE
  5
F9E
330
1D
100
AcDbEntity
  8
0
100
AcDbLine
 10
202.0
 20
118.591158
 30
0.0
 11
202.0
 21
117.565158
 31
0.0
  0
LINE
  5
F9F
330
1D
100
AcDbEntity
  8
0
100
AcDbLine
 10
202.0
 20
117.565158
 30
0.0
 11
202.0
 21
118.591158
 31
0.0
  0
LINE
  5
FA0
330
1D
100
AcDbEntity
  8
0
100
AcDbLine
 10
201.5
 20
112.483158
 30
0.0
 11
202.0
 21
118.591158
 31
0.0
  0
LINE
  5
FA1
330
1D
100
AcDbEntity
  8
0
100
AcDbLine
 10
201.5
 20
111.457158
 30
0.0
 11
202.0
 21
117.565158
 31
0.0
  0
LINE
  5
FA2
330
1D
100
AcDbEntity
  8
0
100
AcDbLine
 10
211.6999999999999
 20
214.857158
 30
0.0
 11
224.9
 21
206.494158
 31
0.0
  0
LINE
  5
FA3
330
1D
100
AcDbEntity
  8
0
100
AcDbLine
 10
211.2
 20
20.682958
 30
0.0
 11
224.3
 21
29.046158
 31
0.0
  0
LINE
  5
FA4
330
1D
100
AcDbEntity
  8
0
100
AcDbLine
 10
211.6999999999999
 20
19.58915799999999
 30
0.0
 11
224.9
 21
27.952458
 31
0.0
  0
LINE
  5
FA5
330
1D
100
AcDbEntity
  8
0
100
AcDbLine
 10
215.1489999999999
 20
322.782158
 30
0.0
 11
220.482
 21
324.638158
 31
0.0
  0
LINE
  5
FA6
330
1D
100
AcDbEntity
  8
0
100
AcDbLine
 10
220.482
 20
324.638158
 30
0.0
 11
225.552
 21
326.7791579999999
 31
0.0
  0
LINE
  5
FA7
330
1D
100
AcDbEntity
  8
0
100
AcDbLine
 10
215.015
 20
432.003158
 30
0.0
 11
217.3759999999999
 21
430.761158
 31
0.0
  0
LINE
  5
FA8
330
1D
100
AcDbEntity
  8
0
100
AcDbLine
 10
212.495
 20
433.498158
 30
0.0
 11
215.015
 21
432.003158
 31
0.0
  0
LINE
  5
FA9
330
1D
100
AcDbEntity
  8
0
100
AcDbLine
 10
217.3759999999999
 20
430.761158
 30
0.0
 11
222.602
 21
428.141158
 31
0.0
  0
LINE
  5
FAA
330
1D
100
AcDbEntity
  8
0
100
AcDbLine
 10
222.602
 20
428.141158
 30
0.0
 11
227.855
 21
425.452158
 31
0.0
  0
LINE
  5
FAB
330
1D
100
AcDbEntity
  8
0
100
AcDbLine
 10
224.3
 20
206.0841579999999
 30
0.0
 11
236.0
 21
196.4991579999999
 31
0.0
  0
LINE
  5
FAC
330
1D
100
AcDbEntity
  8
0
100
AcDbLine
 10
224.9
 20
206.494158
 30
0.0
 11
236.6999999999999
 21
196.8151579999999
 31
0.0
  0
LINE
  5
FAD
330
1D
100
AcDbEntity
  8
0
100
AcDbLine
 10
224.3
 20
29.046158
 30
0.0
 11
236.0
 21
38.631058
 31
0.0
  0
LINE
  5
FAE
330
1D
100
AcDbEntity
  8
0
100
AcDbLine
 10
236.0
 20
38.631058
 30
0.0
 11
246.1999999999999
 21
49.625458
 31
0.0
  0
LINE
  5
FAF
330
1D
100
AcDbEntity
  8
0
100
AcDbLine
 10
236.6999999999999
 20
37.631258
 30
0.0
 11
247.0
 21
48.719658
 31
0.0
  0
LINE
  5
FB0
330
1D
100
AcDbEntity
  8
0
100
AcDbLine
 10
236.6999999999999
 20
33.184958
 30
0.0
 11
247.0
 21
44.273358
 31
0.0
  0
LINE
  5
FB1
330
1D
100
AcDbEntity
  8
0
100
AcDbLine
 10
246.1999999999999
 20
49.625458
 30
0.0
 11
255.1
 21
61.93545799999999
 31
0.0
  0
LINE
  5
FB2
330
1D
100
AcDbEntity
  8
0
100
AcDbLine
 10
255.1
 20
61.93545799999999
 30
0.0
 11
261.6999999999999
 21
74.809258
 31
0.0
  0
LINE
  5
FB3
330
1D
100
AcDbEntity
  8
0
100
AcDbLine
 10
247.0
 20
48.719658
 30
0.0
 11
255.9
 21
61.12355799999999
 31
0.0
  0
LINE
  5
FB4
330
1D
100
AcDbEntity
  8
0
100
AcDbLine
 10
255.9
 20
61.12355799999999
 30
0.0
 11
262.6
 21
74.18525799999999
 31
0.0
  0
LINE
  5
FB5
330
1D
100
AcDbEntity
  8
0
100
AcDbLine
 10
247.0
 20
44.273358
 30
0.0
 11
255.9
 21
56.67735799999999
 31
0.0
  0
LINE
  5
FB6
330
1D
100
AcDbEntity
  8
0
100
AcDbLine
 10
255.9
 20
56.67735799999999
 30
0.0
 11
262.6
 21
69.739058
 31
0.0
  0
LINE
  5
FB7
330
1D
100
AcDbEntity
  8
0
100
AcDbLine
 10
261.6999999999999
 20
74.809258
 30
0.0
 11
266.6999999999999
 21
88.716658
 31
0.0
  0
LINE
  5
FB8
330
1D
100
AcDbEntity
  8
0
100
AcDbLine
 10
266.6999999999999
 20
88.716658
 30
0.0
 11
269.7999999999999
 21
102.906158
 31
0.0
  0
LINE
  5
FB9
330
1D
100
AcDbEntity
  8
0
100
AcDbLine
 10
262.6
 20
74.18525799999999
 30
0.0
 11
267.7
 21
88.09275799999999
 31
0.0
  0
LINE
  5
FBA
330
1D
100
AcDbEntity
  8
0
100
AcDbLine
 10
267.7
 20
88.09275799999999
 30
0.0
 11
270.8
 21
102.5641579999999
 31
0.0
  0
LINE
  5
FBB
330
1D
100
AcDbEntity
  8
0
100
AcDbLine
 10
262.6
 20
69.739058
 30
0.0
 11
267.7
 21
83.64645799999999
 31
0.0
  0
LINE
  5
FBC
330
1D
100
AcDbEntity
  8
0
100
AcDbLine
 10
267.7
 20
83.64645799999999
 30
0.0
 11
270.8
 21
98.11775799999999
 31
0.0
  0
LINE
  5
FBD
330
1D
100
AcDbEntity
  8
0
100
AcDbLine
 10
269.7999999999999
 20
132.224158
 30
0.0
 11
271.0
 21
117.565158
 31
0.0
  0
LINE
  5
FBE
330
1D
100
AcDbEntity
  8
0
100
AcDbLine
 10
266.6999999999999
 20
146.414158
 30
0.0
 11
269.7999999999999
 21
132.224158
 31
0.0
  0
LINE
  5
FBF
330
1D
100
AcDbEntity
  8
0
100
AcDbLine
 10
246.1999999999999
 20
185.5051579999999
 30
0.0
 11
255.1
 21
173.195158
 31
0.0
  0
LINE
  5
FC0
330
1D
100
AcDbEntity
  8
0
100
AcDbLine
 10
255.1
 20
173.195158
 30
0.0
 11
261.6999999999999
 21
160.3211579999999
 31
0.0
  0
LINE
  5
FC1
330
1D
100
AcDbEntity
  8
0
100
AcDbLine
 10
225.552
 20
326.7791579999999
 30
0.0
 11
230.4479999999999
 21
329.245158
 31
0.0
  0
LINE
  5
FC2
330
1D
100
AcDbEntity
  8
0
100
AcDbLine
 10
227.855
 20
425.452158
 30
0.0
 11
232.969
 21
422.5701579999999
 31
0.0
  0
LINE
  5
FC3
330
1D
100
AcDbEntity
  8
0
100
AcDbLine
 10
230.4479999999999
 20
329.245158
 30
0.0
 11
235.037
 21
331.977158
 31
0.0
  0
LINE
  5
FC4
330
1D
100
AcDbEntity
  8
0
100
AcDbLine
 10
234.9659999999999
 20
331.9711579999999
 30
0.0
 11
235.037
 21
331.977158
 31
0.0
  0
LINE
  5
FC5
330
1D
100
AcDbEntity
  8
0
100
AcDbLine
 10
235.037
 20
331.977158
 30
0.0
 11
238.397
 21
334.285158
 31
0.0
  0
LINE
  5
FC6
330
1D
100
AcDbEntity
  8
0
100
AcDbLine
 10
232.969
 20
422.5701579999999
 30
0.0
 11
237.8359999999999
 21
419.432158
 31
0.0
  0
LINE
  5
FC7
330
1D
100
AcDbEntity
  8
0
100
AcDbLine
 10
236.0
 20
196.4991579999999
 30
0.0
 11
246.1999999999999
 21
185.5051579999999
 31
0.0
  0
LINE
  5
FC8
330
1D
100
AcDbEntity
  8
0
100
AcDbLine
 10
238.397
 20
334.285158
 30
0.0
 11
242.0659999999999
 21
337.1711579999999
 31
0.0
  0
LINE
  5
FC9
330
1D
100
AcDbEntity
  8
0
100
AcDbLine
 10
242.0659999999999
 20
337.1711579999999
 30
0.0
 11
243.249
 21
338.222158
 31
0.0
  0
LINE
  5
FCA
330
1D
100
AcDbEntity
  8
0
100
AcDbLine
 10
243.249
 20
338.222158
 30
0.0
 11
245.447
 21
340.252158
 31
0.0
  0
LINE
  5
FCB
330
1D
100
AcDbEntity
  8
0
100
AcDbLine
 10
245.447
 20
340.252158
 30
0.0
 11
247.372
 21
342.2001579999999
 31
0.0
  0
LINE
  5
FCC
330
1D
100
AcDbEntity
  8
0
100
AcDbLine
 10
247.807
 20
342.7091579999999
 30
0.0
 11
249.9859999999999
 21
345.269158
 31
0.0
  0
LINE
  5
FCD
330
1D
100
AcDbEntity
  8
0
100
AcDbLine
 10
249.9859999999999
 20
345.269158
 30
0.0
 11
251.022
 21
346.489158
 31
0.0
  0
LINE
  5
FCE
330
1D
100
AcDbEntity
  8
0
100
AcDbLine
 10
247.372
 20
342.2001579999999
 30
0.0
 11
247.807
 21
342.7091579999999
 31
0.0
  0
LINE
  5
FCF
330
1D
100
AcDbEntity
  8
0
100
AcDbLine
 10
251.022
 20
346.489158
 30
0.0
 11
254.17
 21
351.1011579999999
 31
0.0
  0
LINE
  5
FD0
330
1D
100
AcDbEntity
  8
0
100
AcDbLine
 10
237.8359999999999
 20
419.432158
 30
0.0
 11
241.657
 21
416.590158
 31
0.0
  0
LINE
  5
FD1
330
1D
100
AcDbEntity
  8
0
100
AcDbLine
 10
254.17
 20
351.1011579999999
 30
0.0
 11
255.5839999999999
 21
353.613158
 31
0.0
  0
LINE
  5
FD2
330
1D
100
AcDbEntity
  8
0
100
AcDbLine
 10
255.5839999999999
 20
353.613158
 30
0.0
 11
257.3799999999999
 21
357.2821579999999
 31
0.0
  0
LINE
  5
FD3
330
1D
100
AcDbEntity
  8
0
100
AcDbLine
 10
245.214
 20
413.551158
 30
0.0
 11
248.482
 21
410.323158
 31
0.0
  0
LINE
  5
FD4
330
1D
100
AcDbEntity
  8
0
100
AcDbLine
 10
241.657
 20
416.590158
 30
0.0
 11
245.214
 21
413.551158
 31
0.0
  0
LINE
  5
FD5
330
1D
100
AcDbEntity
  8
0
100
AcDbLine
 10
248.849
 20
409.912158
 30
0.0
 11
251.794
 21
406.5111579999999
 31
0.0
  0
LINE
  5
FD6
330
1D
100
AcDbEntity
  8
0
100
AcDbLine
 10
248.482
 20
410.323158
 30
0.0
 11
248.849
 21
409.912158
 31
0.0
  0
LINE
  5
FD7
330
1D
100
AcDbEntity
  8
0
100
AcDbLine
 10
251.794
 20
406.5111579999999
 30
0.0
 11
254.729
 21
402.434158
 31
0.0
  0
LINE
  5
FD8
330
1D
100
AcDbEntity
  8
0
100
AcDbLine
 10
254.729
 20
402.434158
 30
0.0
 11
257.1829999999999
 21
398.172158
 31
0.0
  0
LINE
  5
FD9
330
1D
100
AcDbEntity
  8
0
100
AcDbLine
 10
236.6999999999999
 20
196.8151579999999
 30
0.0
 11
247.0
 21
185.727158
 31
0.0
  0
LINE
  5
FDA
330
1D
100
AcDbEntity
  8
0
100
AcDbLine
 10
247.0
 20
185.727158
 30
0.0
 11
255.9
 21
173.3231579999999
 31
0.0
  0
LINE
  5
FDB
330
1D
100
AcDbEntity
  8
0
100
AcDbLine
 10
257.3799999999999
 20
357.2821579999999
 30
0.0
 11
258.46
 21
359.8941579999999
 31
0.0
  0
LINE
  5
FDC
330
1D
100
AcDbEntity
  8
0
100
AcDbLine
 10
257.1829999999999
 20
398.172158
 30
0.0
 11
259.276
 21
393.423158
 31
0.0
  0
LINE
  5
FDD
330
1D
100
AcDbEntity
  8
0
100
AcDbLine
 10
260.216
 20
365.4041579999999
 30
0.0
 11
261.036
 21
368.993158
 31
0.0
  0
LINE
  5
FDE
330
1D
100
AcDbEntity
  8
0
100
AcDbLine
 10
261.036
 20
368.993158
 30
0.0
 11
261.559
 21
372.168158
 31
0.0
  0
LINE
  5
FDF
330
1D
100
AcDbEntity
  8
0
100
AcDbLine
 10
259.3759999999999
 20
362.595158
 30
0.0
 11
260.216
 21
365.4041579999999
 31
0.0
  0
LINE
  5
FE0
330
1D
100
AcDbEntity
  8
0
100
AcDbLine
 10
261.559
 20
372.168158
 30
0.0
 11
261.89
 21
375.146158
 31
0.0
  0
LINE
  5
FE1
330
1D
100
AcDbEntity
  8
0
100
AcDbLine
 10
258.46
 20
359.8941579999999
 30
0.0
 11
259.3759999999999
 21
362.595158
 31
0.0
  0
LINE
  5
FE2
330
1D
100
AcDbEntity
  8
0
100
AcDbLine
 10
261.89
 20
375.146158
 30
0.0
 11
262.0
 21
378.126158
 31
0.0
  0
LINE
  5
FE3
330
1D
100
AcDbEntity
  8
0
100
AcDbLine
 10
261.985
 20
378.6231579999999
 30
0.0
 11
262.0
 21
378.126158
 31
0.0
  0
LINE
  5
FE4
330
1D
100
AcDbEntity
  8
0
100
AcDbLine
 10
261.7799999999999
 20
382.410158
 30
0.0
 11
261.914695343101
 21
379.787272318878
 31
0.0
  0
LINE
  5
FE5
330
1D
100
AcDbEntity
  8
0
100
AcDbLine
 10
259.276
 20
393.423158
 30
0.0
 11
260.781
 21
388.5551579999999
 31
0.0
  0
LINE
  5
FE6
330
1D
100
AcDbEntity
  8
0
100
AcDbLine
 10
260.781
 20
388.5551579999999
 30
0.0
 11
261.684
 21
383.607158
 31
0.0
  0
LINE
  5
FE7
330
1D
100
AcDbEntity
  8
0
100
AcDbLine
 10
261.684
 20
383.607158
 30
0.0
 11
261.7799999999999
 21
382.410158
 31
0.0
  0
LINE
  5
FE8
330
1D
100
AcDbEntity
  8
0
100
AcDbLine
 10
261.6999999999999
 20
160.3211579999999
 30
0.0
 11
266.6999999999999
 21
146.414158
 31
0.0
  0
LINE
  5
FE9
330
1D
100
AcDbEntity
  8
0
100
AcDbLine
 10
255.9
 20
173.3231579999999
 30
0.0
 11
262.6
 21
160.261158
 31
0.0
  0
LINE
  5
FEA
330
1D
100
AcDbEntity
  8
0
100
AcDbLine
 10
262.6
 20
160.261158
 30
0.0
 11
267.7
 21
146.354158
 31
0.0
  0
LINE
  5
FEB
330
1D
100
AcDbEntity
  8
0
100
AcDbLine
 10
267.7
 20
146.354158
 30
0.0
 11
270.8
 21
131.882158
 31
0.0
  0
LINE
  5
FEC
330
1D
100
AcDbEntity
  8
0
100
AcDbLine
 10
270.8
 20
131.882158
 30
0.0
 11
272.0
 21
117.223158
 31
0.0
  0
LINE
  5
FED
330
1D
100
AcDbEntity
  8
0
100
AcDbLine
 10
269.7999999999999
 20
102.906158
 30
0.0
 11
271.0
 21
117.565158
 31
0.0
  0
LINE
  5
FEE
330
1D
100
AcDbEntity
  8
0
100
AcDbLine
 10
270.8
 20
102.5641579999999
 30
0.0
 11
272.0
 21
117.223158
 31
0.0
  0
LINE
  5
FEF
330
1D
100
AcDbEntity
  8
0
100
AcDbLine
 10
272.0
 20
117.223158
 30
0.0
 11
272.0
 21
112.777158
 31
0.0
  0
LINE
  5
FF0
330
1D
100
AcDbEntity
  8
0
100
AcDbLine
 10
272.0
 20
112.777158
 30
0.0
 11
272.0
 21
117.223158
 31
0.0
  0
LINE
  5
FF1
330
1D
100
AcDbEntity
  8
0
100
AcDbLine
 10
270.8
 20
98.11775799999999
 30
0.0
 11
272.0
 21
112.777158
 31
0.0
  0
LINE
  5
FF2
330
1D
100
AcDbEntity
  8
0
100
AcDbLine
 10
224.9
 20
27.952458
 30
0.0
 11
236.6999999999999
 21
37.631258
 31
0.0
  0
LINE
  5
FF3
330
1D
100
AcDbEntity
  8
0
100
AcDbLine
 10
224.9
 20
23.50615799999999
 30
0.0
 11
236.6999999999999
 21
33.184958
 31
0.0
  0
LINE
  5
FF4
330
1D
100
AcDbEntity
  8
0
100
AcDbLine
 10
211.6999999999999
 20
15.14285799999999
 30
0.0
 11
224.9
 21
23.50615799999999
 31
0.0
  0
LINE
  5
FF5
330
1D
100
AcDbEntity
  8
0
100
AcDbLine
 10
246.492
 20
485.2721579999999
 30
0.0
 11
246.492
 21
489.938158
 31
0.0
  0
LINE
  5
FF6
330
1D
100
AcDbEntity
  8
0
100
AcDbLine
 10
246.492
 20
485.2721579999999
 30
0.0
 11
246.492
 21
481.1761579999999
 31
0.0
  0
LINE
  5
FF7
330
1D
100
AcDbEntity
  8
0
100
AcDbLine
 10
246.492
 20
481.1761579999999
 30
0.0
 11
246.492
 21
478.0341579999999
 31
0.0
  0
LINE
  5
FF8
330
1D
100
AcDbEntity
  8
0
100
AcDbLine
 10
246.492
 20
481.1761579999999
 30
0.0
 11
246.492
 21
485.2721579999999
 31
0.0
  0
LINE
  5
FF9
330
1D
100
AcDbEntity
  8
0
100
AcDbLine
 10
246.492
 20
478.0341579999999
 30
0.0
 11
246.492
 21
481.1761579999999
 31
0.0
  0
LINE
  5
FFA
330
1D
100
AcDbEntity
  8
0
100
AcDbLine
 10
246.492
 20
478.0341579999999
 30
0.0
 11
246.492
 21
476.1291579999999
 31
0.0
  0
LINE
  5
FFB
330
1D
100
AcDbEntity
  8
0
100
AcDbLine
 10
246.492
 20
476.1291579999999
 30
0.0
 11
246.492
 21
478.0341579999999
 31
0.0
  0
LINE
  5
FFC
330
1D
100
AcDbEntity
  8
0
100
AcDbLine
 10
246.492
 20
476.1291579999999
 30
0.0
 11
246.492
 21
475.462158
 31
0.0
  0
LINE
  5
FFD
330
1D
100
AcDbEntity
  8
0
100
AcDbLine
 10
246.7713200419729
 20
475.9861579999999
 30
0.0
 11
258.241734406439
 21
475.9861579999999
 31
0.0
  0
LINE
  5
FFE
330
1D
100
AcDbEntity
  8
0
100
AcDbLine
 10
246.7713200419729
 20
475.9861579999999
 30
0.0
 11
258.241734406439
 21
475.9861579999999
 31
0.0
  0
LINE
  5
FFF
330
1D
100
AcDbEntity
  8
0
100
AcDbLine
 10
258.2195200206969
 20
476.029624731155
 30
0.0
 11
258.508
 21
475.4651579999999
 31
0.0
  0
LINE
  5
1000
330
1D
100
AcDbEntity
  8
0
100
AcDbLine
 10
258.508
 20
476.097158
 30
0.0
 11
258.508
 21
475.4651579999999
 31
0.0
  0
LINE
  5
1001
330
1D
100
AcDbEntity
  8
0
100
AcDbLine
 10
258.508
 20
476.097158
 30
0.0
 11
258.508
 21
478.073158
 31
0.0
  0
LINE
  5
1002
330
1D
100
AcDbEntity
  8
0
100
AcDbLine
 10
258.508
 20
475.4651579999999
 30
0.0
 11
259.5239999999999
 21
475.072158
 31
0.0
  0
LINE
  5
1003
330
1D
100
AcDbEntity
  8
0
100
AcDbLine
 10
258.508
 20
475.4651579999999
 30
0.0
 11
258.508
 21
476.097158
 31
0.0
  0
LINE
  5
1004
330
1D
100
AcDbEntity
  8
0
100
AcDbLine
 10
302.476
 20
475.072158
 30
0.0
 11
303.492
 21
475.4651579999999
 31
0.0
  0
LINE
  5
1005
330
1D
100
AcDbEntity
  8
0
100
AcDbLine
 10
303.492
 20
476.097158
 30
0.0
 11
303.492
 21
478.073158
 31
0.0
  0
LINE
  5
1006
330
1D
100
AcDbEntity
  8
0
100
AcDbLine
 10
303.492
 20
476.097158
 30
0.0
 11
303.492
 21
475.4651579999999
 31
0.0
  0
LINE
  5
1007
330
1D
100
AcDbEntity
  8
0
100
AcDbLine
 10
304.0
 20
476.459158
 30
0.0
 11
304.0
 21
477.048158
 31
0.0
  0
LINE
  5
1008
330
1D
100
AcDbEntity
  8
0
100
AcDbLine
 10
303.492
 20
475.4651579999999
 30
0.0
 11
303.492
 21
476.097158
 31
0.0
  0
LINE
  5
1009
330
1D
100
AcDbEntity
  8
0
100
AcDbLine
 10
303.492
 20
475.4651579999999
 30
0.0
 11
304.0
 21
476.459158
 31
0.0
  0
LINE
  5
100A
330
1D
100
AcDbEntity
  8
0
100
AcDbLine
 10
281.0
 20
475.072158
 30
0.0
 11
302.476
 21
475.072158
 31
0.0
  0
LINE
  5
100B
330
1D
100
AcDbEntity
  8
0
100
AcDbLine
 10
259.5239999999999
 20
475.072158
 30
0.0
 11
281.0
 21
475.072158
 31
0.0
  0
LINE
  5
100C
330
1D
100
AcDbEntity
  8
0
100
AcDbLine
 10
258.508
 20
481.215158
 30
0.0
 11
258.508
 21
478.073158
 31
0.0
  0
LINE
  5
100D
330
1D
100
AcDbEntity
  8
0
100
AcDbLine
 10
258.508
 20
481.215158
 30
0.0
 11
258.508
 21
485.230158
 31
0.0
  0
LINE
  5
100E
330
1D
100
AcDbEntity
  8
0
100
AcDbLine
 10
258.508
 20
485.230158
 30
0.0
 11
258.508
 21
481.215158
 31
0.0
  0
LINE
  5
100F
330
1D
100
AcDbEntity
  8
0
100
AcDbLine
 10
258.508
 20
485.230158
 30
0.0
 11
258.508
 21
489.933158
 31
0.0
  0
LINE
  5
1010
330
1D
100
AcDbEntity
  8
0
100
AcDbLine
 10
304.0
 20
477.048158
 30
0.0
 11
304.0
 21
478.889158
 31
0.0
  0
LINE
  5
1011
330
1D
100
AcDbEntity
  8
0
100
AcDbLine
 10
304.0
 20
477.048158
 30
0.0
 11
304.0
 21
476.459158
 31
0.0
  0
LINE
  5
1012
330
1D
100
AcDbEntity
  8
0
100
AcDbLine
 10
283.9
 20
485.219158
 30
0.0
 11
284.154
 21
485.0701579999999
 31
0.0
  0
LINE
  5
1013
330
1D
100
AcDbEntity
  8
0
100
AcDbLine
 10
283.9
 20
485.219158
 30
0.0
 11
283.9
 21
485.3071579999999
 31
0.0
  0
LINE
  5
1014
330
1D
100
AcDbEntity
  8
0
100
AcDbLine
 10
284.154
 20
485.0701579999999
 30
0.0
 11
284.662
 21
485.011158
 31
0.0
  0
LINE
  5
1015
330
1D
100
AcDbEntity
  8
0
100
AcDbLine
 10
303.1379999999999
 20
485.011158
 30
0.0
 11
303.6459999999999
 21
485.0701579999999
 31
0.0
  0
LINE
  5
1016
330
1D
100
AcDbEntity
  8
0
100
AcDbLine
 10
293.8999999999999
 20
485.011158
 30
0.0
 11
303.1379999999999
 21
485.011158
 31
0.0
  0
LINE
  5
1017
330
1D
100
AcDbEntity
  8
0
100
AcDbLine
 10
284.662
 20
485.011158
 30
0.0
 11
293.8999999999999
 21
485.011158
 31
0.0
  0
LINE
  5
1018
330
1D
100
AcDbEntity
  8
0
100
AcDbLine
 10
283.9
 20
486.034158
 30
0.0
 11
283.9
 21
486.613158
 31
0.0
  0
LINE
  5
1019
330
1D
100
AcDbEntity
  8
0
100
AcDbLine
 10
283.9
 20
486.034158
 30
0.0
 11
283.9
 21
485.583158
 31
0.0
  0
LINE
  5
101A
330
1D
100
AcDbEntity
  8
0
100
AcDbLine
 10
283.9
 20
485.583158
 30
0.0
 11
283.9
 21
485.3071579999999
 31
0.0
  0
LINE
  5
101B
330
1D
100
AcDbEntity
  8
0
100
AcDbLine
 10
283.9
 20
485.583158
 30
0.0
 11
283.9
 21
486.034158
 31
0.0
  0
LINE
  5
101C
330
1D
100
AcDbEntity
  8
0
100
AcDbLine
 10
283.9
 20
485.3071579999999
 30
0.0
 11
283.9
 21
487.636158
 31
0.0
  0
LINE
  5
101D
330
1D
100
AcDbEntity
  8
0
100
AcDbLine
 10
283.9
 20
485.3071579999999
 30
0.0
 11
283.9
 21
485.219158
 31
0.0
  0
LINE
  5
101E
330
1D
100
AcDbEntity
  8
0
100
AcDbLine
 10
283.9
 20
485.3071579999999
 30
0.0
 11
283.9
 21
485.583158
 31
0.0
  0
LINE
  5
101F
330
1D
100
AcDbEntity
  8
0
100
AcDbLine
 10
303.6459999999999
 20
485.0701579999999
 30
0.0
 11
303.8999999999999
 21
485.219158
 31
0.0
  0
LINE
  5
1020
330
1D
100
AcDbEntity
  8
0
100
AcDbLine
 10
304.0
 20
485.752158
 30
0.0
 11
304.0
 21
481.897158
 31
0.0
  0
LINE
  5
1021
330
1D
100
AcDbEntity
  8
0
100
AcDbLine
 10
304.0
 20
481.897158
 30
0.0
 11
304.0
 21
485.752158
 31
0.0
  0
LINE
  5
1022
330
1D
100
AcDbEntity
  8
0
100
AcDbLine
 10
304.0
 20
481.897158
 30
0.0
 11
304.0
 21
478.889158
 31
0.0
  0
LINE
  5
1023
330
1D
100
AcDbEntity
  8
0
100
AcDbLine
 10
303.492
 20
485.0522721732279
 30
0.0
 11
303.492
 21
481.215158
 31
0.0
  0
LINE
  5
1024
330
1D
100
AcDbEntity
  8
0
100
AcDbLine
 10
303.492
 20
481.215158
 30
0.0
 11
303.492
 21
485.0522721732279
 31
0.0
  0
LINE
  5
1025
330
1D
100
AcDbEntity
  8
0
100
AcDbLine
 10
303.492
 20
481.215158
 30
0.0
 11
303.492
 21
478.073158
 31
0.0
  0
LINE
  5
1026
330
1D
100
AcDbEntity
  8
0
100
AcDbLine
 10
304.0
 20
478.889158
 30
0.0
 11
304.0
 21
477.048158
 31
0.0
  0
LINE
  5
1027
330
1D
100
AcDbEntity
  8
0
100
AcDbLine
 10
304.0
 20
478.889158
 30
0.0
 11
304.0
 21
481.897158
 31
0.0
  0
LINE
  5
1028
330
1D
100
AcDbEntity
  8
0
100
AcDbLine
 10
303.492
 20
478.073158
 30
0.0
 11
303.492
 21
476.097158
 31
0.0
  0
LINE
  5
1029
330
1D
100
AcDbEntity
  8
0
100
AcDbLine
 10
303.492
 20
478.073158
 30
0.0
 11
303.492
 21
481.215158
 31
0.0
  0
LINE
  5
102A
330
1D
100
AcDbEntity
  8
0
100
AcDbLine
 10
258.508
 20
478.073158
 30
0.0
 11
258.508
 21
476.097158
 31
0.0
  0
LINE
  5
102B
330
1D
100
AcDbEntity
  8
0
100
AcDbLine
 10
258.508
 20
478.073158
 30
0.0
 11
258.508
 21
481.215158
 31
0.0
  0
LINE
  5
102C
330
1D
100
AcDbEntity
  8
0
100
AcDbLine
 10
246.492
 20
475.462158
 30
0.0
 11
246.7713200419729
 21
475.9861579999999
 31
0.0
  0
LINE
  5
102D
330
1D
100
AcDbEntity
  8
0
100
AcDbLine
 10
246.492
 20
475.462158
 30
0.0
 11
246.492
 21
476.1291579999999
 31
0.0
  0
LINE
  5
102E
330
1D
100
AcDbEntity
  8
0
100
AcDbLine
 10
245.4759999999999
 20
474.986158
 30
0.0
 11
246.492
 21
475.462158
 31
0.0
  0
LINE
  5
102F
330
1D
100
AcDbEntity
  8
0
100
AcDbLine
 10
200.9223840114199
 20
474.986158
 30
0.0
 11
245.4759999999999
 21
474.986158
 31
0.0
  0
LINE
  5
1030
330
1D
100
AcDbEntity
  8
0
100
AcDbLine
 10
304.0
 20
486.1774258899079
 30
0.0
 11
304.095
 21
486.1781579999999
 31
0.0
  0
LINE
  5
1031
330
1D
100
AcDbEntity
  8
0
100
AcDbLine
 10
304.095
 20
486.1781579999999
 30
0.0
 11
317.0
 21
486.322158
 31
0.0
  0
LINE
  5
1032
330
1D
100
AcDbEntity
  8
0
100
AcDbLine
 10
283.9
 20
486.613158
 30
0.0
 11
283.9
 21
487.277158
 31
0.0
  0
LINE
  5
1033
330
1D
100
AcDbEntity
  8
0
100
AcDbLine
 10
283.9
 20
486.613158
 30
0.0
 11
283.9
 21
486.034158
 31
0.0
  0
LINE
  5
1034
330
1D
100
AcDbEntity
  8
0
100
AcDbLine
 10
317.0
 20
486.322158
 30
0.0
 11
328.9639999999999
 21
486.503158
 31
0.0
  0
LINE
  5
1035
330
1D
100
AcDbEntity
  8
0
100
AcDbLine
 10
328.9639999999999
 20
486.503158
 30
0.0
 11
339.7819999999999
 21
486.719158
 31
0.0
  0
LINE
  5
1036
330
1D
100
AcDbEntity
  8
0
100
AcDbLine
 10
283.9
 20
488.7121579999999
 30
0.0
 11
283.9
 21
489.3921579999999
 31
0.0
  0
LINE
  5
1037
330
1D
100
AcDbEntity
  8
0
100
AcDbLine
 10
283.9
 20
488.7121579999999
 30
0.0
 11
283.9
 21
487.993158
 31
0.0
  0
LINE
  5
1038
330
1D
100
AcDbEntity
  8
0
100
AcDbLine
 10
283.9
 20
487.993158
 30
0.0
 11
283.9
 21
488.7121579999999
 31
0.0
  0
LINE
  5
1039
330
1D
100
AcDbEntity
  8
0
100
AcDbLine
 10
283.9
 20
487.993158
 30
0.0
 11
283.9
 21
487.277158
 31
0.0
  0
LINE
  5
103A
330
1D
100
AcDbEntity
  8
0
100
AcDbLine
 10
283.9
 20
487.277158
 30
0.0
 11
283.9
 21
487.993158
 31
0.0
  0
LINE
  5
103B
330
1D
100
AcDbEntity
  8
0
100
AcDbLine
 10
283.9
 20
487.277158
 30
0.0
 11
283.9
 21
486.613158
 31
0.0
  0
LINE
  5
103C
330
1D
100
AcDbEntity
  8
0
100
AcDbLine
 10
283.9
 20
489.3921579999999
 30
0.0
 11
283.9
 21
489.9711579999999
 31
0.0
  0
LINE
  5
103D
330
1D
100
AcDbEntity
  8
0
100
AcDbLine
 10
283.9
 20
489.3921579999999
 30
0.0
 11
283.9
 21
488.7121579999999
 31
0.0
  0
LINE
  5
103E
330
1D
100
AcDbEntity
  8
0
100
AcDbLine
 10
283.9
 20
487.636158
 30
0.0
 11
283.9
 21
485.3071579999999
 31
0.0
  0
LINE
  5
103F
330
1D
100
AcDbEntity
  8
0
100
AcDbLine
 10
283.9
 20
489.9711579999999
 30
0.0
 11
283.9
 21
490.407158
 31
0.0
  0
LINE
  5
1040
330
1D
100
AcDbEntity
  8
0
100
AcDbLine
 10
283.9
 20
489.9711579999999
 30
0.0
 11
283.9
 21
489.3921579999999
 31
0.0
  0
LINE
  5
1041
330
1D
100
AcDbEntity
  8
0
100
AcDbLine
 10
283.9
 20
490.407158
 30
0.0
 11
283.9
 21
490.6891579999999
 31
0.0
  0
LINE
  5
1042
330
1D
100
AcDbEntity
  8
0
100
AcDbLine
 10
283.9
 20
490.407158
 30
0.0
 11
283.9
 21
489.9711579999999
 31
0.0
  0
LINE
  5
1043
330
1D
100
AcDbEntity
  8
0
100
AcDbLine
 10
283.9
 20
490.6891579999999
 30
0.0
 11
283.9
 21
493.018158
 31
0.0
  0
LINE
  5
1044
330
1D
100
AcDbEntity
  8
0
100
AcDbLine
 10
283.9
 20
490.6891579999999
 30
0.0
 11
283.9
 21
490.407158
 31
0.0
  0
LINE
  5
1045
330
1D
100
AcDbEntity
  8
0
100
AcDbLine
 10
304.0
 20
485.752158
 30
0.0
 11
304.0
 21
494.630842610817
 31
0.0
  0
LINE
  5
1046
330
1D
100
AcDbEntity
  8
0
100
AcDbLine
 10
258.508
 20
489.933158
 30
0.0
 11
258.508
 21
485.230158
 31
0.0
  0
LINE
  5
1047
330
1D
100
AcDbEntity
  8
0
100
AcDbLine
 10
258.508
 20
489.933158
 30
0.0
 11
258.508
 21
494.981158
 31
0.0
  0
LINE
  5
1048
330
1D
100
AcDbEntity
  8
0
100
AcDbLine
 10
246.492
 20
489.938158
 30
0.0
 11
246.492
 21
494.986158
 31
0.0
  0
LINE
  5
1049
330
1D
100
AcDbEntity
  8
0
100
AcDbLine
 10
246.492
 20
489.938158
 30
0.0
 11
246.492
 21
485.2721579999999
 31
0.0
  0
LINE
  5
104A
330
1D
100
AcDbEntity
  8
0
100
AcDbLine
 10
283.9
 20
493.018158
 30
0.0
 11
283.9
 21
490.6891579999999
 31
0.0
  0
LINE
  5
104B
330
1D
100
AcDbEntity
  8
0
100
AcDbLine
 10
304.0
 20
494.630842610817
 30
0.0
 11
304.0
 21
485.752158
 31
0.0
  0
LINE
  5
104C
330
1D
100
AcDbEntity
  8
0
100
AcDbLine
 10
258.508
 20
494.981158
 30
0.0
 11
258.508
 21
489.933158
 31
0.0
  0
LINE
  5
104D
330
1D
100
AcDbEntity
  8
0
100
AcDbLine
 10
258.508
 20
494.981158
 30
0.0
 11
258.508
 21
497.2068935407129
 31
0.0
  0
LINE
  5
104E
330
1D
100
AcDbEntity
  8
0
100
AcDbLine
 10
246.492
 20
494.986158
 30
0.0
 11
246.492
 21
489.938158
 31
0.0
  0
LINE
  5
104F
330
1D
100
AcDbEntity
  8
0
100
AcDbLine
 10
246.492
 20
494.986158
 30
0.0
 11
246.492
 21
497.9646170024159
 31
0.0
  0
LINE
  5
1050
330
1D
100
AcDbEntity
  8
0
100
AcDbLine
 10
258.508
 20
497.2068935407129
 30
0.0
 11
258.508
 21
494.981158
 31
0.0
  0
LINE
  5
1051
330
1D
100
AcDbEntity
  8
0
100
AcDbLine
 10
246.492
 20
497.9646170024159
 30
0.0
 11
246.492
 21
494.986158
 31
0.0
  0
LINE
  5
1052
330
1D
100
AcDbEntity
  8
0
100
AcDbLine
 10
269.652
 20
496.504158
 30
0.0
 11
305.0209999999999
 21
494.5751579999999
 31
0.0
  0
LINE
  5
1053
330
1D
100
AcDbEntity
  8
0
100
AcDbLine
 10
305.0209999999999
 20
494.5751579999999
 30
0.0
 11
336.0709999999999
 21
492.749158
 31
0.0
  0
LINE
  5
1054
330
1D
100
AcDbEntity
  8
0
100
AcDbLine
 10
336.0709999999999
 20
492.749158
 30
0.0
 11
353.005
 21
491.384158
 31
0.0
  0
LINE
  5
1055
330
1D
100
AcDbEntity
  8
0
100
AcDbLine
 10
357.263
 20
487.235158
 30
0.0
 11
363.6269999999999
 21
487.528158
 31
0.0
  0
LINE
  5
1056
330
1D
100
AcDbEntity
  8
0
100
AcDbLine
 10
363.6269999999999
 20
487.528158
 30
0.0
 11
368.2519999999999
 21
487.8371579999999
 31
0.0
  0
LINE
  5
1057
330
1D
100
AcDbEntity
  8
0
100
AcDbLine
 10
368.2519999999999
 20
487.8371579999999
 30
0.0
 11
371.059
 21
488.156158
 31
0.0
  0
LINE
  5
1058
330
1D
100
AcDbEntity
  8
0
100
AcDbLine
 10
371.059
 20
488.156158
 30
0.0
 11
373.089
 21
488.438158
 31
0.0
  0
LINE
  5
1059
330
1D
100
AcDbEntity
  8
0
100
AcDbLine
 10
364.862128203703
 20
490.1892809307209
 30
0.0
 11
369.952
 21
488.7701579999999
 31
0.0
  0
LINE
  5
105A
330
1D
100
AcDbEntity
  8
0
100
AcDbLine
 10
374.048
 20
488.7701579999999
 30
0.0
 11
375.968
 21
489.538158
 31
0.0
  0
LINE
  5
105B
330
1D
100
AcDbEntity
  8
0
100
AcDbLine
 10
373.089
 20
488.438158
 30
0.0
 11
374.048
 21
488.7701579999999
 31
0.0
  0
LINE
  5
105C
330
1D
100
AcDbEntity
  8
0
100
AcDbLine
 10
375.968
 20
489.538158
 30
0.0
 11
377.6639999999999
 21
490.817158
 31
0.0
  0
LINE
  5
105D
330
1D
100
AcDbEntity
  8
0
100
AcDbLine
 10
353.005
 20
491.384158
 30
0.0
 11
366.461
 21
490.028158
 31
0.0
  0
LINE
  5
105E
330
1D
100
AcDbEntity
  8
0
100
AcDbLine
 10
377.6639999999999
 20
490.817158
 30
0.0
 11
378.944
 21
492.513158
 31
0.0
  0
LINE
  5
105F
330
1D
100
AcDbEntity
  8
0
100
AcDbLine
 10
378.944
 20
492.513158
 30
0.0
 11
379.712
 21
494.432158
 31
0.0
  0
LINE
  5
1060
330
1D
100
AcDbEntity
  8
0
100
AcDbLine
 10
379.712
 20
494.432158
 30
0.0
 11
380.0
 21
496.480158
 31
0.0
  0
LINE
  5
1061
330
1D
100
AcDbEntity
  8
0
100
AcDbLine
 10
349.269
 20
486.9641579999999
 30
0.0
 11
357.263
 21
487.235158
 31
0.0
  0
LINE
  5
1062
330
1D
100
AcDbEntity
  8
0
100
AcDbLine
 10
339.7819999999999
 20
486.719158
 30
0.0
 11
349.269
 21
486.9641579999999
 31
0.0
  0
LINE
  5
1063
330
1D
100
AcDbEntity
  8
0
100
AcDbLine
 10
200.0
 20
479.589087515418
 30
0.0
 11
200.0
 21
503.986158
 31
0.0
  0
LINE
  5
1064
330
1D
100
AcDbEntity
  8
0
100
AcDbLine
 10
195.912
 20
503.435158
 30
0.0
 11
198.152
 21
500.905158
 31
0.0
  0
LINE
  5
1065
330
1D
100
AcDbEntity
  8
0
100
AcDbLine
 10
241.504
 20
498.2791579999999
 30
0.0
 11
269.652
 21
496.504158
 31
0.0
  0
LINE
  5
1066
330
1D
100
AcDbEntity
  8
0
100
AcDbLine
 10
205.7109999999999
 20
502.109158
 30
0.0
 11
241.504
 21
498.2791579999999
 31
0.0
  0
LINE
  5
1067
330
1D
100
AcDbEntity
  8
0
100
AcDbLine
 10
375.968
 20
503.422158
 30
0.0
 11
377.6639999999999
 21
502.142158
 31
0.0
  0
LINE
  5
1068
330
1D
100
AcDbEntity
  8
0
100
AcDbLine
 10
377.6639999999999
 20
502.142158
 30
0.0
 11
378.944
 21
500.4471579999999
 31
0.0
  0
LINE
  5
1069
330
1D
100
AcDbEntity
  8
0
100
AcDbLine
 10
378.944
 20
500.4471579999999
 30
0.0
 11
379.712
 21
498.527158
 31
0.0
  0
LINE
  5
106A
330
1D
100
AcDbEntity
  8
0
100
AcDbLine
 10
379.712
 20
498.527158
 30
0.0
 11
380.0
 21
496.480158
 31
0.0
  0
LINE
  5
106B
330
1D
100
AcDbEntity
  8
0
100
AcDbLine
 10
198.152
 20
500.905158
 30
0.0
 11
199.4959999999999
 21
498.041158
 31
0.0
  0
LINE
  5
106C
330
1D
100
AcDbEntity
  8
0
100
AcDbLine
 10
175.0
 20
504.906158
 30
0.0
 11
175.0
 21
509.651158
 31
0.0
  0
LINE
  5
106D
330
1D
100
AcDbEntity
  8
0
100
AcDbLine
 10
175.0
 20
509.651158
 30
0.0
 11
175.0
 21
514.053158
 31
0.0
  0
LINE
  5
106E
330
1D
100
AcDbEntity
  8
0
100
AcDbLine
 10
175.0
 20
509.651158
 30
0.0
 11
175.0
 21
504.906158
 31
0.0
  0
LINE
  5
106F
330
1D
100
AcDbEntity
  8
0
100
AcDbLine
 10
175.0
 20
514.053158
 30
0.0
 11
175.0
 21
517.7091579999999
 31
0.0
  0
LINE
  5
1070
330
1D
100
AcDbEntity
  8
0
100
AcDbLine
 10
175.0
 20
514.053158
 30
0.0
 11
175.0
 21
509.651158
 31
0.0
  0
LINE
  5
1071
330
1D
100
AcDbEntity
  8
0
100
AcDbLine
 10
175.0
 20
520.575158
 30
0.0
 11
175.0
 21
517.7091579999999
 31
0.0
  0
LINE
  5
1072
330
1D
100
AcDbEntity
  8
0
100
AcDbLine
 10
175.0
 20
520.575158
 30
0.0
 11
175.0
 21
522.317158
 31
0.0
  0
LINE
  5
1073
330
1D
100
AcDbEntity
  8
0
100
AcDbLine
 10
175.0
 20
517.7091579999999
 30
0.0
 11
175.0
 21
520.575158
 31
0.0
  0
LINE
  5
1074
330
1D
100
AcDbEntity
  8
0
100
AcDbLine
 10
175.0
 20
517.7091579999999
 30
0.0
 11
175.0
 21
514.053158
 31
0.0
  0
LINE
  5
1075
330
1D
100
AcDbEntity
  8
0
100
AcDbLine
 10
179.0079999999999
 20
519.823158
 30
0.0
 11
182.333
 21
520.4071579999999
 31
0.0
  0
LINE
  5
1076
330
1D
100
AcDbEntity
  8
0
100
AcDbLine
 10
176.0539999999999
 20
518.2821579999999
 30
0.0
 11
179.0079999999999
 21
519.823158
 31
0.0
  0
LINE
  5
1077
330
1D
100
AcDbEntity
  8
0
100
AcDbLine
 10
175.0
 20
517.146456277425
 30
0.0
 11
176.0539999999999
 21
518.2821579999999
 31
0.0
  0
LINE
  5
1078
330
1D
100
AcDbEntity
  8
0
100
AcDbLine
 10
199.981815897085
 20
504.146374690546
 30
0.0
 11
205.7109999999999
 21
502.109158
 31
0.0
  0
LINE
  5
1079
330
1D
100
AcDbEntity
  8
0
100
AcDbLine
 10
189.5839999999999
 20
506.4901579999999
 30
0.0
 11
192.944
 21
505.344158
 31
0.0
  0
LINE
  5
107A
330
1D
100
AcDbEntity
  8
0
100
AcDbLine
 10
192.944
 20
505.344158
 30
0.0
 11
195.912
 21
503.435158
 31
0.0
  0
LINE
  5
107B
330
1D
100
AcDbEntity
  8
0
100
AcDbLine
 10
368.4959999999999
 20
505.741158
 30
0.0
 11
374.048
 21
504.190158
 31
0.0
  0
LINE
  5
107C
330
1D
100
AcDbEntity
  8
0
100
AcDbLine
 10
366.461
 20
506.024158
 30
0.0
 11
368.4959999999999
 21
505.741158
 31
0.0
  0
LINE
  5
107D
330
1D
100
AcDbEntity
  8
0
100
AcDbLine
 10
374.048
 20
504.190158
 30
0.0
 11
375.968
 21
503.422158
 31
0.0
  0
LINE
  5
107E
330
1D
100
AcDbEntity
  8
0
100
AcDbLine
 10
200.0
 20
503.986158
 30
0.0
 11
200.0
 21
479.589087515418
 31
0.0
  0
LINE
  5
107F
330
1D
100
AcDbEntity
  8
0
100
AcDbLine
 10
182.333
 20
520.4071579999999
 30
0.0
 11
186.2409999999999
 21
520.0511579999999
 31
0.0
  0
LINE
  5
1080
330
1D
100
AcDbEntity
  8
0
100
AcDbLine
 10
186.6298636415399
 20
519.906332928022
 30
0.0
 11
188.9499999999999
 21
521.478158
 31
0.0
  0
LINE
  5
1081
330
1D
100
AcDbEntity
  8
0
100
AcDbLine
 10
186.2409999999999
 20
520.0511579999999
 30
0.0
 11
189.745
 21
518.746158
 31
0.0
  0
LINE
  5
1082
330
1D
100
AcDbEntity
  8
0
100
AcDbLine
 10
189.745
 20
518.746158
 30
0.0
 11
193.07
 21
516.7471579999999
 31
0.0
  0
LINE
  5
1083
330
1D
100
AcDbEntity
  8
0
100
AcDbLine
 10
193.07
 20
516.7471579999999
 30
0.0
 11
195.945
 21
513.940158
 31
0.0
  0
LINE
  5
1084
330
1D
100
AcDbEntity
  8
0
100
AcDbLine
 10
195.945
 20
513.940158
 30
0.0
 11
198.4609999999999
 21
510.534158
 31
0.0
  0
LINE
  5
1085
330
1D
100
AcDbEntity
  8
0
100
AcDbLine
 10
353.005
 20
507.380158
 30
0.0
 11
366.461
 21
506.024158
 31
0.0
  0
LINE
  5
1086
330
1D
100
AcDbEntity
  8
0
100
AcDbLine
 10
336.0709999999999
 20
508.7451579999999
 30
0.0
 11
353.005
 21
507.380158
 31
0.0
  0
LINE
  5
1087
330
1D
100
AcDbEntity
  8
0
100
AcDbLine
 10
210.0
 20
517.550758340089
 30
0.0
 11
210.0
 21
527.386158
 31
0.0
  0
LINE
  5
1088
330
1D
100
AcDbEntity
  8
0
100
AcDbLine
 10
208.029
 20
517.6181579999999
 30
0.0
 11
241.504
 21
514.275158
 31
0.0
  0
LINE
  5
1089
330
1D
100
AcDbEntity
  8
0
100
AcDbLine
 10
208.029
 20
517.6181579999999
 30
0.0
 11
208.029
 21
517.6181579999999
 31
0.0
  0
LINE
  5
108A
330
1D
100
AcDbEntity
  8
0
100
AcDbLine
 10
304.0
 20
510.626842610817
 30
0.0
 11
304.0
 21
512.925158
 31
0.0
  0
LINE
  5
108B
330
1D
100
AcDbEntity
  8
0
100
AcDbLine
 10
305.0209999999999
 20
510.571158
 30
0.0
 11
336.0709999999999
 21
508.7451579999999
 31
0.0
  0
LINE
  5
108C
330
1D
100
AcDbEntity
  8
0
100
AcDbLine
 10
244.0
 20
514.986158
 30
0.0
 11
245.4759999999999
 21
514.986158
 31
0.0
  0
LINE
  5
108D
330
1D
100
AcDbEntity
  8
0
100
AcDbLine
 10
246.492
 20
513.960617002416
 30
0.0
 11
246.492
 21
514.510158
 31
0.0
  0
LINE
  5
108E
330
1D
100
AcDbEntity
  8
0
100
AcDbLine
 10
246.7713200419729
 20
513.986158
 30
0.0
 11
258.241734406439
 21
513.986158
 31
0.0
  0
LINE
  5
108F
330
1D
100
AcDbEntity
  8
0
100
AcDbLine
 10
258.508
 20
513.2028935407129
 30
0.0
 11
258.508
 21
513.8451579999999
 31
0.0
  0
LINE
  5
1090
330
1D
100
AcDbEntity
  8
0
100
AcDbLine
 10
258.508
 20
513.8451579999999
 30
0.0
 11
258.508
 21
514.5071579999999
 31
0.0
  0
LINE
  5
1091
330
1D
100
AcDbEntity
  8
0
100
AcDbLine
 10
258.508
 20
513.8451579999999
 30
0.0
 11
258.508
 21
513.2028935407129
 31
0.0
  0
LINE
  5
1092
330
1D
100
AcDbEntity
  8
0
100
AcDbLine
 10
258.241734406439
 20
513.986158
 30
0.0
 11
258.508
 21
514.5071579999999
 31
0.0
  0
LINE
  5
1093
330
1D
100
AcDbEntity
  8
0
100
AcDbLine
 10
304.0
 20
513.5131579999999
 30
0.0
 11
304.0
 21
512.925158
 31
0.0
  0
LINE
  5
1094
330
1D
100
AcDbEntity
  8
0
100
AcDbLine
 10
304.0
 20
512.925158
 30
0.0
 11
304.0
 21
513.5131579999999
 31
0.0
  0
LINE
  5
1095
330
1D
100
AcDbEntity
  8
0
100
AcDbLine
 10
304.0
 20
512.925158
 30
0.0
 11
304.0
 21
510.626842610817
 31
0.0
  0
LINE
  5
1096
330
1D
100
AcDbEntity
  8
0
100
AcDbLine
 10
303.492
 20
514.5071579999999
 30
0.0
 11
304.0
 21
513.5131579999999
 31
0.0
  0
LINE
  5
1097
330
1D
100
AcDbEntity
  8
0
100
AcDbLine
 10
302.476
 20
514.900158
 30
0.0
 11
303.492
 21
514.5071579999999
 31
0.0
  0
LINE
  5
1098
330
1D
100
AcDbEntity
  8
0
100
AcDbLine
 10
281.0
 20
514.900158
 30
0.0
 11
302.476
 21
514.900158
 31
0.0
  0
LINE
  5
1099
330
1D
100
AcDbEntity
  8
0
100
AcDbLine
 10
258.508
 20
514.5071579999999
 30
0.0
 11
258.508
 21
513.8451579999999
 31
0.0
  0
LINE
  5
109A
330
1D
100
AcDbEntity
  8
0
100
AcDbLine
 10
258.508
 20
514.5071579999999
 30
0.0
 11
259.5239999999999
 21
514.900158
 31
0.0
  0
LINE
  5
109B
330
1D
100
AcDbEntity
  8
0
100
AcDbLine
 10
259.5239999999999
 20
514.900158
 30
0.0
 11
281.0
 21
514.900158
 31
0.0
  0
LINE
  5
109C
330
1D
100
AcDbEntity
  8
0
100
AcDbLine
 10
246.492
 20
514.510158
 30
0.0
 11
246.794918780209
 21
513.941887138702
 31
0.0
  0
LINE
  5
109D
330
1D
100
AcDbEntity
  8
0
100
AcDbLine
 10
246.492
 20
514.510158
 30
0.0
 11
246.492
 21
513.960617002416
 31
0.0
  0
LINE
  5
109E
330
1D
100
AcDbEntity
  8
0
100
AcDbLine
 10
245.4759999999999
 20
514.986158
 30
0.0
 11
246.492
 21
514.510158
 31
0.0
  0
LINE
  5
109F
330
1D
100
AcDbEntity
  8
0
100
AcDbLine
 10
244.0
 20
514.9741259061999
 30
0.0
 11
244.0
 21
527.386158
 31
0.0
  0
LINE
  5
10A0
330
1D
100
AcDbEntity
  8
0
100
AcDbLine
 10
269.652
 20
512.5001580000001
 30
0.0
 11
305.0209999999999
 21
510.571158
 31
0.0
  0
LINE
  5
10A1
330
1D
100
AcDbEntity
  8
0
100
AcDbLine
 10
241.504
 20
514.275158
 30
0.0
 11
269.652
 21
512.5001580000001
 31
0.0
  0
LINE
  5
10A2
330
1D
100
AcDbEntity
  8
0
100
AcDbLine
 10
198.4609999999999
 20
510.534158
 30
0.0
 11
199.6299999999999
 21
507.2461579999999
 31
0.0
  0
LINE
  5
10A3
330
1D
100
AcDbEntity
  8
0
100
AcDbLine
 10
199.6299999999999
 20
507.2461579999999
 30
0.0
 11
200.0
 21
503.986158
 31
0.0
  0
LINE
  5
10A4
330
1D
100
AcDbEntity
  8
0
100
AcDbLine
 10
186.0
 20
506.919158
 30
0.0
 11
189.5839999999999
 21
506.4901579999999
 31
0.0
  0
LINE
  5
10A5
330
1D
100
AcDbEntity
  8
0
100
AcDbLine
 10
182.416
 20
506.4901579999999
 30
0.0
 11
186.0
 21
506.919158
 31
0.0
  0
LINE
  5
10A6
330
1D
100
AcDbEntity
  8
0
100
AcDbLine
 10
179.0559999999999
 20
505.344158
 30
0.0
 11
182.416
 21
506.4901579999999
 31
0.0
  0
LINE
  5
10A7
330
1D
100
AcDbEntity
  8
0
100
AcDbLine
 10
176.088
 20
503.435158
 30
0.0
 11
179.0559999999999
 21
505.344158
 31
0.0
  0
LINE
  5
10A8
330
1D
100
AcDbEntity
  8
0
100
AcDbLine
 10
173.8479999999999
 20
500.905158
 30
0.0
 11
176.088
 21
503.435158
 31
0.0
  0
LINE
  5
10A9
330
1D
100
AcDbEntity
  8
0
100
AcDbLine
 10
172.504
 20
498.041158
 30
0.0
 11
173.8479999999999
 21
500.905158
 31
0.0
  0
LINE
  5
10AA
330
1D
100
AcDbEntity
  8
0
100
AcDbLine
 10
172.0
 20
492.319158
 30
0.0
 11
172.0
 21
495.986158
 31
0.0
  0
LINE
  5
10AB
330
1D
100
AcDbEntity
  8
0
100
AcDbLine
 10
172.0
 20
492.319158
 30
0.0
 11
172.0
 21
489.442158
 31
0.0
  0
LINE
  5
10AC
330
1D
100
AcDbEntity
  8
0
100
AcDbLine
 10
188.9499999999999
 20
521.478158
 30
0.0
 11
190.423
 21
522.3791579999999
 31
0.0
  0
LINE
  5
10AD
330
1D
100
AcDbEntity
  8
0
100
AcDbLine
 10
172.0
 20
520.575158
 30
0.0
 11
172.0
 21
522.317158
 31
0.0
  0
LINE
  5
10AE
330
1D
100
AcDbEntity
  8
0
100
AcDbLine
 10
172.0
 20
520.575158
 30
0.0
 11
172.0
 21
517.7091579999999
 31
0.0
  0
LINE
  5
10AF
330
1D
100
AcDbEntity
  8
0
100
AcDbLine
 10
134.667
 20
520.200158
 30
0.0
 11
134.667
 21
521.9071579999999
 31
0.0
  0
LINE
  5
10B0
330
1D
100
AcDbEntity
  8
0
100
AcDbLine
 10
134.667
 20
520.200158
 30
0.0
 11
134.667
 21
517.371158
 31
0.0
  0
LINE
  5
10B1
330
1D
100
AcDbEntity
  8
0
100
AcDbLine
 10
175.0
 20
522.317158
 30
0.0
 11
175.0
 21
522.981158
 31
0.0
  0
LINE
  5
10B2
330
1D
100
AcDbEntity
  8
0
100
AcDbLine
 10
175.0
 20
522.317158
 30
0.0
 11
175.0
 21
520.575158
 31
0.0
  0
LINE
  5
10B3
330
1D
100
AcDbEntity
  8
0
100
AcDbLine
 10
196.617
 20
522.337158
 30
0.0
 11
208.029
 21
517.6181579999999
 31
0.0
  0
LINE
  5
10B4
330
1D
100
AcDbEntity
  8
0
100
AcDbLine
 10
193.525
 20
522.959158
 30
0.0
 11
196.617
 21
522.337158
 31
0.0
  0
LINE
  5
10B5
330
1D
100
AcDbEntity
  8
0
100
AcDbLine
 10
190.423
 20
522.3791579999999
 30
0.0
 11
193.525
 21
522.959158
 31
0.0
  0
LINE
  5
10B6
330
1D
100
AcDbEntity
  8
0
100
AcDbLine
 10
175.0
 20
522.981158
 30
0.0
 11
175.0
 21
522.317158
 31
0.0
  0
LINE
  5
10B7
330
1D
100
AcDbEntity
  8
0
100
AcDbLine
 10
172.0
 20
522.981158
 30
0.0
 11
172.0
 21
522.317158
 31
0.0
  0
LINE
  5
10B8
330
1D
100
AcDbEntity
  8
0
100
AcDbLine
 10
172.0
 20
522.981158
 30
0.0
 11
175.0
 21
522.981158
 31
0.0
  0
LINE
  5
10B9
330
1D
100
AcDbEntity
  8
0
100
AcDbLine
 10
172.0
 20
522.317158
 30
0.0
 11
172.0
 21
522.981158
 31
0.0
  0
LINE
  5
10BA
330
1D
100
AcDbEntity
  8
0
100
AcDbLine
 10
172.0
 20
522.317158
 30
0.0
 11
172.0
 21
520.575158
 31
0.0
  0
LINE
  5
10BB
330
1D
100
AcDbEntity
  8
0
100
AcDbLine
 10
161.0
 20
522.981158
 30
0.0
 11
172.0
 21
522.981158
 31
0.0
  0
LINE
  5
10BC
330
1D
100
AcDbEntity
  8
0
100
AcDbLine
 10
154.3039999999999
 20
559.986158
 30
0.0
 11
156.4639999999999
 21
559.986158
 31
0.0
  0
LINE
  5
10BD
330
1D
100
AcDbEntity
  8
0
100
AcDbLine
 10
156.4639999999999
 20
559.986158
 30
0.0
 11
158.372
 21
559.986158
 31
0.0
  0
LINE
  5
10BE
330
1D
100
AcDbEntity
  8
0
100
AcDbLine
 10
158.372
 20
559.986158
 30
0.0
 11
159.812
 21
559.986158
 31
0.0
  0
LINE
  5
10BF
330
1D
100
AcDbEntity
  8
0
100
AcDbLine
 10
149.696
 20
559.986158
 30
0.0
 11
152.0
 21
559.986158
 31
0.0
  0
LINE
  5
10C0
330
1D
100
AcDbEntity
  8
0
100
AcDbLine
 10
147.536
 20
559.986158
 30
0.0
 11
149.696
 21
559.986158
 31
0.0
  0
LINE
  5
10C1
330
1D
100
AcDbEntity
  8
0
100
AcDbLine
 10
145.6279999999999
 20
559.986158
 30
0.0
 11
147.536
 21
559.986158
 31
0.0
  0
LINE
  5
10C2
330
1D
100
AcDbEntity
  8
0
100
AcDbLine
 10
144.1879999999999
 20
559.986158
 30
0.0
 11
145.6279999999999
 21
559.986158
 31
0.0
  0
LINE
  5
10C3
330
1D
100
AcDbEntity
  8
0
100
AcDbLine
 10
143.3239999999999
 20
559.986158
 30
0.0
 11
144.1879999999999
 21
559.986158
 31
0.0
  0
LINE
  5
10C4
330
1D
100
AcDbEntity
  8
0
100
AcDbLine
 10
143.0
 20
559.986158
 30
0.0
 11
143.0
 21
511.168258
 31
0.0
  0
LINE
  5
10C5
330
1D
100
AcDbEntity
  8
0
100
AcDbLine
 10
143.0
 20
559.986158
 30
0.0
 11
143.3239999999999
 21
559.986158
 31
0.0
  0
LINE
  5
10C6
330
1D
100
AcDbEntity
  8
0
100
AcDbLine
 10
152.0
 20
559.986158
 30
0.0
 11
159.56
 21
559.986158
 31
0.0
  0
LINE
  5
10C7
330
1D
100
AcDbEntity
  8
0
100
AcDbLine
 10
152.0
 20
559.986158
 30
0.0
 11
154.3039999999999
 21
559.986158
 31
0.0
  0
LINE
  5
10C8
330
1D
100
AcDbEntity
  8
0
100
AcDbLine
 10
159.812
 20
559.986158
 30
0.0
 11
160.676
 21
559.986158
 31
0.0
  0
LINE
  5
10C9
330
1D
100
AcDbEntity
  8
0
100
AcDbLine
 10
160.676
 20
559.986158
 30
0.0
 11
161.0
 21
559.986158
 31
0.0
  0
LINE
  5
10CA
330
1D
100
AcDbEntity
  8
0
100
AcDbLine
 10
159.56
 20
559.986158
 30
0.0
 11
166.52
 21
559.986158
 31
0.0
  0
LINE
  5
10CB
330
1D
100
AcDbEntity
  8
0
100
AcDbLine
 10
144.4399999999999
 20
559.986158
 30
0.0
 11
152.0
 21
559.986158
 31
0.0
  0
LINE
  5
10CC
330
1D
100
AcDbEntity
  8
0
100
AcDbLine
 10
137.48
 20
559.986158
 30
0.0
 11
143.0
 21
559.986158
 31
0.0
  0
LINE
  5
10CD
330
1D
100
AcDbEntity
  8
0
100
AcDbLine
 10
137.48
 20
559.986158
 30
0.0
 11
144.4399999999999
 21
559.986158
 31
0.0
  0
LINE
  5
10CE
330
1D
100
AcDbEntity
  8
0
100
AcDbLine
 10
161.0
 20
559.986158
 30
0.0
 11
166.52
 21
559.986158
 31
0.0
  0
LINE
  5
10CF
330
1D
100
AcDbEntity
  8
0
100
AcDbLine
 10
161.0
 20
559.986158
 30
0.0
 11
161.0
 21
511.168258
 31
0.0
  0
LINE
  5
10D0
330
1D
100
AcDbEntity
  8
0
100
AcDbLine
 10
166.52
 20
559.986158
 30
0.0
 11
172.6399999999999
 21
559.986158
 31
0.0
  0
LINE
  5
10D1
330
1D
100
AcDbEntity
  8
0
100
AcDbLine
 10
172.6399999999999
 20
559.986158
 30
0.0
 11
177.3199999999999
 21
559.986158
 31
0.0
  0
LINE
  5
10D2
330
1D
100
AcDbEntity
  8
0
100
AcDbLine
 10
177.3199999999999
 20
559.986158
 30
0.0
 11
180.1999999999999
 21
559.986158
 31
0.0
  0
LINE
  5
10D3
330
1D
100
AcDbEntity
  8
0
100
AcDbLine
 10
137.1199999999999
 20
560.586158
 30
0.0
 11
144.32
 21
560.586158
 31
0.0
  0
LINE
  5
10D4
330
1D
100
AcDbEntity
  8
0
100
AcDbLine
 10
152.0
 20
560.586158
 30
0.0
 11
159.6799999999999
 21
560.586158
 31
0.0
  0
LINE
  5
10D5
330
1D
100
AcDbEntity
  8
0
100
AcDbLine
 10
159.6799999999999
 20
560.586158
 30
0.0
 11
166.88
 21
560.586158
 31
0.0
  0
LINE
  5
10D6
330
1D
100
AcDbEntity
  8
0
100
AcDbLine
 10
166.88
 20
560.586158
 30
0.0
 11
173.24
 21
560.586158
 31
0.0
  0
LINE
  5
10D7
330
1D
100
AcDbEntity
  8
0
100
AcDbLine
 10
152.0
 20
569.986158
 30
0.0
 11
159.6799999999999
 21
569.986158
 31
0.0
  0
LINE
  5
10D8
330
1D
100
AcDbEntity
  8
0
100
AcDbLine
 10
159.6799999999999
 20
569.986158
 30
0.0
 11
166.88
 21
569.986158
 31
0.0
  0
LINE
  5
10D9
330
1D
100
AcDbEntity
  8
0
100
AcDbLine
 10
173.24
 20
560.586158
 30
0.0
 11
178.04
 21
560.586158
 31
0.0
  0
LINE
  5
10DA
330
1D
100
AcDbEntity
  8
0
100
AcDbLine
 10
178.04
 20
560.586158
 30
0.0
 11
180.9199999999999
 21
560.586158
 31
0.0
  0
LINE
  5
10DB
330
1D
100
AcDbEntity
  8
0
100
AcDbLine
 10
166.88
 20
569.986158
 30
0.0
 11
173.24
 21
569.986158
 31
0.0
  0
LINE
  5
10DC
330
1D
100
AcDbEntity
  8
0
100
AcDbLine
 10
173.24
 20
569.986158
 30
0.0
 11
178.04
 21
569.986158
 31
0.0
  0
LINE
  5
10DD
330
1D
100
AcDbEntity
  8
0
100
AcDbLine
 10
180.9199999999999
 20
560.586158
 30
0.0
 11
182.0
 21
560.586158
 31
0.0
  0
LINE
  5
10DE
330
1D
100
AcDbEntity
  8
0
100
AcDbLine
 10
178.04
 20
569.986158
 30
0.0
 11
180.9199999999999
 21
569.986158
 31
0.0
  0
LINE
  5
10DF
330
1D
100
AcDbEntity
  8
0
100
AcDbLine
 10
180.9199999999999
 20
569.986158
 30
0.0
 11
182.0
 21
569.986158
 31
0.0
  0
LINE
  5
10E0
330
1D
100
AcDbEntity
  8
0
100
AcDbLine
 10
144.32
 20
560.586158
 30
0.0
 11
152.0
 21
560.586158
 31
0.0
  0
LINE
  5
10E1
330
1D
100
AcDbEntity
  8
0
100
AcDbLine
 10
144.32
 20
569.986158
 30
0.0
 11
152.0
 21
569.986158
 31
0.0
  0
LINE
  5
10E2
330
1D
100
AcDbEntity
  8
0
100
AcDbLine
 10
137.1199999999999
 20
569.986158
 30
0.0
 11
144.32
 21
569.986158
 31
0.0
  0
LINE
  5
10E3
330
1D
100
AcDbEntity
  8
0
100
AcDbLine
 10
180.1999999999999
 20
559.986158
 30
0.0
 11
181.28
 21
559.986158
 31
0.0
  0
LINE
  5
10E4
330
1D
100
AcDbEntity
  8
0
100
AcDbLine
 10
210.4079999999999
 20
527.986158
 30
0.0
 11
211.02
 21
527.986158
 31
0.0
  0
LINE
  5
10E5
330
1D
100
AcDbEntity
  8
0
100
AcDbLine
 10
211.02
 20
527.986158
 30
0.0
 11
212.652
 21
527.986158
 31
0.0
  0
LINE
  5
10E6
330
1D
100
AcDbEntity
  8
0
100
AcDbLine
 10
212.652
 20
527.986158
 30
0.0
 11
215.304
 21
527.986158
 31
0.0
  0
LINE
  5
10E7
330
1D
100
AcDbEntity
  8
0
100
AcDbLine
 10
215.304
 20
527.986158
 30
0.0
 11
218.772
 21
527.986158
 31
0.0
  0
LINE
  5
10E8
330
1D
100
AcDbEntity
  8
0
100
AcDbLine
 10
218.772
 20
527.986158
 30
0.0
 11
222.716
 21
527.986158
 31
0.0
  0
LINE
  5
10E9
330
1D
100
AcDbEntity
  8
0
100
AcDbLine
 10
238.696
 20
527.986158
 30
0.0
 11
241.3479999999999
 21
527.986158
 31
0.0
  0
LINE
  5
10EA
330
1D
100
AcDbEntity
  8
0
100
AcDbLine
 10
235.2279999999999
 20
527.986158
 30
0.0
 11
238.696
 21
527.986158
 31
0.0
  0
LINE
  5
10EB
330
1D
100
AcDbEntity
  8
0
100
AcDbLine
 10
231.284
 20
527.986158
 30
0.0
 11
235.2279999999999
 21
527.986158
 31
0.0
  0
LINE
  5
10EC
330
1D
100
AcDbEntity
  8
0
100
AcDbLine
 10
227.0
 20
527.986158
 30
0.0
 11
231.284
 21
527.986158
 31
0.0
  0
LINE
  5
10ED
330
1D
100
AcDbEntity
  8
0
100
AcDbLine
 10
222.716
 20
527.986158
 30
0.0
 11
227.0
 21
527.986158
 31
0.0
  0
LINE
  5
10EE
330
1D
100
AcDbEntity
  8
0
100
AcDbLine
 10
210.0
 20
527.386158
 30
0.0
 11
210.0
 21
517.550758340089
 31
0.0
  0
LINE
  5
10EF
330
1D
100
AcDbEntity
  8
0
100
AcDbLine
 10
210.0
 20
527.386158
 30
0.0
 11
210.4079999999999
 21
527.986158
 31
0.0
  0
LINE
  5
10F0
330
1D
100
AcDbEntity
  8
0
100
AcDbLine
 10
241.3479999999999
 20
527.986158
 30
0.0
 11
242.9799999999999
 21
527.986158
 31
0.0
  0
LINE
  5
10F1
330
1D
100
AcDbEntity
  8
0
100
AcDbLine
 10
242.9799999999999
 20
527.986158
 30
0.0
 11
243.592
 21
527.986158
 31
0.0
  0
LINE
  5
10F2
330
1D
100
AcDbEntity
  8
0
100
AcDbLine
 10
244.0
 20
527.386158
 30
0.0
 11
244.0
 21
514.9741259061999
 31
0.0
  0
LINE
  5
10F3
330
1D
100
AcDbEntity
  8
0
100
AcDbLine
 10
243.592
 20
527.986158
 30
0.0
 11
244.0
 21
527.386158
 31
0.0
  0
LINE
  5
10F4
330
1D
100
AcDbEntity
  8
0
100
AcDbLine
 10
181.28
 20
559.986158
 30
0.0
 11
182.0
 21
560.586158
 31
0.0
  0
LINE
  5
10F5
330
1D
100
AcDbEntity
  8
0
100
AcDbLine
 10
182.0
 20
569.986158
 30
0.0
 11
182.0
 21
560.586158
 31
0.0
  0
LINE
  5
10F6
330
1D
100
AcDbEntity
  8
0
100
AcDbLine
 10
182.0
 20
560.586158
 30
0.0
 11
182.0
 21
569.986158
 31
0.0
  0
LINE
  5
10F7
330
1D
100
AcDbEntity
  8
0
100
AcDbLine
 10
135.4209999999999
 20
522.981158
 30
0.0
 11
143.0
 21
522.981158
 31
0.0
  0
LINE
  5
10F8
330
1D
100
AcDbEntity
  8
0
100
AcDbLine
 10
134.667
 20
522.499158
 30
0.0
 11
134.667
 21
521.9071579999999
 31
0.0
  0
LINE
  5
10F9
330
1D
100
AcDbEntity
  8
0
100
AcDbLine
 10
134.667
 20
522.499158
 30
0.0
 11
135.4209999999999
 21
522.981158
 31
0.0
  0
LINE
  5
10FA
330
1D
100
AcDbEntity
  8
0
100
AcDbLine
 10
134.667
 20
521.9071579999999
 30
0.0
 11
134.667
 21
522.499158
 31
0.0
  0
LINE
  5
10FB
330
1D
100
AcDbEntity
  8
0
100
AcDbLine
 10
134.667
 20
521.9071579999999
 30
0.0
 11
134.667
 21
520.200158
 31
0.0
  0
LINE
  5
10FC
330
1D
100
AcDbEntity
  8
0
100
AcDbLine
 10
133.9129999999999
 20
522.981158
 30
0.0
 11
134.667
 21
522.499158
 31
0.0
  0
LINE
  5
10FD
330
1D
100
AcDbEntity
  8
0
100
AcDbLine
 10
261.914695343101
 20
379.787272318878
 30
0.0
 11
261.985
 21
378.6231579999999
 31
0.0
  0
LINE
  5
10FE
330
1D
100
AcDbEntity
  8
0
100
AcDbLine
 10
110.085304656898
 20
379.7872723188739
 30
0.0
 11
110.0149999999999
 21
378.6231579999999
 31
0.0
  0
LINE
  5
10FF
330
1D
100
AcDbEntity
  8
0
100
AcDbLine
 10
175.0125499944509
 20
484.521477498391
 30
0.0
 11
175.8799999999999
 21
484.8331579999999
 31
0.0
  0
LINE
  5
1100
330
1D
100
AcDbEntity
  8
0
100
AcDbLine
 10
181.219
 20
485.6781579999999
 30
0.0
 11
183.6169651283879
 21
485.813078020819
 31
0.0
  0
LINE
  5
1101
330
1D
100
AcDbEntity
  8
0
100
AcDbLine
 10
188.383034871612
 20
485.813078020819
 30
0.0
 11
190.7809999999999
 21
485.6781579999999
 31
0.0
  0
LINE
  5
1102
330
1D
100
AcDbEntity
  8
0
100
AcDbLine
 10
196.987450005549
 20
484.521477498391
 30
0.0
 11
196.462
 21
484.7301579999999
 31
0.0
  0
LINE
  5
1103
330
1D
100
AcDbEntity
  8
0
100
AcDbLine
 10
235.1445
 20
530.188158
 30
0.0
 11
231.3518999999999
 21
530.405158
 31
0.0
  0
LINE
  5
1104
330
1D
100
AcDbEntity
  8
0
100
AcDbLine
 10
235.1445
 20
543.784158
 30
0.0
 11
231.3518999999999
 21
543.5671580000001
 31
0.0
  0
LINE
  5
1105
330
1D
100
AcDbEntity
  8
0
100
AcDbLine
 10
234.7474
 20
543.986158
 30
0.0
 11
231.0421
 21
543.986158
 31
0.0
  0
LINE
  5
1106
330
1D
100
AcDbEntity
  8
0
100
AcDbLine
 10
235.5999999999999
 20
544.486158
 30
0.0
 11
227.0
 21
544.486158
 31
0.0
  0
LINE
  5
1107
330
1D
100
AcDbEntity
  8
0
100
AcDbLine
 10
235.6999999999999
 20
569.986158
 30
0.0
 11
227.0
 21
569.986158
 31
0.0
  0
LINE
  5
1108
330
1D
100
AcDbEntity
  8
0
100
AcDbLine
 10
241.0
 20
529.986158
 30
0.0
 11
212.0105
 21
529.986158
 31
0.0
  0
LINE
  5
1109
330
1D
100
AcDbEntity
  8
0
100
AcDbLine
 10
243.0
 20
531.986158
 30
0.0
 11
243.0
 21
541.986158
 31
0.0
  0
LINE
  5
110A
330
1D
100
AcDbEntity
  8
0
100
AcDbLine
 10
243.0
 20
541.986158
 30
0.0
 11
243.0
 21
531.986158
 31
0.0
  0
LINE
  5
110B
330
1D
100
AcDbEntity
  8
0
100
AcDbLine
 10
241.9894999999999
 20
529.986158
 30
0.0
 11
241.0
 21
529.986158
 31
0.0
  0
LINE
  5
110C
330
1D
100
AcDbEntity
  8
0
100
AcDbLine
 10
242.6632
 20
530.986158
 30
0.0
 11
241.6287
 21
530.986158
 31
0.0
  0
LINE
  5
110D
330
1D
100
AcDbEntity
  8
0
100
AcDbLine
 10
243.0
 20
531.986158
 30
0.0
 11
243.0
 21
530.986158
 31
0.0
  0
LINE
  5
110E
330
1D
100
AcDbEntity
  8
0
100
AcDbLine
 10
243.0
 20
530.986158
 30
0.0
 11
243.0
 21
531.986158
 31
0.0
  0
LINE
  5
110F
330
1D
100
AcDbEntity
  8
0
100
AcDbLine
 10
243.0
 20
530.986158
 30
0.0
 11
242.6632
 21
530.986158
 31
0.0
  0
LINE
  5
1110
330
1D
100
AcDbEntity
  8
0
100
AcDbLine
 10
243.0
 20
530.986158
 30
0.0
 11
243.0
 21
530.226158
 31
0.0
  0
LINE
  5
1111
330
1D
100
AcDbEntity
  8
0
100
AcDbLine
 10
243.0
 20
530.226158
 30
0.0
 11
243.0
 21
530.986158
 31
0.0
  0
LINE
  5
1112
330
1D
100
AcDbEntity
  8
0
100
AcDbLine
 10
243.0
 20
530.226158
 30
0.0
 11
243.0
 21
530.0861579999999
 31
0.0
  0
LINE
  5
1113
330
1D
100
AcDbEntity
  8
0
100
AcDbLine
 10
242.5788999999999
 20
529.986158
 30
0.0
 11
241.9894999999999
 21
529.986158
 31
0.0
  0
LINE
  5
1114
330
1D
100
AcDbEntity
  8
0
100
AcDbLine
 10
243.0
 20
530.0861579999999
 30
0.0
 11
243.0
 21
530.226158
 31
0.0
  0
LINE
  5
1115
330
1D
100
AcDbEntity
  8
0
100
AcDbLine
 10
243.0
 20
530.0861579999999
 30
0.0
 11
242.5788999999999
 21
529.986158
 31
0.0
  0
LINE
  5
1116
330
1D
100
AcDbEntity
  8
0
100
AcDbLine
 10
241.0
 20
529.986158
 30
0.0
 11
241.0
 21
527.986158
 31
0.0
  0
LINE
  5
1117
330
1D
100
AcDbEntity
  8
0
100
AcDbLine
 10
241.0
 20
527.986158
 30
0.0
 11
241.0
 21
529.986158
 31
0.0
  0
LINE
  5
1118
330
1D
100
AcDbEntity
  8
0
100
AcDbLine
 10
238.9578999999999
 20
530.3501579999999
 30
0.0
 11
235.1445
 21
530.188158
 31
0.0
  0
LINE
  5
1119
330
1D
100
AcDbEntity
  8
0
100
AcDbLine
 10
241.6287
 20
530.986158
 30
0.0
 11
238.9578999999999
 21
530.3501579999999
 31
0.0
  0
LINE
  5
111A
330
1D
100
AcDbEntity
  8
0
100
AcDbLine
 10
241.6287
 20
530.986158
 30
0.0
 11
239.581077090783
 21
530.498555719686
 31
0.0
  0
LINE
  5
111B
330
1D
100
AcDbEntity
  8
0
100
AcDbLine
 10
255.1
 20
543.986158
 30
0.0
 11
250.0
 21
543.986158
 31
0.0
  0
LINE
  5
111C
330
1D
100
AcDbEntity
  8
0
100
AcDbLine
 10
250.7
 20
544.486158
 30
0.0
 11
243.6999999999999
 21
544.486158
 31
0.0
  0
LINE
  5
111D
330
1D
100
AcDbEntity
  8
0
100
AcDbLine
 10
251.0
 20
569.986158
 30
0.0
 11
243.9
 21
569.986158
 31
0.0
  0
LINE
  5
111E
330
1D
100
AcDbEntity
  8
0
100
AcDbLine
 10
258.3
 20
543.986158
 30
0.0
 11
255.1
 21
543.986158
 31
0.0
  0
LINE
  5
111F
330
1D
100
AcDbEntity
  8
0
100
AcDbLine
 10
259.2999999999999
 20
544.486158
 30
0.0
 11
256.0
 21
544.486158
 31
0.0
  0
LINE
  5
1120
330
1D
100
AcDbEntity
  8
0
100
AcDbLine
 10
256.0
 20
544.486158
 30
0.0
 11
250.7
 21
544.486158
 31
0.0
  0
LINE
  5
1121
330
1D
100
AcDbEntity
  8
0
100
AcDbLine
 10
256.3999999999999
 20
569.986158
 30
0.0
 11
251.0
 21
569.986158
 31
0.0
  0
LINE
  5
1122
330
1D
100
AcDbEntity
  8
0
100
AcDbLine
 10
259.8
 20
569.986158
 30
0.0
 11
256.3999999999999
 21
569.986158
 31
0.0
  0
LINE
  5
1123
330
1D
100
AcDbEntity
  8
0
100
AcDbLine
 10
260.4999999999999
 20
544.486158
 30
0.0
 11
259.5
 21
543.986158
 31
0.0
  0
LINE
  5
1124
330
1D
100
AcDbEntity
  8
0
100
AcDbLine
 10
260.4999999999999
 20
544.486158
 30
0.0
 11
259.2999999999999
 21
544.486158
 31
0.0
  0
LINE
  5
1125
330
1D
100
AcDbEntity
  8
0
100
AcDbLine
 10
259.5
 20
543.986158
 30
0.0
 11
258.3
 21
543.986158
 31
0.0
  0
LINE
  5
1126
330
1D
100
AcDbEntity
  8
0
100
AcDbLine
 10
261.0
 20
545.486158
 30
0.0
 11
260.4999999999999
 21
544.486158
 31
0.0
  0
LINE
  5
1127
330
1D
100
AcDbEntity
  8
0
100
AcDbLine
 10
261.0
 20
545.486158
 30
0.0
 11
261.0
 21
569.986158
 31
0.0
  0
LINE
  5
1128
330
1D
100
AcDbEntity
  8
0
100
AcDbLine
 10
261.0
 20
569.986158
 30
0.0
 11
261.0
 21
545.486158
 31
0.0
  0
LINE
  5
1129
330
1D
100
AcDbEntity
  8
0
100
AcDbLine
 10
261.0
 20
569.986158
 30
0.0
 11
259.8
 21
569.986158
 31
0.0
  0
LINE
  5
112A
330
1D
100
AcDbEntity
  8
0
100
AcDbLine
 10
243.0
 20
541.986158
 30
0.0
 11
241.6287
 21
542.986158
 31
0.0
  0
LINE
  5
112B
330
1D
100
AcDbEntity
  8
0
100
AcDbLine
 10
243.6999999999999
 20
544.486158
 30
0.0
 11
235.5999999999999
 21
544.486158
 31
0.0
  0
LINE
  5
112C
330
1D
100
AcDbEntity
  8
0
100
AcDbLine
 10
241.9894999999999
 20
543.986158
 30
0.0
 11
240.4737
 21
543.986158
 31
0.0
  0
LINE
  5
112D
330
1D
100
AcDbEntity
  8
0
100
AcDbLine
 10
243.0
 20
541.986158
 30
0.0
 11
243.0
 21
542.986158
 31
0.0
  0
LINE
  5
112E
330
1D
100
AcDbEntity
  8
0
100
AcDbLine
 10
243.0
 20
542.986158
 30
0.0
 11
243.0
 21
543.746158
 31
0.0
  0
LINE
  5
112F
330
1D
100
AcDbEntity
  8
0
100
AcDbLine
 10
243.0
 20
542.986158
 30
0.0
 11
243.0
 21
541.986158
 31
0.0
  0
LINE
  5
1130
330
1D
100
AcDbEntity
  8
0
100
AcDbLine
 10
250.0
 20
543.986158
 30
0.0
 11
243.1999999999999
 21
543.986158
 31
0.0
  0
LINE
  5
1131
330
1D
100
AcDbEntity
  8
0
100
AcDbLine
 10
243.1999999999999
 20
543.986158
 30
0.0
 11
242.5788999999999
 21
543.986158
 31
0.0
  0
LINE
  5
1132
330
1D
100
AcDbEntity
  8
0
100
AcDbLine
 10
243.0
 20
543.886158
 30
0.0
 11
243.0
 21
543.746158
 31
0.0
  0
LINE
  5
1133
330
1D
100
AcDbEntity
  8
0
100
AcDbLine
 10
243.0
 20
543.886158
 30
0.0
 11
242.5788999999999
 21
543.986158
 31
0.0
  0
LINE
  5
1134
330
1D
100
AcDbEntity
  8
0
100
AcDbLine
 10
243.0
 20
543.746158
 30
0.0
 11
243.0
 21
543.886158
 31
0.0
  0
LINE
  5
1135
330
1D
100
AcDbEntity
  8
0
100
AcDbLine
 10
243.0
 20
543.746158
 30
0.0
 11
243.0
 21
542.986158
 31
0.0
  0
LINE
  5
1136
330
1D
100
AcDbEntity
  8
0
100
AcDbLine
 10
242.5788999999999
 20
543.986158
 30
0.0
 11
241.9894999999999
 21
543.986158
 31
0.0
  0
LINE
  5
1137
330
1D
100
AcDbEntity
  8
0
100
AcDbLine
 10
238.9578999999999
 20
543.622158
 30
0.0
 11
235.1445
 21
543.784158
 31
0.0
  0
LINE
  5
1138
330
1D
100
AcDbEntity
  8
0
100
AcDbLine
 10
241.6287
 20
542.986158
 30
0.0
 11
238.9578999999999
 21
543.622158
 31
0.0
  0
LINE
  5
1139
330
1D
100
AcDbEntity
  8
0
100
AcDbLine
 10
240.4737
 20
543.986158
 30
0.0
 11
238.0316
 21
543.986158
 31
0.0
  0
LINE
  5
113A
330
1D
100
AcDbEntity
  8
0
100
AcDbLine
 10
238.0316
 20
543.986158
 30
0.0
 11
234.7474
 21
543.986158
 31
0.0
  0
LINE
  5
113B
330
1D
100
AcDbEntity
  8
0
100
AcDbLine
 10
243.9
 20
569.986158
 30
0.0
 11
235.6999999999999
 21
569.986158
 31
0.0
  0
LINE
  5
113C
330
1D
100
AcDbEntity
  8
0
100
AcDbLine
 10
198.9
 20
543.986158
 30
0.0
 11
195.6999999999999
 21
543.986158
 31
0.0
  0
LINE
  5
113D
330
1D
100
AcDbEntity
  8
0
100
AcDbLine
 10
198.0
 20
544.486158
 30
0.0
 11
194.6999999999999
 21
544.486158
 31
0.0
  0
LINE
  5
113E
330
1D
100
AcDbEntity
  8
0
100
AcDbLine
 10
197.5999999999999
 20
569.986158
 30
0.0
 11
194.1999999999999
 21
569.986158
 31
0.0
  0
LINE
  5
113F
330
1D
100
AcDbEntity
  8
0
100
AcDbLine
 10
211.0
 20
541.986158
 30
0.0
 11
211.0
 21
531.986158
 31
0.0
  0
LINE
  5
1140
330
1D
100
AcDbEntity
  8
0
100
AcDbLine
 10
211.0
 20
531.986158
 30
0.0
 11
211.0
 21
541.986158
 31
0.0
  0
LINE
  5
1141
330
1D
100
AcDbEntity
  8
0
100
AcDbLine
 10
215.0421
 20
530.3501579999999
 30
0.0
 11
212.3712999999999
 21
530.986158
 31
0.0
  0
LINE
  5
1142
330
1D
100
AcDbEntity
  8
0
100
AcDbLine
 10
225.0224999999999
 20
530.986158
 30
0.0
 11
222.6481
 21
530.405158
 31
0.0
  0
LINE
  5
1143
330
1D
100
AcDbEntity
  8
0
100
AcDbLine
 10
227.0
 20
530.986158
 30
0.0
 11
225.0224999999999
 21
530.986158
 31
0.0
  0
LINE
  5
1144
330
1D
100
AcDbEntity
  8
0
100
AcDbLine
 10
228.9775
 20
530.986158
 30
0.0
 11
227.0
 21
530.986158
 31
0.0
  0
LINE
  5
1145
330
1D
100
AcDbEntity
  8
0
100
AcDbLine
 10
231.3518999999999
 20
530.405158
 30
0.0
 11
228.9775
 21
530.986158
 31
0.0
  0
LINE
  5
1146
330
1D
100
AcDbEntity
  8
0
100
AcDbLine
 10
218.8555
 20
530.188158
 30
0.0
 11
215.0421
 21
530.3501579999999
 31
0.0
  0
LINE
  5
1147
330
1D
100
AcDbEntity
  8
0
100
AcDbLine
 10
222.6481
 20
530.405158
 30
0.0
 11
218.8555
 21
530.188158
 31
0.0
  0
LINE
  5
1148
330
1D
100
AcDbEntity
  8
0
100
AcDbLine
 10
213.0
 20
527.986158
 30
0.0
 11
213.0
 21
529.986158
 31
0.0
  0
LINE
  5
1149
330
1D
100
AcDbEntity
  8
0
100
AcDbLine
 10
213.0
 20
529.986158
 30
0.0
 11
213.0
 21
527.986158
 31
0.0
  0
LINE
  5
114A
330
1D
100
AcDbEntity
  8
0
100
AcDbLine
 10
211.4209999999999
 20
529.986158
 30
0.0
 11
211.0
 21
530.0861579999999
 31
0.0
  0
LINE
  5
114B
330
1D
100
AcDbEntity
  8
0
100
AcDbLine
 10
212.0105
 20
529.986158
 30
0.0
 11
211.4209999999999
 21
529.986158
 31
0.0
  0
LINE
  5
114C
330
1D
100
AcDbEntity
  8
0
100
AcDbLine
 10
211.0
 20
530.0861579999999
 30
0.0
 11
211.0
 21
530.226158
 31
0.0
  0
LINE
  5
114D
330
1D
100
AcDbEntity
  8
0
100
AcDbLine
 10
211.0
 20
530.226158
 30
0.0
 11
211.0
 21
530.0861579999999
 31
0.0
  0
LINE
  5
114E
330
1D
100
AcDbEntity
  8
0
100
AcDbLine
 10
211.0
 20
530.226158
 30
0.0
 11
211.0
 21
530.986158
 31
0.0
  0
LINE
  5
114F
330
1D
100
AcDbEntity
  8
0
100
AcDbLine
 10
212.3712999999999
 20
530.986158
 30
0.0
 11
211.3368
 21
530.986158
 31
0.0
  0
LINE
  5
1150
330
1D
100
AcDbEntity
  8
0
100
AcDbLine
 10
211.3368
 20
530.986158
 30
0.0
 11
211.0
 21
530.986158
 31
0.0
  0
LINE
  5
1151
330
1D
100
AcDbEntity
  8
0
100
AcDbLine
 10
211.0
 20
531.986158
 30
0.0
 11
211.0
 21
530.986158
 31
0.0
  0
LINE
  5
1152
330
1D
100
AcDbEntity
  8
0
100
AcDbLine
 10
211.0
 20
530.986158
 30
0.0
 11
211.0
 21
530.226158
 31
0.0
  0
LINE
  5
1153
330
1D
100
AcDbEntity
  8
0
100
AcDbLine
 10
211.0
 20
530.986158
 30
0.0
 11
211.0
 21
531.986158
 31
0.0
  0
LINE
  5
1154
330
1D
100
AcDbEntity
  8
0
100
AcDbLine
 10
215.0421
 20
543.622158
 30
0.0
 11
212.3712999999999
 21
542.986158
 31
0.0
  0
LINE
  5
1155
330
1D
100
AcDbEntity
  8
0
100
AcDbLine
 10
215.9685
 20
543.986158
 30
0.0
 11
213.5263
 21
543.986158
 31
0.0
  0
LINE
  5
1156
330
1D
100
AcDbEntity
  8
0
100
AcDbLine
 10
218.4
 20
544.486158
 30
0.0
 11
210.3
 21
544.486158
 31
0.0
  0
LINE
  5
1157
330
1D
100
AcDbEntity
  8
0
100
AcDbLine
 10
218.3
 20
569.986158
 30
0.0
 11
210.0999999999999
 21
569.986158
 31
0.0
  0
LINE
  5
1158
330
1D
100
AcDbEntity
  8
0
100
AcDbLine
 10
225.0224999999999
 20
542.986158
 30
0.0
 11
222.6481
 21
543.5671580000001
 31
0.0
  0
LINE
  5
1159
330
1D
100
AcDbEntity
  8
0
100
AcDbLine
 10
227.0
 20
543.986158
 30
0.0
 11
222.9579
 21
543.986158
 31
0.0
  0
LINE
  5
115A
330
1D
100
AcDbEntity
  8
0
100
AcDbLine
 10
227.0
 20
544.486158
 30
0.0
 11
218.4
 21
544.486158
 31
0.0
  0
LINE
  5
115B
330
1D
100
AcDbEntity
  8
0
100
AcDbLine
 10
228.9775
 20
542.986158
 30
0.0
 11
227.0
 21
542.986158
 31
0.0
  0
LINE
  5
115C
330
1D
100
AcDbEntity
  8
0
100
AcDbLine
 10
227.0
 20
542.986158
 30
0.0
 11
225.0224999999999
 21
542.986158
 31
0.0
  0
LINE
  5
115D
330
1D
100
AcDbEntity
  8
0
100
AcDbLine
 10
231.0421
 20
543.986158
 30
0.0
 11
227.0
 21
543.986158
 31
0.0
  0
LINE
  5
115E
330
1D
100
AcDbEntity
  8
0
100
AcDbLine
 10
231.3518999999999
 20
543.5671580000001
 30
0.0
 11
228.9775
 21
542.986158
 31
0.0
  0
LINE
  5
115F
330
1D
100
AcDbEntity
  8
0
100
AcDbLine
 10
222.6481
 20
543.5671580000001
 30
0.0
 11
218.8555
 21
543.784158
 31
0.0
  0
LINE
  5
1160
330
1D
100
AcDbEntity
  8
0
100
AcDbLine
 10
219.2527
 20
543.986158
 30
0.0
 11
215.9685
 21
543.986158
 31
0.0
  0
LINE
  5
1161
330
1D
100
AcDbEntity
  8
0
100
AcDbLine
 10
222.9579
 20
543.986158
 30
0.0
 11
219.2527
 21
543.986158
 31
0.0
  0
LINE
  5
1162
330
1D
100
AcDbEntity
  8
0
100
AcDbLine
 10
218.8555
 20
543.784158
 30
0.0
 11
215.0421
 21
543.622158
 31
0.0
  0
LINE
  5
1163
330
1D
100
AcDbEntity
  8
0
100
AcDbLine
 10
227.0
 20
569.986158
 30
0.0
 11
218.3
 21
569.986158
 31
0.0
  0
LINE
  5
1164
330
1D
100
AcDbEntity
  8
0
100
AcDbLine
 10
210.8
 20
543.986158
 30
0.0
 11
204.0
 21
543.986158
 31
0.0
  0
LINE
  5
1165
330
1D
100
AcDbEntity
  8
0
100
AcDbLine
 10
210.3
 20
544.486158
 30
0.0
 11
203.3
 21
544.486158
 31
0.0
  0
LINE
  5
1166
330
1D
100
AcDbEntity
  8
0
100
AcDbLine
 10
211.0
 20
542.986158
 30
0.0
 11
211.0
 21
541.986158
 31
0.0
  0
LINE
  5
1167
330
1D
100
AcDbEntity
  8
0
100
AcDbLine
 10
211.0
 20
542.986158
 30
0.0
 11
211.0
 21
543.746158
 31
0.0
  0
LINE
  5
1168
330
1D
100
AcDbEntity
  8
0
100
AcDbLine
 10
211.0
 20
541.986158
 30
0.0
 11
211.0
 21
542.986158
 31
0.0
  0
LINE
  5
1169
330
1D
100
AcDbEntity
  8
0
100
AcDbLine
 10
212.3712999999999
 20
542.986158
 30
0.0
 11
211.0
 21
541.986158
 31
0.0
  0
LINE
  5
116A
330
1D
100
AcDbEntity
  8
0
100
AcDbLine
 10
211.0
 20
543.746158
 30
0.0
 11
211.0
 21
542.986158
 31
0.0
  0
LINE
  5
116B
330
1D
100
AcDbEntity
  8
0
100
AcDbLine
 10
211.4209999999999
 20
543.986158
 30
0.0
 11
211.0
 21
543.886158
 31
0.0
  0
LINE
  5
116C
330
1D
100
AcDbEntity
  8
0
100
AcDbLine
 10
211.4209999999999
 20
543.986158
 30
0.0
 11
210.8
 21
543.986158
 31
0.0
  0
LINE
  5
116D
330
1D
100
AcDbEntity
  8
0
100
AcDbLine
 10
212.0105
 20
543.986158
 30
0.0
 11
211.4209999999999
 21
543.986158
 31
0.0
  0
LINE
  5
116E
330
1D
100
AcDbEntity
  8
0
100
AcDbLine
 10
211.0
 20
543.886158
 30
0.0
 11
211.0
 21
543.746158
 31
0.0
  0
LINE
  5
116F
330
1D
100
AcDbEntity
  8
0
100
AcDbLine
 10
213.5263
 20
543.986158
 30
0.0
 11
212.0105
 21
543.986158
 31
0.0
  0
LINE
  5
1170
330
1D
100
AcDbEntity
  8
0
100
AcDbLine
 10
204.0
 20
543.986158
 30
0.0
 11
198.9
 21
543.986158
 31
0.0
  0
LINE
  5
1171
330
1D
100
AcDbEntity
  8
0
100
AcDbLine
 10
203.3
 20
544.486158
 30
0.0
 11
198.0
 21
544.486158
 31
0.0
  0
LINE
  5
1172
330
1D
100
AcDbEntity
  8
0
100
AcDbLine
 10
203.0
 20
569.986158
 30
0.0
 11
197.5999999999999
 21
569.986158
 31
0.0
  0
LINE
  5
1173
330
1D
100
AcDbEntity
  8
0
100
AcDbLine
 10
210.0999999999999
 20
569.986158
 30
0.0
 11
203.0
 21
569.986158
 31
0.0
  0
LINE
  5
1174
330
1D
100
AcDbEntity
  8
0
100
AcDbLine
 10
194.6999999999999
 20
544.486158
 30
0.0
 11
193.5
 21
544.486158
 31
0.0
  0
LINE
  5
1175
330
1D
100
AcDbEntity
  8
0
100
AcDbLine
 10
195.6999999999999
 20
543.986158
 30
0.0
 11
194.5
 21
543.986158
 31
0.0
  0
LINE
  5
1176
330
1D
100
AcDbEntity
  8
0
100
AcDbLine
 10
194.5
 20
543.986158
 30
0.0
 11
193.5
 21
544.486158
 31
0.0
  0
LINE
  5
1177
330
1D
100
AcDbEntity
  8
0
100
AcDbLine
 10
193.5
 20
544.486158
 30
0.0
 11
193.0
 21
545.486158
 31
0.0
  0
LINE
  5
1178
330
1D
100
AcDbEntity
  8
0
100
AcDbLine
 10
193.0
 20
545.486158
 30
0.0
 11
193.0
 21
569.986158
 31
0.0
  0
LINE
  5
1179
330
1D
100
AcDbEntity
  8
0
100
AcDbLine
 10
193.0
 20
569.986158
 30
0.0
 11
193.0
 21
545.486158
 31
0.0
  0
LINE
  5
117A
330
1D
100
AcDbEntity
  8
0
100
AcDbLine
 10
194.1999999999999
 20
569.986158
 30
0.0
 11
193.0
 21
569.986158
 31
0.0
  0
ENDSEC
  0
SECTION
  2
OBJECTS
  0
DICTIONARY
  5
C
330
0
100
AcDbDictionary
281
     1
  3
ACAD_GROUP
350
D
  3
ACAD_LAYOUT
350
1A
  3
ACAD_MLEADERSTYLE
350
117D
  3
ACAD_MLINESTYLE
350
17
  3
ACAD_PLOTSETTINGS
350
19
  3
ACAD_PLOTSTYLENAME
350
E
  3
ACAD_SCALELIST
350
6BC
  3
AcDbVariableDictionary
350
117B
  3
DWGPROPS
350
1181
  0
DICTIONARY
  5
D
102
{ACAD_REACTORS
330
C
102
}
330
C
100
AcDbDictionary
281
     1
  0
DICTIONARY
  5
1A
102
{ACAD_REACTORS
330
C
102
}
330
C
100
AcDbDictionary
281
     1
  3
Layout1
350
1C
  3
Model
350
1E
  0
DICTIONARY
  5
117D
102
{ACAD_REACTORS
330
C
102
}
330
C
100
AcDbDictionary
281
     1
  0
DICTIONARY
  5
17
102
{ACAD_REACTORS
330
C
102
}
330
C
100
AcDbDictionary
281
     1
  3
Standard
350
18
  0
DICTIONARY
  5
19
102
{ACAD_REACTORS
330
C
102
}
330
C
100
AcDbDictionary
281
     1
  0
ACDBDICTIONARYWDFLT
  5
E
102
{ACAD_REACTORS
330
C
102
}
330
C
100
AcDbDictionary
281
     1
  3
Normal
350
F
100
AcDbDictionaryWithDefault
340
F
  0
DICTIONARY
  5
6BC
102
{ACAD_REACTORS
330
C
102
}
330
C
100
AcDbDictionary
281
     1
  3
A0
350
6BD
  3
A1
350
6BE
  3
A2
350
6BF
  3
A3
350
6C0
  3
A4
350
6C1
  3
A5
350
6C2
  3
A6
350
6C3
  3
A7
350
6C4
  3
A8
350
6C5
  3
A9
350
6C6
  3
B0
350
6C7
  3
B1
350
6C8
  3
B2
350
6C9
  3
B3
350
6CA
  3
B4
350
6CB
  3
B5
350
6CC
  3
B6
350
6CD
  3
B7
350
6CE
  3
B8
350
6CF
  3
B9
350
6D0
  3
C0
350
6D1
  3
C1
350
6D2
  3
C2
350
6D3
  3
C3
350
6D4
  3
C4
350
6D5
  3
C5
350
6D6
  3
C6
350
6D7
  3
C7
350
6D8
  3
C8
350
6D9
  3
C9
350
6DA
  3
D0
350
6DB
  3
D1
350
6DC
  3
D2
350
6DD
  0
DICTIONARY
  5
117B
102
{ACAD_REACTORS
330
C
102
}
330
C
100
AcDbDictionary
281
     1
  3
CANNOSCALE
350
117E
  3
DIMASSOC
350
1187
  0
XRECORD
  5
1181
102
{ACAD_REACTORS
330
C
102
}
330
C
100
AcDbXrecord
280
     1
  1
DWGPROPS COOKIE
  2

  3

  4

  6

  7

  8
MARTIN
  9

300
=
301
=
302
=
303
=
304
=
305
=
306
=
307
=
308
=
309
=
 40
0.0
 41
2455870.812873691
 42
2455870.81375802
  1

 90
        0
  0
LAYOUT
  5
1C
102
{ACAD_REACTORS
330
1A
102
}
330
1A
100
AcDbPlotSettings
  1

  2
none_device
  4

  6

 40
0.0
 41
0.0
 42
0.0
 43
0.0
 44
0.0
 45
0.0
 46
0.0
 47
0.0
 48
0.0
 49
0.0
140
0.0
141
0.0
142
1.0
143
1.0
 70
   688
 72
     0
 73
     0
 74
     5
  7

 75
    16
147
1.0
148
0.0
149
0.0
100
AcDbLayout
  1
Layout1
 70
     1
 71
     1
 10
0.0
 20
0.0
 11
12.0
 21
9.0
 12
0.0
 22
0.0
 32
0.0
 14
1.000000000000000E+20
 24
1.000000000000000E+20
 34
1.000000000000000E+20
 15
-1.000000000000000E+20
 25
-1.000000000000000E+20
 35
-1.000000000000000E+20
146
0.0
 13
0.0
 23
0.0
 33
0.0
 16
1.0
 26
0.0
 36
0.0
 17
0.0
 27
1.0
 37
0.0
 76
     0
330
1B
  0
LAYOUT
  5
1E
102
{ACAD_REACTORS
330
1A
102
}
330
1A
100
AcDbPlotSettings
  1

  2
none_device
  4

  6

 40
0.0
 41
0.0
 42
0.0
 43
0.0
 44
0.0
 45
0.0
 46
0.0
 47
0.0
 48
0.0
 49
0.0
140
0.0
141
0.0
142
1.0
143
1.0
 70
  1712
 72
     0
 73
     0
 74
     0
  7

 75
     0
147
1.0
148
0.0
149
0.0
100
AcDbLayout
  1
Model
 70
     1
 71
     0
 10
0.0
 20
0.0
 11
12.0
 21
9.0
 12
0.0
 22
0.0
 32
0.0
 14
0.0
 24
0.013842
 34
0.0
 15
380.0
 25
569.986158
 35
0.0
146
0.0
 13
0.0
 23
0.0
 33
0.0
 16
1.0
 26
0.0
 36
0.0
 17
0.0
 27
1.0
 37
0.0
 76
     0
330
1D
331
6B7
  0
MLINESTYLE
  5
18
102
{ACAD_REACTORS
330
17
102
}
330
17
100
AcDbMlineStyle
  2
STANDARD
 70
     0
  3

 62
   256
 51
90.0
 52
90.0
 71
     2
 49
0.5
 62
   256
  6
BYLAYER
 49
-0.5
 62
   256
  6
BYLAYER
  0
ACDBPLACEHOLDER
  5
F
102
{ACAD_REACTORS
330
E
102
}
330
E
  0
SCALE
  5
6BD
102
{ACAD_REACTORS
330
6BC
102
}
330
6BC
100
AcDbScale
 70
     0
300
1:1
140
1.0
141
1.0
290
     1
  0
SCALE
  5
6BE
102
{ACAD_REACTORS
330
6BC
102
}
330
6BC
100
AcDbScale
 70
     0
300
1:2
140
1.0
141
2.0
290
     0
  0
SCALE
  5
6BF
102
{ACAD_REACTORS
330
6BC
102
}
330
6BC
100
AcDbScale
 70
     0
300
1:4
140
1.0
141
4.0
290
     0
  0
SCALE
  5
6C0
102
{ACAD_REACTORS
330
6BC
102
}
330
6BC
100
AcDbScale
 70
     0
300
1:5
140
1.0
141
5.0
290
     0
  0
SCALE
  5
6C1
102
{ACAD_REACTORS
330
6BC
102
}
330
6BC
100
AcDbScale
 70
     0
300
1:8
140
1.0
141
8.0
290
     0
  0
SCALE
  5
6C2
102
{ACAD_REACTORS
330
6BC
102
}
330
6BC
100
AcDbScale
 70
     0
300
1:10
140
1.0
141
10.0
290
     0
  0
SCALE
  5
6C3
102
{ACAD_REACTORS
330
6BC
102
}
330
6BC
100
AcDbScale
 70
     0
300
1:16
140
1.0
141
16.0
290
     0
  0
SCALE
  5
6C4
102
{ACAD_REACTORS
330
6BC
102
}
330
6BC
100
AcDbScale
 70
     0
300
1:20
140
1.0
141
20.0
290
     0
  0
SCALE
  5
6C5
102
{ACAD_REACTORS
330
6BC
102
}
330
6BC
100
AcDbScale
 70
     0
300
1:30
140
1.0
141
30.0
290
     0
  0
SCALE
  5
6C6
102
{ACAD_REACTORS
330
6BC
102
}
330
6BC
100
AcDbScale
 70
     0
300
1:40
140
1.0
141
40.0
290
     0
  0
SCALE
  5
6C7
102
{ACAD_REACTORS
330
6BC
102
}
330
6BC
100
AcDbScale
 70
     0
300
1:50
140
1.0
141
50.0
290
     0
  0
SCALE
  5
6C8
102
{ACAD_REACTORS
330
6BC
102
}
330
6BC
100
AcDbScale
 70
     0
300
1:100
140
1.0
141
100.0
290
     0
  0
SCALE
  5
6C9
102
{ACAD_REACTORS
330
6BC
102
}
330
6BC
100
AcDbScale
 70
     0
300
2:1
140
2.0
141
1.0
290
     0
  0
SCALE
  5
6CA
102
{ACAD_REACTORS
330
6BC
102
}
330
6BC
100
AcDbScale
 70
     0
300
4:1
140
4.0
141
1.0
290
     0
  0
SCALE
  5
6CB
102
{ACAD_REACTORS
330
6BC
102
}
330
6BC
100
AcDbScale
 70
     0
300
8:1
140
8.0
141
1.0
290
     0
  0
SCALE
  5
6CC
102
{ACAD_REACTORS
330
6BC
102
}
330
6BC
100
AcDbScale
 70
     0
300
10:1
140
10.0
141
1.0
290
     0
  0
SCALE
  5
6CD
102
{ACAD_REACTORS
330
6BC
102
}
330
6BC
100
AcDbScale
 70
     0
300
100:1
140
100.0
141
1.0
290
     0
  0
SCALE
  5
6CE
102
{ACAD_REACTORS
330
6BC
102
}
330
6BC
100
AcDbScale
 70
     0
300
1/128" = 1'-0"
140
0.0078125
141
12.0
290
     0
  0
SCALE
  5
6CF
102
{ACAD_REACTORS
330
6BC
102
}
330
6BC
100
AcDbScale
 70
     0
300
1/64" = 1'-0"
140
0.015625
141
12.0
290
     0
  0
SCALE
  5
6D0
102
{ACAD_REACTORS
330
6BC
102
}
330
6BC
100
AcDbScale
 70
     0
300
1/32" = 1'-0"
140
0.03125
141
12.0
290
     0
  0
SCALE
  5
6D1
102
{ACAD_REACTORS
330
6BC
102
}
330
6BC
100
AcDbScale
 70
     0
300
1/16" = 1'-0"
140
0.0625
141
12.0
290
     0
  0
SCALE
  5
6D2
102
{ACAD_REACTORS
330
6BC
102
}
330
6BC
100
AcDbScale
 70
     0
300
3/32" = 1'-0"
140
0.09375
141
12.0
290
     0
  0
SCALE
  5
6D3
102
{ACAD_REACTORS
330
6BC
102
}
330
6BC
100
AcDbScale
 70
     0
300
1/8" = 1'-0"
140
0.125
141
12.0
290
     0
  0
SCALE
  5
6D4
102
{ACAD_REACTORS
330
6BC
102
}
330
6BC
100
AcDbScale
 70
     0
300
3/16" = 1'-0"
140
0.1875
141
12.0
290
     0
  0
SCALE
  5
6D5
102
{ACAD_REACTORS
330
6BC
102
}
330
6BC
100
AcDbScale
 70
     0
300
1/4" = 1'-0"
140
0.25
141
12.0
290
     0
  0
SCALE
  5
6D6
102
{ACAD_REACTORS
330
6BC
102
}
330
6BC
100
AcDbScale
 70
     0
300
3/8" = 1'-0"
140
0.375
141
12.0
290
     0
  0
SCALE
  5
6D7
102
{ACAD_REACTORS
330
6BC
102
}
330
6BC
100
AcDbScale
 70
     0
300
1/2" = 1'-0"
140
0.5
141
12.0
290
     0
  0
SCALE
  5
6D8
102
{ACAD_REACTORS
330
6BC
102
}
330
6BC
100
AcDbScale
 70
     0
300
3/4" = 1'-0"
140
0.75
141
12.0
290
     0
  0
SCALE
  5
6D9
102
{ACAD_REACTORS
330
6BC
102
}
330
6BC
100
AcDbScale
 70
     0
300
1" = 1'-0"
140
1.0
141
12.0
290
     0
  0
SCALE
  5
6DA
102
{ACAD_REACTORS
330
6BC
102
}
330
6BC
100
AcDbScale
 70
     0
300
1-1/2" = 1'-0"
140
1.5
141
12.0
290
     0
  0
SCALE
  5
6DB
102
{ACAD_REACTORS
330
6BC
102
}
330
6BC
100
AcDbScale
 70
     0
300
3" = 1'-0"
140
3.0
141
12.0
290
     0
  0
SCALE
  5
6DC
102
{ACAD_REACTORS
330
6BC
102
}
330
6BC
100
AcDbScale
 70
     0
300
6" = 1'-0"
140
6.0
141
12.0
290
     0
  0
SCALE
  5
6DD
102
{ACAD_REACTORS
330
6BC
102
}
330
6BC
100
AcDbScale
 70
     0
300
1'-0" = 1'-0"
140
12.0
141
12.0
290
     0
  0
DICTIONARYVAR
  5
117E
102
{ACAD_REACTORS
330
117B
102
}
330
117B
100
DictionaryVariables
280
     0
  1
1:1
  0
DICTIONARYVAR
  5
1187
102
{ACAD_REACTORS
330
117B
102
}
330
117B
100
DictionaryVariables
280
     0
  1
1
  0
ENDSEC
  0
EOF
