  0
SECTION
  2
HEADER
  9
$ACADVER
  1
AC1014
  9
$ACADMAINTVER
 70
     9
  9
$DWGCODEPAGE
  3
ANSI_1252
  9
$INSBASE
 10
0.0
 20
0.0
 30
0.0
  9
$EXTMIN
 10
0.0000000000000206
 20
-0.0000000000000156
 30
0.0
  9
$EXTMAX
 10
374.0
 20
1865.0
 30
0.0
  9
$LIMMIN
 10
0.0
 20
0.0
  9
$LIMMAX
 10
12.0
 20
9.0
  9
$ORTHOMODE
 70
     0
  9
$REGENMODE
 70
     1
  9
$FILLMODE
 70
     1
  9
$QTEXTMODE
 70
     0
  9
$MIRRTEXT
 70
     1
  9
$DRAGMODE
 70
     2
  9
$LTSCALE
 40
1.0
  9
$OSMODE
 70
    37
  9
$ATTMODE
 70
     1
  9
$TEXTSIZE
 40
0.2
  9
$TRACEWID
 40
0.05
  9
$TEXTSTYLE
  7
STANDARD
  9
$CLAYER
  8
0
  9
$CELTYPE
  6
CONTINUOUS
  9
$CECOLOR
 62
   256
  9
$CELTSCALE
 40
1.0
  9
$DELOBJ
 70
     1
  9
$DISPSILH
 70
     0
  9
$DIMSCALE
 40
1.0
  9
$DIMASZ
 40
0.18
  9
$DIMEXO
 40
0.0625
  9
$DIMDLI
 40
0.38
  9
$DIMRND
 40
0.0
  9
$DIMDLE
 40
0.0
  9
$DIMEXE
 40
0.18
  9
$DIMTP
 40
0.0
  9
$DIMTM
 40
0.0
  9
$DIMTXT
 40
0.18
  9
$DIMCEN
 40
0.09
  9
$DIMTSZ
 40
0.0
  9
$DIMTOL
 70
     0
  9
$DIMLIM
 70
     0
  9
$DIMTIH
 70
     1
  9
$DIMTOH
 70
     1
  9
$DIMSE1
 70
     0
  9
$DIMSE2
 70
     0
  9
$DIMTAD
 70
     0
  9
$DIMZIN
 70
     0
  9
$DIMBLK
  1

  9
$DIMASO
 70
     1
  9
$DIMSHO
 70
     1
  9
$DIMPOST
  1

  9
$DIMAPOST
  1

  9
$DIMALT
 70
     0
  9
$DIMALTD
 70
     2
  9
$DIMALTF
 40
25.4
  9
$DIMLFAC
 40
1.0
  9
$DIMTOFL
 70
     0
  9
$DIMTVP
 40
0.0
  9
$DIMTIX
 70
     0
  9
$DIMSOXD
 70
     0
  9
$DIMSAH
 70
     0
  9
$DIMBLK1
  1

  9
$DIMBLK2
  1

  9
$DIMSTYLE
  2
STANDARD
  9
$DIMCLRD
 70
     0
  9
$DIMCLRE
 70
     0
  9
$DIMCLRT
 70
     0
  9
$DIMTFAC
 40
1.0
  9
$DIMGAP
 40
0.09
  9
$DIMJUST
 70
     0
  9
$DIMSD1
 70
     0
  9
$DIMSD2
 70
     0
  9
$DIMTOLJ
 70
     1
  9
$DIMTZIN
 70
     0
  9
$DIMALTZ
 70
     0
  9
$DIMALTTZ
 70
     0
  9
$DIMFIT
 70
     3
  9
$DIMUPT
 70
     0
  9
$DIMUNIT
 70
     2
  9
$DIMDEC
 70
     4
  9
$DIMTDEC
 70
     4
  9
$DIMALTU
 70
     2
  9
$DIMALTTD
 70
     2
  9
$DIMTXSTY
  7
STANDARD
  9
$DIMAUNIT
 70
     0
  9
$LUNITS
 70
     2
  9
$LUPREC
 70
     4
  9
$SKETCHINC
 40
0.1
  9
$FILLETRAD
 40
0.0
  9
$AUNITS
 70
     0
  9
$AUPREC
 70
     0
  9
$MENU
  1
.
  9
$ELEVATION
 40
0.0
  9
$PELEVATION
 40
0.0
  9
$THICKNESS
 40
0.0
  9
$LIMCHECK
 70
     0
  9
$BLIPMODE
 70
     0
  9
$CHAMFERA
 40
0.0
  9
$CHAMFERB
 40
0.0
  9
$CHAMFERC
 40
0.0
  9
$CHAMFERD
 40
0.0
  9
$SKPOLY
 70
     0
  9
$TDCREATE
 40
2455235.490978368
  9
$TDUPDATE
 40
2455235.496123403
  9
$TDINDWG
 40
0.0051452199
  9
$TDUSRTIMER
 40
0.0051452199
  9
$USRTIMER
 70
     1
  9
$ANGBASE
 50
0.0
  9
$ANGDIR
 70
     0
  9
$PDMODE
 70
     0
  9
$PDSIZE
 40
0.0
  9
$PLINEWID
 40
0.0
  9
$COORDS
 70
     1
  9
$SPLFRAME
 70
     0
  9
$SPLINETYPE
 70
     6
  9
$SPLINESEGS
 70
     8
  9
$ATTDIA
 70
     0
  9
$ATTREQ
 70
     1
  9
$HANDLING
 70
 22529
  9
$HANDSEED
  5
A87
  9
$SURFTAB1
 70
     6
  9
$SURFTAB2
 70
     6
  9
$SURFTYPE
 70
     6
  9
$SURFU
 70
     6
  9
$SURFV
 70
     6
  9
$UCSNAME
  2

  9
$UCSORG
 10
0.0
 20
0.0
 30
0.0
  9
$UCSXDIR
 10
1.0
 20
0.0
 30
0.0
  9
$UCSYDIR
 10
0.0
 20
1.0
 30
0.0
  9
$PUCSNAME
  2

  9
$PUCSORG
 10
0.0
 20
0.0
 30
0.0
  9
$PUCSXDIR
 10
1.0
 20
0.0
 30
0.0
  9
$PUCSYDIR
 10
0.0
 20
1.0
 30
0.0
  9
$USERI1
 70
     0
  9
$USERI2
 70
     0
  9
$USERI3
 70
     0
  9
$USERI4
 70
     0
  9
$USERI5
 70
     0
  9
$USERR1
 40
0.0
  9
$USERR2
 40
0.0
  9
$USERR3
 40
0.0
  9
$USERR4
 40
0.0
  9
$USERR5
 40
0.0
  9
$WORLDVIEW
 70
     1
  9
$SHADEDGE
 70
     3
  9
$SHADEDIF
 70
    70
  9
$TILEMODE
 70
     1
  9
$MAXACTVP
 70
    64
  9
$PINSBASE
 10
0.0
 20
0.0
 30
0.0
  9
$PLIMCHECK
 70
     0
  9
$PEXTMIN
 10
1.000000000000000E+20
 20
1.000000000000000E+20
 30
1.000000000000000E+20
  9
$PEXTMAX
 10
-1.000000000000000E+20
 20
-1.000000000000000E+20
 30
-1.000000000000000E+20
  9
$PLIMMIN
 10
0.0
 20
0.0
  9
$PLIMMAX
 10
12.0
 20
9.0
  9
$UNITMODE
 70
     0
  9
$VISRETAIN
 70
     1
  9
$PLINEGEN
 70
     0
  9
$PSLTSCALE
 70
     1
  9
$TREEDEPTH
 70
  3020
  9
$PICKSTYLE
 70
     1
  9
$CMLSTYLE
  2
STANDARD
  9
$CMLJUST
 70
     0
  9
$CMLSCALE
 40
1.0
  9
$PROXYGRAPHICS
 70
     1
  9
$MEASUREMENT
 70
     0
  0
ENDSEC
  0
SECTION
  2
CLASSES
  0
CLASS
  1
ACDBDICTIONARYWDFLT
  2
AcDbDictionaryWithDefault
  3
AutoCAD 2000
 90
        0
280
     0
281
     0
  0
CLASS
  1
ACDBPLACEHOLDER
  2
AcDbPlaceHolder
  3
AutoCAD 2000
 90
        0
280
     0
281
     0
  0
CLASS
  1
LAYOUT
  2
AcDbLayout
  3
AutoCAD 2000
 90
        0
280
     0
281
     0
  0
CLASS
  1
DICTIONARYVAR
  2
AcDbDictionaryVar
  3
AutoCAD 2000
 90
        0
280
     0
281
     0
  0
CLASS
  1
LONG_TRANSACTION
  2
AcDbLongTransaction
  3
AutoCAD 2000
 90
        0
280
     0
281
     0
  0
CLASS
  1
LWPOLYLINE
  2
AcDbPolyline
  3
AutoCAD 2000
 90
        0
280
     0
281
     1
  0
CLASS
  1
HATCH
  2
AcDbHatch
  3
AutoCAD 2000
 90
        0
280
     0
281
     1
  0
CLASS
  1
XRECORD
  2
AcDbXrecord
  3
AutoCAD 2000
 90
        0
280
     0
281
     0
  0
ENDSEC
  0
SECTION
  2
TABLES
  0
TABLE
  2
VPORT
  5
8
330
0
100
AcDbSymbolTable
 70
     5
  0
VPORT
  5
A62
330
8
100
AcDbSymbolTableRecord
100
AcDbViewportTableRecord
  2
*ACTIVE
 70
     0
 10
0.0
 20
0.0
 11
1.0
 21
1.0
 12
187.0
 22
932.5000000000001
 13
0.0
 23
0.0
 14
1.0
 24
1.0
 15
0.0
 25
0.0
 16
0.0
 26
0.0
 36
1.0
 17
0.0
 27
0.0
 37
0.0
 40
1877.242888402625
 41
2.041621029572836
 42
50.0
 43
0.0
 44
0.0
 50
0.0
 51
0.0
 71
     0
 72
   100
 73
     1
 74
     3
 75
     0
 76
     0
 77
     0
 78
     0
  0
ENDTAB
  0
TABLE
  2
LTYPE
  5
5
330
0
100
AcDbSymbolTable
 70
     1
  0
LTYPE
  5
13
330
5
100
AcDbSymbolTableRecord
100
AcDbLinetypeTableRecord
  2
BYBLOCK
 70
     0
  3

 72
    65
 73
     0
 40
0.0
  0
LTYPE
  5
14
330
5
100
AcDbSymbolTableRecord
100
AcDbLinetypeTableRecord
  2
BYLAYER
 70
     0
  3

 72
    65
 73
     0
 40
0.0
  0
LTYPE
  5
15
330
5
100
AcDbSymbolTableRecord
100
AcDbLinetypeTableRecord
  2
CONTINUOUS
 70
     0
  3
Solid line
 72
    65
 73
     0
 40
0.0
  0
ENDTAB
  0
TABLE
  2
LAYER
  5
2
330
0
100
AcDbSymbolTable
 70
     1
  0
LAYER
  5
10
330
2
100
AcDbSymbolTableRecord
100
AcDbLayerTableRecord
  2
0
 70
     0
 62
     7
  6
CONTINUOUS
  0
ENDTAB
  0
TABLE
  2
STYLE
  5
3
330
0
100
AcDbSymbolTable
 70
     1
  0
STYLE
  5
11
330
3
100
AcDbSymbolTableRecord
100
AcDbTextStyleTableRecord
  2
STANDARD
 70
     0
 40
0.0
 41
1.0
 50
0.0
 71
     0
 42
0.2
  3
txt
  4

  0
ENDTAB
  0
TABLE
  2
VIEW
  5
6
330
0
100
AcDbSymbolTable
 70
     0
  0
ENDTAB
  0
TABLE
  2
UCS
  5
7
330
0
100
AcDbSymbolTable
 70
     0
  0
ENDTAB
  0
TABLE
  2
APPID
  5
9
330
0
100
AcDbSymbolTable
 70
     1
  0
APPID
  5
12
330
9
100
AcDbSymbolTableRecord
100
AcDbRegAppTableRecord
  2
ACAD
 70
     0
  0
ENDTAB
  0
TABLE
  2
DIMSTYLE
  5
A
330
0
100
AcDbSymbolTable
 70
     1
  0
DIMSTYLE
105
A32
330
A
100
AcDbSymbolTableRecord
100
AcDbDimStyleTableRecord
  2
STANDARD
 70
     0
  3

  4

  5

  6

  7

 40
1.0
 41
0.18
 42
0.0625
 43
0.38
 44
0.18
 45
0.0
 46
0.0
 47
0.0
 48
0.0
140
0.18
141
0.09
142
0.0
143
25.4
144
1.0
145
0.0
146
1.0
147
0.09
 71
     0
 72
     0
 73
     1
 74
     1
 75
     0
 76
     0
 77
     0
 78
     0
170
     0
171
     2
172
     0
173
     0
174
     0
175
     0
176
     0
177
     0
178
     0
270
     2
271
     4
272
     4
273
     2
274
     2
340
11
275
     0
280
     0
281
     0
282
     0
283
     1
284
     0
285
     0
286
     0
287
     3
288
     0
  0
ENDTAB
  0
TABLE
  2
BLOCK_RECORD
  5
1
330
0
100
AcDbSymbolTable
 70
     0
  0
BLOCK_RECORD
  5
1E
102
{ACAD_XDICTIONARY
360
A85
102
}
330
1
100
AcDbSymbolTableRecord
100
AcDbBlockTableRecord
  2
*MODEL_SPACE
  0
BLOCK_RECORD
  5
1A
102
{ACAD_XDICTIONARY
360
A83
102
}
330
1
100
AcDbSymbolTableRecord
100
AcDbBlockTableRecord
  2
*PAPER_SPACE
  0
ENDTAB
  0
ENDSEC
  0
SECTION
  2
BLOCKS
  0
BLOCK
  5
1F
330
1E
100
AcDbEntity
  8
0
100
AcDbBlockBegin
  2
*MODEL_SPACE
 70
     0
 10
0.0
 20
0.0
 30
0.0
  3
*MODEL_SPACE
  1

  0
ENDBLK
  5
20
330
1E
100
AcDbEntity
  8
0
100
AcDbBlockEnd
  0
BLOCK
  5
1B
330
1A
100
AcDbEntity
 67
     1
  8
0
100
AcDbBlockBegin
  2
*PAPER_SPACE
 70
     0
 10
0.0
 20
0.0
 30
0.0
  3
*PAPER_SPACE
  1

  0
ENDBLK
  5
1C
330
1A
100
AcDbEntity
 67
     1
  8
0
100
AcDbBlockEnd
  0
ENDSEC
  0
SECTION
  2
ENTITIES
  0
LINE
  5
22
330
1E
100
AcDbEntity
  8
0
100
AcDbLine
 10
85.9276
 20
1718.609999999999
 30
0.0
 11
86.28629999999999
 21
1718.469999999999
 31
0.0
  0
LINE
  5
23
330
1E
100
AcDbEntity
  8
0
100
AcDbLine
 10
86.28629999999999
 20
1718.469999999999
 30
0.0
 11
87.05199523871479
 21
1720.30998855849
 31
0.0
  0
LINE
  5
24
330
1E
100
AcDbEntity
  8
0
100
AcDbLine
 10
84.5884
 20
1719.17
 30
0.0
 11
84.9473
 21
1719.02
 31
0.0
  0
LINE
  5
25
330
1E
100
AcDbEntity
  8
0
100
AcDbLine
 10
84.5884
 20
1719.17
 30
0.0
 11
85.3541
 21
1721.01
 31
0.0
  0
LINE
  5
26
330
1E
100
AcDbEntity
  8
0
100
AcDbLine
 10
84.5884
 20
1719.17
 30
0.0
 11
85.9276
 21
1718.609999999999
 31
0.0
  0
LINE
  5
27
330
1E
100
AcDbEntity
  8
0
100
AcDbLine
 10
84.9473
 20
1719.02
 30
0.0
 11
85.71290000000001
 21
1720.86
 31
0.0
  0
LINE
  5
28
330
1E
100
AcDbEntity
  8
0
100
AcDbLine
 10
84.9473
 20
1719.02
 30
0.0
 11
86.28629999999999
 21
1718.469999999999
 31
0.0
  0
LINE
  5
29
330
1E
100
AcDbEntity
  8
0
100
AcDbLine
 10
82.72200000000001
 20
1719.94
 30
0.0
 11
83.4876
 21
1721.78
 31
0.0
  0
LINE
  5
2A
330
1E
100
AcDbEntity
  8
0
100
AcDbLine
 10
61.9842
 20
1728.5
 30
0.0
 11
63.3233
 21
1727.95
 31
0.0
  0
LINE
  5
2B
330
1E
100
AcDbEntity
  8
0
100
AcDbLine
 10
61.62539999999999
 20
1728.65
 30
0.0
 11
62.3911
 21
1730.49
 31
0.0
  0
LINE
  5
2C
330
1E
100
AcDbEntity
  8
0
100
AcDbLine
 10
61.62539999999999
 20
1728.65
 30
0.0
 11
62.9645
 21
1728.099999999999
 31
0.0
  0
LINE
  5
2D
330
1E
100
AcDbEntity
  8
0
100
AcDbLine
 10
61.62539999999999
 20
1728.65
 30
0.0
 11
61.9842
 21
1728.5
 31
0.0
  0
LINE
  5
2E
330
1E
100
AcDbEntity
  8
0
100
AcDbLine
 10
62.3990014750495
 20
1728.32963123644
 30
0.0
 11
62.5662
 21
1728.259999999999
 31
0.0
  0
LINE
  5
2F
330
1E
100
AcDbEntity
  8
0
100
AcDbLine
 10
62.3990014750495
 20
1728.32963123644
 30
0.0
 11
62.5662
 21
1728.259999999999
 31
0.0
  0
LINE
  5
30
330
1E
100
AcDbEntity
  8
0
100
AcDbLine
 10
60.795
 20
1728.99
 30
0.0
 11
61.56069999999999
 21
1730.839999999999
 31
0.0
  0
LINE
  5
31
330
1E
100
AcDbEntity
  8
0
100
AcDbLine
 10
60.79518162359329
 20
1728.99043881892
 30
0.0
 11
61.3656
 21
1728.76
 31
0.0
  0
LINE
  5
32
330
1E
100
AcDbEntity
  8
0
100
AcDbLine
 10
61.3656
 20
1728.76
 30
0.0
 11
62.1313
 21
1730.6
 31
0.0
  0
LINE
  5
33
330
1E
100
AcDbEntity
  8
0
100
AcDbLine
 10
61.3656
 20
1728.76
 30
0.0
 11
61.62603986714271
 21
1728.65153761988
 31
0.0
  0
LINE
  5
34
330
1E
100
AcDbEntity
  8
0
100
AcDbLine
 10
60.1019
 20
1729.28
 30
0.0
 11
60.8676
 21
1731.119999999999
 31
0.0
  0
LINE
  5
35
330
1E
100
AcDbEntity
  8
0
100
AcDbLine
 10
60.1019
 20
1729.28
 30
0.0
 11
60.795
 21
1728.99
 31
0.0
  0
LINE
  5
36
330
1E
100
AcDbEntity
  8
0
100
AcDbLine
 10
60.6725
 20
1729.04
 30
0.0
 11
61.62577749966821
 21
1728.65090714299
 31
0.0
  0
LINE
  5
37
330
1E
100
AcDbEntity
  8
0
100
AcDbLine
 10
60.6725
 20
1729.04
 30
0.0
 11
60.7540607588897
 21
1729.007050912579
 31
0.0
  0
LINE
  5
38
330
1E
100
AcDbEntity
  8
0
100
AcDbLine
 10
59.8743705184499
 20
1729.37343585237
 30
0.0
 11
60.6728601591981
 21
1729.04087040433
 31
0.0
  0
LINE
  5
39
330
1E
100
AcDbEntity
  8
0
100
AcDbLine
 10
58.9013
 20
1729.779999999999
 30
0.0
 11
60.1019
 21
1729.28
 31
0.0
  0
LINE
  5
3A
330
1E
100
AcDbEntity
  8
0
100
AcDbLine
 10
58.9013
 20
1729.779999999999
 30
0.0
 11
59.667
 21
1731.619999999999
 31
0.0
  0
LINE
  5
3B
330
1E
100
AcDbEntity
  8
0
100
AcDbLine
 10
58.9013
 20
1729.779999999999
 30
0.0
 11
59.5945
 21
1729.49
 31
0.0
  0
LINE
  5
3C
330
1E
100
AcDbEntity
  8
0
100
AcDbLine
 10
58.867942549374
 20
1729.79098743267
 30
0.0
 11
59.755
 21
1729.42
 31
0.0
  0
LINE
  5
3D
330
1E
100
AcDbEntity
  8
0
100
AcDbLine
 10
58.99306188627449
 20
1729.74038906837
 30
0.0
 11
59.15399843971751
 21
1729.674283687939
 31
0.0
  0
LINE
  5
3E
330
1E
100
AcDbEntity
  8
0
100
AcDbLine
 10
58.99306188627449
 20
1729.74038906837
 30
0.0
 11
59.15399843971759
 21
1729.674283687939
 31
0.0
  0
LINE
  5
3F
330
1E
100
AcDbEntity
  8
0
100
AcDbLine
 10
59.5945
 20
1729.49
 30
0.0
 11
60.795
 21
1728.99
 31
0.0
  0
LINE
  5
40
330
1E
100
AcDbEntity
  8
0
100
AcDbLine
 10
59.755
 20
1729.42
 30
0.0
 11
59.8743705184499
 21
1729.37343585237
 31
0.0
  0
LINE
  5
41
330
1E
100
AcDbEntity
  8
0
100
AcDbLine
 10
59.755
 20
1729.42
 30
0.0
 11
59.8743705184499
 21
1729.37343585237
 31
0.0
  0
LINE
  5
42
330
1E
100
AcDbEntity
  8
0
100
AcDbLine
 10
59.15541603376471
 20
1729.67075953778
 30
0.0
 11
59.755
 21
1729.42
 31
0.0
  0
LINE
  5
43
330
1E
100
AcDbEntity
  8
0
100
AcDbLine
 10
59.8743705184499
 20
1729.37343585237
 30
0.0
 11
60.6728601591981
 21
1729.04087040433
 31
0.0
  0
LINE
  5
44
330
1E
100
AcDbEntity
  8
0
100
AcDbLine
 10
64.3164
 20
1727.54
 30
0.0
 11
65.0821
 21
1729.38
 31
0.0
  0
LINE
  5
45
330
1E
100
AcDbEntity
  8
0
100
AcDbLine
 10
64.3164
 20
1727.54
 30
0.0
 11
65.6554
 21
1726.989999999999
 31
0.0
  0
LINE
  5
46
330
1E
100
AcDbEntity
  8
0
100
AcDbLine
 10
64.3164
 20
1727.54
 30
0.0
 11
64.6752
 21
1727.39
 31
0.0
  0
LINE
  5
47
330
1E
100
AcDbEntity
  8
0
100
AcDbLine
 10
63.3233
 20
1727.95
 30
0.0
 11
64.08889999999999
 21
1729.789999999999
 31
0.0
  0
LINE
  5
48
330
1E
100
AcDbEntity
  8
0
100
AcDbLine
 10
62.9645
 20
1728.099999999999
 30
0.0
 11
63.7301
 21
1729.94
 31
0.0
  0
LINE
  5
49
330
1E
100
AcDbEntity
  8
0
100
AcDbLine
 10
62.9645
 20
1728.099999999999
 30
0.0
 11
63.3233
 21
1727.95
 31
0.0
  0
LINE
  5
4A
330
1E
100
AcDbEntity
  8
0
100
AcDbLine
 10
63.7301
 20
1729.94
 30
0.0
 11
64.08889999999999
 21
1729.789999999999
 31
0.0
  0
LINE
  5
4B
330
1E
100
AcDbEntity
  8
0
100
AcDbLine
 10
64.1
 20
1727.63
 30
0.0
 11
64.39232000004229
 21
1727.50826086955
 31
0.0
  0
LINE
  5
4C
330
1E
100
AcDbEntity
  8
0
100
AcDbLine
 10
64.1
 20
1727.63
 30
0.0
 11
64.8656
 21
1729.47
 31
0.0
  0
LINE
  5
4D
330
1E
100
AcDbEntity
  8
0
100
AcDbLine
 10
64.1
 20
1727.63
 30
0.0
 11
64.79309999999999
 21
1727.339999999999
 31
0.0
  0
LINE
  5
4E
330
1E
100
AcDbEntity
  8
0
100
AcDbLine
 10
64.1
 20
1727.63
 30
0.0
 11
64.39232000004229
 21
1727.50826086955
 31
0.0
  0
LINE
  5
4F
330
1E
100
AcDbEntity
  8
0
100
AcDbLine
 10
64.75420980476321
 20
1727.35754880695
 30
0.0
 11
65.3006
 21
1727.13
 31
0.0
  0
LINE
  5
50
330
1E
100
AcDbEntity
  8
0
100
AcDbLine
 10
64.79309999999999
 20
1727.339999999999
 30
0.0
 11
64.95549999998719
 21
1727.27371980677
 31
0.0
  0
LINE
  5
51
330
1E
100
AcDbEntity
  8
0
100
AcDbLine
 10
64.6752
 20
1727.39
 30
0.0
 11
66.0143
 21
1726.84
 31
0.0
  0
LINE
  5
52
330
1E
100
AcDbEntity
  8
0
100
AcDbLine
 10
64.8656
 20
1729.47
 30
0.0
 11
65.5586689654873
 21
1729.18711470796
 31
0.0
  0
LINE
  5
53
330
1E
100
AcDbEntity
  8
0
100
AcDbLine
 10
64.8656
 20
1729.47
 30
0.0
 11
65.26062110844709
 21
1729.310418539369
 31
0.0
  0
LINE
  5
54
330
1E
100
AcDbEntity
  8
0
100
AcDbLine
 10
64.8656
 20
1729.47
 30
0.0
 11
65.5586689654874
 21
1729.18711470796
 31
0.0
  0
LINE
  5
55
330
1E
100
AcDbEntity
  8
0
100
AcDbLine
 10
64.75420980476321
 20
1727.35754880695
 30
0.0
 11
65.3006
 21
1727.13
 31
0.0
  0
LINE
  5
56
330
1E
100
AcDbEntity
  8
0
100
AcDbLine
 10
64.3842
 20
1727.51
 30
0.0
 11
64.4890880658462
 21
1727.46720164609
 31
0.0
  0
LINE
  5
57
330
1E
100
AcDbEntity
  8
0
100
AcDbLine
 10
65.6554
 20
1726.989999999999
 30
0.0
 11
66.42109999999999
 21
1728.83
 31
0.0
  0
LINE
  5
58
330
1E
100
AcDbEntity
  8
0
100
AcDbLine
 10
65.6554
 20
1726.989999999999
 30
0.0
 11
66.0143
 21
1726.84
 31
0.0
  0
LINE
  5
59
330
1E
100
AcDbEntity
  8
0
100
AcDbLine
 10
66.0143
 20
1726.84
 30
0.0
 11
66.7799
 21
1728.679999999999
 31
0.0
  0
LINE
  5
5A
330
1E
100
AcDbEntity
  8
0
100
AcDbLine
 10
66.3447
 20
1726.7
 30
0.0
 11
67.1086882569393
 21
1728.54586427496
 31
0.0
  0
LINE
  5
5B
330
1E
100
AcDbEntity
  8
0
100
AcDbLine
 10
65.77620178410271
 20
1726.93779256123
 30
0.0
 11
66.3447
 21
1726.7
 31
0.0
  0
LINE
  5
5C
330
1E
100
AcDbEntity
  8
0
100
AcDbLine
 10
65.77620178410271
 20
1726.93779256123
 30
0.0
 11
66.3447
 21
1726.7
 31
0.0
  0
LINE
  5
5D
330
1E
100
AcDbEntity
  8
0
100
AcDbLine
 10
66.42109999999999
 20
1728.83
 30
0.0
 11
66.7799
 21
1728.679999999999
 31
0.0
  0
LINE
  5
5E
330
1E
100
AcDbEntity
  8
0
100
AcDbLine
 10
65.0821
 20
1729.38
 30
0.0
 11
66.42109999999999
 21
1728.83
 31
0.0
  0
LINE
  5
5F
330
1E
100
AcDbEntity
  8
0
100
AcDbLine
 10
66.6637218351466
 20
1728.72994902295
 30
0.0
 11
66.75920000000001
 21
1728.69
 31
0.0
  0
LINE
  5
60
330
1E
100
AcDbEntity
  8
0
100
AcDbLine
 10
66.6637218351466
 20
1728.72994902295
 30
0.0
 11
66.75920000000001
 21
1728.69
 31
0.0
  0
LINE
  5
61
330
1E
100
AcDbEntity
  8
0
100
AcDbLine
 10
65.3006
 20
1727.13
 30
0.0
 11
65.45099119558829
 21
1727.06924464758
 31
0.0
  0
LINE
  5
62
330
1E
100
AcDbEntity
  8
0
100
AcDbLine
 10
65.3006
 20
1727.13
 30
0.0
 11
65.7653990410835
 21
1726.94222950295
 31
0.0
  0
LINE
  5
63
330
1E
100
AcDbEntity
  8
0
100
AcDbLine
 10
65.3006
 20
1727.13
 30
0.0
 11
65.7653990410835
 21
1726.94222950295
 31
0.0
  0
LINE
  5
64
330
1E
100
AcDbEntity
  8
0
100
AcDbLine
 10
64.95549999998719
 20
1727.27371980677
 30
0.0
 11
65.3006
 21
1727.13
 31
0.0
  0
LINE
  5
65
330
1E
100
AcDbEntity
  8
0
100
AcDbLine
 10
67.0074
 20
1726.43
 30
0.0
 11
67.773
 21
1728.27
 31
0.0
  0
LINE
  5
66
330
1E
100
AcDbEntity
  8
0
100
AcDbLine
 10
67.0074
 20
1726.43
 30
0.0
 11
68.3465
 21
1725.88
 31
0.0
  0
LINE
  5
67
330
1E
100
AcDbEntity
  8
0
100
AcDbLine
 10
67.0074
 20
1726.43
 30
0.0
 11
67.36620000000001
 21
1726.28
 31
0.0
  0
LINE
  5
68
330
1E
100
AcDbEntity
  8
0
100
AcDbLine
 10
62.56653916136929
 20
1728.26081955138
 30
0.0
 11
63.3233
 21
1727.95
 31
0.0
  0
LINE
  5
69
330
1E
100
AcDbEntity
  8
0
100
AcDbLine
 10
58.0126
 20
1730.14
 30
0.0
 11
58.7777493670546
 21
1731.98866962133
 31
0.0
  0
LINE
  5
6A
330
1E
100
AcDbEntity
  8
0
100
AcDbLine
 10
58.0126
 20
1730.14
 30
0.0
 11
58.9929
 21
1729.74
 31
0.0
  0
LINE
  5
6B
330
1E
100
AcDbEntity
  8
0
100
AcDbLine
 10
61.56031185118049
 20
1730.839062197579
 30
0.0
 11
62.2843245901479
 21
1730.537540983609
 31
0.0
  0
LINE
  5
6C
330
1E
100
AcDbEntity
  8
0
100
AcDbLine
 10
61.5602328422804
 20
1730.838871304969
 30
0.0
 11
62.1313
 21
1730.6
 31
0.0
  0
LINE
  5
6D
330
1E
100
AcDbEntity
  8
0
100
AcDbLine
 10
62.945587636259
 20
1730.268159016949
 30
0.0
 11
64.08889999999999
 21
1729.789999999999
 31
0.0
  0
LINE
  5
6E
330
1E
100
AcDbEntity
  8
0
100
AcDbLine
 10
62.3911
 20
1730.49
 30
0.0
 11
63.7301
 21
1729.94
 31
0.0
  0
LINE
  5
6F
330
1E
100
AcDbEntity
  8
0
100
AcDbLine
 10
62.3911
 20
1730.49
 30
0.0
 11
62.7123045794197
 21
1730.36466933913
 31
0.0
  0
LINE
  5
70
330
1E
100
AcDbEntity
  8
0
100
AcDbLine
 10
62.1313
 20
1730.6
 30
0.0
 11
62.6113759493632
 21
1730.404050632909
 31
0.0
  0
LINE
  5
71
330
1E
100
AcDbEntity
  8
0
100
AcDbLine
 10
57.7688
 20
1730.24
 30
0.0
 11
59.1551
 21
1729.67
 31
0.0
  0
LINE
  5
72
330
1E
100
AcDbEntity
  8
0
100
AcDbLine
 10
57.0324
 20
1730.55
 30
0.0
 11
57.798
 21
1732.39
 31
0.0
  0
LINE
  5
73
330
1E
100
AcDbEntity
  8
0
100
AcDbLine
 10
57.0324
 20
1730.55
 30
0.0
 11
58.0126
 21
1730.14
 31
0.0
  0
LINE
  5
74
330
1E
100
AcDbEntity
  8
0
100
AcDbLine
 10
63.3312279746685
 20
1730.10861775488
 30
0.0
 11
65.26062110844719
 21
1729.310418539369
 31
0.0
  0
LINE
  5
75
330
1E
100
AcDbEntity
  8
0
100
AcDbLine
 10
63.3312279746685
 20
1730.10861775488
 30
0.0
 11
65.26062110844709
 21
1729.310418539369
 31
0.0
  0
LINE
  5
76
330
1E
100
AcDbEntity
  8
0
100
AcDbLine
 10
73.7284
 20
1723.65
 30
0.0
 11
74.08719999999999
 21
1723.5
 31
0.0
  0
LINE
  5
77
330
1E
100
AcDbEntity
  8
0
100
AcDbLine
 10
73.7284
 20
1723.65
 30
0.0
 11
74.49183915161791
 21
1725.494537587169
 31
0.0
  0
LINE
  5
78
330
1E
100
AcDbEntity
  8
0
100
AcDbLine
 10
79.4692
 20
1721.28
 30
0.0
 11
80.23480000000001
 21
1723.119999999999
 31
0.0
  0
LINE
  5
79
330
1E
100
AcDbEntity
  8
0
100
AcDbLine
 10
79.11039999999999
 20
1721.43
 30
0.0
 11
79.876
 21
1723.27
 31
0.0
  0
LINE
  5
7A
330
1E
100
AcDbEntity
  8
0
100
AcDbLine
 10
79.11039999999999
 20
1721.43
 30
0.0
 11
79.4692
 21
1721.28
 31
0.0
  0
LINE
  5
7B
330
1E
100
AcDbEntity
  8
0
100
AcDbLine
 10
78.1301
 20
1721.829999999999
 30
0.0
 11
79.4692
 21
1721.28
 31
0.0
  0
LINE
  5
7C
330
1E
100
AcDbEntity
  8
0
100
AcDbLine
 10
77.77129999999999
 20
1721.98
 30
0.0
 11
78.1301
 21
1721.829999999999
 31
0.0
  0
LINE
  5
7D
330
1E
100
AcDbEntity
  8
0
100
AcDbLine
 10
77.77129999999999
 20
1721.98
 30
0.0
 11
78.5356069833813
 21
1723.82663434668
 31
0.0
  0
LINE
  5
7E
330
1E
100
AcDbEntity
  8
0
100
AcDbLine
 10
77.77129999999999
 20
1721.98
 30
0.0
 11
79.11039999999999
 21
1721.43
 31
0.0
  0
LINE
  5
7F
330
1E
100
AcDbEntity
  8
0
100
AcDbLine
 10
74.4971
 20
1723.329999999999
 30
0.0
 11
75.26149325245
 21
1725.177084008659
 31
0.0
  0
LINE
  5
80
330
1E
100
AcDbEntity
  8
0
100
AcDbLine
 10
74.4971
 20
1723.329999999999
 30
0.0
 11
75.0810862006568
 21
1723.091658139
 31
0.0
  0
LINE
  5
81
330
1E
100
AcDbEntity
  8
0
100
AcDbLine
 10
76.16253061223379
 20
1722.64551020409
 30
0.0
 11
76.39079999999999
 21
1722.55
 31
0.0
  0
LINE
  5
82
330
1E
100
AcDbEntity
  8
0
100
AcDbLine
 10
76.41939999999999
 20
1722.54
 30
0.0
 11
77.18510000000001
 21
1724.38
 31
0.0
  0
LINE
  5
83
330
1E
100
AcDbEntity
  8
0
100
AcDbLine
 10
76.41939999999999
 20
1722.54
 30
0.0
 11
76.7782
 21
1722.39
 31
0.0
  0
LINE
  5
84
330
1E
100
AcDbEntity
  8
0
100
AcDbLine
 10
76.08443097054849
 20
1722.67758996729
 30
0.0
 11
76.39079999999999
 21
1722.55
 31
0.0
  0
LINE
  5
85
330
1E
100
AcDbEntity
  8
0
100
AcDbLine
 10
79.22107878075699
 20
1723.54390282508
 30
0.0
 11
79.876
 21
1723.27
 31
0.0
  0
LINE
  5
86
330
1E
100
AcDbEntity
  8
0
100
AcDbLine
 10
79.23119223701
 20
1723.539731402
 30
0.0
 11
80.23480000000001
 21
1723.119999999999
 31
0.0
  0
LINE
  5
87
330
1E
100
AcDbEntity
  8
0
100
AcDbLine
 10
79.23119223701
 20
1723.539731402
 30
0.0
 11
80.23480000000001
 21
1723.119999999999
 31
0.0
  0
LINE
  5
88
330
1E
100
AcDbEntity
  8
0
100
AcDbLine
 10
79.22107878075699
 20
1723.54390282508
 30
0.0
 11
79.876
 21
1723.27
 31
0.0
  0
LINE
  5
89
330
1E
100
AcDbEntity
  8
0
100
AcDbLine
 10
79.876
 20
1723.27
 30
0.0
 11
80.23480000000001
 21
1723.119999999999
 31
0.0
  0
LINE
  5
8A
330
1E
100
AcDbEntity
  8
0
100
AcDbLine
 10
76.08443097054849
 20
1722.67758996729
 30
0.0
 11
76.39079999999999
 21
1722.55
 31
0.0
  0
LINE
  5
8B
330
1E
100
AcDbEntity
  8
0
100
AcDbLine
 10
76.16253061223379
 20
1722.64551020409
 30
0.0
 11
76.39079999999999
 21
1722.55
 31
0.0
  0
LINE
  5
8C
330
1E
100
AcDbEntity
  8
0
100
AcDbLine
 10
75.0804
 20
1723.09
 30
0.0
 11
75.84458487575649
 21
1724.93658048609
 31
0.0
  0
LINE
  5
8D
330
1E
100
AcDbEntity
  8
0
100
AcDbLine
 10
75.0804
 20
1723.09
 30
0.0
 11
76.41939999999999
 21
1722.54
 31
0.0
  0
LINE
  5
8E
330
1E
100
AcDbEntity
  8
0
100
AcDbLine
 10
76.7782
 20
1722.39
 30
0.0
 11
77.5422862123017
 21
1724.23634207518
 31
0.0
  0
LINE
  5
8F
330
1E
100
AcDbEntity
  8
0
100
AcDbLine
 10
74.08719999999999
 20
1723.5
 30
0.0
 11
74.8513491957879
 21
1725.34625311768
 31
0.0
  0
LINE
  5
90
330
1E
100
AcDbEntity
  8
0
100
AcDbLine
 10
72.38939999999999
 20
1724.21
 30
0.0
 11
73.1535559451376
 21
1726.046529439719
 31
0.0
  0
LINE
  5
91
330
1E
100
AcDbEntity
  8
0
100
AcDbLine
 10
72.38939999999999
 20
1724.21
 30
0.0
 11
73.7284
 21
1723.65
 31
0.0
  0
LINE
  5
92
330
1E
100
AcDbEntity
  8
0
100
AcDbLine
 10
77.18510000000001
 20
1724.38
 30
0.0
 11
77.35059318467619
 21
1724.31540829146
 31
0.0
  0
LINE
  5
93
330
1E
100
AcDbEntity
  8
0
100
AcDbLine
 10
77.18510000000001
 20
1724.38
 30
0.0
 11
77.35059318467619
 21
1724.31540829146
 31
0.0
  0
LINE
  5
94
330
1E
100
AcDbEntity
  8
0
100
AcDbLine
 10
72.7165
 20
1724.07
 30
0.0
 11
73.0319429687563
 21
1723.94127403846
 31
0.0
  0
LINE
  5
95
330
1E
100
AcDbEntity
  8
0
100
AcDbLine
 10
71.39619999999999
 20
1724.619999999999
 30
0.0
 11
72.160319633436
 21
1726.45620233188
 31
0.0
  0
LINE
  5
96
330
1E
100
AcDbEntity
  8
0
100
AcDbLine
 10
76.5448019493613
 20
1724.64776708861
 30
0.0
 11
77.18510000000001
 21
1724.38
 31
0.0
  0
LINE
  5
97
330
1E
100
AcDbEntity
  8
0
100
AcDbLine
 10
76.54480194936141
 20
1724.64776708861
 30
0.0
 11
77.18510000000001
 21
1724.38
 31
0.0
  0
LINE
  5
98
330
1E
100
AcDbEntity
  8
0
100
AcDbLine
 10
71.5703
 20
1724.54
 30
0.0
 11
72.33378711564601
 21
1726.384653472569
 31
0.0
  0
LINE
  5
99
330
1E
100
AcDbEntity
  8
0
100
AcDbLine
 10
71.73619999999999
 20
1724.48
 30
0.0
 11
72.7165
 21
1724.07
 31
0.0
  0
LINE
  5
9A
330
1E
100
AcDbEntity
  8
0
100
AcDbLine
 10
71.73619999999999
 20
1724.48
 30
0.0
 11
72.50006501218741
 21
1726.316070048889
 31
0.0
  0
LINE
  5
9B
330
1E
100
AcDbEntity
  8
0
100
AcDbLine
 10
71.11032118794641
 20
1724.73157801418
 30
0.0
 11
71.5703
 21
1724.54
 31
0.0
  0
LINE
  5
9C
330
1E
100
AcDbEntity
  8
0
100
AcDbLine
 10
73.0319429687563
 20
1723.94127403846
 30
0.0
 11
73.7284
 21
1723.65
 31
0.0
  0
LINE
  5
9D
330
1E
100
AcDbEntity
  8
0
100
AcDbLine
 10
71.03749999999999
 20
1724.76
 30
0.0
 11
71.11032118794641
 21
1724.73157801418
 31
0.0
  0
LINE
  5
9E
330
1E
100
AcDbEntity
  8
0
100
AcDbLine
 10
71.03749999999999
 20
1724.76
 30
0.0
 11
71.800811261449
 21
1726.604710429369
 31
0.0
  0
LINE
  5
9F
330
1E
100
AcDbEntity
  8
0
100
AcDbLine
 10
71.03749999999999
 20
1724.76
 30
0.0
 11
71.39619999999999
 21
1724.619999999999
 31
0.0
  0
LINE
  5
A0
330
1E
100
AcDbEntity
  8
0
100
AcDbLine
 10
68.3465
 20
1725.88
 30
0.0
 11
69.11105039258899
 21
1727.71747743255
 31
0.0
  0
LINE
  5
A1
330
1E
100
AcDbEntity
  8
0
100
AcDbLine
 10
68.3465
 20
1725.88
 30
0.0
 11
68.70529999999999
 21
1725.73
 31
0.0
  0
LINE
  5
A2
330
1E
100
AcDbEntity
  8
0
100
AcDbLine
 10
68.16589999999999
 20
1725.95
 30
0.0
 11
68.52578432056271
 21
1725.802038327519
 31
0.0
  0
LINE
  5
A3
330
1E
100
AcDbEntity
  8
0
100
AcDbLine
 10
68.4589
 20
1725.83
 30
0.0
 11
68.8177
 21
1725.68
 31
0.0
  0
LINE
  5
A4
330
1E
100
AcDbEntity
  8
0
100
AcDbLine
 10
69.69840000000001
 20
1725.319999999999
 30
0.0
 11
70.46320330635992
 21
1727.15808527129
 31
0.0
  0
LINE
  5
A5
330
1E
100
AcDbEntity
  8
0
100
AcDbLine
 10
69.69840000000001
 20
1725.319999999999
 30
0.0
 11
71.03749999999999
 21
1724.76
 31
0.0
  0
LINE
  5
A6
330
1E
100
AcDbEntity
  8
0
100
AcDbLine
 10
69.2985
 20
1725.48
 30
0.0
 11
70.01750926005711
 21
1725.18655127651
 31
0.0
  0
LINE
  5
A7
330
1E
100
AcDbEntity
  8
0
100
AcDbLine
 10
69.2985
 20
1725.48
 30
0.0
 11
70.06178104619831
 21
1727.324155590269
 31
0.0
  0
LINE
  5
A8
330
1E
100
AcDbEntity
  8
0
100
AcDbLine
 10
68.70529999999999
 20
1725.73
 30
0.0
 11
69.47040512741999
 21
1727.56881065106
 31
0.0
  0
LINE
  5
A9
330
1E
100
AcDbEntity
  8
0
100
AcDbLine
 10
68.52578432056271
 20
1725.802038327519
 30
0.0
 11
68.8177
 21
1725.68
 31
0.0
  0
LINE
  5
AA
330
1E
100
AcDbEntity
  8
0
100
AcDbLine
 10
68.8177
 20
1725.68
 30
0.0
 11
69.2993876808182
 21
1725.482144716619
 31
0.0
  0
LINE
  5
AB
330
1E
100
AcDbEntity
  8
0
100
AcDbLine
 10
68.8177
 20
1725.68
 30
0.0
 11
69.58339999999999
 21
1727.52
 31
0.0
  0
LINE
  5
AC
330
1E
100
AcDbEntity
  8
0
100
AcDbLine
 10
68.52578432056271
 20
1725.802038327519
 30
0.0
 11
68.8177
 21
1725.68
 31
0.0
  0
LINE
  5
AD
330
1E
100
AcDbEntity
  8
0
100
AcDbLine
 10
70.447001665196
 20
1725.00694127958
 30
0.0
 11
71.03749999999999
 21
1724.76
 31
0.0
  0
LINE
  5
AE
330
1E
100
AcDbEntity
  8
0
100
AcDbLine
 10
67.36620000000001
 20
1726.28
 30
0.0
 11
68.166448847224
 21
1725.95131889629
 31
0.0
  0
LINE
  5
AF
330
1E
100
AcDbEntity
  8
0
100
AcDbLine
 10
67.36620000000001
 20
1726.28
 30
0.0
 11
68.70529999999999
 21
1725.73
 31
0.0
  0
LINE
  5
B0
330
1E
100
AcDbEntity
  8
0
100
AcDbLine
 10
67.773
 20
1728.27
 30
0.0
 11
68.12028209076721
 21
1728.1273630424
 31
0.0
  0
LINE
  5
B1
330
1E
100
AcDbEntity
  8
0
100
AcDbLine
 10
67.773
 20
1728.27
 30
0.0
 11
68.1202820907673
 21
1728.1273630424
 31
0.0
  0
LINE
  5
B2
330
1E
100
AcDbEntity
  8
0
100
AcDbLine
 10
69.46984327258471
 20
1727.56746032074
 30
0.0
 11
69.58339999999999
 21
1727.52
 31
0.0
  0
LINE
  5
B3
330
1E
100
AcDbEntity
  8
0
100
AcDbLine
 10
69.58339999999999
 20
1727.52
 30
0.0
 11
70.0615501670816
 21
1727.32359776558
 31
0.0
  0
LINE
  5
B4
330
1E
100
AcDbEntity
  8
0
100
AcDbLine
 10
72.36419999999999
 20
1727.45
 30
0.0
 11
83.1773
 21
1722.99
 31
0.0
  0
LINE
  5
B5
330
1E
100
AcDbEntity
  8
0
100
AcDbLine
 10
71.98139999999999
 20
1726.53
 30
0.0
 11
82.7945
 21
1722.07
 31
0.0
  0
LINE
  5
B6
330
1E
100
AcDbEntity
  8
0
100
AcDbLine
 10
67.1086882569393
 20
1728.54586427496
 30
0.0
 11
68.12028209076709
 21
1728.1273630424
 31
0.0
  0
LINE
  5
B7
330
1E
100
AcDbEntity
  8
0
100
AcDbLine
 10
67.1086882569393
 20
1728.54586427496
 30
0.0
 11
68.1202820907673
 21
1728.1273630424
 31
0.0
  0
LINE
  5
B8
330
1E
100
AcDbEntity
  8
0
100
AcDbLine
 10
36.93719999999999
 20
1738.85
 30
0.0
 11
37.7028
 21
1740.69
 31
0.0
  0
LINE
  5
B9
330
1E
100
AcDbEntity
  8
0
100
AcDbLine
 10
36.97449999999999
 20
1738.83
 30
0.0
 11
37.7401
 21
1740.68
 31
0.0
  0
LINE
  5
BA
330
1E
100
AcDbEntity
  8
0
100
AcDbLine
 10
36.97449999999999
 20
1738.83
 30
0.0
 11
38.3311985008232
 21
1738.27217114227
 31
0.0
  0
LINE
  5
BB
330
1E
100
AcDbEntity
  8
0
100
AcDbLine
 10
40.02819999999999
 20
1737.569999999999
 30
0.0
 11
40.79369999999999
 21
1739.41
 31
0.0
  0
LINE
  5
BC
330
1E
100
AcDbEntity
  8
0
100
AcDbLine
 10
38.689
 20
1738.12
 30
0.0
 11
40.02819999999999
 21
1737.569999999999
 31
0.0
  0
LINE
  5
BD
330
1E
100
AcDbEntity
  8
0
100
AcDbLine
 10
38.689
 20
1738.12
 30
0.0
 11
39.4547
 21
1739.97
 31
0.0
  0
LINE
  5
BE
330
1E
100
AcDbEntity
  8
0
100
AcDbLine
 10
38.3303
 20
1738.269999999999
 30
0.0
 11
38.689
 21
1738.12
 31
0.0
  0
LINE
  5
BF
330
1E
100
AcDbEntity
  8
0
100
AcDbLine
 10
38.3303
 20
1738.269999999999
 30
0.0
 11
39.0959
 21
1740.12
 31
0.0
  0
LINE
  5
C0
330
1E
100
AcDbEntity
  8
0
100
AcDbLine
 10
35.95689999999999
 20
1739.25
 30
0.0
 11
36.93719999999999
 21
1738.85
 31
0.0
  0
LINE
  5
C1
330
1E
100
AcDbEntity
  8
0
100
AcDbLine
 10
35.95689999999999
 20
1739.25
 30
0.0
 11
36.7225
 21
1741.099999999999
 31
0.0
  0
LINE
  5
C2
330
1E
100
AcDbEntity
  8
0
100
AcDbLine
 10
35.3548482233191
 20
1739.50182741118
 30
0.0
 11
35.95689999999999
 21
1739.25
 31
0.0
  0
LINE
  5
C3
330
1E
100
AcDbEntity
  8
0
100
AcDbLine
 10
34.9767
 20
1739.66
 30
0.0
 11
35.95689999999999
 21
1739.25
 31
0.0
  0
LINE
  5
C4
330
1E
100
AcDbEntity
  8
0
100
AcDbLine
 10
34.9767
 20
1739.66
 30
0.0
 11
35.7423
 21
1741.5
 31
0.0
  0
LINE
  5
C5
330
1E
100
AcDbEntity
  8
0
100
AcDbLine
 10
35.3548482233191
 20
1739.50182741118
 30
0.0
 11
35.95689999999999
 21
1739.25
 31
0.0
  0
LINE
  5
C6
330
1E
100
AcDbEntity
  8
0
100
AcDbLine
 10
50.00504187235829
 20
1733.44757446808
 30
0.0
 11
50.07100000000001
 21
1733.42
 31
0.0
  0
LINE
  5
C7
330
1E
100
AcDbEntity
  8
0
100
AcDbLine
 10
49.72567347603949
 20
1733.561567489119
 30
0.0
 11
50.6608
 21
1733.18
 31
0.0
  0
LINE
  5
C8
330
1E
100
AcDbEntity
  8
0
100
AcDbLine
 10
49.7048
 20
1733.57
 30
0.0
 11
50.4687368175825
 21
1735.41598107697
 31
0.0
  0
LINE
  5
C9
330
1E
100
AcDbEntity
  8
0
100
AcDbLine
 10
49.7048
 20
1733.57
 30
0.0
 11
50.39789999999999
 21
1733.29
 31
0.0
  0
LINE
  5
CA
330
1E
100
AcDbEntity
  8
0
100
AcDbLine
 10
50.0050418723584
 20
1733.44757446808
 30
0.0
 11
50.07100000000001
 21
1733.42
 31
0.0
  0
LINE
  5
CB
330
1E
100
AcDbEntity
  8
0
100
AcDbLine
 10
50.6608
 20
1733.18
 30
0.0
 11
51.42628009565389
 21
1735.019952156759
 31
0.0
  0
LINE
  5
CC
330
1E
100
AcDbEntity
  8
0
100
AcDbLine
 10
50.6608
 20
1733.18
 30
0.0
 11
51.6409
 21
1732.77
 31
0.0
  0
LINE
  5
CD
330
1E
100
AcDbEntity
  8
0
100
AcDbLine
 10
50.39789999999999
 20
1733.29
 30
0.0
 11
51.1629489041595
 21
1735.12867552724
 31
0.0
  0
LINE
  5
CE
330
1E
100
AcDbEntity
  8
0
100
AcDbLine
 10
50.0060933572916
 20
1733.44714542189
 30
0.0
 11
50.07100000000001
 21
1733.42
 31
0.0
  0
LINE
  5
CF
330
1E
100
AcDbEntity
  8
0
100
AcDbLine
 10
45.1994
 20
1735.44
 30
0.0
 11
45.9649611993839
 21
1737.27990674878
 31
0.0
  0
LINE
  5
D0
330
1E
100
AcDbEntity
  8
0
100
AcDbLine
 10
47.3716
 20
1734.54
 30
0.0
 11
48.1373
 21
1736.38
 31
0.0
  0
LINE
  5
D1
330
1E
100
AcDbEntity
  8
0
100
AcDbLine
 10
47.3716
 20
1734.54
 30
0.0
 11
48.3761016395245
 21
1734.12701245346
 31
0.0
  0
LINE
  5
D2
330
1E
100
AcDbEntity
  8
0
100
AcDbLine
 10
48.50419999999999
 20
1734.07
 30
0.0
 11
49.7048
 21
1733.57
 31
0.0
  0
LINE
  5
D3
330
1E
100
AcDbEntity
  8
0
100
AcDbLine
 10
48.50419999999999
 20
1734.07
 30
0.0
 11
49.2698
 21
1735.91
 31
0.0
  0
LINE
  5
D4
330
1E
100
AcDbEntity
  8
0
100
AcDbLine
 10
48.50419999999999
 20
1734.07
 30
0.0
 11
49.1974
 21
1733.78
 31
0.0
  0
LINE
  5
D5
330
1E
100
AcDbEntity
  8
0
100
AcDbLine
 10
48.3732
 20
1734.12
 30
0.0
 11
49.00566382978279
 21
1733.86021276596
 31
0.0
  0
LINE
  5
D6
330
1E
100
AcDbEntity
  8
0
100
AcDbLine
 10
48.3732
 20
1734.12
 30
0.0
 11
48.54378880639621
 21
1734.05343803541
 31
0.0
  0
LINE
  5
D7
330
1E
100
AcDbEntity
  8
0
100
AcDbLine
 10
48.3732
 20
1734.12
 30
0.0
 11
49.13743809411101
 21
1735.96695032542
 31
0.0
  0
LINE
  5
D8
330
1E
100
AcDbEntity
  8
0
100
AcDbLine
 10
49.1974
 20
1733.78
 30
0.0
 11
49.3554450819761
 21
1733.71549180328
 31
0.0
  0
LINE
  5
D9
330
1E
100
AcDbEntity
  8
0
100
AcDbLine
 10
44.50619999999999
 20
1735.72
 30
0.0
 11
45.1994
 21
1735.44
 31
0.0
  0
LINE
  5
DA
330
1E
100
AcDbEntity
  8
0
100
AcDbLine
 10
44.50619999999999
 20
1735.72
 30
0.0
 11
45.2718
 21
1737.56
 31
0.0
  0
LINE
  5
DB
330
1E
100
AcDbEntity
  8
0
100
AcDbLine
 10
44.13874723924521
 20
1735.87288343559
 30
0.0
 11
44.2891
 21
1735.81
 31
0.0
  0
LINE
  5
DC
330
1E
100
AcDbEntity
  8
0
100
AcDbLine
 10
43.9988
 20
1735.93
 30
0.0
 11
44.1562000000017
 21
1735.865760453109
 31
0.0
  0
LINE
  5
DD
330
1E
100
AcDbEntity
  8
0
100
AcDbLine
 10
43.9988
 20
1735.93
 30
0.0
 11
44.1562000000017
 21
1735.865760453109
 31
0.0
  0
LINE
  5
DE
330
1E
100
AcDbEntity
  8
0
100
AcDbLine
 10
43.3056
 20
1736.22
 30
0.0
 11
44.50619999999999
 21
1735.72
 31
0.0
  0
LINE
  5
DF
330
1E
100
AcDbEntity
  8
0
100
AcDbLine
 10
43.3056
 20
1736.22
 30
0.0
 11
44.0713
 21
1738.06
 31
0.0
  0
LINE
  5
E0
330
1E
100
AcDbEntity
  8
0
100
AcDbLine
 10
43.3056
 20
1736.22
 30
0.0
 11
43.9988
 21
1735.93
 31
0.0
  0
LINE
  5
E1
330
1E
100
AcDbEntity
  8
0
100
AcDbLine
 10
44.13874723924521
 20
1735.87288343559
 30
0.0
 11
44.2891
 21
1735.81
 31
0.0
  0
LINE
  5
E2
330
1E
100
AcDbEntity
  8
0
100
AcDbLine
 10
49.2698
 20
1735.91
 30
0.0
 11
49.6487762515284
 21
1735.75532869961
 31
0.0
  0
LINE
  5
E3
330
1E
100
AcDbEntity
  8
0
100
AcDbLine
 10
49.2698
 20
1735.91
 30
0.0
 11
49.4883515566484
 21
1735.82172181786
 31
0.0
  0
LINE
  5
E4
330
1E
100
AcDbEntity
  8
0
100
AcDbLine
 10
49.2698
 20
1735.91
 30
0.0
 11
49.6487762515284
 21
1735.75532869961
 31
0.0
  0
LINE
  5
E5
330
1E
100
AcDbEntity
  8
0
100
AcDbLine
 10
49.2698
 20
1735.91
 30
0.0
 11
49.4883515566484
 21
1735.82172181786
 31
0.0
  0
LINE
  5
E6
330
1E
100
AcDbEntity
  8
0
100
AcDbLine
 10
48.1373
 20
1736.38
 30
0.0
 11
48.4625503167586
 21
1736.246258346159
 31
0.0
  0
LINE
  5
E7
330
1E
100
AcDbEntity
  8
0
100
AcDbLine
 10
48.1373
 20
1736.38
 30
0.0
 11
48.46255031675879
 21
1736.246258346159
 31
0.0
  0
LINE
  5
E8
330
1E
100
AcDbEntity
  8
0
100
AcDbLine
 10
42.66399999999999
 20
1736.48
 30
0.0
 11
43.30590013665499
 21
1736.220721237359
 31
0.0
  0
LINE
  5
E9
330
1E
100
AcDbEntity
  8
0
100
AcDbLine
 10
42.66399999999999
 20
1736.48
 30
0.0
 11
43.4871717846243
 21
1736.14403950153
 31
0.0
  0
LINE
  5
EA
330
1E
100
AcDbEntity
  8
0
100
AcDbLine
 10
42.3285
 20
1736.62
 30
0.0
 11
43.0942
 21
1738.46
 31
0.0
  0
LINE
  5
EB
330
1E
100
AcDbEntity
  8
0
100
AcDbLine
 10
42.3285
 20
1736.62
 30
0.0
 11
43.30606449342949
 21
1736.2211161916
 31
0.0
  0
LINE
  5
EC
330
1E
100
AcDbEntity
  8
0
100
AcDbLine
 10
44.2892465091301
 20
1735.810352111809
 30
0.0
 11
44.50619999999999
 21
1735.72
 31
0.0
  0
LINE
  5
ED
330
1E
100
AcDbEntity
  8
0
100
AcDbLine
 10
54.74099999996649
 20
1731.49628019325
 30
0.0
 11
55.5965
 21
1731.14
 31
0.0
  0
LINE
  5
EE
330
1E
100
AcDbEntity
  8
0
100
AcDbLine
 10
54.90339999999999
 20
1731.43
 30
0.0
 11
55.669
 21
1733.27
 31
0.0
  0
LINE
  5
EF
330
1E
100
AcDbEntity
  8
0
100
AcDbLine
 10
54.90339999999999
 20
1731.43
 30
0.0
 11
55.5965
 21
1731.14
 31
0.0
  0
LINE
  5
F0
330
1E
100
AcDbEntity
  8
0
100
AcDbLine
 10
59.667
 20
1731.619999999999
 30
0.0
 11
60.8676
 21
1731.119999999999
 31
0.0
  0
LINE
  5
F1
330
1E
100
AcDbEntity
  8
0
100
AcDbLine
 10
59.34975263157739
 20
1731.75097165992
 30
0.0
 11
60.5122619594392
 21
1731.2734659614
 31
0.0
  0
LINE
  5
F2
330
1E
100
AcDbEntity
  8
0
100
AcDbLine
 10
59.34975263157739
 20
1731.75097165992
 30
0.0
 11
60.51226195943911
 21
1731.2734659614
 31
0.0
  0
LINE
  5
F3
330
1E
100
AcDbEntity
  8
0
100
AcDbLine
 10
60.52250000000879
 20
1731.26371980676
 30
0.0
 11
61.56069999999999
 21
1730.839999999999
 31
0.0
  0
LINE
  5
F4
330
1E
100
AcDbEntity
  8
0
100
AcDbLine
 10
60.8676
 20
1731.119999999999
 30
0.0
 11
61.56069999999999
 21
1730.839999999999
 31
0.0
  0
LINE
  5
F5
330
1E
100
AcDbEntity
  8
0
100
AcDbLine
 10
60.5230334093079
 20
1731.269024494439
 30
0.0
 11
60.8795
 21
1731.119999999999
 31
0.0
  0
LINE
  5
F6
330
1E
100
AcDbEntity
  8
0
100
AcDbLine
 10
60.5230334093079
 20
1731.269024494439
 30
0.0
 11
60.8795
 21
1731.119999999999
 31
0.0
  0
LINE
  5
F7
330
1E
100
AcDbEntity
  8
0
100
AcDbLine
 10
60.01533026031109
 20
1731.47493492408
 30
0.0
 11
60.8795
 21
1731.119999999999
 31
0.0
  0
LINE
  5
F8
330
1E
100
AcDbEntity
  8
0
100
AcDbLine
 10
55.5965
 20
1731.14
 30
0.0
 11
56.3621
 21
1732.98
 31
0.0
  0
LINE
  5
F9
330
1E
100
AcDbEntity
  8
0
100
AcDbLine
 10
59.0402714854651
 20
1731.880422047499
 30
0.0
 11
59.6663878030513
 21
1731.618528872419
 31
0.0
  0
LINE
  5
FA
330
1E
100
AcDbEntity
  8
0
100
AcDbLine
 10
59.0402714854651
 20
1731.880422047499
 30
0.0
 11
59.6663878030513
 21
1731.618528872419
 31
0.0
  0
LINE
  5
FB
330
1E
100
AcDbEntity
  8
0
100
AcDbLine
 10
51.6409
 20
1732.77
 30
0.0
 11
52.4050903345098
 21
1734.61635251253
 31
0.0
  0
LINE
  5
FC
330
1E
100
AcDbEntity
  8
0
100
AcDbLine
 10
53.4466743548522
 20
1734.18686891769
 30
0.0
 11
54.3276
 21
1733.82
 31
0.0
  0
LINE
  5
FD
330
1E
100
AcDbEntity
  8
0
100
AcDbLine
 10
55.54342655079601
 20
1733.32230047864
 30
0.0
 11
55.669
 21
1733.27
 31
0.0
  0
LINE
  5
FE
330
1E
100
AcDbEntity
  8
0
100
AcDbLine
 10
55.54342655079601
 20
1733.32230047864
 30
0.0
 11
55.669
 21
1733.27
 31
0.0
  0
LINE
  5
FF
330
1E
100
AcDbEntity
  8
0
100
AcDbLine
 10
55.669
 20
1733.27
 30
0.0
 11
56.3621
 21
1732.98
 31
0.0
  0
LINE
  5
100
330
1E
100
AcDbEntity
  8
0
100
AcDbLine
 10
57.798
 20
1732.39
 30
0.0
 11
58.41599106153729
 21
1732.137835943469
 31
0.0
  0
LINE
  5
101
330
1E
100
AcDbEntity
  8
0
100
AcDbLine
 10
57.798
 20
1732.39
 30
0.0
 11
58.4159910615372
 21
1732.137835943469
 31
0.0
  0
LINE
  5
102
330
1E
100
AcDbEntity
  8
0
100
AcDbLine
 10
53.72976292813429
 20
1734.07014103425
 30
0.0
 11
54.3276
 21
1733.82
 31
0.0
  0
LINE
  5
103
330
1E
100
AcDbEntity
  8
0
100
AcDbLine
 10
53.5619
 20
1731.98
 30
0.0
 11
54.3276
 21
1733.82
 31
0.0
  0
LINE
  5
104
330
1E
100
AcDbEntity
  8
0
100
AcDbLine
 10
52.3614
 20
1732.479999999999
 30
0.0
 11
53.12653207454069
 21
1734.31887541426
 31
0.0
  0
LINE
  5
105
330
1E
100
AcDbEntity
  8
0
100
AcDbLine
 10
52.3614
 20
1732.479999999999
 30
0.0
 11
53.5619
 21
1731.98
 31
0.0
  0
LINE
  5
106
330
1E
100
AcDbEntity
  8
0
100
AcDbLine
 10
53.4466743548523
 20
1734.18686891769
 30
0.0
 11
54.3276
 21
1733.82
 31
0.0
  0
LINE
  5
107
330
1E
100
AcDbEntity
  8
0
100
AcDbLine
 10
51.6682
 20
1732.76
 30
0.0
 11
52.7099483202114
 21
1732.334832019899
 31
0.0
  0
LINE
  5
108
330
1E
100
AcDbEntity
  8
0
100
AcDbLine
 10
51.6682
 20
1732.76
 30
0.0
 11
52.4319459888526
 21
1734.6052789335
 31
0.0
  0
LINE
  5
109
330
1E
100
AcDbEntity
  8
0
100
AcDbLine
 10
51.6682
 20
1732.76
 30
0.0
 11
52.3614
 21
1732.479999999999
 31
0.0
  0
LINE
  5
10A
330
1E
100
AcDbEntity
  8
0
100
AcDbLine
 10
53.70280000000001
 20
1731.92
 30
0.0
 11
54.46692047577649
 21
1733.76618372755
 31
0.0
  0
LINE
  5
10B
330
1E
100
AcDbEntity
  8
0
100
AcDbLine
 10
53.70280000000001
 20
1731.92
 30
0.0
 11
54.90339999999999
 21
1731.43
 31
0.0
  0
LINE
  5
10C
330
1E
100
AcDbEntity
  8
0
100
AcDbLine
 10
51.4313
 20
1736.1
 30
0.0
 11
61.6899
 21
1731.86
 31
0.0
  0
LINE
  5
10D
330
1E
100
AcDbEntity
  8
0
100
AcDbLine
 10
61.6899
 20
1731.86
 30
0.0
 11
72.36419999999999
 21
1727.45
 31
0.0
  0
LINE
  5
10E
330
1E
100
AcDbEntity
  8
0
100
AcDbLine
 10
51.2564
 20
1735.09
 30
0.0
 11
61.515
 21
1730.859999999999
 31
0.0
  0
LINE
  5
10F
330
1E
100
AcDbEntity
  8
0
100
AcDbLine
 10
43.61731384319649
 20
1738.251500484019
 30
0.0
 11
44.12279999999999
 21
1738.04
 31
0.0
  0
LINE
  5
110
330
1E
100
AcDbEntity
  8
0
100
AcDbLine
 10
43.61731384319649
 20
1738.251500484019
 30
0.0
 11
44.12279999999999
 21
1738.04
 31
0.0
  0
LINE
  5
111
330
1E
100
AcDbEntity
  8
0
100
AcDbLine
 10
43.0942
 20
1738.46
 30
0.0
 11
43.42725787705179
 21
1738.32409961153
 31
0.0
  0
LINE
  5
112
330
1E
100
AcDbEntity
  8
0
100
AcDbLine
 10
43.0942
 20
1738.46
 30
0.0
 11
44.07449999999999
 21
1738.06
 31
0.0
  0
LINE
  5
113
330
1E
100
AcDbEntity
  8
0
100
AcDbLine
 10
44.0713
 20
1738.06
 30
0.0
 11
45.2718
 21
1737.56
 31
0.0
  0
LINE
  5
114
330
1E
100
AcDbEntity
  8
0
100
AcDbLine
 10
44.07449999999999
 20
1738.06
 30
0.0
 11
44.81954513061039
 21
1737.74836104514
 31
0.0
  0
LINE
  5
115
330
1E
100
AcDbEntity
  8
0
100
AcDbLine
 10
43.753817013506
 20
1738.195007491249
 30
0.0
 11
44.6302
 21
1737.829999999999
 31
0.0
  0
LINE
  5
116
330
1E
100
AcDbEntity
  8
0
100
AcDbLine
 10
44.92325167978489
 20
1737.7051679801
 30
0.0
 11
45.9459206833957
 21
1737.28778682753
 31
0.0
  0
LINE
  5
117
330
1E
100
AcDbEntity
  8
0
100
AcDbLine
 10
44.92325167978489
 20
1737.7051679801
 30
0.0
 11
45.9459206833957
 21
1737.28778682753
 31
0.0
  0
LINE
  5
118
330
1E
100
AcDbEntity
  8
0
100
AcDbLine
 10
45.2718
 20
1737.56
 30
0.0
 11
45.95399716188889
 21
1737.28444430853
 31
0.0
  0
LINE
  5
119
330
1E
100
AcDbEntity
  8
0
100
AcDbLine
 10
45.2718
 20
1737.56
 30
0.0
 11
45.95399716188889
 21
1737.28444430853
 31
0.0
  0
LINE
  5
11A
330
1E
100
AcDbEntity
  8
0
100
AcDbLine
 10
44.12279999999999
 20
1738.04
 30
0.0
 11
44.38631319313059
 21
1737.93024856596
 31
0.0
  0
LINE
  5
11B
330
1E
100
AcDbEntity
  8
0
100
AcDbLine
 10
77.3408
 20
1739.43
 30
0.0
 11
88.15380000000001
 21
1734.97
 31
0.0
  0
LINE
  5
11C
330
1E
100
AcDbEntity
  8
0
100
AcDbLine
 10
43.753817013506
 20
1738.195007491249
 30
0.0
 11
45.90941162288849
 21
1737.30289641134
 31
0.0
  0
LINE
  5
11D
330
1E
100
AcDbEntity
  8
0
100
AcDbLine
 10
43.753817013506
 20
1738.195007491249
 30
0.0
 11
45.9094116228883
 21
1737.30289641134
 31
0.0
  0
LINE
  5
11E
330
1E
100
AcDbEntity
  8
0
100
AcDbLine
 10
45.9649611993839
 20
1737.27990674878
 30
0.0
 11
48.4625503167585
 21
1736.246258346159
 31
0.0
  0
LINE
  5
11F
330
1E
100
AcDbEntity
  8
0
100
AcDbLine
 10
45.9649611993839
 20
1737.27990674878
 30
0.0
 11
48.4625503167587
 21
1736.246258346159
 31
0.0
  0
LINE
  5
120
330
1E
100
AcDbEntity
  8
0
100
AcDbLine
 10
41.76039999999999
 20
1739.02
 30
0.0
 11
43.42939824943629
 21
1738.32927094353
 31
0.0
  0
LINE
  5
121
330
1E
100
AcDbEntity
  8
0
100
AcDbLine
 10
41.76039999999999
 20
1739.02
 30
0.0
 11
43.42939824943629
 21
1738.32927094353
 31
0.0
  0
LINE
  5
122
330
1E
100
AcDbEntity
  8
0
100
AcDbLine
 10
41.76039999999999
 20
1739.02
 30
0.0
 11
51.2564
 21
1735.09
 31
0.0
  0
LINE
  5
123
330
1E
100
AcDbEntity
  8
0
100
AcDbLine
 10
61.515
 20
1730.859999999999
 30
0.0
 11
62.44932524057979
 21
1730.47346515596
 31
0.0
  0
LINE
  5
124
330
1E
100
AcDbEntity
  8
0
100
AcDbLine
 10
61.515
 20
1730.859999999999
 30
0.0
 11
62.4493252405796
 21
1730.47346515596
 31
0.0
  0
LINE
  5
125
330
1E
100
AcDbEntity
  8
0
100
AcDbLine
 10
61.515
 20
1730.859999999999
 30
0.0
 11
71.98139999999999
 21
1726.53
 31
0.0
  0
LINE
  5
126
330
1E
100
AcDbEntity
  8
0
100
AcDbLine
 10
85.71290000000001
 20
1720.86
 30
0.0
 11
87.04697321818008
 21
1720.31206461803
 31
0.0
  0
LINE
  5
127
330
1E
100
AcDbEntity
  8
0
100
AcDbLine
 10
83.1773
 20
1722.99
 30
0.0
 11
93.99030000000001
 21
1718.52
 31
0.0
  0
LINE
  5
128
330
1E
100
AcDbEntity
  8
0
100
AcDbLine
 10
82.7945
 20
1722.07
 30
0.0
 11
93.60750000000001
 21
1717.6
 31
0.0
  0
LINE
  5
129
330
1E
100
AcDbEntity
  8
0
100
AcDbLine
 10
82.7945
 20
1722.07
 30
0.0
 11
86.06842037710359
 21
1720.71658983764
 31
0.0
  0
LINE
  5
12A
330
1E
100
AcDbEntity
  8
0
100
AcDbLine
 10
85.3541
 20
1721.01
 30
0.0
 11
85.71290000000001
 21
1720.86
 31
0.0
  0
LINE
  5
12B
330
1E
100
AcDbEntity
  8
0
100
AcDbLine
 10
85.3541
 20
1721.01
 30
0.0
 11
86.0684203771037
 21
1720.71658983764
 31
0.0
  0
LINE
  5
12C
330
1E
100
AcDbEntity
  8
0
100
AcDbLine
 10
85.3541
 20
1721.01
 30
0.0
 11
86.06842037710359
 21
1720.71658983764
 31
0.0
  0
LINE
  5
12D
330
1E
100
AcDbEntity
  8
0
100
AcDbLine
 10
82.10129999999999
 20
1722.349999999999
 30
0.0
 11
83.4876
 21
1721.78
 31
0.0
  0
LINE
  5
12E
330
1E
100
AcDbEntity
  8
0
100
AcDbLine
 10
81.3357
 20
1720.51
 30
0.0
 11
82.10129999999999
 21
1722.349999999999
 31
0.0
  0
LINE
  5
12F
330
1E
100
AcDbEntity
  8
0
100
AcDbLine
 10
81.3357
 20
1720.51
 30
0.0
 11
82.72200000000001
 21
1719.94
 31
0.0
  0
LINE
  5
130
330
1E
100
AcDbEntity
  8
0
100
AcDbLine
 10
86.6257599100486
 20
1739.91976050255
 30
0.0
 11
86.8201
 21
1739.84
 31
0.0
  0
LINE
  5
131
330
1E
100
AcDbEntity
  8
0
100
AcDbLine
 10
25.511100000027
 20
1743.56371980675
 30
0.0
 11
25.8562
 21
1743.42
 31
0.0
  0
LINE
  5
132
330
1E
100
AcDbEntity
  8
0
100
AcDbLine
 10
26.5493
 20
1743.14
 30
0.0
 11
27.3148734015963
 21
1744.97969578025
 31
0.0
  0
LINE
  5
133
330
1E
100
AcDbEntity
  8
0
100
AcDbLine
 10
26.5773
 20
1743.13
 30
0.0
 11
27.3423292474886
 21
1744.96838816166
 31
0.0
  0
LINE
  5
134
330
1E
100
AcDbEntity
  8
0
100
AcDbLine
 10
26.5773
 20
1743.13
 30
0.0
 11
27.62533113554059
 21
1742.69152488017
 31
0.0
  0
LINE
  5
135
330
1E
100
AcDbEntity
  8
0
100
AcDbLine
 10
25.8562
 20
1743.42
 30
0.0
 11
26.5493
 21
1743.14
 31
0.0
  0
LINE
  5
136
330
1E
100
AcDbEntity
  8
0
100
AcDbLine
 10
25.3487
 20
1743.63
 30
0.0
 11
25.511100000027
 21
1743.56371980675
 31
0.0
  0
LINE
  5
137
330
1E
100
AcDbEntity
  8
0
100
AcDbLine
 10
25.3487
 20
1743.63
 30
0.0
 11
25.511100000027
 21
1743.56371980675
 31
0.0
  0
LINE
  5
138
330
1E
100
AcDbEntity
  8
0
100
AcDbLine
 10
25.3487
 20
1743.63
 30
0.0
 11
26.1123163692086
 21
1745.47496576079
 31
0.0
  0
LINE
  5
139
330
1E
100
AcDbEntity
  8
0
100
AcDbLine
 10
25.3487
 20
1743.63
 30
0.0
 11
26.5493
 21
1743.14
 31
0.0
  0
LINE
  5
13A
330
1E
100
AcDbEntity
  8
0
100
AcDbLine
 10
24.65559999999999
 20
1743.92
 30
0.0
 11
25.4211433509026
 21
1745.75962356753
 31
0.0
  0
LINE
  5
13B
330
1E
100
AcDbEntity
  8
0
100
AcDbLine
 10
24.65559999999999
 20
1743.92
 30
0.0
 11
25.3487
 21
1743.63
 31
0.0
  0
LINE
  5
13C
330
1E
100
AcDbEntity
  8
0
100
AcDbLine
 10
25.511100000027
 20
1743.56371980675
 30
0.0
 11
25.8562
 21
1743.42
 31
0.0
  0
LINE
  5
13D
330
1E
100
AcDbEntity
  8
0
100
AcDbLine
 10
29.5852
 20
1741.88
 30
0.0
 11
30.35065817569229
 21
1743.72941573074
 31
0.0
  0
LINE
  5
13E
330
1E
100
AcDbEntity
  8
0
100
AcDbLine
 10
29.9852
 20
1741.72
 30
0.0
 11
30.7509
 21
1743.56
 31
0.0
  0
LINE
  5
13F
330
1E
100
AcDbEntity
  8
0
100
AcDbLine
 10
28.605
 20
1742.289999999999
 30
0.0
 11
29.3706
 21
1744.13
 31
0.0
  0
LINE
  5
140
330
1E
100
AcDbEntity
  8
0
100
AcDbLine
 10
28.605
 20
1742.289999999999
 30
0.0
 11
29.5852
 21
1741.88
 31
0.0
  0
LINE
  5
141
330
1E
100
AcDbEntity
  8
0
100
AcDbLine
 10
28.8965779628431
 20
1744.328274877819
 30
0.0
 11
29.3706
 21
1744.13
 31
0.0
  0
LINE
  5
142
330
1E
100
AcDbEntity
  8
0
100
AcDbLine
 10
28.8965779628431
 20
1744.328274877819
 30
0.0
 11
29.3706
 21
1744.13
 31
0.0
  0
LINE
  5
143
330
1E
100
AcDbEntity
  8
0
100
AcDbLine
 10
29.3706
 20
1744.13
 30
0.0
 11
30.17136285582989
 21
1743.80325804108
 31
0.0
  0
LINE
  5
144
330
1E
100
AcDbEntity
  8
0
100
AcDbLine
 10
29.3706
 20
1744.13
 30
0.0
 11
30.17136285582989
 21
1743.80325804108
 31
0.0
  0
LINE
  5
145
330
1E
100
AcDbEntity
  8
0
100
AcDbLine
 10
30.34994351463319
 20
1743.727689045409
 30
0.0
 11
30.7509
 21
1743.56
 31
0.0
  0
LINE
  5
146
330
1E
100
AcDbEntity
  8
0
100
AcDbLine
 10
29.5867217385455
 20
1741.883676657059
 30
0.0
 11
29.9852
 21
1741.72
 31
0.0
  0
LINE
  5
147
330
1E
100
AcDbEntity
  8
0
100
AcDbLine
 10
27.6247
 20
1742.69
 30
0.0
 11
28.605
 21
1742.289999999999
 31
0.0
  0
LINE
  5
148
330
1E
100
AcDbEntity
  8
0
100
AcDbLine
 10
27.6247
 20
1742.69
 30
0.0
 11
28.3892482605005
 21
1744.53721729388
 31
0.0
  0
LINE
  5
149
330
1E
100
AcDbEntity
  8
0
100
AcDbLine
 10
19.94239999999999
 20
1745.87
 30
0.0
 11
20.70629488734849
 21
1747.70590202811
 31
0.0
  0
LINE
  5
14A
330
1E
100
AcDbEntity
  8
0
100
AcDbLine
 10
32.6471
 20
1743.86
 30
0.0
 11
41.7966
 21
1740.08
 31
0.0
  0
LINE
  5
14B
330
1E
100
AcDbEntity
  8
0
100
AcDbLine
 10
39.4547
 20
1739.97
 30
0.0
 11
40.79369999999999
 21
1739.41
 31
0.0
  0
LINE
  5
14C
330
1E
100
AcDbEntity
  8
0
100
AcDbLine
 10
34.353
 20
1739.92
 30
0.0
 11
35.1186
 21
1741.76
 31
0.0
  0
LINE
  5
14D
330
1E
100
AcDbEntity
  8
0
100
AcDbLine
 10
34.353
 20
1739.92
 30
0.0
 11
34.9767827126388
 21
1739.66019878691
 31
0.0
  0
LINE
  5
14E
330
1E
100
AcDbEntity
  8
0
100
AcDbLine
 10
39.0959
 20
1740.12
 30
0.0
 11
39.4547
 21
1739.97
 31
0.0
  0
LINE
  5
14F
330
1E
100
AcDbEntity
  8
0
100
AcDbLine
 10
37.7401
 20
1740.68
 30
0.0
 11
39.09334622131199
 21
1740.113829035299
 31
0.0
  0
LINE
  5
150
330
1E
100
AcDbEntity
  8
0
100
AcDbLine
 10
33.6599
 20
1740.2
 30
0.0
 11
34.4255
 21
1742.04
 31
0.0
  0
LINE
  5
151
330
1E
100
AcDbEntity
  8
0
100
AcDbLine
 10
33.6599
 20
1740.2
 30
0.0
 11
34.353
 21
1739.92
 31
0.0
  0
LINE
  5
152
330
1E
100
AcDbEntity
  8
0
100
AcDbLine
 10
33.6599
 20
1740.2
 30
0.0
 11
34.70090000001249
 21
1739.77510204081
 31
0.0
  0
LINE
  5
153
330
1E
100
AcDbEntity
  8
0
100
AcDbLine
 10
33.6599
 20
1740.2
 30
0.0
 11
34.70090000001249
 21
1739.77510204081
 31
0.0
  0
LINE
  5
154
330
1E
100
AcDbEntity
  8
0
100
AcDbLine
 10
34.4255
 20
1742.04
 30
0.0
 11
35.1186
 21
1741.76
 31
0.0
  0
LINE
  5
155
330
1E
100
AcDbEntity
  8
0
100
AcDbLine
 10
35.46795491804839
 20
1741.61450819672
 30
0.0
 11
35.62599999999999
 21
1741.55
 31
0.0
  0
LINE
  5
156
330
1E
100
AcDbEntity
  8
0
100
AcDbLine
 10
35.7423
 20
1741.5
 30
0.0
 11
36.7225
 21
1741.099999999999
 31
0.0
  0
LINE
  5
157
330
1E
100
AcDbEntity
  8
0
100
AcDbLine
 10
35.62599999999999
 20
1741.55
 30
0.0
 11
35.87335855545649
 21
1741.44651762683
 31
0.0
  0
LINE
  5
158
330
1E
100
AcDbEntity
  8
0
100
AcDbLine
 10
35.62599999999999
 20
1741.55
 30
0.0
 11
35.87335855545649
 21
1741.44651762683
 31
0.0
  0
LINE
  5
159
330
1E
100
AcDbEntity
  8
0
100
AcDbLine
 10
35.46795491804839
 20
1741.61450819672
 30
0.0
 11
35.62599999999999
 21
1741.55
 31
0.0
  0
LINE
  5
15A
330
1E
100
AcDbEntity
  8
0
100
AcDbLine
 10
35.1186
 20
1741.76
 30
0.0
 11
35.46795491804839
 21
1741.61450819672
 31
0.0
  0
LINE
  5
15B
330
1E
100
AcDbEntity
  8
0
100
AcDbLine
 10
35.1186
 20
1741.76
 30
0.0
 11
35.46795491804839
 21
1741.61450819672
 31
0.0
  0
LINE
  5
15C
330
1E
100
AcDbEntity
  8
0
100
AcDbLine
 10
35.1186
 20
1741.76
 30
0.0
 11
35.7727200000051
 21
1741.48758620689
 31
0.0
  0
LINE
  5
15D
330
1E
100
AcDbEntity
  8
0
100
AcDbLine
 10
35.1186
 20
1741.76
 30
0.0
 11
35.7727200000051
 21
1741.48758620689
 31
0.0
  0
LINE
  5
15E
330
1E
100
AcDbEntity
  8
0
100
AcDbLine
 10
36.7225
 20
1741.099999999999
 30
0.0
 11
37.7028
 21
1740.69
 31
0.0
  0
LINE
  5
15F
330
1E
100
AcDbEntity
  8
0
100
AcDbLine
 10
72.4258
 20
1745.779999999999
 30
0.0
 11
76.446
 21
1744.119999999999
 31
0.0
  0
LINE
  5
160
330
1E
100
AcDbEntity
  8
0
100
AcDbLine
 10
76.446
 20
1744.119999999999
 30
0.0
 11
80.7435
 21
1742.35
 31
0.0
  0
LINE
  5
161
330
1E
100
AcDbEntity
  8
0
100
AcDbLine
 10
67.25719999999999
 20
1744.679999999999
 30
0.0
 11
77.7236
 21
1740.36
 31
0.0
  0
LINE
  5
162
330
1E
100
AcDbEntity
  8
0
100
AcDbLine
 10
77.7236
 20
1740.36
 30
0.0
 11
88.53669999999999
 21
1735.89
 31
0.0
  0
LINE
  5
163
330
1E
100
AcDbEntity
  8
0
100
AcDbLine
 10
66.6664
 20
1743.839999999999
 30
0.0
 11
77.3408
 21
1739.43
 31
0.0
  0
LINE
  5
164
330
1E
100
AcDbEntity
  8
0
100
AcDbLine
 10
41.7966
 20
1740.08
 30
0.0
 11
51.4313
 21
1736.1
 31
0.0
  0
LINE
  5
165
330
1E
100
AcDbEntity
  8
0
100
AcDbLine
 10
32.68019999999999
 20
1742.77
 30
0.0
 11
41.76039999999999
 21
1739.02
 31
0.0
  0
LINE
  5
166
330
1E
100
AcDbEntity
  8
0
100
AcDbLine
 10
64.06870000000001
 20
1746.0
 30
0.0
 11
65.2441765503951
 21
1745.51200626073
 31
0.0
  0
LINE
  5
167
330
1E
100
AcDbEntity
  8
0
100
AcDbLine
 10
64.06870000000001
 20
1746.0
 30
0.0
 11
65.24417655039499
 21
1745.51200626073
 31
0.0
  0
LINE
  5
168
330
1E
100
AcDbEntity
  8
0
100
AcDbLine
 10
30.35065817569229
 20
1743.72941573074
 30
0.0
 11
32.68019999999999
 21
1742.77
 31
0.0
  0
LINE
  5
169
330
1E
100
AcDbEntity
  8
0
100
AcDbLine
 10
0.0000000000000208
 20
1757.34
 30
0.0
 11
4.976560000000019
 21
1769.32
 31
0.0
  0
LINE
  5
16A
330
1E
100
AcDbEntity
  8
0
100
AcDbLine
 10
0.0000000000000206
 20
1757.34
 30
0.0
 11
0.310330000000021
 21
1756.13
 31
0.0
  0
LINE
  5
16B
330
1E
100
AcDbEntity
  8
0
100
AcDbLine
 10
0.0000000000000206
 20
1757.34
 30
0.0
 11
4.976560000000019
 21
1769.32
 31
0.0
  0
LINE
  5
16C
330
1E
100
AcDbEntity
  8
0
100
AcDbLine
 10
0.0000000000000206
 20
1757.34
 30
0.0
 11
0.8317700000000209
 21
1757.0
 31
0.0
  0
LINE
  5
16D
330
1E
100
AcDbEntity
  8
0
100
AcDbLine
 10
8.560410000000018
 20
1750.57
 30
0.0
 11
9.325456033149729
 21
1752.408692643579
 31
0.0
  0
LINE
  5
16E
330
1E
100
AcDbEntity
  8
0
100
AcDbLine
 10
8.560410000000018
 20
1750.57
 30
0.0
 11
9.899500000000019
 21
1750.01
 31
0.0
  0
LINE
  5
16F
330
1E
100
AcDbEntity
  8
0
100
AcDbLine
 10
9.540700000000018
 20
1750.16
 30
0.0
 11
9.899500000000019
 21
1750.01
 31
0.0
  0
LINE
  5
170
330
1E
100
AcDbEntity
  8
0
100
AcDbLine
 10
9.899500000000019
 20
1750.01
 30
0.0
 11
10.6634153799398
 21
1751.85592927493
 31
0.0
  0
LINE
  5
171
330
1E
100
AcDbEntity
  8
0
100
AcDbLine
 10
8.2016100000004
 20
1750.72
 30
0.0
 11
9.540700000000018
 21
1750.16
 31
0.0
  0
LINE
  5
172
330
1E
100
AcDbEntity
  8
0
100
AcDbLine
 10
7.169290000000018
 20
1751.14
 30
0.0
 11
7.93250024056645
 21
1752.984177196319
 31
0.0
  0
LINE
  5
173
330
1E
100
AcDbEntity
  8
0
100
AcDbLine
 10
5.782990000000019
 20
1751.71
 30
0.0
 11
6.54713632808591
 21
1753.5564149876
 31
0.0
  0
LINE
  5
174
330
1E
100
AcDbEntity
  8
0
100
AcDbLine
 10
5.782990000000019
 20
1751.71
 30
0.0
 11
7.169290000000018
 21
1751.14
 31
0.0
  0
LINE
  5
175
330
1E
100
AcDbEntity
  8
0
100
AcDbLine
 10
8.201610000000018
 20
1750.72
 30
0.0
 11
8.966046171463249
 21
1752.55717892333
 31
0.0
  0
LINE
  5
176
330
1E
100
AcDbEntity
  8
0
100
AcDbLine
 10
8.201610000000018
 20
1750.72
 30
0.0
 11
9.540700000000018
 21
1750.16
 31
0.0
  0
LINE
  5
177
330
1E
100
AcDbEntity
  8
0
100
AcDbLine
 10
8.201610000000018
 20
1750.72
 30
0.0
 11
8.560410000000018
 21
1750.57
 31
0.0
  0
LINE
  5
178
330
1E
100
AcDbEntity
  8
0
100
AcDbLine
 10
16.5034516798028
 20
1747.28516798009
 30
0.0
 11
16.852
 21
1747.14
 31
0.0
  0
LINE
  5
179
330
1E
100
AcDbEntity
  8
0
100
AcDbLine
 10
15.6515
 20
1747.64
 30
0.0
 11
16.34459999999999
 21
1747.349999999999
 31
0.0
  0
LINE
  5
17A
330
1E
100
AcDbEntity
  8
0
100
AcDbLine
 10
15.6515
 20
1747.64
 30
0.0
 11
16.4162153947028
 21
1749.478114077399
 31
0.0
  0
LINE
  5
17B
330
1E
100
AcDbEntity
  8
0
100
AcDbLine
 10
16.34459999999999
 20
1747.349999999999
 30
0.0
 11
16.5034516798028
 21
1747.28516798009
 31
0.0
  0
LINE
  5
17C
330
1E
100
AcDbEntity
  8
0
100
AcDbLine
 10
16.34459999999999
 20
1747.349999999999
 30
0.0
 11
17.1071080825714
 21
1749.19252867393
 31
0.0
  0
LINE
  5
17D
330
1E
100
AcDbEntity
  8
0
100
AcDbLine
 10
16.34459999999999
 20
1747.349999999999
 30
0.0
 11
17.5452
 21
1746.859999999999
 31
0.0
  0
LINE
  5
17E
330
1E
100
AcDbEntity
  8
0
100
AcDbLine
 10
17.5452
 20
1746.859999999999
 30
0.0
 11
18.3090310820464
 21
1748.69598849244
 31
0.0
  0
LINE
  5
17F
330
1E
100
AcDbEntity
  8
0
100
AcDbLine
 10
17.3728999999856
 20
1746.92959607617
 30
0.0
 11
17.5665
 21
1746.85
 31
0.0
  0
LINE
  5
180
330
1E
100
AcDbEntity
  8
0
100
AcDbLine
 10
17.5665
 20
1746.85
 30
0.0
 11
18.3307581663611
 21
1748.687015056959
 31
0.0
  0
LINE
  5
181
330
1E
100
AcDbEntity
  8
0
100
AcDbLine
 10
16.852
 20
1747.14
 30
0.0
 11
17.5452
 21
1746.859999999999
 31
0.0
  0
LINE
  5
182
330
1E
100
AcDbEntity
  8
0
100
AcDbLine
 10
17.3728999999856
 20
1746.92959607617
 30
0.0
 11
17.5665
 21
1746.85
 31
0.0
  0
LINE
  5
183
330
1E
100
AcDbEntity
  8
0
100
AcDbLine
 10
18.24449999999999
 20
1746.57
 30
0.0
 11
19.0089219270562
 21
1748.40692875249
 31
0.0
  0
LINE
  5
184
330
1E
100
AcDbEntity
  8
0
100
AcDbLine
 10
18.24449999999999
 20
1746.57
 30
0.0
 11
18.6033
 21
1746.42
 31
0.0
  0
LINE
  5
185
330
1E
100
AcDbEntity
  8
0
100
AcDbLine
 10
16.5034516798028
 20
1747.28516798009
 30
0.0
 11
16.852
 21
1747.14
 31
0.0
  0
LINE
  5
186
330
1E
100
AcDbEntity
  8
0
100
AcDbLine
 10
16.5034516798028
 20
1747.28516798009
 30
0.0
 11
16.852
 21
1747.14
 31
0.0
  0
LINE
  5
187
330
1E
100
AcDbEntity
  8
0
100
AcDbLine
 10
17.3286
 20
1750.19
 30
0.0
 11
24.468
 21
1747.24
 31
0.0
  0
LINE
  5
188
330
1E
100
AcDbEntity
  8
0
100
AcDbLine
 10
17.50029999999999
 20
1749.03
 30
0.0
 11
24.5704
 21
1746.109999999999
 31
0.0
  0
LINE
  5
189
330
1E
100
AcDbEntity
  8
0
100
AcDbLine
 10
18.6033
 20
1746.42
 30
0.0
 11
19.94239999999999
 21
1745.87
 31
0.0
  0
LINE
  5
18A
330
1E
100
AcDbEntity
  8
0
100
AcDbLine
 10
18.6033
 20
1746.42
 30
0.0
 11
19.368280520601
 21
1748.25851117804
 31
0.0
  0
LINE
  5
18B
330
1E
100
AcDbEntity
  8
0
100
AcDbLine
 10
24.468
 20
1747.24
 30
0.0
 11
32.6471
 21
1743.86
 31
0.0
  0
LINE
  5
18C
330
1E
100
AcDbEntity
  8
0
100
AcDbLine
 10
18.3307581663611
 20
1748.687015056959
 30
0.0
 11
19.0089219270561
 21
1748.40692875249
 31
0.0
  0
LINE
  5
18D
330
1E
100
AcDbEntity
  8
0
100
AcDbLine
 10
20.70629488734849
 20
1747.70590202811
 30
0.0
 11
24.5704
 21
1746.109999999999
 31
0.0
  0
LINE
  5
18E
330
1E
100
AcDbEntity
  8
0
100
AcDbLine
 10
18.3307581663611
 20
1748.687015056959
 30
0.0
 11
19.0089219270562
 21
1748.40692875249
 31
0.0
  0
LINE
  5
18F
330
1E
100
AcDbEntity
  8
0
100
AcDbLine
 10
11.1597
 20
1752.73
 30
0.0
 11
17.3286
 21
1750.19
 31
0.0
  0
LINE
  5
190
330
1E
100
AcDbEntity
  8
0
100
AcDbLine
 10
11.3313
 20
1751.579999999999
 30
0.0
 11
16.4162153947028
 21
1749.478114077399
 31
0.0
  0
LINE
  5
191
330
1E
100
AcDbEntity
  8
0
100
AcDbLine
 10
11.3313
 20
1751.579999999999
 30
0.0
 11
17.50029999999999
 21
1749.03
 31
0.0
  0
LINE
  5
192
330
1E
100
AcDbEntity
  8
0
100
AcDbLine
 10
10.6634153799398
 20
1751.85592927493
 30
0.0
 11
11.3313
 21
1751.579999999999
 31
0.0
  0
LINE
  5
193
330
1E
100
AcDbEntity
  8
0
100
AcDbLine
 10
6.515550000000018
 20
1754.65
 30
0.0
 11
11.1597
 21
1752.73
 31
0.0
  0
LINE
  5
194
330
1E
100
AcDbEntity
  8
0
100
AcDbLine
 10
6.756570000000019
 20
1753.47
 30
0.0
 11
11.3313
 21
1751.579999999999
 31
0.0
  0
LINE
  5
195
330
1E
100
AcDbEntity
  8
0
100
AcDbLine
 10
7.93250024056645
 20
1752.984177196319
 30
0.0
 11
8.966046171463249
 21
1752.55717892333
 31
0.0
  0
LINE
  5
196
330
1E
100
AcDbEntity
  8
0
100
AcDbLine
 10
3.29085000000002
 20
1754.9
 30
0.0
 11
6.54713632808591
 21
1753.5564149876
 31
0.0
  0
LINE
  5
197
330
1E
100
AcDbEntity
  8
0
100
AcDbLine
 10
3.29085000000002
 20
1754.9
 30
0.0
 11
6.756570000000019
 21
1753.47
 31
0.0
  0
LINE
  5
198
330
1E
100
AcDbEntity
  8
0
100
AcDbLine
 10
37.6236
 20
1755.84
 30
0.0
 11
46.7731
 21
1752.059999999999
 31
0.0
  0
LINE
  5
199
330
1E
100
AcDbEntity
  8
0
100
AcDbLine
 10
29.4446
 20
1759.22
 30
0.0
 11
37.6236
 21
1755.84
 31
0.0
  0
LINE
  5
19A
330
1E
100
AcDbEntity
  8
0
100
AcDbLine
 10
2.98051000000002
 20
1756.11
 30
0.0
 11
6.515550000000018
 21
1754.65
 31
0.0
  0
LINE
  5
19B
330
1E
100
AcDbEntity
  8
0
100
AcDbLine
 10
0.8317700000000209
 20
1757.0
 30
0.0
 11
2.98051000000002
 21
1756.11
 31
0.0
  0
LINE
  5
19C
330
1E
100
AcDbEntity
  8
0
100
AcDbLine
 10
1.142100000000019
 20
1755.79
 30
0.0
 11
3.29085000000002
 21
1754.9
 31
0.0
  0
LINE
  5
19D
330
1E
100
AcDbEntity
  8
0
100
AcDbLine
 10
0.310330000000021
 20
1756.13
 30
0.0
 11
1.142100000000019
 21
1755.79
 31
0.0
  0
LINE
  5
19E
330
1E
100
AcDbEntity
  8
0
100
AcDbLine
 10
5.808340000000018
 20
1768.98
 30
0.0
 11
7.957090000000018
 21
1768.09
 31
0.0
  0
LINE
  5
19F
330
1E
100
AcDbEntity
  8
0
100
AcDbLine
 10
4.976560000000019
 20
1769.32
 30
0.0
 11
6.052520000000018
 21
1769.96
 31
0.0
  0
LINE
  5
1A0
330
1E
100
AcDbEntity
  8
0
100
AcDbLine
 10
4.976560000000019
 20
1769.32
 30
0.0
 11
5.808340000000018
 21
1768.98
 31
0.0
  0
LINE
  5
1A1
330
1E
100
AcDbEntity
  8
0
100
AcDbLine
 10
16.1362
 20
1764.71
 30
0.0
 11
22.30519999999999
 21
1762.17
 31
0.0
  0
LINE
  5
1A2
330
1E
100
AcDbEntity
  8
0
100
AcDbLine
 10
11.4921
 20
1766.63
 30
0.0
 11
16.1362
 21
1764.71
 31
0.0
  0
LINE
  5
1A3
330
1E
100
AcDbEntity
  8
0
100
AcDbLine
 10
23.2424
 20
1762.859999999999
 30
0.0
 11
30.3126
 21
1759.94
 31
0.0
  0
LINE
  5
1A4
330
1E
100
AcDbEntity
  8
0
100
AcDbLine
 10
22.30519999999999
 20
1762.17
 30
0.0
 11
29.4446
 21
1759.22
 31
0.0
  0
LINE
  5
1A5
330
1E
100
AcDbEntity
  8
0
100
AcDbLine
 10
17.07349999999999
 20
1765.41
 30
0.0
 11
23.2424
 21
1762.859999999999
 31
0.0
  0
LINE
  5
1A6
330
1E
100
AcDbEntity
  8
0
100
AcDbLine
 10
6.884290000000018
 20
1769.609999999999
 30
0.0
 11
9.033100000000018
 21
1768.73
 31
0.0
  0
LINE
  5
1A7
330
1E
100
AcDbEntity
  8
0
100
AcDbLine
 10
9.033100000000018
 20
1768.73
 30
0.0
 11
12.4988
 21
1767.29
 31
0.0
  0
LINE
  5
1A8
330
1E
100
AcDbEntity
  8
0
100
AcDbLine
 10
7.957090000000018
 20
1768.09
 30
0.0
 11
11.4921
 21
1766.63
 31
0.0
  0
LINE
  5
1A9
330
1E
100
AcDbEntity
  8
0
100
AcDbLine
 10
12.4988
 20
1767.29
 30
0.0
 11
17.07349999999999
 21
1765.41
 31
0.0
  0
LINE
  5
1AA
330
1E
100
AcDbEntity
  8
0
100
AcDbLine
 10
6.052520000000018
 20
1769.96
 30
0.0
 11
6.884290000000018
 21
1769.609999999999
 31
0.0
  0
LINE
  5
1AB
330
1E
100
AcDbEntity
  8
0
100
AcDbLine
 10
30.3126
 20
1759.94
 30
0.0
 11
38.4223
 21
1756.59
 31
0.0
  0
LINE
  5
1AC
330
1E
100
AcDbEntity
  8
0
100
AcDbLine
 10
56.40789999999999
 20
1748.079999999999
 30
0.0
 11
66.6664
 21
1743.839999999999
 31
0.0
  0
LINE
  5
1AD
330
1E
100
AcDbEntity
  8
0
100
AcDbLine
 10
69.8807510481269
 20
1746.8347903743
 30
0.0
 11
77.4863131504962
 21
1743.691528964189
 31
0.0
  0
LINE
  5
1AE
330
1E
100
AcDbEntity
  8
0
100
AcDbLine
 10
69.8807510481279
 20
1746.8347903743
 30
0.0
 11
77.486313150495
 21
1743.691528964189
 31
0.0
  0
LINE
  5
1AF
330
1E
100
AcDbEntity
  8
0
100
AcDbLine
 10
68.6135
 20
1747.36
 30
0.0
 11
72.4258
 21
1745.779999999999
 31
0.0
  0
LINE
  5
1B0
330
1E
100
AcDbEntity
  8
0
100
AcDbLine
 10
61.0882
 20
1747.23
 30
0.0
 11
64.06870000000001
 21
1746.0
 31
0.0
  0
LINE
  5
1B1
330
1E
100
AcDbEntity
  8
0
100
AcDbLine
 10
58.5236
 20
1748.29
 30
0.0
 11
61.0882
 21
1747.23
 31
0.0
  0
LINE
  5
1B2
330
1E
100
AcDbEntity
  8
0
100
AcDbLine
 10
47.50259999999999
 20
1752.84
 30
0.0
 11
56.99860000000001
 21
1748.92
 31
0.0
  0
LINE
  5
1B3
330
1E
100
AcDbEntity
  8
0
100
AcDbLine
 10
46.7731
 20
1752.059999999999
 30
0.0
 11
56.40789999999999
 21
1748.079999999999
 31
0.0
  0
LINE
  5
1B4
330
1E
100
AcDbEntity
  8
0
100
AcDbLine
 10
56.99860000000001
 20
1748.92
 30
0.0
 11
67.25719999999999
 21
1744.679999999999
 31
0.0
  0
LINE
  5
1B5
330
1E
100
AcDbEntity
  8
0
100
AcDbLine
 10
59.672
 20
1751.05
 30
0.0
 11
62.2366
 21
1749.99
 31
0.0
  0
LINE
  5
1B6
330
1E
100
AcDbEntity
  8
0
100
AcDbLine
 10
57.7312
 20
1751.85
 30
0.0
 11
59.672
 21
1751.05
 31
0.0
  0
LINE
  5
1B7
330
1E
100
AcDbEntity
  8
0
100
AcDbLine
 10
65.2171
 20
1748.76
 30
0.0
 11
68.6135
 21
1747.36
 31
0.0
  0
LINE
  5
1B8
330
1E
100
AcDbEntity
  8
0
100
AcDbLine
 10
62.2366
 20
1749.99
 30
0.0
 11
65.2171
 21
1748.76
 31
0.0
  0
LINE
  5
1B9
330
1E
100
AcDbEntity
  8
0
100
AcDbLine
 10
58.25308871201229
 20
1748.401505065119
 30
0.0
 11
58.5236
 21
1748.29
 31
0.0
  0
LINE
  5
1BA
330
1E
100
AcDbEntity
  8
0
100
AcDbLine
 10
56.2755
 20
1752.45
 30
0.0
 11
57.7312
 21
1751.85
 31
0.0
  0
LINE
  5
1BB
330
1E
100
AcDbEntity
  8
0
100
AcDbLine
 10
55.0279
 20
1752.97
 30
0.0
 11
55.37449999999999
 21
1752.829999999999
 31
0.0
  0
LINE
  5
1BC
330
1E
100
AcDbEntity
  8
0
100
AcDbLine
 10
55.37449999999999
 20
1752.829999999999
 30
0.0
 11
56.2755
 21
1752.45
 31
0.0
  0
LINE
  5
1BD
330
1E
100
AcDbEntity
  8
0
100
AcDbLine
 10
55.37449999999999
 20
1752.829999999999
 30
0.0
 11
67.2526748724693
 21
1747.92093368818
 31
0.0
  0
LINE
  5
1BE
330
1E
100
AcDbEntity
  8
0
100
AcDbLine
 10
55.37449999999999
 20
1752.829999999999
 30
0.0
 11
67.2526748724687
 21
1747.92093368818
 31
0.0
  0
LINE
  5
1BF
330
1E
100
AcDbEntity
  8
0
100
AcDbLine
 10
53.8821837810002
 20
1750.20647341812
 30
0.0
 11
55.0279
 21
1752.97
 31
0.0
  0
LINE
  5
1C0
330
1E
100
AcDbEntity
  8
0
100
AcDbLine
 10
58.25308871201261
 20
1748.401505065119
 30
0.0
 11
58.5236
 21
1748.29
 31
0.0
  0
LINE
  5
1C1
330
1E
100
AcDbEntity
  8
0
100
AcDbLine
 10
38.4223
 20
1756.59
 30
0.0
 11
47.50259999999999
 21
1752.84
 31
0.0
  0
LINE
  5
1C2
330
1E
100
AcDbEntity
  8
0
100
AcDbLine
 10
24.5704
 20
1746.109999999999
 30
0.0
 11
25.4211433509026
 21
1745.75962356753
 31
0.0
  0
LINE
  5
1C3
330
1E
100
AcDbEntity
  8
0
100
AcDbLine
 10
24.5704
 20
1746.109999999999
 30
0.0
 11
25.4211433509026
 21
1745.75962356753
 31
0.0
  0
LINE
  5
1C4
330
1E
100
AcDbEntity
  8
0
100
AcDbLine
 10
24.5704
 20
1746.109999999999
 30
0.0
 11
32.68019999999999
 21
1742.77
 31
0.0
  0
LINE
  5
1C5
330
1E
100
AcDbEntity
  8
0
100
AcDbLine
 10
80.7435
 20
1742.35
 30
0.0
 11
85.1796
 21
1740.52
 31
0.0
  0
LINE
  5
1C6
330
1E
100
AcDbEntity
  8
0
100
AcDbLine
 10
85.1796
 20
1740.52
 30
0.0
 11
89.685
 21
1738.65
 31
0.0
  0
LINE
  5
1C7
330
1E
100
AcDbEntity
  8
0
100
AcDbLine
 10
84.3238
 20
1755.98
 30
0.0
 11
85.43280000000001
 21
1755.53
 31
0.0
  0
LINE
  5
1C8
330
1E
100
AcDbEntity
  8
0
100
AcDbLine
 10
85.43280000000001
 20
1755.53
 30
0.0
 11
87.1889
 21
1754.799999999999
 31
0.0
  0
LINE
  5
1C9
330
1E
100
AcDbEntity
  8
0
100
AcDbLine
 10
85.0895
 20
1757.83
 30
0.0
 11
86.19849999999999
 21
1757.369999999999
 31
0.0
  0
LINE
  5
1CA
330
1E
100
AcDbEntity
  8
0
100
AcDbLine
 10
85.2612
 20
1756.68
 30
0.0
 11
85.63079999999999
 21
1756.52
 31
0.0
  0
LINE
  5
1CB
330
1E
100
AcDbEntity
  8
0
100
AcDbLine
 10
86.19849999999999
 20
1757.369999999999
 30
0.0
 11
87.95440000000001
 21
1756.64
 31
0.0
  0
LINE
  5
1CC
330
1E
100
AcDbEntity
  8
0
100
AcDbLine
 10
85.63079999999999
 20
1756.52
 30
0.0
 11
86.6474
 21
1756.099999999999
 31
0.0
  0
LINE
  5
1CD
330
1E
100
AcDbEntity
  8
0
100
AcDbLine
 10
86.62069999999999
 20
1761.51
 30
0.0
 11
87.72969999999999
 21
1761.05
 31
0.0
  0
LINE
  5
1CE
330
1E
100
AcDbEntity
  8
0
100
AcDbLine
 10
86.25100000000001
 20
1761.67
 30
0.0
 11
90.87200000000001
 21
1759.759999999999
 31
0.0
  0
LINE
  5
1CF
330
1E
100
AcDbEntity
  8
0
100
AcDbLine
 10
86.25100000000001
 20
1761.67
 30
0.0
 11
86.62069999999999
 21
1761.51
 31
0.0
  0
LINE
  5
1D0
330
1E
100
AcDbEntity
  8
0
100
AcDbLine
 10
84.7198
 20
1757.98
 30
0.0
 11
85.2612
 21
1756.68
 31
0.0
  0
LINE
  5
1D1
330
1E
100
AcDbEntity
  8
0
100
AcDbLine
 10
84.7198
 20
1757.98
 30
0.0
 11
86.25100000000001
 21
1761.67
 31
0.0
  0
LINE
  5
1D2
330
1E
100
AcDbEntity
  8
0
100
AcDbLine
 10
84.7198
 20
1757.98
 30
0.0
 11
85.0895
 21
1757.83
 31
0.0
  0
LINE
  5
1D3
330
1E
100
AcDbEntity
  8
0
100
AcDbLine
 10
83.9541
 20
1756.14
 30
0.0
 11
85.2612
 21
1756.68
 31
0.0
  0
LINE
  5
1D4
330
1E
100
AcDbEntity
  8
0
100
AcDbLine
 10
83.9541
 20
1756.14
 30
0.0
 11
84.3238
 21
1755.98
 31
0.0
  0
LINE
  5
1D5
330
1E
100
AcDbEntity
  8
0
100
AcDbLine
 10
86.6474
 20
1756.099999999999
 30
0.0
 11
88.21859999999999
 21
1755.45
 31
0.0
  0
LINE
  5
1D6
330
1E
100
AcDbEntity
  8
0
100
AcDbLine
 10
78.5965652687517
 20
1743.234252350039
 30
0.0
 11
83.9541
 21
1756.14
 31
0.0
  0
LINE
  5
1D7
330
1E
100
AcDbEntity
  8
0
100
AcDbLine
 10
86.6257599100486
 20
1739.91976050255
 30
0.0
 11
86.8201
 21
1739.84
 31
0.0
  0
LINE
  5
1D8
330
1E
100
AcDbEntity
  8
0
100
AcDbLine
 10
87.27949999999999
 20
1718.059999999999
 30
0.0
 11
87.6383
 21
1717.91
 31
0.0
  0
LINE
  5
1D9
330
1E
100
AcDbEntity
  8
0
100
AcDbLine
 10
87.27949999999999
 20
1718.059999999999
 30
0.0
 11
88.044903922575
 21
1719.89952875854
 31
0.0
  0
LINE
  5
1DA
330
1E
100
AcDbEntity
  8
0
100
AcDbLine
 10
87.27949999999999
 20
1718.059999999999
 30
0.0
 11
88.6185
 21
1717.5
 31
0.0
  0
LINE
  5
1DB
330
1E
100
AcDbEntity
  8
0
100
AcDbLine
 10
88.6185
 20
1717.5
 30
0.0
 11
88.97730000000001
 21
1717.35
 31
0.0
  0
LINE
  5
1DC
330
1E
100
AcDbEntity
  8
0
100
AcDbLine
 10
89.56059999999999
 20
1717.109999999999
 30
0.0
 11
90.32486406791901
 21
1718.957013096869
 31
0.0
  0
LINE
  5
1DD
330
1E
100
AcDbEntity
  8
0
100
AcDbLine
 10
88.97833094678878
 20
1717.352490860069
 30
0.0
 11
89.56059999999999
 21
1717.109999999999
 31
0.0
  0
LINE
  5
1DE
330
1E
100
AcDbEntity
  8
0
100
AcDbLine
 10
88.97730000000001
 20
1717.35
 30
0.0
 11
89.7421343407567
 21
1719.19790848949
 31
0.0
  0
LINE
  5
1DF
330
1E
100
AcDbEntity
  8
0
100
AcDbLine
 10
88.16339267973042
 20
1719.85054653857
 30
0.0
 11
88.40389999999999
 21
1719.75
 31
0.0
  0
LINE
  5
1E0
330
1E
100
AcDbEntity
  8
0
100
AcDbLine
 10
88.40389999999999
 20
1719.75
 30
0.0
 11
88.82483230636919
 21
1719.57711315921
 31
0.0
  0
LINE
  5
1E1
330
1E
100
AcDbEntity
  8
0
100
AcDbLine
 10
88.40389999999999
 20
1719.75
 30
0.0
 11
88.82483230636919
 21
1719.57711315921
 31
0.0
  0
LINE
  5
1E2
330
1E
100
AcDbEntity
  8
0
100
AcDbLine
 10
87.6383
 20
1717.91
 30
0.0
 11
88.40389999999999
 21
1719.75
 31
0.0
  0
LINE
  5
1E3
330
1E
100
AcDbEntity
  8
0
100
AcDbLine
 10
87.6383
 20
1717.91
 30
0.0
 11
88.97730000000001
 21
1717.35
 31
0.0
  0
LINE
  5
1E4
330
1E
100
AcDbEntity
  8
0
100
AcDbLine
 10
87.05199523871479
 20
1720.30998855849
 30
0.0
 11
88.044903922575
 21
1719.89952875854
 31
0.0
  0
LINE
  5
1E5
330
1E
100
AcDbEntity
  8
0
100
AcDbLine
 10
88.5367000000008
 20
1735.89
 30
0.0
 11
93.04210000000001
 21
1734.029999999999
 31
0.0
  0
LINE
  5
1E6
330
1E
100
AcDbEntity
  8
0
100
AcDbLine
 10
88.53669999999999
 20
1735.89
 30
0.0
 11
99.35
 21
1731.419999999999
 31
0.0
  0
LINE
  5
1E7
330
1E
100
AcDbEntity
  8
0
100
AcDbLine
 10
88.53669999999999
 20
1735.89
 30
0.0
 11
93.04210000000001
 21
1734.029999999999
 31
0.0
  0
LINE
  5
1E8
330
1E
100
AcDbEntity
  8
0
100
AcDbLine
 10
88.15380000000001
 20
1734.97
 30
0.0
 11
98.9667
 21
1730.5
 31
0.0
  0
LINE
  5
1E9
330
1E
100
AcDbEntity
  8
0
100
AcDbLine
 10
88.16339267973031
 20
1719.85054653857
 30
0.0
 11
88.40389999999999
 21
1719.75
 31
0.0
  0
LINE
  5
1EA
330
1E
100
AcDbEntity
  8
0
100
AcDbLine
 10
90.32486406791901
 20
1718.957013096869
 30
0.0
 11
90.7349587283655
 21
1718.787483536869
 31
0.0
  0
LINE
  5
1EB
330
1E
100
AcDbEntity
  8
0
100
AcDbLine
 10
89.97049999999999
 20
1716.94
 30
0.0
 11
90.3292
 21
1716.8
 31
0.0
  0
LINE
  5
1EC
330
1E
100
AcDbEntity
  8
0
100
AcDbLine
 10
89.97049999999999
 20
1716.94
 30
0.0
 11
90.7349587283655
 21
1718.787483536869
 31
0.0
  0
LINE
  5
1ED
330
1E
100
AcDbEntity
  8
0
100
AcDbLine
 10
89.97049999999999
 20
1716.94
 30
0.0
 11
91.3095
 21
1716.39
 31
0.0
  0
LINE
  5
1EE
330
1E
100
AcDbEntity
  8
0
100
AcDbLine
 10
92.4873
 20
1715.9
 30
0.0
 11
92.76862758619872
 21
1715.7851724138
 31
0.0
  0
LINE
  5
1EF
330
1E
100
AcDbEntity
  8
0
100
AcDbLine
 10
92.3215
 20
1715.97
 30
0.0
 11
93.08537861360159
 21
1717.81584043255
 31
0.0
  0
LINE
  5
1F0
330
1E
100
AcDbEntity
  8
0
100
AcDbLine
 10
92.4873
 20
1715.9
 30
0.0
 11
92.76862758619872
 21
1715.7851724138
 31
0.0
  0
LINE
  5
1F1
330
1E
100
AcDbEntity
  8
0
100
AcDbLine
 10
92.4873
 20
1715.9
 30
0.0
 11
93.2516944543312
 21
1717.7470869129
 31
0.0
  0
LINE
  5
1F2
330
1E
100
AcDbEntity
  8
0
100
AcDbLine
 10
92.6614
 20
1715.83
 30
0.0
 11
93.0202
 21
1715.68
 31
0.0
  0
LINE
  5
1F3
330
1E
100
AcDbEntity
  8
0
100
AcDbLine
 10
92.6614
 20
1715.83
 30
0.0
 11
93.42518296598301
 21
1717.675368273559
 31
0.0
  0
LINE
  5
1F4
330
1E
100
AcDbEntity
  8
0
100
AcDbLine
 10
91.6694267444468
 20
1716.2427226714
 30
0.0
 11
92.3215
 21
1715.97
 31
0.0
  0
LINE
  5
1F5
330
1E
100
AcDbEntity
  8
0
100
AcDbLine
 10
91.3095
 20
1716.39
 30
0.0
 11
91.6683
 21
1716.24
 31
0.0
  0
LINE
  5
1F6
330
1E
100
AcDbEntity
  8
0
100
AcDbLine
 10
91.6683
 20
1716.24
 30
0.0
 11
92.43218822188678
 21
1718.08586365007
 31
0.0
  0
LINE
  5
1F7
330
1E
100
AcDbEntity
  8
0
100
AcDbLine
 10
90.3292
 20
1716.8
 30
0.0
 11
91.0944337880891
 21
1718.63887967883
 31
0.0
  0
LINE
  5
1F8
330
1E
100
AcDbEntity
  8
0
100
AcDbLine
 10
90.3292
 20
1716.8
 30
0.0
 11
91.6683
 21
1716.24
 31
0.0
  0
LINE
  5
1F9
330
1E
100
AcDbEntity
  8
0
100
AcDbLine
 10
89.68500000000011
 20
1738.65
 30
0.0
 11
94.19059999999999
 21
1736.79
 31
0.0
  0
LINE
  5
1FA
330
1E
100
AcDbEntity
  8
0
100
AcDbLine
 10
92.5501
 20
1737.47
 30
0.0
 11
94.5538983216887
 21
1736.64013053613
 31
0.0
  0
LINE
  5
1FB
330
1E
100
AcDbEntity
  8
0
100
AcDbLine
 10
89.685
 20
1738.65
 30
0.0
 11
92.5501
 21
1737.47
 31
0.0
  0
LINE
  5
1FC
330
1E
100
AcDbEntity
  8
0
100
AcDbLine
 10
89.685
 20
1738.65
 30
0.0
 11
94.19059999999999
 21
1736.79
 31
0.0
  0
LINE
  5
1FD
330
1E
100
AcDbEntity
  8
0
100
AcDbLine
 10
87.95440000000001
 20
1756.64
 30
0.0
 11
90.2649
 21
1755.69
 31
0.0
  0
LINE
  5
1FE
330
1E
100
AcDbEntity
  8
0
100
AcDbLine
 10
88.21859999999999
 20
1755.45
 30
0.0
 11
90.3443
 21
1754.579999999999
 31
0.0
  0
LINE
  5
1FF
330
1E
100
AcDbEntity
  8
0
100
AcDbLine
 10
87.1889
 20
1754.799999999999
 30
0.0
 11
89.49939999999999
 21
1753.849999999999
 31
0.0
  0
LINE
  5
200
330
1E
100
AcDbEntity
  8
0
100
AcDbLine
 10
90.2649
 20
1755.69
 30
0.0
 11
92.9451
 21
1754.579999999999
 31
0.0
  0
LINE
  5
201
330
1E
100
AcDbEntity
  8
0
100
AcDbLine
 10
90.3443
 20
1754.579999999999
 30
0.0
 11
92.8395
 21
1753.549999999999
 31
0.0
  0
LINE
  5
202
330
1E
100
AcDbEntity
  8
0
100
AcDbLine
 10
89.49939999999999
 20
1753.849999999999
 30
0.0
 11
92.1795
 21
1752.74
 31
0.0
  0
LINE
  5
203
330
1E
100
AcDbEntity
  8
0
100
AcDbLine
 10
92.1795
 20
1752.74
 30
0.0
 11
95.0445
 21
1751.56
 31
0.0
  0
LINE
  5
204
330
1E
100
AcDbEntity
  8
0
100
AcDbLine
 10
92.9371112696034
 20
1715.7147360913
 30
0.0
 11
93.0202
 21
1715.68
 31
0.0
  0
LINE
  5
205
330
1E
100
AcDbEntity
  8
0
100
AcDbLine
 10
92.9371112696034
 20
1715.7147360913
 30
0.0
 11
93.0202
 21
1715.68
 31
0.0
  0
LINE
  5
206
330
1E
100
AcDbEntity
  8
0
100
AcDbLine
 10
94.14061111111259
 20
1715.219786324789
 30
0.0
 11
94.25969999999999
 21
1715.17
 31
0.0
  0
LINE
  5
207
330
1E
100
AcDbEntity
  8
0
100
AcDbLine
 10
94.14061111111259
 20
1715.219786324789
 30
0.0
 11
94.25969999999999
 21
1715.17
 31
0.0
  0
LINE
  5
208
330
1E
100
AcDbEntity
  8
0
100
AcDbLine
 10
94.20500327154378
 20
1715.19333696837
 30
0.0
 11
94.38109999999999
 21
1715.119999999999
 31
0.0
  0
LINE
  5
209
330
1E
100
AcDbEntity
  8
0
100
AcDbLine
 10
94.25969999999999
 20
1715.17
 30
0.0
 11
94.35753315159141
 21
1715.12981461286
 31
0.0
  0
LINE
  5
20A
330
1E
100
AcDbEntity
  8
0
100
AcDbLine
 10
94.24779213725191
 20
1715.17576125804
 30
0.0
 11
94.38109999999999
 21
1715.119999999999
 31
0.0
  0
LINE
  5
20B
330
1E
100
AcDbEntity
  8
0
100
AcDbLine
 10
93.9900623773512
 20
1715.28162486367
 30
0.0
 11
94.066
 21
1715.25
 31
0.0
  0
LINE
  5
20C
330
1E
100
AcDbEntity
  8
0
100
AcDbLine
 10
94.066
 20
1715.25
 30
0.0
 11
94.1299614955942
 21
1715.22416070009
 31
0.0
  0
LINE
  5
20D
330
1E
100
AcDbEntity
  8
0
100
AcDbLine
 10
94.3907833146615
 20
1715.11879335146
 30
0.0
 11
95.23999999999999
 21
1714.77
 31
0.0
  0
LINE
  5
20E
330
1E
100
AcDbEntity
  8
0
100
AcDbLine
 10
94.38114754371289
 20
1715.12011489989
 30
0.0
 11
95.3528153775094
 21
1714.72099816458
 31
0.0
  0
LINE
  5
20F
330
1E
100
AcDbEntity
  8
0
100
AcDbLine
 10
94.3907833146615
 20
1715.11879335146
 30
0.0
 11
95.23999999999999
 21
1714.77
 31
0.0
  0
LINE
  5
210
330
1E
100
AcDbEntity
  8
0
100
AcDbLine
 10
94.35975305981079
 20
1715.13132901927
 30
0.0
 11
94.7591
 21
1714.97
 31
0.0
  0
LINE
  5
211
330
1E
100
AcDbEntity
  8
0
100
AcDbLine
 10
94.7591
 20
1714.97
 30
0.0
 11
95.52431814158302
 21
1716.808842079809
 31
0.0
  0
LINE
  5
212
330
1E
100
AcDbEntity
  8
0
100
AcDbLine
 10
94.3603470182226
 20
1715.13275631909
 30
0.0
 11
94.7591
 21
1714.97
 31
0.0
  0
LINE
  5
213
330
1E
100
AcDbEntity
  8
0
100
AcDbLine
 10
94.35920000000001
 20
1715.13
 30
0.0
 11
95.12489999999999
 21
1716.97
 31
0.0
  0
LINE
  5
214
330
1E
100
AcDbEntity
  8
0
100
AcDbLine
 10
94.44934693853822
 20
1717.25253152683
 30
0.0
 11
95.12489999999999
 21
1716.97
 31
0.0
  0
LINE
  5
215
330
1E
100
AcDbEntity
  8
0
100
AcDbLine
 10
93.0202
 20
1715.68
 30
0.0
 11
93.78461544872001
 21
1717.52689640869
 31
0.0
  0
LINE
  5
216
330
1E
100
AcDbEntity
  8
0
100
AcDbLine
 10
93.0202
 20
1715.68
 30
0.0
 11
94.35920000000001
 21
1715.13
 31
0.0
  0
LINE
  5
217
330
1E
100
AcDbEntity
  8
0
100
AcDbLine
 10
93.0202
 20
1715.68
 30
0.0
 11
93.4810431096052
 21
1715.49070671375
 31
0.0
  0
LINE
  5
218
330
1E
100
AcDbEntity
  8
0
100
AcDbLine
 10
93.0202
 20
1715.68
 30
0.0
 11
93.48104310960529
 21
1715.49070671375
 31
0.0
  0
LINE
  5
219
330
1E
100
AcDbEntity
  8
0
100
AcDbLine
 10
93.08537861360159
 20
1717.81584043255
 30
0.0
 11
93.2516944543312
 21
1717.7470869129
 31
0.0
  0
LINE
  5
21A
330
1E
100
AcDbEntity
  8
0
100
AcDbLine
 10
93.04210000000001
 20
1734.029999999999
 30
0.0
 11
97.4782
 21
1732.199999999999
 31
0.0
  0
LINE
  5
21B
330
1E
100
AcDbEntity
  8
0
100
AcDbLine
 10
94.19059999999999
 20
1736.79
 30
0.0
 11
98.62670000000001
 21
1734.96
 31
0.0
  0
LINE
  5
21C
330
1E
100
AcDbEntity
  8
0
100
AcDbLine
 10
93.99030000000001
 20
1718.52
 30
0.0
 11
104.664
 21
1714.109999999999
 31
0.0
  0
LINE
  5
21D
330
1E
100
AcDbEntity
  8
0
100
AcDbLine
 10
93.60750000000001
 20
1717.6
 30
0.0
 11
104.0739999999999
 21
1713.28
 31
0.0
  0
LINE
  5
21E
330
1E
100
AcDbEntity
  8
0
100
AcDbLine
 10
95.23999999999999
 20
1714.77
 30
0.0
 11
96.00560000000001
 21
1716.61
 31
0.0
  0
LINE
  5
21F
330
1E
100
AcDbEntity
  8
0
100
AcDbLine
 10
95.23999999999999
 20
1714.77
 30
0.0
 11
95.35346228778509
 21
1714.72255270932
 31
0.0
  0
LINE
  5
220
330
1E
100
AcDbEntity
  8
0
100
AcDbLine
 10
95.98059752477091
 20
1716.62051485148
 30
0.0
 11
96.28566415501609
 21
1716.49459999525
 31
0.0
  0
LINE
  5
221
330
1E
100
AcDbEntity
  8
0
100
AcDbLine
 10
95.98059752477091
 20
1716.62051485148
 30
0.0
 11
96.22582767671
 21
1716.51795407098
 31
0.0
  0
LINE
  5
222
330
1E
100
AcDbEntity
  8
0
100
AcDbLine
 10
95.98059752477091
 20
1716.62051485148
 30
0.0
 11
96.28566415501609
 21
1716.49459999525
 31
0.0
  0
LINE
  5
223
330
1E
100
AcDbEntity
  8
0
100
AcDbLine
 10
95.98059752477091
 20
1716.62051485148
 30
0.0
 11
96.22582767671
 21
1716.51795407098
 31
0.0
  0
LINE
  5
224
330
1E
100
AcDbEntity
  8
0
100
AcDbLine
 10
96.00560000000001
 20
1716.61
 30
0.0
 11
96.2250172963901
 21
1716.51827036104
 31
0.0
  0
LINE
  5
225
330
1E
100
AcDbEntity
  8
0
100
AcDbLine
 10
95.52390294796079
 20
1716.80784435712
 30
0.0
 11
96.00560000000001
 21
1716.61
 31
0.0
  0
LINE
  5
226
330
1E
100
AcDbEntity
  8
0
100
AcDbLine
 10
95.35239999999999
 20
1714.72
 30
0.0
 11
95.7112
 21
1714.57
 31
0.0
  0
LINE
  5
227
330
1E
100
AcDbEntity
  8
0
100
AcDbLine
 10
95.35239999999999
 20
1714.72
 30
0.0
 11
96.1181
 21
1716.56
 31
0.0
  0
LINE
  5
228
330
1E
100
AcDbEntity
  8
0
100
AcDbLine
 10
95.7112
 20
1714.57
 30
0.0
 11
96.4752834847281
 21
1716.41633548426
 31
0.0
  0
LINE
  5
229
330
1E
100
AcDbEntity
  8
0
100
AcDbLine
 10
95.7112
 20
1714.57
 30
0.0
 11
97.0503
 21
1714.02
 31
0.0
  0
LINE
  5
22A
330
1E
100
AcDbEntity
  8
0
100
AcDbLine
 10
97.0503
 20
1714.02
 30
0.0
 11
97.81590000000001
 21
1715.86
 31
0.0
  0
LINE
  5
22B
330
1E
100
AcDbEntity
  8
0
100
AcDbLine
 10
97.26463178649641
 20
1716.09053558327
 30
0.0
 11
98.47832849638692
 21
1715.58958781786
 31
0.0
  0
LINE
  5
22C
330
1E
100
AcDbEntity
  8
0
100
AcDbLine
 10
97.26463178649641
 20
1716.09053558327
 30
0.0
 11
97.81590000000001
 21
1715.86
 31
0.0
  0
LINE
  5
22D
330
1E
100
AcDbEntity
  8
0
100
AcDbLine
 10
97.26463178649641
 20
1716.09053558327
 30
0.0
 11
98.47832849638692
 21
1715.58958781786
 31
0.0
  0
LINE
  5
22E
330
1E
100
AcDbEntity
  8
0
100
AcDbLine
 10
97.4782
 20
1732.199999999999
 30
0.0
 11
101.776
 21
1730.42
 31
0.0
  0
LINE
  5
22F
330
1E
100
AcDbEntity
  8
0
100
AcDbLine
 10
96.1181
 20
1716.56
 30
0.0
 11
96.28566415501609
 21
1716.49459999525
 31
0.0
  0
LINE
  5
230
330
1E
100
AcDbEntity
  8
0
100
AcDbLine
 10
98.29129822030942
 20
1713.50639249639
 30
0.0
 11
98.4023
 21
1713.46
 31
0.0
  0
LINE
  5
231
330
1E
100
AcDbEntity
  8
0
100
AcDbLine
 10
98.064
 20
1713.6
 30
0.0
 11
98.16358448027658
 21
1713.5597696516
 31
0.0
  0
LINE
  5
232
330
1E
100
AcDbEntity
  8
0
100
AcDbLine
 10
98.064
 20
1713.6
 30
0.0
 11
98.2037293075346
 21
1713.542991373279
 31
0.0
  0
LINE
  5
233
330
1E
100
AcDbEntity
  8
0
100
AcDbLine
 10
97.7129
 20
1713.75
 30
0.0
 11
98.044027983121
 21
1713.61150925933
 31
0.0
  0
LINE
  5
234
330
1E
100
AcDbEntity
  8
0
100
AcDbLine
 10
97.7129
 20
1713.75
 30
0.0
 11
98.47832849638692
 21
1715.58958781786
 31
0.0
  0
LINE
  5
235
330
1E
100
AcDbEntity
  8
0
100
AcDbLine
 10
98.04340000000001
 20
1713.61
 30
0.0
 11
98.4023
 21
1713.46
 31
0.0
  0
LINE
  5
236
330
1E
100
AcDbEntity
  8
0
100
AcDbLine
 10
98.04340000000001
 20
1713.61
 30
0.0
 11
98.809
 21
1715.45
 31
0.0
  0
LINE
  5
237
330
1E
100
AcDbEntity
  8
0
100
AcDbLine
 10
98.62762437639201
 20
1713.36742630387
 30
0.0
 11
98.69320000000001
 21
1713.339999999999
 31
0.0
  0
LINE
  5
238
330
1E
100
AcDbEntity
  8
0
100
AcDbLine
 10
98.87967806457451
 20
1713.26387096772
 30
0.0
 11
99.0948053095942
 21
1713.17548672572
 31
0.0
  0
LINE
  5
239
330
1E
100
AcDbEntity
  8
0
100
AcDbLine
 10
98.87967806457451
 20
1713.26387096772
 30
0.0
 11
99.0948053095942
 21
1713.17548672572
 31
0.0
  0
LINE
  5
23A
330
1E
100
AcDbEntity
  8
0
100
AcDbLine
 10
98.69320000000001
 20
1713.339999999999
 30
0.0
 11
98.87967806457451
 21
1713.26387096772
 31
0.0
  0
LINE
  5
23B
330
1E
100
AcDbEntity
  8
0
100
AcDbLine
 10
98.69320000000001
 20
1713.339999999999
 30
0.0
 11
98.87967806457451
 21
1713.26387096772
 31
0.0
  0
LINE
  5
23C
330
1E
100
AcDbEntity
  8
0
100
AcDbLine
 10
99.958
 20
1712.819999999999
 30
0.0
 11
100.7239999999999
 21
1714.66
 31
0.0
  0
LINE
  5
23D
330
1E
100
AcDbEntity
  8
0
100
AcDbLine
 10
99.9693988426336
 20
1714.97415535278
 30
0.0
 11
100.1120938547199
 21
1714.91474860336
 31
0.0
  0
LINE
  5
23E
330
1E
100
AcDbEntity
  8
0
100
AcDbLine
 10
99.74112365575221
 20
1712.91029742037
 30
0.0
 11
99.958
 21
1712.819999999999
 31
0.0
  0
LINE
  5
23F
330
1E
100
AcDbEntity
  8
0
100
AcDbLine
 10
99.74099999999999
 20
1712.91
 30
0.0
 11
100.506
 21
1714.75
 31
0.0
  0
LINE
  5
240
330
1E
100
AcDbEntity
  8
0
100
AcDbLine
 10
99.04706770914851
 20
1715.352212666149
 30
0.0
 11
99.34331612762481
 21
1715.23256812962
 31
0.0
  0
LINE
  5
241
330
1E
100
AcDbEntity
  8
0
100
AcDbLine
 10
99.04706770914851
 20
1715.352212666149
 30
0.0
 11
99.34331612762481
 21
1715.23256812962
 31
0.0
  0
LINE
  5
242
330
1E
100
AcDbEntity
  8
0
100
AcDbLine
 10
99.168
 20
1715.3
 30
0.0
 11
100.506
 21
1714.75
 31
0.0
  0
LINE
  5
243
330
1E
100
AcDbEntity
  8
0
100
AcDbLine
 10
98.4023
 20
1713.46
 30
0.0
 11
99.168
 21
1715.3
 31
0.0
  0
LINE
  5
244
330
1E
100
AcDbEntity
  8
0
100
AcDbLine
 10
98.4023
 20
1713.46
 30
0.0
 11
99.74099999999999
 21
1712.91
 31
0.0
  0
LINE
  5
245
330
1E
100
AcDbEntity
  8
0
100
AcDbLine
 10
98.4023
 20
1713.46
 30
0.0
 11
98.62762437639201
 21
1713.36742630387
 31
0.0
  0
LINE
  5
246
330
1E
100
AcDbEntity
  8
0
100
AcDbLine
 10
98.62670000000001
 20
1734.96
 30
0.0
 11
102.9249999999999
 21
1733.19
 31
0.0
  0
LINE
  5
247
330
1E
100
AcDbEntity
  8
0
100
AcDbLine
 10
99.35
 20
1731.419999999999
 30
0.0
 11
109.816
 21
1727.1
 31
0.0
  0
LINE
  5
248
330
1E
100
AcDbEntity
  8
0
100
AcDbLine
 10
98.9667
 20
1730.5
 30
0.0
 11
109.642
 21
1726.09
 31
0.0
  0
LINE
  5
249
330
1E
100
AcDbEntity
  8
0
100
AcDbLine
 10
98.56779695523659
 20
1715.552660120709
 30
0.0
 11
99.0497601152971
 21
1715.351125296
 31
0.0
  0
LINE
  5
24A
330
1E
100
AcDbEntity
  8
0
100
AcDbLine
 10
98.56779695523659
 20
1715.552660120709
 30
0.0
 11
99.0497601152971
 21
1715.351125296
 31
0.0
  0
LINE
  5
24B
330
1E
100
AcDbEntity
  8
0
100
AcDbLine
 10
98.809
 20
1715.45
 30
0.0
 11
99.168
 21
1715.3
 31
0.0
  0
LINE
  5
24C
330
1E
100
AcDbEntity
  8
0
100
AcDbLine
 10
98.809
 20
1715.45
 30
0.0
 11
100.1479999999999
 21
1714.9
 31
0.0
  0
LINE
  5
24D
330
1E
100
AcDbEntity
  8
0
100
AcDbLine
 10
100.3454545454439
 20
1714.81818181819
 30
0.0
 11
100.4389999999999
 21
1714.78
 31
0.0
  0
LINE
  5
24E
330
1E
100
AcDbEntity
  8
0
100
AcDbLine
 10
100.1974143260339
 20
1714.88004300497
 30
0.0
 11
102.256985251401
 21
1714.02996452625
 31
0.0
  0
LINE
  5
24F
330
1E
100
AcDbEntity
  8
0
100
AcDbLine
 10
100.1974143260339
 20
1714.88004300497
 30
0.0
 11
100.7239999999999
 21
1714.66
 31
0.0
  0
LINE
  5
250
330
1E
100
AcDbEntity
  8
0
100
AcDbLine
 10
100.1974143260339
 20
1714.88004300497
 30
0.0
 11
102.256985251401
 21
1714.02996452625
 31
0.0
  0
LINE
  5
251
330
1E
100
AcDbEntity
  8
0
100
AcDbLine
 10
100.1974143260339
 20
1714.88004300497
 30
0.0
 11
100.7239999999999
 21
1714.66
 31
0.0
  0
LINE
  5
252
330
1E
100
AcDbEntity
  8
0
100
AcDbLine
 10
100.2227130435359
 20
1714.868695652149
 30
0.0
 11
100.7239999999999
 21
1714.66
 31
0.0
  0
LINE
  5
253
330
1E
100
AcDbEntity
  8
0
100
AcDbLine
 10
100.1479999999999
 20
1714.9
 30
0.0
 11
100.506
 21
1714.75
 31
0.0
  0
LINE
  5
254
330
1E
100
AcDbEntity
  8
0
100
AcDbLine
 10
100.7349999999999
 20
1712.5
 30
0.0
 11
101.0929999999999
 21
1712.349999999999
 31
0.0
  0
LINE
  5
255
330
1E
100
AcDbEntity
  8
0
100
AcDbLine
 10
100.7349999999999
 20
1712.5
 30
0.0
 11
101.5
 21
1714.339999999999
 31
0.0
  0
LINE
  5
256
330
1E
100
AcDbEntity
  8
0
100
AcDbLine
 10
101.959616083034
 20
1711.994033722429
 30
0.0
 11
102.184
 21
1711.899999999999
 31
0.0
  0
LINE
  5
257
330
1E
100
AcDbEntity
  8
0
100
AcDbLine
 10
102.2686277542999
 20
1714.02515913643
 30
0.0
 11
102.377735449743
 21
1713.97973544973
 31
0.0
  0
LINE
  5
258
330
1E
100
AcDbEntity
  8
0
100
AcDbLine
 10
102.150105263154
 20
1711.91578947369
 30
0.0
 11
102.692
 21
1711.69
 31
0.0
  0
LINE
  5
259
330
1E
100
AcDbEntity
  8
0
100
AcDbLine
 10
102.184
 20
1711.899999999999
 30
0.0
 11
103.2632790523549
 21
1711.45067483249
 31
0.0
  0
LINE
  5
25A
330
1E
100
AcDbEntity
  8
0
100
AcDbLine
 10
102.150105263154
 20
1711.91578947369
 30
0.0
 11
102.692
 21
1711.69
 31
0.0
  0
LINE
  5
25B
330
1E
100
AcDbEntity
  8
0
100
AcDbLine
 10
102.2686277542989
 20
1714.02515913643
 30
0.0
 11
102.377735449743
 21
1713.97973544973
 31
0.0
  0
LINE
  5
25C
330
1E
100
AcDbEntity
  8
0
100
AcDbLine
 10
102.692
 20
1711.69
 30
0.0
 11
103.458
 21
1713.53
 31
0.0
  0
LINE
  5
25D
330
1E
100
AcDbEntity
  8
0
100
AcDbLine
 10
102.692
 20
1711.69
 30
0.0
 11
103.26337133453
 21
1711.45089799854
 31
0.0
  0
LINE
  5
25E
330
1E
100
AcDbEntity
  8
0
100
AcDbLine
 10
103.944
 20
1711.17
 30
0.0
 11
104.841653631277
 21
1710.801284916199
 31
0.0
  0
LINE
  5
25F
330
1E
100
AcDbEntity
  8
0
100
AcDbLine
 10
103.944
 20
1711.17
 30
0.0
 11
104.841653631277
 21
1710.801284916199
 31
0.0
  0
LINE
  5
260
330
1E
100
AcDbEntity
  8
0
100
AcDbLine
 10
103.944
 20
1711.17
 30
0.0
 11
104.302
 21
1711.019999999999
 31
0.0
  0
LINE
  5
261
330
1E
100
AcDbEntity
  8
0
100
AcDbLine
 10
103.2629999999999
 20
1711.45
 30
0.0
 11
103.956
 21
1711.17
 31
0.0
  0
LINE
  5
262
330
1E
100
AcDbEntity
  8
0
100
AcDbLine
 10
103.2629999999999
 20
1711.45
 30
0.0
 11
104.027641930798
 21
1713.29913408102
 31
0.0
  0
LINE
  5
263
330
1E
100
AcDbEntity
  8
0
100
AcDbLine
 10
103.2629999999999
 20
1711.45
 30
0.0
 11
104.328508253657
 21
1711.014917463089
 31
0.0
  0
LINE
  5
264
330
1E
100
AcDbEntity
  8
0
100
AcDbLine
 10
103.2629999999999
 20
1711.45
 30
0.0
 11
104.328508253657
 21
1711.014917463089
 31
0.0
  0
LINE
  5
265
330
1E
100
AcDbEntity
  8
0
100
AcDbLine
 10
104.0073497942309
 20
1711.14345679013
 30
0.0
 11
104.302
 21
1711.019999999999
 31
0.0
  0
LINE
  5
266
330
1E
100
AcDbEntity
  8
0
100
AcDbLine
 10
104.302
 20
1711.019999999999
 30
0.0
 11
105.642
 21
1710.47
 31
0.0
  0
LINE
  5
267
330
1E
100
AcDbEntity
  8
0
100
AcDbLine
 10
107.026
 20
1709.9
 30
0.0
 11
107.7909999999999
 21
1711.739999999999
 31
0.0
  0
LINE
  5
268
330
1E
100
AcDbEntity
  8
0
100
AcDbLine
 10
105.642265736788
 20
1710.470639157769
 30
0.0
 11
106.289
 21
1710.2
 31
0.0
  0
LINE
  5
269
330
1E
100
AcDbEntity
  8
0
100
AcDbLine
 10
106.045
 20
1710.31
 30
0.0
 11
106.8097243668219
 21
1712.14933703915
 31
0.0
  0
LINE
  5
26A
330
1E
100
AcDbEntity
  8
0
100
AcDbLine
 10
106.045
 20
1710.31
 30
0.0
 11
107.026
 21
1709.9
 31
0.0
  0
LINE
  5
26B
330
1E
100
AcDbEntity
  8
0
100
AcDbLine
 10
105.157866446437
 20
1710.67209532798
 30
0.0
 11
106.045
 21
1710.31
 31
0.0
  0
LINE
  5
26C
330
1E
100
AcDbEntity
  8
0
100
AcDbLine
 10
105.2829999999999
 20
1710.619999999999
 30
0.0
 11
105.642
 21
1710.47
 31
0.0
  0
LINE
  5
26D
330
1E
100
AcDbEntity
  8
0
100
AcDbLine
 10
105.157620363022
 20
1710.671500224299
 30
0.0
 11
105.2829999999999
 21
1710.619999999999
 31
0.0
  0
LINE
  5
26E
330
1E
100
AcDbEntity
  8
0
100
AcDbLine
 10
108.461
 20
1709.31
 30
0.0
 11
109.155
 21
1709.019999999999
 31
0.0
  0
LINE
  5
26F
330
1E
100
AcDbEntity
  8
0
100
AcDbLine
 10
108.461
 20
1709.31
 30
0.0
 11
109.227
 21
1711.15
 31
0.0
  0
LINE
  5
270
330
1E
100
AcDbEntity
  8
0
100
AcDbLine
 10
109.289491746295
 20
1708.96508253693
 30
0.0
 11
109.662
 21
1708.81
 31
0.0
  0
LINE
  5
271
330
1E
100
AcDbEntity
  8
0
100
AcDbLine
 10
109.662
 20
1708.81
 30
0.0
 11
110.355
 21
1708.53
 31
0.0
  0
LINE
  5
272
330
1E
100
AcDbEntity
  8
0
100
AcDbLine
 10
111.1879999999999
 20
1708.18
 30
0.0
 11
112.389
 21
1707.68
 31
0.0
  0
LINE
  5
273
330
1E
100
AcDbEntity
  8
0
100
AcDbLine
 10
110.496
 20
1708.47
 30
0.0
 11
111.697
 21
1707.969999999999
 31
0.0
  0
LINE
  5
274
330
1E
100
AcDbEntity
  8
0
100
AcDbLine
 10
110.496
 20
1708.47
 30
0.0
 11
111.261726829202
 21
1710.30934381949
 31
0.0
  0
LINE
  5
275
330
1E
100
AcDbEntity
  8
0
100
AcDbLine
 10
110.496
 20
1708.47
 30
0.0
 11
111.1879999999999
 21
1708.18
 31
0.0
  0
LINE
  5
276
330
1E
100
AcDbEntity
  8
0
100
AcDbLine
 10
112.417
 20
1707.67
 30
0.0
 11
113.397
 21
1707.27
 31
0.0
  0
LINE
  5
277
330
1E
100
AcDbEntity
  8
0
100
AcDbLine
 10
112.417
 20
1707.67
 30
0.0
 11
113.1804825820389
 21
1709.51633042715
 31
0.0
  0
LINE
  5
278
330
1E
100
AcDbEntity
  8
0
100
AcDbLine
 10
113.397
 20
1707.27
 30
0.0
 11
114.1629999999999
 21
1709.11
 31
0.0
  0
LINE
  5
279
330
1E
100
AcDbEntity
  8
0
100
AcDbLine
 10
113.397
 20
1707.27
 30
0.0
 11
113.956999999378
 21
1707.03571428597
 31
0.0
  0
LINE
  5
27A
330
1E
100
AcDbEntity
  8
0
100
AcDbLine
 10
113.397
 20
1707.27
 30
0.0
 11
113.956999999378
 21
1707.03571428597
 31
0.0
  0
LINE
  5
27B
330
1E
100
AcDbEntity
  8
0
100
AcDbLine
 10
112.389
 20
1707.68
 30
0.0
 11
113.1538906487109
 21
1709.52732075733
 31
0.0
  0
LINE
  5
27C
330
1E
100
AcDbEntity
  8
0
100
AcDbLine
 10
111.697
 20
1707.969999999999
 30
0.0
 11
112.4619999999999
 21
1709.81
 31
0.0
  0
LINE
  5
27D
330
1E
100
AcDbEntity
  8
0
100
AcDbLine
 10
111.697
 20
1707.969999999999
 30
0.0
 11
112.389
 21
1707.68
 31
0.0
  0
LINE
  5
27E
330
1E
100
AcDbEntity
  8
0
100
AcDbLine
 10
113.66
 20
1707.16
 30
0.0
 11
114.3529999999999
 21
1706.87
 31
0.0
  0
LINE
  5
27F
330
1E
100
AcDbEntity
  8
0
100
AcDbLine
 10
113.66
 20
1707.16
 30
0.0
 11
114.4249999999999
 21
1709.0
 31
0.0
  0
LINE
  5
280
330
1E
100
AcDbEntity
  8
0
100
AcDbLine
 10
115.444999999992
 20
1706.42
 30
0.0
 11
115.685
 21
1706.319999999999
 31
0.0
  0
LINE
  5
281
330
1E
100
AcDbEntity
  8
0
100
AcDbLine
 10
115.2989999999999
 20
1706.48
 30
0.0
 11
115.444999999992
 21
1706.42
 31
0.0
  0
LINE
  5
282
330
1E
100
AcDbEntity
  8
0
100
AcDbLine
 10
115.325
 20
1706.47
 30
0.0
 11
115.685
 21
1706.319999999999
 31
0.0
  0
LINE
  5
283
330
1E
100
AcDbEntity
  8
0
100
AcDbLine
 10
115.166351428588
 20
1706.53639999999
 30
0.0
 11
115.325
 21
1706.47
 31
0.0
  0
LINE
  5
284
330
1E
100
AcDbEntity
  8
0
100
AcDbLine
 10
115.166351428588
 20
1706.53639999999
 30
0.0
 11
115.2993115718009
 21
1706.480751509559
 31
0.0
  0
LINE
  5
285
330
1E
100
AcDbEntity
  8
0
100
AcDbLine
 10
114.377073651173
 20
1706.860178110679
 30
0.0
 11
114.4971199999849
 21
1706.81120000001
 31
0.0
  0
LINE
  5
286
330
1E
100
AcDbEntity
  8
0
100
AcDbLine
 10
114.4971199999849
 20
1706.81120000001
 30
0.0
 11
114.86
 21
1706.66
 31
0.0
  0
LINE
  5
287
330
1E
100
AcDbEntity
  8
0
100
AcDbLine
 10
114.86
 20
1706.66
 30
0.0
 11
115.554
 21
1706.38
 31
0.0
  0
LINE
  5
288
330
1E
100
AcDbEntity
  8
0
100
AcDbLine
 10
114.86
 20
1706.66
 30
0.0
 11
115.166351428588
 21
1706.53639999999
 31
0.0
  0
LINE
  5
289
330
1E
100
AcDbEntity
  8
0
100
AcDbLine
 10
116.686
 20
1705.91
 30
0.0
 11
117.451
 21
1707.75
 31
0.0
  0
LINE
  5
28A
330
1E
100
AcDbEntity
  8
0
100
AcDbLine
 10
116.9889184852499
 20
1707.94350706033
 30
0.0
 11
117.451
 21
1707.75
 31
0.0
  0
LINE
  5
28B
330
1E
100
AcDbEntity
  8
0
100
AcDbLine
 10
115.685484177215
 20
1706.321170886079
 30
0.0
 11
116.686
 21
1705.91
 31
0.0
  0
LINE
  5
28C
330
1E
100
AcDbEntity
  8
0
100
AcDbLine
 10
115.685
 20
1706.319999999999
 30
0.0
 11
116.448586774328
 21
1708.166582395429
 31
0.0
  0
LINE
  5
28D
330
1E
100
AcDbEntity
  8
0
100
AcDbLine
 10
118.8579999999999
 20
1705.01
 30
0.0
 11
119.551
 21
1704.73
 31
0.0
  0
LINE
  5
28E
330
1E
100
AcDbEntity
  8
0
100
AcDbLine
 10
118.8579999999999
 20
1705.01
 30
0.0
 11
119.622450010137
 21
1706.8562565519
 31
0.0
  0
LINE
  5
28F
330
1E
100
AcDbEntity
  8
0
100
AcDbLine
 10
118.8579999999999
 20
1705.01
 30
0.0
 11
119.880000000013
 21
1704.59303080766
 31
0.0
  0
LINE
  5
290
330
1E
100
AcDbEntity
  8
0
100
AcDbLine
 10
120.7489999999999
 20
1704.23
 30
0.0
 11
121.7289999999999
 21
1703.829999999999
 31
0.0
  0
LINE
  5
291
330
1E
100
AcDbEntity
  8
0
100
AcDbLine
 10
120.1390414937359
 20
1704.48518672201
 30
0.0
 11
120.7489999999999
 21
1704.23
 31
0.0
  0
LINE
  5
292
330
1E
100
AcDbEntity
  8
0
100
AcDbLine
 10
120.1390414937359
 20
1704.48518672201
 30
0.0
 11
120.7489999999999
 21
1704.23
 31
0.0
  0
LINE
  5
293
330
1E
100
AcDbEntity
  8
0
100
AcDbLine
 10
120.1929999999999
 20
1704.46
 30
0.0
 11
120.253453400496
 21
1704.43531486146
 31
0.0
  0
LINE
  5
294
330
1E
100
AcDbEntity
  8
0
100
AcDbLine
 10
120.1929999999999
 20
1704.46
 30
0.0
 11
120.253453400495
 21
1704.43531486146
 31
0.0
  0
LINE
  5
295
330
1E
100
AcDbEntity
  8
0
100
AcDbLine
 10
120.4777221134819
 20
1704.342954990219
 30
0.0
 11
120.701
 21
1704.25
 31
0.0
  0
LINE
  5
296
330
1E
100
AcDbEntity
  8
0
100
AcDbLine
 10
129.081
 20
1700.79
 30
0.0
 11
129.846
 21
1702.63
 31
0.0
  0
LINE
  5
297
330
1E
100
AcDbEntity
  8
0
100
AcDbLine
 10
129.3411200000009
 20
1700.6812
 30
0.0
 11
129.704
 21
1700.529999999999
 31
0.0
  0
LINE
  5
298
330
1E
100
AcDbEntity
  8
0
100
AcDbLine
 10
129.197
 20
1700.74
 30
0.0
 11
129.3411200000009
 21
1700.6812
 31
0.0
  0
LINE
  5
299
330
1E
100
AcDbEntity
  8
0
100
AcDbLine
 10
127.0829999999999
 20
1701.619999999999
 30
0.0
 11
127.8479788995589
 21
1703.45994924861
 31
0.0
  0
LINE
  5
29A
330
1E
100
AcDbEntity
  8
0
100
AcDbLine
 10
127.121
 20
1701.6
 30
0.0
 11
128.0999999999999
 21
1701.2
 31
0.0
  0
LINE
  5
29B
330
1E
100
AcDbEntity
  8
0
100
AcDbLine
 10
127.121
 20
1701.6
 30
0.0
 11
127.886
 21
1703.44
 31
0.0
  0
LINE
  5
29C
330
1E
100
AcDbEntity
  8
0
100
AcDbLine
 10
128.0999999999999
 20
1701.2
 30
0.0
 11
128.866695710914
 21
1703.03927002357
 31
0.0
  0
LINE
  5
29D
330
1E
100
AcDbEntity
  8
0
100
AcDbLine
 10
128.0999999999999
 20
1701.2
 30
0.0
 11
129.081
 21
1700.79
 31
0.0
  0
LINE
  5
29E
330
1E
100
AcDbEntity
  8
0
100
AcDbLine
 10
128.5039999999999
 20
1701.03
 30
0.0
 11
129.704
 21
1700.529999999999
 31
0.0
  0
LINE
  5
29F
330
1E
100
AcDbEntity
  8
0
100
AcDbLine
 10
128.5039999999999
 20
1701.03
 30
0.0
 11
129.197
 21
1700.74
 31
0.0
  0
LINE
  5
2A0
330
1E
100
AcDbEntity
  8
0
100
AcDbLine
 10
138.2009999999999
 20
1697.02
 30
0.0
 11
138.345120000002
 21
1696.9612
 31
0.0
  0
LINE
  5
2A1
330
1E
100
AcDbEntity
  8
0
100
AcDbLine
 10
138.2009999999999
 20
1697.02
 30
0.0
 11
138.345120000002
 21
1696.9612
 31
0.0
  0
LINE
  5
2A2
330
1E
100
AcDbEntity
  8
0
100
AcDbLine
 10
131.055681347176
 20
1702.13532815198
 30
0.0
 11
132.9089999999999
 21
1701.37
 31
0.0
  0
LINE
  5
2A3
330
1E
100
AcDbEntity
  8
0
100
AcDbLine
 10
133.7069999999999
 20
1702.12
 30
0.0
 11
141.887
 21
1698.74
 31
0.0
  0
LINE
  5
2A4
330
1E
100
AcDbEntity
  8
0
100
AcDbLine
 10
132.9089999999999
 20
1701.37
 30
0.0
 11
141.019
 21
1698.02
 31
0.0
  0
LINE
  5
2A5
330
1E
100
AcDbEntity
  8
0
100
AcDbLine
 10
132.9089999999999
 20
1701.37
 30
0.0
 11
135.2372784525539
 21
1700.4082573593
 31
0.0
  0
LINE
  5
2A6
330
1E
100
AcDbEntity
  8
0
100
AcDbLine
 10
134.472
 20
1698.559999999999
 30
0.0
 11
135.453
 21
1698.16
 31
0.0
  0
LINE
  5
2A7
330
1E
100
AcDbEntity
  8
0
100
AcDbLine
 10
134.472
 20
1698.559999999999
 30
0.0
 11
135.2372784525539
 21
1700.4082573593
 31
0.0
  0
LINE
  5
2A8
330
1E
100
AcDbEntity
  8
0
100
AcDbLine
 10
137.48
 20
1697.319999999999
 30
0.0
 11
138.246
 21
1699.16
 31
0.0
  0
LINE
  5
2A9
330
1E
100
AcDbEntity
  8
0
100
AcDbLine
 10
137.237896210893
 20
1699.58186161449
 30
0.0
 11
138.6774436229269
 21
1698.98722735674
 31
0.0
  0
LINE
  5
2AA
330
1E
100
AcDbEntity
  8
0
100
AcDbLine
 10
137.237896210893
 20
1699.58186161449
 30
0.0
 11
138.6774436229269
 21
1698.98722735674
 31
0.0
  0
LINE
  5
2AB
330
1E
100
AcDbEntity
  8
0
100
AcDbLine
 10
137.237896210893
 20
1699.58186161449
 30
0.0
 11
138.246
 21
1699.16
 31
0.0
  0
LINE
  5
2AC
330
1E
100
AcDbEntity
  8
0
100
AcDbLine
 10
136.433206770375
 20
1697.75049938015
 30
0.0
 11
137.48
 21
1697.319999999999
 31
0.0
  0
LINE
  5
2AD
330
1E
100
AcDbEntity
  8
0
100
AcDbLine
 10
136.433
 20
1697.75
 30
0.0
 11
137.198267553046
 21
1699.59823103542
 31
0.0
  0
LINE
  5
2AE
330
1E
100
AcDbEntity
  8
0
100
AcDbLine
 10
135.623249406207
 20
1700.24882422802
 30
0.0
 11
136.2179999999999
 21
1700.0
 31
0.0
  0
LINE
  5
2AF
330
1E
100
AcDbEntity
  8
0
100
AcDbLine
 10
136.2179999999999
 20
1700.0
 30
0.0
 11
136.809842975192
 21
1699.758677685959
 31
0.0
  0
LINE
  5
2B0
330
1E
100
AcDbEntity
  8
0
100
AcDbLine
 10
136.2179999999999
 20
1700.0
 30
0.0
 11
136.809842975192
 21
1699.758677685959
 31
0.0
  0
LINE
  5
2B1
330
1E
100
AcDbEntity
  8
0
100
AcDbLine
 10
135.453
 20
1698.16
 30
0.0
 11
136.2179999999999
 21
1700.0
 31
0.0
  0
LINE
  5
2B2
330
1E
100
AcDbEntity
  8
0
100
AcDbLine
 10
135.453
 20
1698.16
 30
0.0
 11
136.433
 21
1697.75
 31
0.0
  0
LINE
  5
2B3
330
1E
100
AcDbEntity
  8
0
100
AcDbLine
 10
135.623249406207
 20
1700.24882422802
 30
0.0
 11
136.2179999999999
 21
1700.0
 31
0.0
  0
LINE
  5
2B4
330
1E
100
AcDbEntity
  8
0
100
AcDbLine
 10
134.8379999999999
 20
1700.57
 30
0.0
 11
135.236477751902
 21
1700.40632355224
 31
0.0
  0
LINE
  5
2B5
330
1E
100
AcDbEntity
  8
0
100
AcDbLine
 10
134.072
 20
1698.73
 30
0.0
 11
134.4740600627519
 21
1698.56497534738
 31
0.0
  0
LINE
  5
2B6
330
1E
100
AcDbEntity
  8
0
100
AcDbLine
 10
134.072
 20
1698.73
 30
0.0
 11
134.8379999999999
 21
1700.57
 31
0.0
  0
LINE
  5
2B7
330
1E
100
AcDbEntity
  8
0
100
AcDbLine
 10
134.072
 20
1698.73
 30
0.0
 11
134.431
 21
1698.58
 31
0.0
  0
LINE
  5
2B8
330
1E
100
AcDbEntity
  8
0
100
AcDbLine
 10
137.5079999999999
 20
1697.309999999999
 30
0.0
 11
138.708
 21
1696.81
 31
0.0
  0
LINE
  5
2B9
330
1E
100
AcDbEntity
  8
0
100
AcDbLine
 10
137.5079999999999
 20
1697.309999999999
 30
0.0
 11
138.274
 21
1699.15
 31
0.0
  0
LINE
  5
2BA
330
1E
100
AcDbEntity
  8
0
100
AcDbLine
 10
137.5079999999999
 20
1697.309999999999
 30
0.0
 11
138.2009999999999
 21
1697.02
 31
0.0
  0
LINE
  5
2BB
330
1E
100
AcDbEntity
  8
0
100
AcDbLine
 10
144.4739999999999
 20
1694.43
 30
0.0
 11
145.8129999999999
 21
1693.88
 31
0.0
  0
LINE
  5
2BC
330
1E
100
AcDbEntity
  8
0
100
AcDbLine
 10
148.406
 20
1692.81
 30
0.0
 11
149.1709999999999
 21
1694.65
 31
0.0
  0
LINE
  5
2BD
330
1E
100
AcDbEntity
  8
0
100
AcDbLine
 10
146.491
 20
1693.599999999999
 30
0.0
 11
147.256
 21
1695.44
 31
0.0
  0
LINE
  5
2BE
330
1E
100
AcDbEntity
  8
0
100
AcDbLine
 10
147.5340000000169
 20
1693.17303080765
 30
0.0
 11
148.406
 21
1692.81
 31
0.0
  0
LINE
  5
2BF
330
1E
100
AcDbEntity
  8
0
100
AcDbLine
 10
147.5340000000169
 20
1693.17303080765
 30
0.0
 11
148.406
 21
1692.81
 31
0.0
  0
LINE
  5
2C0
330
1E
100
AcDbEntity
  8
0
100
AcDbLine
 10
146.5119999999999
 20
1693.59
 30
0.0
 11
147.713
 21
1693.1
 31
0.0
  0
LINE
  5
2C1
330
1E
100
AcDbEntity
  8
0
100
AcDbLine
 10
146.5119999999999
 20
1693.59
 30
0.0
 11
147.278
 21
1695.429999999999
 31
0.0
  0
LINE
  5
2C2
330
1E
100
AcDbEntity
  8
0
100
AcDbLine
 10
147.713
 20
1693.1
 30
0.0
 11
148.4785704864459
 21
1694.93896827031
 31
0.0
  0
LINE
  5
2C3
330
1E
100
AcDbEntity
  8
0
100
AcDbLine
 10
147.713
 20
1693.1
 30
0.0
 11
148.406
 21
1692.81
 31
0.0
  0
LINE
  5
2C4
330
1E
100
AcDbEntity
  8
0
100
AcDbLine
 10
156.65
 20
164.86
 30
0.0
 11
158.5949999999999
 21
184.684
 31
0.0
  0
LINE
  5
2C7
330
1E
100
AcDbEntity
  8
0
100
AcDbLine
 10
156.4209999999999
 20
145.036
 30
0.0
 11
158.2779999999999
 21
122.0239999999999
 31
0.0
  0
LINE
  5
2C8
330
1E
100
AcDbEntity
  8
0
100
AcDbLine
 10
156.4209999999999
 20
145.036
 30
0.0
 11
156.65
 21
164.86
 31
0.0
  0
LINE
  5
2CA
330
1E
100
AcDbEntity
  8
0
100
AcDbLine
 10
158.5949999999999
 20
184.684
 30
0.0
 11
162.9729999999999
 21
207.697
 31
0.0
  0
LINE
  5
2CE
330
1E
100
AcDbEntity
  8
0
100
AcDbLine
 10
158.2779999999999
 20
122.0239999999999
 30
0.0
 11
161.9099999999999
 21
98.71299999999999
 31
0.0
  0
LINE
  5
2D0
330
1E
100
AcDbEntity
  8
0
100
AcDbLine
 10
162.9729999999999
 20
207.697
 30
0.0
 11
169.1609999999999
 21
231.0079999999999
 31
0.0
  0
LINE
  5
2D2
330
1E
100
AcDbEntity
  8
0
100
AcDbLine
 10
161.9099999999999
 20
98.71299999999999
 30
0.0
 11
168.8989999999999
 21
75.502
 31
0.0
  0
LINE
  5
2D9
330
1E
100
AcDbEntity
  8
0
100
AcDbLine
 10
169.1609999999999
 20
231.0079999999999
 30
0.0
 11
178.695
 21
254.219
 31
0.0
  0
LINE
  5
2DB
330
1E
100
AcDbEntity
  8
0
100
AcDbLine
 10
168.8989999999999
 20
75.502
 30
0.0
 11
169.2409999999999
 21
74.387
 31
0.0
  0
LINE
  5
2DF
330
1E
100
AcDbEntity
  8
0
100
AcDbLine
 10
172.37
 20
163.884
 30
0.0
 11
174.359
 21
183.1109999999999
 31
0.0
  0
LINE
  5
2E2
330
1E
100
AcDbEntity
  8
0
100
AcDbLine
 10
172.2509999999999
 20
144.657
 30
0.0
 11
174.028
 21
123.04
 31
0.0
  0
LINE
  5
2E3
330
1E
100
AcDbEntity
  8
0
100
AcDbLine
 10
172.2509999999999
 20
144.657
 30
0.0
 11
172.37
 21
163.884
 31
0.0
  0
LINE
  5
2E6
330
1E
100
AcDbEntity
  8
0
100
AcDbLine
 10
174.359
 20
183.1109999999999
 30
0.0
 11
178.5059999999999
 21
204.7279999999999
 31
0.0
  0
LINE
  5
2E7
330
1E
100
AcDbEntity
  8
0
100
AcDbLine
 10
174.028
 20
123.04
 30
0.0
 11
177.3749999999999
 21
101.622
 31
0.0
  0
LINE
  5
2E9
330
1E
100
AcDbEntity
  8
0
100
AcDbLine
 10
178.5059999999999
 20
204.7279999999999
 30
0.0
 11
184.1999999999999
 21
226.146
 31
0.0
  0
LINE
  5
2EB
330
1E
100
AcDbEntity
  8
0
100
AcDbLine
 10
178.695
 20
254.219
 30
0.0
 11
188.9499999999999
 21
275.9399999999999
 31
0.0
  0
LINE
  5
2ED
330
1E
100
AcDbEntity
  8
0
100
AcDbLine
 10
177.3749999999999
 20
101.622
 30
0.0
 11
183.634150840941
 21
80.6294392873054
 31
0.0
  0
LINE
  5
2F5
330
1E
100
AcDbEntity
  8
0
100
AcDbLine
 10
183.634150840941
 20
80.6294392873054
 30
0.0
 11
190.4819999999999
 21
62.291
 31
0.0
  0
LINE
  5
2F6
330
1E
100
AcDbEntity
  8
0
100
AcDbLine
 10
184.1999999999999
 20
226.146
 30
0.0
 11
192.935
 21
247.564
 31
0.0
  0
LINE
  5
2F8
330
1E
100
AcDbEntity
  8
0
100
AcDbLine
 10
183.634150840941
 20
80.6294392873054
 30
0.0
 11
190.4819999999999
 21
62.291
 31
0.0
  0
LINE
  5
2FC
330
1E
100
AcDbEntity
  8
0
100
AcDbLine
 10
169.2409999999999
 20
74.387
 30
0.0
 11
177.2859999999999
 21
53.367
 31
0.0
  0
LINE
  5
2FD
330
1E
100
AcDbEntity
  8
0
100
AcDbLine
 10
177.2859999999999
 20
53.367
 30
0.0
 11
188.761
 21
36.631
 31
0.0
  0
LINE
  5
303
330
1E
100
AcDbEntity
  8
0
100
AcDbLine
 10
188.9499999999999
 20
275.9399999999999
 30
0.0
 11
199.805
 21
297.6569999999999
 31
0.0
  0
LINE
  5
307
330
1E
100
AcDbEntity
  8
0
100
AcDbLine
 10
192.935
 20
247.564
 30
0.0
 11
202.081667119405
 21
267.547513559865
 31
0.0
  0
LINE
  5
311
330
1E
100
AcDbEntity
  8
0
100
AcDbLine
 10
190.4819999999999
 20
62.291
 30
0.0
 11
200.652
 21
47.34799999999999
 31
0.0
  0
LINE
  5
318
330
1E
100
AcDbEntity
  8
0
100
AcDbLine
 10
199.805
 20
297.6569999999999
 30
0.0
 11
207.979
 21
317.3809999999999
 31
0.0
  0
LINE
  5
31B
330
1E
100
AcDbEntity
  8
0
100
AcDbLine
 10
200.652
 20
47.34799999999999
 30
0.0
 11
213.741
 21
31.608
 31
0.0
  0
LINE
  5
321
330
1E
100
AcDbEntity
  8
0
100
AcDbLine
 10
202.081667119405
 20
267.547513559865
 30
0.0
 11
202.2499999999999
 21
267.791
 31
0.0
  0
LINE
  5
322
330
1E
100
AcDbEntity
  8
0
100
AcDbLine
 10
202.2499999999999
 20
267.791
 30
0.0
 11
213.606
 21
290.106
 31
0.0
  0
LINE
  5
324
330
1E
100
AcDbEntity
  8
0
100
AcDbLine
 10
188.761
 20
36.631
 30
0.0
 11
203.41
 21
19.49699999999999
 31
0.0
  0
LINE
  5
326
330
1E
100
AcDbEntity
  8
0
100
AcDbLine
 10
207.979
 20
317.3809999999999
 30
0.0
 11
215.465
 21
340.194
 31
0.0
  0
LINE
  5
328
330
1E
100
AcDbEntity
  8
0
100
AcDbLine
 10
203.41
 20
19.49699999999999
 30
0.0
 11
218.369
 21
9.435199999999991
 31
0.0
  0
LINE
  5
329
330
1E
100
AcDbEntity
  8
0
100
AcDbLine
 10
207.0
 20
836.7
 30
0.0
 11
208.4
 21
846.035
 31
0.0
  0
LINE
  5
32A
330
1E
100
AcDbEntity
  8
0
100
AcDbLine
 10
207.0
 20
836.7
 30
0.0
 11
207.0
 21
824.867
 31
0.0
  0
LINE
  5
32B
330
1E
100
AcDbEntity
  8
0
100
AcDbLine
 10
207.0
 20
824.867
 30
0.0
 11
208.4
 21
834.2019999999999
 31
0.0
  0
LINE
  5
32C
330
1E
100
AcDbEntity
  8
0
100
AcDbLine
 10
207.0
 20
824.867
 30
0.0
 11
207.0
 21
836.7
 31
0.0
  0
LINE
  5
32D
330
1E
100
AcDbEntity
  8
0
100
AcDbLine
 10
207.0
 20
824.867
 30
0.0
 11
207.0475415104449
 21
824.5499999999999
 31
0.0
  0
LINE
  5
32E
330
1E
100
AcDbEntity
  8
0
100
AcDbLine
 10
207.0
 20
824.867
 30
0.0
 11
207.0475415104449
 21
824.5499999999999
 31
0.0
  0
LINE
  5
32F
330
1E
100
AcDbEntity
  8
0
100
AcDbLine
 10
207.0
 20
824.233
 30
0.0
 11
208.4
 21
833.5679999999999
 31
0.0
  0
LINE
  5
330
330
1E
100
AcDbEntity
  8
0
100
AcDbLine
 10
207.0
 20
824.233
 30
0.0
 11
207.0
 21
818.7389999999998
 31
0.0
  0
LINE
  5
331
330
1E
100
AcDbEntity
  8
0
100
AcDbLine
 10
207.0
 20
818.7389999999998
 30
0.0
 11
208.4
 21
828.0739999999999
 31
0.0
  0
LINE
  5
332
330
1E
100
AcDbEntity
  8
0
100
AcDbLine
 10
207.0
 20
818.7389999999998
 30
0.0
 11
207.0
 21
824.233
 31
0.0
  0
LINE
  5
333
330
1E
100
AcDbEntity
  8
0
100
AcDbLine
 10
207.0
 20
818.7389999999998
 30
0.0
 11
208.4
 21
809.4039999999999
 31
0.0
  0
LINE
  5
334
330
1E
100
AcDbEntity
  8
0
100
AcDbLine
 10
208.4
 20
809.4039999999999
 30
0.0
 11
212.4
 21
800.703
 31
0.0
  0
LINE
  5
336
330
1E
100
AcDbEntity
  8
0
100
AcDbLine
 10
213.606
 20
290.106
 30
0.0
 11
222.0349999999999
 21
310.229
 31
0.0
  0
LINE
  5
338
330
1E
100
AcDbEntity
  8
0
100
AcDbLine
 10
215.465
 20
340.194
 30
0.0
 11
220.472
 21
360.0
 31
0.0
  0
LINE
  5
33E
330
1E
100
AcDbEntity
  8
0
100
AcDbLine
 10
217.4679999999999
 20
616.328
 30
0.0
 11
218.7159999999999
 21
619.4479999999999
 31
0.0
  0
LINE
  5
33F
330
1E
100
AcDbEntity
  8
0
100
AcDbLine
 10
218.7159999999999
 20
619.4479999999999
 30
0.0
 11
220.7959999999999
 21
622.204
 31
0.0
  0
LINE
  5
341
330
1E
100
AcDbEntity
  8
0
100
AcDbLine
 10
217.0
 20
613.0
 30
0.0
 11
217.4679999999999
 21
609.672
 31
0.0
  0
LINE
  5
342
330
1E
100
AcDbEntity
  8
0
100
AcDbLine
 10
217.0
 20
613.0
 30
0.0
 11
217.4679999999999
 21
616.328
 31
0.0
  0
LINE
  5
343
330
1E
100
AcDbEntity
  8
0
100
AcDbLine
 10
217.4679999999999
 20
609.672
 30
0.0
 11
218.7159999999999
 21
606.552
 31
0.0
  0
LINE
  5
344
330
1E
100
AcDbEntity
  8
0
100
AcDbLine
 10
218.7159999999999
 20
606.552
 30
0.0
 11
220.7959999999999
 21
603.7959999999999
 31
0.0
  0
LINE
  5
346
330
1E
100
AcDbEntity
  8
0
100
AcDbLine
 10
213.741
 20
31.608
 30
0.0
 11
226.973
 21
22.74199999999999
 31
0.0
  0
LINE
  5
349
330
1E
100
AcDbEntity
  8
0
100
AcDbLine
 10
218.369
 20
9.435199999999991
 30
0.0
 11
220.12
 21
8.666899999999991
 31
0.0
  0
LINE
  5
34C
330
1E
100
AcDbEntity
  8
0
100
AcDbLine
 10
218.8
 20
793.181
 30
0.0
 11
227.0999999999999
 21
787.38
 31
0.0
  0
LINE
  5
34D
330
1E
100
AcDbEntity
  8
0
100
AcDbLine
 10
212.4
 20
800.703
 30
0.0
 11
218.8
 21
793.181
 31
0.0
  0
LINE
  5
34F
330
1E
100
AcDbEntity
  8
0
100
AcDbLine
 10
220.12
 20
8.666899999999991
 30
0.0
 11
237.4359999999999
 21
1.793199999999989
 31
0.0
  0
LINE
  5
350
330
1E
100
AcDbEntity
  8
0
100
AcDbLine
 10
220.12
 20
8.666899999999991
 30
0.0
 11
237.4359999999999
 21
1.793199999999989
 31
0.0
  0
LINE
  5
356
330
1E
100
AcDbEntity
  8
0
100
AcDbLine
 10
222.0349999999999
 20
310.229
 30
0.0
 11
229.7039999999999
 21
333.54
 31
0.0
  0
LINE
  5
357
330
1E
100
AcDbEntity
  8
0
100
AcDbLine
 10
226.973
 20
22.74199999999999
 30
0.0
 11
240.4819999999999
 21
17.533
 31
0.0
  0
LINE
  5
359
330
1E
100
AcDbEntity
  8
0
100
AcDbLine
 10
220.472
 20
360.0
 30
0.0
 11
221.6349999999999
 21
364.6009999999999
 31
0.0
  0
LINE
  5
35A
330
1E
100
AcDbEntity
  8
0
100
AcDbLine
 10
220.7959999999999
 20
622.204
 30
0.0
 11
223.552
 21
624.284
 31
0.0
  0
LINE
  5
35D
330
1E
100
AcDbEntity
  8
0
100
AcDbLine
 10
220.7959999999999
 20
603.7959999999999
 30
0.0
 11
223.552
 21
601.716
 31
0.0
  0
LINE
  5
35E
330
1E
100
AcDbEntity
  8
0
100
AcDbLine
 10
221.6349999999999
 20
364.6009999999999
 30
0.0
 11
226.63
 21
388.908
 31
0.0
  0
LINE
  5
360
330
1E
100
AcDbEntity
  8
0
100
AcDbLine
 10
223.552
 20
624.284
 30
0.0
 11
226.6719999999999
 21
625.5319999999999
 31
0.0
  0
LINE
  5
365
330
1E
100
AcDbEntity
  8
0
100
AcDbLine
 10
226.6719999999999
 20
600.468
 30
0.0
 11
230.0
 21
600.0
 31
0.0
  0
LINE
  5
366
330
1E
100
AcDbEntity
  8
0
100
AcDbLine
 10
226.6719999999999
 20
625.5319999999999
 30
0.0
 11
230.0
 21
626.0
 31
0.0
  0
LINE
  5
367
330
1E
100
AcDbEntity
  8
0
100
AcDbLine
 10
223.552
 20
601.716
 30
0.0
 11
226.6719999999999
 21
600.468
 31
0.0
  0
LINE
  5
368
330
1E
100
AcDbEntity
  8
0
100
AcDbLine
 10
226.63
 20
388.908
 30
0.0
 11
230.175
 21
410.924
 31
0.0
  0
LINE
  5
36E
330
1E
100
AcDbEntity
  8
0
100
AcDbLine
 10
229.7039999999999
 20
333.54
 30
0.0
 11
236.3179999999999
 21
358.943
 31
0.0
  0
LINE
  5
372
330
1E
100
AcDbEntity
  8
0
100
AcDbLine
 10
230.0
 20
626.0
 30
0.0
 11
254.5609999999999
 21
626.0
 31
0.0
  0
LINE
  5
374
330
1E
100
AcDbEntity
  8
0
100
AcDbLine
 10
230.0
 20
600.0
 30
0.0
 11
237.803031960201
 21
600.0
 31
0.0
  0
LINE
  5
375
330
1E
100
AcDbEntity
  8
0
100
AcDbLine
 10
230.0
 20
600.0
 30
0.0
 11
249.720988455133
 21
600.0
 31
0.0
  0
LINE
  5
376
330
1E
100
AcDbEntity
  8
0
100
AcDbLine
 10
230.175
 20
410.924
 30
0.0
 11
233.404
 21
442.802
 31
0.0
  0
LINE
  5
37A
330
1E
100
AcDbEntity
  8
0
100
AcDbLine
 10
233.404
 20
442.802
 30
0.0
 11
237.803031960201
 21
600.0
 31
0.0
  0
LINE
  5
37D
330
1E
100
AcDbEntity
  8
0
100
AcDbLine
 10
234.0
 20
763.4999999999999
 30
0.0
 11
234.0
 21
634.4999999999999
 31
0.0
  0
LINE
  5
37E
330
1E
100
AcDbEntity
  8
0
100
AcDbLine
 10
234.0
 20
763.4999999999999
 30
0.0
 11
234.5
 21
764.0
 31
0.0
  0
LINE
  5
37F
330
1E
100
AcDbEntity
  8
0
100
AcDbLine
 10
234.0
 20
763.4999999999999
 30
0.0
 11
234.5
 21
763.4999999999999
 31
0.0
  0
LINE
  5
380
330
1E
100
AcDbEntity
  8
0
100
AcDbLine
 10
234.0
 20
634.4999999999999
 30
0.0
 11
234.5
 21
634.0
 31
0.0
  0
LINE
  5
381
330
1E
100
AcDbEntity
  8
0
100
AcDbLine
 10
234.0
 20
634.4999999999999
 30
0.0
 11
234.5
 21
634.4999999999999
 31
0.0
  0
LINE
  5
382
330
1E
100
AcDbEntity
  8
0
100
AcDbLine
 10
234.0
 20
634.4999999999999
 30
0.0
 11
234.0
 21
763.4999999999999
 31
0.0
  0
LINE
  5
383
330
1E
100
AcDbEntity
  8
0
100
AcDbLine
 10
227.0999999999999
 20
787.38
 30
0.0
 11
236.6999999999999
 21
783.755
 31
0.0
  0
LINE
  5
384
330
1E
100
AcDbEntity
  8
0
100
AcDbLine
 10
232.1
 20
794.7519999999999
 30
0.0
 11
239.3
 21
792.1239999999999
 31
0.0
  0
LINE
  5
385
330
1E
100
AcDbEntity
  8
0
100
AcDbLine
 10
225.8
 20
799.1019999999999
 30
0.0
 11
232.1
 21
794.7519999999999
 31
0.0
  0
LINE
  5
386
330
1E
100
AcDbEntity
  8
0
100
AcDbLine
 10
229.5999999999999
 20
790.311
 30
0.0
 11
238.0
 21
787.773
 31
0.0
  0
LINE
  5
387
330
1E
100
AcDbEntity
  8
0
100
AcDbLine
 10
222.3
 20
795.9299999999999
 30
0.0
 11
229.5999999999999
 21
790.311
 31
0.0
  0
LINE
  5
388
330
1E
100
AcDbEntity
  8
0
100
AcDbLine
 10
227.5999999999999
 20
787.8939999999999
 30
0.0
 11
237.0
 21
784.45
 31
0.0
  0
LINE
  5
389
330
1E
100
AcDbEntity
  8
0
100
AcDbLine
 10
219.4999999999999
 20
793.6039999999999
 30
0.0
 11
227.5999999999999
 21
787.8939999999999
 31
0.0
  0
LINE
  5
38A
330
1E
100
AcDbEntity
  8
0
100
AcDbLine
 10
221.0
 20
804.812
 30
0.0
 11
225.8
 21
799.1019999999999
 31
0.0
  0
LINE
  5
38B
330
1E
100
AcDbEntity
  8
0
100
AcDbLine
 10
218.1
 20
811.3369999999999
 30
0.0
 11
221.0
 21
804.812
 31
0.0
  0
LINE
  5
38C
330
1E
100
AcDbEntity
  8
0
100
AcDbLine
 10
216.6999999999999
 20
802.546
 30
0.0
 11
222.3
 21
795.9299999999999
 31
0.0
  0
LINE
  5
38D
330
1E
100
AcDbEntity
  8
0
100
AcDbLine
 10
213.3
 20
810.1589999999999
 30
0.0
 11
216.6999999999999
 21
802.546
 31
0.0
  0
LINE
  5
38E
330
1E
100
AcDbEntity
  8
0
100
AcDbLine
 10
217.0
 20
818.316
 30
0.0
 11
218.1
 21
825.295
 31
0.0
  0
LINE
  5
38F
330
1E
100
AcDbEntity
  8
0
100
AcDbLine
 10
217.0
 20
818.316
 30
0.0
 11
218.1
 21
811.3369999999999
 31
0.0
  0
LINE
  5
391
330
1E
100
AcDbEntity
  8
0
100
AcDbLine
 10
212.0
 20
818.316
 30
0.0
 11
213.3
 21
810.1589999999999
 31
0.0
  0
LINE
  5
392
330
1E
100
AcDbEntity
  8
0
100
AcDbLine
 10
212.0
 20
818.316
 30
0.0
 11
212.0
 21
818.5269999999999
 31
0.0
  0
LINE
  5
393
330
1E
100
AcDbEntity
  8
0
100
AcDbLine
 10
213.2
 20
800.9450000000001
 30
0.0
 11
219.4999999999999
 21
793.6039999999999
 31
0.0
  0
LINE
  5
394
330
1E
100
AcDbEntity
  8
0
100
AcDbLine
 10
209.4
 20
809.464
 30
0.0
 11
213.2
 21
800.9450000000001
 31
0.0
  0
LINE
  5
395
330
1E
100
AcDbEntity
  8
0
100
AcDbLine
 10
208.4
 20
846.035
 30
0.0
 11
212.4
 21
854.7349999999999
 31
0.0
  0
LINE
  5
396
330
1E
100
AcDbEntity
  8
0
100
AcDbLine
 10
208.4
 20
834.2019999999999
 30
0.0
 11
212.4
 21
842.9019999999999
 31
0.0
  0
LINE
  5
397
330
1E
100
AcDbEntity
  8
0
100
AcDbLine
 10
208.4
 20
833.5679999999999
 30
0.0
 11
212.4
 21
842.2679999999999
 31
0.0
  0
LINE
  5
398
330
1E
100
AcDbEntity
  8
0
100
AcDbLine
 10
208.4
 20
828.0739999999999
 30
0.0
 11
212.4
 21
836.7739999999999
 31
0.0
  0
LINE
  5
399
330
1E
100
AcDbEntity
  8
0
100
AcDbLine
 10
218.1
 20
825.295
 30
0.0
 11
221.0
 21
831.82
 31
0.0
  0
LINE
  5
39B
330
1E
100
AcDbEntity
  8
0
100
AcDbLine
 10
212.4
 20
854.7349999999999
 30
0.0
 11
218.8
 21
862.2580000000001
 31
0.0
  0
LINE
  5
39C
330
1E
100
AcDbEntity
  8
0
100
AcDbLine
 10
212.4
 20
842.9019999999999
 30
0.0
 11
218.8
 21
850.4239999999999
 31
0.0
  0
LINE
  5
39D
330
1E
100
AcDbEntity
  8
0
100
AcDbLine
 10
212.4
 20
842.2679999999999
 30
0.0
 11
218.8
 21
849.791
 31
0.0
  0
LINE
  5
39E
330
1E
100
AcDbEntity
  8
0
100
AcDbLine
 10
212.4
 20
836.7739999999999
 30
0.0
 11
218.8
 21
844.297
 31
0.0
  0
LINE
  5
39F
330
1E
100
AcDbEntity
  8
0
100
AcDbLine
 10
221.0
 20
831.82
 30
0.0
 11
225.8
 21
837.5299999999999
 31
0.0
  0
LINE
  5
3A1
330
1E
100
AcDbEntity
  8
0
100
AcDbLine
 10
218.8
 20
862.2580000000001
 30
0.0
 11
227.0999999999999
 21
868.058
 31
0.0
  0
LINE
  5
3A2
330
1E
100
AcDbEntity
  8
0
100
AcDbLine
 10
218.8
 20
850.4239999999999
 30
0.0
 11
227.0999999999999
 21
856.225
 31
0.0
  0
LINE
  5
3A3
330
1E
100
AcDbEntity
  8
0
100
AcDbLine
 10
218.8
 20
849.791
 30
0.0
 11
227.0999999999999
 21
855.591
 31
0.0
  0
LINE
  5
3A4
330
1E
100
AcDbEntity
  8
0
100
AcDbLine
 10
218.8
 20
844.297
 30
0.0
 11
227.0999999999999
 21
850.097
 31
0.0
  0
LINE
  5
3A5
330
1E
100
AcDbEntity
  8
0
100
AcDbLine
 10
225.8
 20
837.5299999999999
 30
0.0
 11
232.1
 21
841.88
 31
0.0
  0
LINE
  5
3A7
330
1E
100
AcDbEntity
  8
0
100
AcDbLine
 10
227.0999999999999
 20
868.058
 30
0.0
 11
236.6999999999999
 21
871.6829999999999
 31
0.0
  0
LINE
  5
3A8
330
1E
100
AcDbEntity
  8
0
100
AcDbLine
 10
227.0999999999999
 20
856.225
 30
0.0
 11
236.6999999999999
 21
859.8499999999999
 31
0.0
  0
LINE
  5
3A9
330
1E
100
AcDbEntity
  8
0
100
AcDbLine
 10
227.0999999999999
 20
855.591
 30
0.0
 11
236.6999999999999
 21
859.2159999999999
 31
0.0
  0
LINE
  5
3AA
330
1E
100
AcDbEntity
  8
0
100
AcDbLine
 10
227.0999999999999
 20
850.097
 30
0.0
 11
236.6999999999999
 21
853.7219999999999
 31
0.0
  0
LINE
  5
3AB
330
1E
100
AcDbEntity
  8
0
100
AcDbLine
 10
232.1
 20
841.88
 30
0.0
 11
239.3
 21
844.508
 31
0.0
  0
LINE
  5
3AD
330
1E
100
AcDbEntity
  8
0
100
AcDbLine
 10
229.5999999999999
 20
846.532
 30
0.0
 11
238.0
 21
849.07
 31
0.0
  0
LINE
  5
3AE
330
1E
100
AcDbEntity
  8
0
100
AcDbLine
 10
227.5999999999999
 20
849.1610000000001
 30
0.0
 11
237.0
 21
852.6049999999999
 31
0.0
  0
LINE
  5
3AF
330
1E
100
AcDbEntity
  8
0
100
AcDbLine
 10
222.3
 20
840.9130000000001
 30
0.0
 11
229.5999999999999
 21
846.532
 31
0.0
  0
LINE
  5
3B0
330
1E
100
AcDbEntity
  8
0
100
AcDbLine
 10
219.4999999999999
 20
843.4509999999999
 30
0.0
 11
227.5999999999999
 21
849.1610000000001
 31
0.0
  0
LINE
  5
3B1
330
1E
100
AcDbEntity
  8
0
100
AcDbLine
 10
216.6999999999999
 20
834.2970000000001
 30
0.0
 11
222.3
 21
840.9130000000001
 31
0.0
  0
LINE
  5
3B2
330
1E
100
AcDbEntity
  8
0
100
AcDbLine
 10
213.2
 20
836.11
 30
0.0
 11
219.4999999999999
 21
843.4509999999999
 31
0.0
  0
LINE
  5
3B3
330
1E
100
AcDbEntity
  8
0
100
AcDbLine
 10
213.3
 20
826.684
 30
0.0
 11
216.6999999999999
 21
834.2970000000001
 31
0.0
  0
LINE
  5
3B4
330
1E
100
AcDbEntity
  8
0
100
AcDbLine
 10
209.4
 20
827.59
 30
0.0
 11
213.2
 21
836.11
 31
0.0
  0
LINE
  5
3B5
330
1E
100
AcDbEntity
  8
0
100
AcDbLine
 10
212.0
 20
818.5269999999999
 30
0.0
 11
213.3
 21
826.684
 31
0.0
  0
LINE
  5
3B6
330
1E
100
AcDbEntity
  8
0
100
AcDbLine
 10
212.0
 20
818.5269999999999
 30
0.0
 11
212.016814810274
 21
818.4215064672349
 31
0.0
  0
LINE
  5
3B7
330
1E
100
AcDbEntity
  8
0
100
AcDbLine
 10
212.0
 20
818.5269999999999
 30
0.0
 11
212.0
 21
818.316
 31
0.0
  0
LINE
  5
3B8
330
1E
100
AcDbEntity
  8
0
100
AcDbLine
 10
208.0
 20
818.5269999999999
 30
0.0
 11
209.4
 21
827.59
 31
0.0
  0
LINE
  5
3B9
330
1E
100
AcDbEntity
  8
0
100
AcDbLine
 10
208.0
 20
818.5269999999999
 30
0.0
 11
209.4
 21
809.464
 31
0.0
  0
LINE
  5
3BA
330
1E
100
AcDbEntity
  8
0
100
AcDbLine
 10
234.0
 20
893.7000000000001
 30
0.0
 11
234.0
 21
900.0
 31
0.0
  0
LINE
  5
3BB
330
1E
100
AcDbEntity
  8
0
100
AcDbLine
 10
234.0
 20
893.7000000000001
 30
0.0
 11
234.0
 21
887.8999999999999
 31
0.0
  0
LINE
  5
3BC
330
1E
100
AcDbEntity
  8
0
100
AcDbLine
 10
234.0
 20
887.8999999999999
 30
0.0
 11
234.0
 21
893.7000000000001
 31
0.0
  0
LINE
  5
3BD
330
1E
100
AcDbEntity
  8
0
100
AcDbLine
 10
234.0
 20
887.8999999999999
 30
0.0
 11
234.0
 21
882.7999999999999
 31
0.0
  0
LINE
  5
3BE
330
1E
100
AcDbEntity
  8
0
100
AcDbLine
 10
234.0
 20
882.7999999999999
 30
0.0
 11
234.0
 21
887.8999999999999
 31
0.0
  0
LINE
  5
3BF
330
1E
100
AcDbEntity
  8
0
100
AcDbLine
 10
234.0
 20
882.7999999999999
 30
0.0
 11
234.0
 21
878.8999999999999
 31
0.0
  0
LINE
  5
3C0
330
1E
100
AcDbEntity
  8
0
100
AcDbLine
 10
234.0
 20
878.8999999999999
 30
0.0
 11
234.0
 21
882.7999999999999
 31
0.0
  0
LINE
  5
3C1
330
1E
100
AcDbEntity
  8
0
100
AcDbLine
 10
234.0
 20
878.8999999999999
 30
0.0
 11
234.0
 21
876.5
 31
0.0
  0
LINE
  5
3C2
330
1E
100
AcDbEntity
  8
0
100
AcDbLine
 10
234.0
 20
876.5
 30
0.0
 11
234.0
 21
878.8999999999999
 31
0.0
  0
LINE
  5
3C3
330
1E
100
AcDbEntity
  8
0
100
AcDbLine
 10
234.0
 20
876.5
 30
0.0
 11
234.0
 21
875.6
 31
0.0
  0
LINE
  5
3C4
330
1E
100
AcDbEntity
  8
0
100
AcDbLine
 10
234.0
 20
875.6
 30
0.0
 11
234.0
 21
876.5
 31
0.0
  0
LINE
  5
3C5
330
1E
100
AcDbEntity
  8
0
100
AcDbLine
 10
234.0
 20
875.6
 30
0.0
 11
234.6
 21
875.0
 31
0.0
  0
LINE
  5
3C7
330
1E
100
AcDbEntity
  8
0
100
AcDbLine
 10
234.5
 20
764.0
 30
0.0
 11
235.0
 21
764.0
 31
0.0
  0
LINE
  5
3C8
330
1E
100
AcDbEntity
  8
0
100
AcDbLine
 10
234.5
 20
763.4999999999999
 30
0.0
 11
235.8
 21
763.4999999999999
 31
0.0
  0
LINE
  5
3C9
330
1E
100
AcDbEntity
  8
0
100
AcDbLine
 10
234.5
 20
634.4999999999999
 30
0.0
 11
235.8
 21
634.4999999999999
 31
0.0
  0
LINE
  5
3CA
330
1E
100
AcDbEntity
  8
0
100
AcDbLine
 10
234.5
 20
634.0
 30
0.0
 11
235.0
 21
634.0
 31
0.0
  0
LINE
  5
3CB
330
1E
100
AcDbEntity
  8
0
100
AcDbLine
 10
234.6
 20
893.5999999999999
 30
0.0
 11
234.6
 21
900.0
 31
0.0
  0
LINE
  5
3CC
330
1E
100
AcDbEntity
  8
0
100
AcDbLine
 10
234.6
 20
893.5999999999999
 30
0.0
 11
234.6
 21
887.6000000000001
 31
0.0
  0
LINE
  5
3CD
330
1E
100
AcDbEntity
  8
0
100
AcDbLine
 10
234.6
 20
887.6000000000001
 30
0.0
 11
234.6
 21
893.5999999999999
 31
0.0
  0
LINE
  5
3CE
330
1E
100
AcDbEntity
  8
0
100
AcDbLine
 10
234.6
 20
887.6000000000001
 30
0.0
 11
234.6
 21
882.3
 31
0.0
  0
LINE
  5
3CF
330
1E
100
AcDbEntity
  8
0
100
AcDbLine
 10
234.6
 20
882.3
 30
0.0
 11
234.6
 21
887.6000000000001
 31
0.0
  0
LINE
  5
3D0
330
1E
100
AcDbEntity
  8
0
100
AcDbLine
 10
234.6
 20
882.3
 30
0.0
 11
234.6
 21
878.2999999999999
 31
0.0
  0
LINE
  5
3D1
330
1E
100
AcDbEntity
  8
0
100
AcDbLine
 10
234.6
 20
878.2999999999999
 30
0.0
 11
234.6
 21
882.3
 31
0.0
  0
LINE
  5
3D2
330
1E
100
AcDbEntity
  8
0
100
AcDbLine
 10
234.6
 20
878.2999999999999
 30
0.0
 11
234.6
 21
875.9
 31
0.0
  0
LINE
  5
3D3
330
1E
100
AcDbEntity
  8
0
100
AcDbLine
 10
234.6
 20
875.9
 30
0.0
 11
234.6
 21
878.2999999999999
 31
0.0
  0
LINE
  5
3D4
330
1E
100
AcDbEntity
  8
0
100
AcDbLine
 10
234.6
 20
875.9
 30
0.0
 11
234.6
 21
875.0
 31
0.0
  0
LINE
  5
3D5
330
1E
100
AcDbEntity
  8
0
100
AcDbLine
 10
234.6
 20
875.0
 30
0.0
 11
234.6
 21
875.9
 31
0.0
  0
LINE
  5
3D6
330
1E
100
AcDbEntity
  8
0
100
AcDbLine
 10
234.6
 20
875.0
 30
0.0
 11
239.0046451612899
 21
875.0
 31
0.0
  0
LINE
  5
3D7
330
1E
100
AcDbEntity
  8
0
100
AcDbLine
 10
234.0
 20
900.0
 30
0.0
 11
234.0
 21
906.3
 31
0.0
  0
LINE
  5
3D8
330
1E
100
AcDbEntity
  8
0
100
AcDbLine
 10
234.0
 20
900.0
 30
0.0
 11
234.0
 21
893.7000000000001
 31
0.0
  0
LINE
  5
3D9
330
1E
100
AcDbEntity
  8
0
100
AcDbLine
 10
234.0
 20
906.3
 30
0.0
 11
234.0
 21
912.1
 31
0.0
  0
LINE
  5
3DA
330
1E
100
AcDbEntity
  8
0
100
AcDbLine
 10
234.0
 20
906.3
 30
0.0
 11
234.0
 21
900.0
 31
0.0
  0
LINE
  5
3DB
330
1E
100
AcDbEntity
  8
0
100
AcDbLine
 10
234.7739999999999
 20
633.4089999999999
 30
0.0
 11
234.8629999999999
 21
633.4089999999999
 31
0.0
  0
LINE
  5
3DC
330
1E
100
AcDbEntity
  8
0
100
AcDbLine
 10
234.7739999999999
 20
633.4089999999999
 30
0.0
 11
234.7739999999999
 21
626.0
 31
0.0
  0
LINE
  5
3DD
330
1E
100
AcDbEntity
  8
0
100
AcDbLine
 10
234.7739999999999
 20
633.4089999999999
 30
0.0
 11
235.083
 21
634.0
 31
0.0
  0
LINE
  5
3DE
330
1E
100
AcDbEntity
  8
0
100
AcDbLine
 10
234.7739999999999
 20
626.0
 30
0.0
 11
234.7739999999999
 21
633.4089999999999
 31
0.0
  0
LINE
  5
3E3
330
1E
100
AcDbEntity
  8
0
100
AcDbLine
 10
234.8629999999999
 20
633.4089999999999
 30
0.0
 11
235.694
 21
633.4089999999999
 31
0.0
  0
LINE
  5
3E4
330
1E
100
AcDbEntity
  8
0
100
AcDbLine
 10
235.083
 20
634.0
 30
0.0
 11
235.1509999999999
 21
634.0
 31
0.0
  0
LINE
  5
3E5
330
1E
100
AcDbEntity
  8
0
100
AcDbLine
 10
235.1509999999999
 20
634.0
 30
0.0
 11
235.927
 21
634.0
 31
0.0
  0
LINE
  5
3E6
330
1E
100
AcDbEntity
  8
0
100
AcDbLine
 10
235.927
 20
634.0
 30
0.0
 11
237.3549999999999
 21
634.0
 31
0.0
  0
LINE
  5
3E7
330
1E
100
AcDbEntity
  8
0
100
AcDbLine
 10
235.694
 20
633.4089999999999
 30
0.0
 11
237.149
 21
633.4089999999999
 31
0.0
  0
LINE
  5
3E8
330
1E
100
AcDbEntity
  8
0
100
AcDbLine
 10
236.3179999999999
 20
358.943
 30
0.0
 11
236.5439999999999
 21
360.0
 31
0.0
  0
LINE
  5
3EA
330
1E
100
AcDbEntity
  8
0
100
AcDbLine
 10
236.5439999999999
 20
360.0
 30
0.0
 11
241.669
 21
384.0469999999999
 31
0.0
  0
LINE
  5
3EB
330
1E
100
AcDbEntity
  8
0
100
AcDbLine
 10
236.2
 20
634.0
 30
0.0
 11
238.2
 21
634.0
 31
0.0
  0
LINE
  5
3EC
330
1E
100
AcDbEntity
  8
0
100
AcDbLine
 10
235.0
 20
764.0
 30
0.0
 11
236.2
 21
764.0
 31
0.0
  0
LINE
  5
3ED
330
1E
100
AcDbEntity
  8
0
100
AcDbLine
 10
236.0
 20
764.0
 30
0.0
 11
236.0
 21
784.019322916667
 31
0.0
  0
LINE
  5
3EE
330
1E
100
AcDbEntity
  8
0
100
AcDbLine
 10
235.8
 20
763.4999999999999
 30
0.0
 11
237.9
 21
763.4999999999999
 31
0.0
  0
LINE
  5
3EF
330
1E
100
AcDbEntity
  8
0
100
AcDbLine
 10
235.8
 20
634.4999999999999
 30
0.0
 11
237.9
 21
634.4999999999999
 31
0.0
  0
LINE
  5
3F0
330
1E
100
AcDbEntity
  8
0
100
AcDbLine
 10
236.2
 20
764.0
 30
0.0
 11
238.2
 21
764.0
 31
0.0
  0
LINE
  5
3F1
330
1E
100
AcDbEntity
  8
0
100
AcDbLine
 10
236.0
 20
784.019322916667
 30
0.0
 11
236.0
 21
764.0
 31
0.0
  0
LINE
  5
3F2
330
1E
100
AcDbEntity
  8
0
100
AcDbLine
 10
235.0
 20
634.0
 30
0.0
 11
235.083
 21
634.0
 31
0.0
  0
LINE
  5
3F3
330
1E
100
AcDbEntity
  8
0
100
AcDbLine
 10
235.0
 20
634.0
 30
0.0
 11
236.2
 21
634.0
 31
0.0
  0
LINE
  5
3F5
330
1E
100
AcDbEntity
  8
0
100
AcDbLine
 10
237.4359999999999
 20
1.793199999999989
 30
0.0
 11
252.9259999999999
 21
-0.0000000000000155
 31
0.0
  0
LINE
  5
3F6
330
1E
100
AcDbEntity
  8
0
100
AcDbLine
 10
237.4359999999999
 20
1.793199999999989
 30
0.0
 11
252.9259999999999
 21
-0.0000000000000156
 31
0.0
  0
LINE
  5
3F9
330
1E
100
AcDbEntity
  8
0
100
AcDbLine
 10
237.3549999999999
 20
634.0
 30
0.0
 11
239.4
 21
634.0
 31
0.0
  0
LINE
  5
3FA
330
1E
100
AcDbEntity
  8
0
100
AcDbLine
 10
237.149
 20
633.4089999999999
 30
0.0
 11
239.222
 21
633.4089999999999
 31
0.0
  0
LINE
  5
3FB
330
1E
100
AcDbEntity
  8
0
100
AcDbLine
 10
237.9
 20
763.4999999999999
 30
0.0
 11
240.5
 21
763.4999999999999
 31
0.0
  0
LINE
  5
3FC
330
1E
100
AcDbEntity
  8
0
100
AcDbLine
 10
237.9
 20
634.4999999999999
 30
0.0
 11
240.5
 21
634.4999999999999
 31
0.0
  0
LINE
  5
3FD
330
1E
100
AcDbEntity
  8
0
100
AcDbLine
 10
236.6999999999999
 20
783.755
 30
0.0
 11
247.0
 21
782.4860000000001
 31
0.0
  0
LINE
  5
3FE
330
1E
100
AcDbEntity
  8
0
100
AcDbLine
 10
238.0
 20
787.773
 30
0.0
 11
247.0
 21
786.595
 31
0.0
  0
LINE
  5
400
330
1E
100
AcDbEntity
  8
0
100
AcDbLine
 10
237.0
 20
784.45
 30
0.0
 11
247.0
 21
783.181
 31
0.0
  0
LINE
  5
401
330
1E
100
AcDbEntity
  8
0
100
AcDbLine
 10
238.2
 20
764.0
 30
0.0
 11
240.8
 21
764.0
 31
0.0
  0
LINE
  5
402
330
1E
100
AcDbEntity
  8
0
100
AcDbLine
 10
238.2
 20
634.0
 30
0.0
 11
240.8
 21
634.0
 31
0.0
  0
LINE
  5
403
330
1E
100
AcDbEntity
  8
0
100
AcDbLine
 10
238.0
 20
849.07
 30
0.0
 11
247.0
 21
850.248
 31
0.0
  0
LINE
  5
404
330
1E
100
AcDbEntity
  8
0
100
AcDbLine
 10
236.6999999999999
 20
871.6829999999999
 30
0.0
 11
247.0
 21
872.952
 31
0.0
  0
LINE
  5
405
330
1E
100
AcDbEntity
  8
0
100
AcDbLine
 10
236.6999999999999
 20
859.8499999999999
 30
0.0
 11
246.0
 21
860.9957961165049
 31
0.0
  0
LINE
  5
406
330
1E
100
AcDbEntity
  8
0
100
AcDbLine
 10
236.6999999999999
 20
859.2159999999999
 30
0.0
 11
246.0
 21
860.3617961165049
 31
0.0
  0
LINE
  5
407
330
1E
100
AcDbEntity
  8
0
100
AcDbLine
 10
236.6999999999999
 20
853.7219999999999
 30
0.0
 11
247.0
 21
854.991
 31
0.0
  0
LINE
  5
408
330
1E
100
AcDbEntity
  8
0
100
AcDbLine
 10
237.0
 20
852.6049999999999
 30
0.0
 11
247.0
 21
853.8730000000001
 31
0.0
  0
LINE
  5
40B
330
1E
100
AcDbEntity
  8
0
100
AcDbLine
 10
240.4819999999999
 20
17.533
 30
0.0
 11
253.8
 21
15.939
 31
0.0
  0
LINE
  5
40E
330
1E
100
AcDbEntity
  8
0
100
AcDbLine
 10
241.669
 20
384.0469999999999
 30
0.0
 11
245.7079999999999
 21
407.9559999999999
 31
0.0
  0
LINE
  5
416
330
1E
100
AcDbEntity
  8
0
100
AcDbLine
 10
241.822
 20
634.0
 30
0.0
 11
244.5659999999999
 21
634.0
 31
0.0
  0
LINE
  5
417
330
1E
100
AcDbEntity
  8
0
100
AcDbLine
 10
239.4
 20
634.0
 30
0.0
 11
241.822
 21
634.0
 31
0.0
  0
LINE
  5
418
330
1E
100
AcDbEntity
  8
0
100
AcDbLine
 10
241.699
 20
633.4089999999999
 30
0.0
 11
244.532
 21
633.4089999999999
 31
0.0
  0
LINE
  5
419
330
1E
100
AcDbEntity
  8
0
100
AcDbLine
 10
239.222
 20
633.4089999999999
 30
0.0
 11
241.699
 21
633.4089999999999
 31
0.0
  0
LINE
  5
41A
330
1E
100
AcDbEntity
  8
0
100
AcDbLine
 10
240.8
 20
764.0
 30
0.0
 11
243.8
 21
764.0
 31
0.0
  0
LINE
  5
41B
330
1E
100
AcDbEntity
  8
0
100
AcDbLine
 10
240.5
 20
763.4999999999999
 30
0.0
 11
243.6999999999999
 21
763.4999999999999
 31
0.0
  0
LINE
  5
41C
330
1E
100
AcDbEntity
  8
0
100
AcDbLine
 10
243.6999999999999
 20
763.4999999999999
 30
0.0
 11
247.0
 21
763.4999999999999
 31
0.0
  0
LINE
  5
41D
330
1E
100
AcDbEntity
  8
0
100
AcDbLine
 10
240.5
 20
634.4999999999999
 30
0.0
 11
243.6999999999999
 21
634.4999999999999
 31
0.0
  0
LINE
  5
41E
330
1E
100
AcDbEntity
  8
0
100
AcDbLine
 10
243.8
 20
764.0
 30
0.0
 11
247.0
 21
764.0
 31
0.0
  0
LINE
  5
41F
330
1E
100
AcDbEntity
  8
0
100
AcDbLine
 10
243.6999999999999
 20
634.4999999999999
 30
0.0
 11
247.0
 21
634.4999999999999
 31
0.0
  0
LINE
  5
420
330
1E
100
AcDbEntity
  8
0
100
AcDbLine
 10
240.8
 20
634.0
 30
0.0
 11
243.8
 21
634.0
 31
0.0
  0
LINE
  5
423
330
1E
100
AcDbEntity
  8
0
100
AcDbLine
 10
245.7079999999999
 20
407.9559999999999
 30
0.0
 11
249.1229999999999
 21
441.826
 31
0.0
  0
LINE
  5
428
330
1E
100
AcDbEntity
  8
0
100
AcDbLine
 10
244.5659999999999
 20
634.0
 30
0.0
 11
247.3899999999999
 21
634.0
 31
0.0
  0
LINE
  5
429
330
1E
100
AcDbEntity
  8
0
100
AcDbLine
 10
244.532
 20
633.4089999999999
 30
0.0
 11
247.452
 21
633.4089999999999
 31
0.0
  0
LINE
  5
42A
330
1E
100
AcDbEntity
  8
0
100
AcDbLine
 10
247.0
 20
764.0
 30
0.0
 11
250.1999999999999
 21
764.0
 31
0.0
  0
LINE
  5
42B
330
1E
100
AcDbEntity
  8
0
100
AcDbLine
 10
247.0
 20
763.4999999999999
 30
0.0
 11
250.3
 21
763.4999999999999
 31
0.0
  0
LINE
  5
42C
330
1E
100
AcDbEntity
  8
0
100
AcDbLine
 10
247.0
 20
634.4999999999999
 30
0.0
 11
250.3
 21
634.4999999999999
 31
0.0
  0
LINE
  5
42D
330
1E
100
AcDbEntity
  8
0
100
AcDbLine
 10
247.0
 20
634.0
 30
0.0
 11
250.1999999999999
 21
634.0
 31
0.0
  0
LINE
  5
42E
330
1E
100
AcDbEntity
  8
0
100
AcDbLine
 10
243.8
 20
634.0
 30
0.0
 11
247.0
 21
634.0
 31
0.0
  0
LINE
  5
42F
330
1E
100
AcDbEntity
  8
0
100
AcDbLine
 10
239.3
 20
792.1239999999999
 30
0.0
 11
247.0
 21
791.127
 31
0.0
  0
LINE
  5
430
330
1E
100
AcDbEntity
  8
0
100
AcDbLine
 10
247.0
 20
791.127
 30
0.0
 11
254.7
 21
792.1239999999999
 31
0.0
  0
LINE
  5
431
330
1E
100
AcDbEntity
  8
0
100
AcDbLine
 10
247.0
 20
786.595
 30
0.0
 11
256.0
 21
787.773
 31
0.0
  0
LINE
  5
432
330
1E
100
AcDbEntity
  8
0
100
AcDbLine
 10
247.0
 20
845.5049999999999
 30
0.0
 11
254.7
 21
844.508
 31
0.0
  0
LINE
  5
434
330
1E
100
AcDbEntity
  8
0
100
AcDbLine
 10
239.3
 20
844.508
 30
0.0
 11
247.0
 21
845.5049999999999
 31
0.0
  0
LINE
  5
435
330
1E
100
AcDbEntity
  8
0
100
AcDbLine
 10
247.0
 20
782.4860000000001
 30
0.0
 11
257.2999999999999
 21
783.755
 31
0.0
  0
LINE
  5
436
330
1E
100
AcDbEntity
  8
0
100
AcDbLine
 10
247.0
 20
783.181
 30
0.0
 11
257.0
 21
784.45
 31
0.0
  0
LINE
  5
437
330
1E
100
AcDbEntity
  8
0
100
AcDbLine
 10
246.0
 20
854.7523999999999
 30
0.0
 11
246.0
 21
856.3500000000001
 31
0.0
  0
LINE
  5
438
330
1E
100
AcDbEntity
  8
0
100
AcDbLine
 10
246.0
 20
860.3617961165049
 30
0.0
 11
246.0
 21
861.8439999999999
 31
0.0
  0
LINE
  5
439
330
1E
100
AcDbEntity
  8
0
100
AcDbLine
 10
246.0
 20
861.8439999999999
 30
0.0
 11
246.0
 21
856.3500000000001
 31
0.0
  0
LINE
  5
43A
330
1E
100
AcDbEntity
  8
0
100
AcDbLine
 10
246.0
 20
861.8439999999999
 30
0.0
 11
248.0
 21
861.8439999999999
 31
0.0
  0
LINE
  5
43B
330
1E
100
AcDbEntity
  8
0
100
AcDbLine
 10
246.0
 20
861.8439999999999
 30
0.0
 11
246.0
 21
860.3617961165049
 31
0.0
  0
LINE
  5
43C
330
1E
100
AcDbEntity
  8
0
100
AcDbLine
 10
246.0
 20
856.3500000000001
 30
0.0
 11
248.0
 21
856.3500000000001
 31
0.0
  0
LINE
  5
43D
330
1E
100
AcDbEntity
  8
0
100
AcDbLine
 10
246.0
 20
856.3500000000001
 30
0.0
 11
246.0
 21
861.8439999999999
 31
0.0
  0
LINE
  5
43E
330
1E
100
AcDbEntity
  8
0
100
AcDbLine
 10
246.0
 20
856.3500000000001
 30
0.0
 11
246.0
 21
854.7523999999999
 31
0.0
  0
LINE
  5
43F
330
1E
100
AcDbEntity
  8
0
100
AcDbLine
 10
247.0
 20
854.991
 30
0.0
 11
257.2999999999999
 21
853.7219999999999
 31
0.0
  0
LINE
  5
440
330
1E
100
AcDbEntity
  8
0
100
AcDbLine
 10
247.0
 20
850.248
 30
0.0
 11
256.0
 21
849.07
 31
0.0
  0
LINE
  5
441
330
1E
100
AcDbEntity
  8
0
100
AcDbLine
 10
247.0
 20
853.8730000000001
 30
0.0
 11
257.0
 21
852.6049999999999
 31
0.0
  0
LINE
  5
442
330
1E
100
AcDbEntity
  8
0
100
AcDbLine
 10
247.0
 20
872.952
 30
0.0
 11
247.0
 21
875.0
 31
0.0
  0
LINE
  5
443
330
1E
100
AcDbEntity
  8
0
100
AcDbLine
 10
247.0
 20
872.952
 30
0.0
 11
257.2999999999999
 21
871.6829999999999
 31
0.0
  0
LINE
  5
444
330
1E
100
AcDbEntity
  8
0
100
AcDbLine
 10
239.0
 20
871.9663689320389
 30
0.0
 11
239.0
 21
875.0
 31
0.0
  0
LINE
  5
445
330
1E
100
AcDbEntity
  8
0
100
AcDbLine
 10
239.0
 20
875.0
 30
0.0
 11
239.0
 21
871.9663689320389
 31
0.0
  0
LINE
  5
446
330
1E
100
AcDbEntity
  8
0
100
AcDbLine
 10
249.720988455133
 20
600.0
 30
0.0
 11
307.0
 21
600.0
 31
0.0
  0
LINE
  5
447
330
1E
100
AcDbEntity
  8
0
100
AcDbLine
 10
249.1229999999999
 20
441.826
 30
0.0
 11
253.5273105622639
 21
600.0
 31
0.0
  0
LINE
  5
44E
330
1E
100
AcDbEntity
  8
0
100
AcDbLine
 10
252.9259999999999
 20
-0.0000000000000155
 30
0.0
 11
270.172
 21
1.79319999999998
 31
0.0
  0
LINE
  5
44F
330
1E
100
AcDbEntity
  8
0
100
AcDbLine
 10
252.9259999999999
 20
-0.0000000000000156
 30
0.0
 11
270.172
 21
1.79319999999998
 31
0.0
  0
LINE
  5
451
330
1E
100
AcDbEntity
  8
0
100
AcDbLine
 10
252.615
 20
633.4089999999999
 30
0.0
 11
254.5609999999999
 21
633.4089999999999
 31
0.0
  0
LINE
  5
452
330
1E
100
AcDbEntity
  8
0
100
AcDbLine
 10
250.172
 20
633.4089999999999
 30
0.0
 11
252.615
 21
633.4089999999999
 31
0.0
  0
LINE
  5
453
330
1E
100
AcDbEntity
  8
0
100
AcDbLine
 10
252.449
 20
634.0
 30
0.0
 11
254.362
 21
634.0
 31
0.0
  0
LINE
  5
454
330
1E
100
AcDbEntity
  8
0
100
AcDbLine
 10
250.041
 20
634.0
 30
0.0
 11
252.449
 21
634.0
 31
0.0
  0
LINE
  5
455
330
1E
100
AcDbEntity
  8
0
100
AcDbLine
 10
247.3899999999999
 20
634.0
 30
0.0
 11
250.041
 21
634.0
 31
0.0
  0
LINE
  5
456
330
1E
100
AcDbEntity
  8
0
100
AcDbLine
 10
247.452
 20
633.4089999999999
 30
0.0
 11
250.172
 21
633.4089999999999
 31
0.0
  0
LINE
  5
458
330
1E
100
AcDbEntity
  8
0
100
AcDbLine
 10
254.5609999999999
 20
626.0
 30
0.0
 11
307.0
 21
626.0
 31
0.0
  0
LINE
  5
459
330
1E
100
AcDbEntity
  8
0
100
AcDbLine
 10
253.5273105622639
 20
600.0
 30
0.0
 11
278.0
 21
600.0
 31
0.0
  0
LINE
  5
45A
330
1E
100
AcDbEntity
  8
0
100
AcDbLine
 10
253.5273105622639
 20
600.0
 30
0.0
 11
280.5714285714289
 21
600.0
 31
0.0
  0
LINE
  5
45B
330
1E
100
AcDbEntity
  8
0
100
AcDbLine
 10
253.8
 20
15.939
 30
0.0
 11
268.063494170985
 21
17.533
 31
0.0
  0
LINE
  5
45E
330
1E
100
AcDbEntity
  8
0
100
AcDbLine
 10
254.5609999999999
 20
633.4089999999999
 30
0.0
 11
255.9569999999999
 21
633.4089999999999
 31
0.0
  0
LINE
  5
45F
330
1E
100
AcDbEntity
  8
0
100
AcDbLine
 10
254.362
 20
634.0
 30
0.0
 11
255.689
 21
634.0
 31
0.0
  0
LINE
  5
460
330
1E
100
AcDbEntity
  8
0
100
AcDbLine
 10
255.689
 20
634.0
 30
0.0
 11
256.3629999999999
 21
634.0
 31
0.0
  0
LINE
  5
461
330
1E
100
AcDbEntity
  8
0
100
AcDbLine
 10
255.9569999999999
 20
633.4089999999999
 30
0.0
 11
256.672
 21
633.4089999999999
 31
0.0
  0
LINE
  5
462
330
1E
100
AcDbEntity
  8
0
100
AcDbLine
 10
256.672
 20
633.4089999999999
 30
0.0
 11
256.672
 21
626.0
 31
0.0
  0
LINE
  5
463
330
1E
100
AcDbEntity
  8
0
100
AcDbLine
 10
256.672
 20
626.0
 30
0.0
 11
256.672
 21
633.4089999999999
 31
0.0
  0
LINE
  5
464
330
1E
100
AcDbEntity
  8
0
100
AcDbLine
 10
256.3629999999999
 20
634.0
 30
0.0
 11
257.8
 21
634.0
 31
0.0
  0
LINE
  5
465
330
1E
100
AcDbEntity
  8
0
100
AcDbLine
 10
256.3629999999999
 20
634.0
 30
0.0
 11
256.672
 21
633.4089999999999
 31
0.0
  0
LINE
  5
466
330
1E
100
AcDbEntity
  8
0
100
AcDbLine
 10
255.8
 20
634.0
 30
0.0
 11
257.8
 21
634.0
 31
0.0
  0
LINE
  5
467
330
1E
100
AcDbEntity
  8
0
100
AcDbLine
 10
253.2
 20
634.0
 30
0.0
 11
255.8
 21
634.0
 31
0.0
  0
LINE
  5
468
330
1E
100
AcDbEntity
  8
0
100
AcDbLine
 10
250.1999999999999
 20
764.0
 30
0.0
 11
253.2
 21
764.0
 31
0.0
  0
LINE
  5
469
330
1E
100
AcDbEntity
  8
0
100
AcDbLine
 10
250.3
 20
763.4999999999999
 30
0.0
 11
253.5
 21
763.4999999999999
 31
0.0
  0
LINE
  5
46A
330
1E
100
AcDbEntity
  8
0
100
AcDbLine
 10
256.1
 20
634.4999999999999
 30
0.0
 11
258.1999999999999
 21
634.4999999999999
 31
0.0
  0
LINE
  5
46B
330
1E
100
AcDbEntity
  8
0
100
AcDbLine
 10
253.2
 20
764.0
 30
0.0
 11
255.8
 21
764.0
 31
0.0
  0
LINE
  5
46C
330
1E
100
AcDbEntity
  8
0
100
AcDbLine
 10
254.7
 20
792.1239999999999
 30
0.0
 11
261.8999999999999
 21
794.7519999999999
 31
0.0
  0
LINE
  5
46D
330
1E
100
AcDbEntity
  8
0
100
AcDbLine
 10
254.7
 20
844.508
 30
0.0
 11
261.8999999999999
 21
841.88
 31
0.0
  0
LINE
  5
46E
330
1E
100
AcDbEntity
  8
0
100
AcDbLine
 10
256.0
 20
787.773
 30
0.0
 11
264.3999999999999
 21
790.311
 31
0.0
  0
LINE
  5
470
330
1E
100
AcDbEntity
  8
0
100
AcDbLine
 10
255.8
 20
764.0
 30
0.0
 11
257.8
 21
764.0
 31
0.0
  0
LINE
  5
471
330
1E
100
AcDbEntity
  8
0
100
AcDbLine
 10
256.1
 20
763.4999999999999
 30
0.0
 11
258.1999999999999
 21
763.4999999999999
 31
0.0
  0
LINE
  5
472
330
1E
100
AcDbEntity
  8
0
100
AcDbLine
 10
253.5
 20
763.4999999999999
 30
0.0
 11
256.1
 21
763.4999999999999
 31
0.0
  0
LINE
  5
473
330
1E
100
AcDbEntity
  8
0
100
AcDbLine
 10
253.5
 20
634.4999999999999
 30
0.0
 11
256.1
 21
634.4999999999999
 31
0.0
  0
LINE
  5
474
330
1E
100
AcDbEntity
  8
0
100
AcDbLine
 10
250.3
 20
634.4999999999999
 30
0.0
 11
253.5
 21
634.4999999999999
 31
0.0
  0
LINE
  5
475
330
1E
100
AcDbEntity
  8
0
100
AcDbLine
 10
250.1999999999999
 20
634.0
 30
0.0
 11
253.2
 21
634.0
 31
0.0
  0
LINE
  5
476
330
1E
100
AcDbEntity
  8
0
100
AcDbLine
 10
257.0
 20
784.45
 30
0.0
 11
266.3999999999999
 21
787.8939999999999
 31
0.0
  0
LINE
  5
477
330
1E
100
AcDbEntity
  8
0
100
AcDbLine
 10
248.0
 20
854.8677961165051
 30
0.0
 11
248.0
 21
856.3500000000001
 31
0.0
  0
LINE
  5
478
330
1E
100
AcDbEntity
  8
0
100
AcDbLine
 10
248.0
 20
856.3500000000001
 30
0.0
 11
248.0
 21
861.8439999999999
 31
0.0
  0
LINE
  5
479
330
1E
100
AcDbEntity
  8
0
100
AcDbLine
 10
248.0
 20
856.3500000000001
 30
0.0
 11
248.0
 21
854.8677961165051
 31
0.0
  0
LINE
  5
47A
330
1E
100
AcDbEntity
  8
0
100
AcDbLine
 10
256.0
 20
849.07
 30
0.0
 11
264.3999999999999
 21
846.532
 31
0.0
  0
LINE
  5
47D
330
1E
100
AcDbEntity
  8
0
100
AcDbLine
 10
259.5
 20
634.0
 30
0.0
 11
260.0
 21
634.4999999999999
 31
0.0
  0
LINE
  5
47E
330
1E
100
AcDbEntity
  8
0
100
AcDbLine
 10
259.0
 20
634.0
 30
0.0
 11
259.5
 21
634.0
 31
0.0
  0
LINE
  5
47F
330
1E
100
AcDbEntity
  8
0
100
AcDbLine
 10
258.0
 20
764.0
 30
0.0
 11
258.0
 21
784.019322916667
 31
0.0
  0
LINE
  5
480
330
1E
100
AcDbEntity
  8
0
100
AcDbLine
 10
258.0
 20
784.019322916667
 30
0.0
 11
258.0
 21
764.0
 31
0.0
  0
LINE
  5
481
330
1E
100
AcDbEntity
  8
0
100
AcDbLine
 10
257.8
 20
764.0
 30
0.0
 11
259.0
 21
764.0
 31
0.0
  0
LINE
  5
482
330
1E
100
AcDbEntity
  8
0
100
AcDbLine
 10
258.1999999999999
 20
763.4999999999999
 30
0.0
 11
259.5
 21
763.4999999999999
 31
0.0
  0
LINE
  5
483
330
1E
100
AcDbEntity
  8
0
100
AcDbLine
 10
260.0
 20
634.4999999999999
 30
0.0
 11
260.0
 21
763.4999999999999
 31
0.0
  0
LINE
  5
484
330
1E
100
AcDbEntity
  8
0
100
AcDbLine
 10
259.0
 20
764.0
 30
0.0
 11
259.5
 21
764.0
 31
0.0
  0
LINE
  5
485
330
1E
100
AcDbEntity
  8
0
100
AcDbLine
 10
259.5
 20
764.0
 30
0.0
 11
260.0
 21
763.4999999999999
 31
0.0
  0
LINE
  5
486
330
1E
100
AcDbEntity
  8
0
100
AcDbLine
 10
259.5
 20
763.4999999999999
 30
0.0
 11
260.0
 21
763.4999999999999
 31
0.0
  0
LINE
  5
487
330
1E
100
AcDbEntity
  8
0
100
AcDbLine
 10
261.8999999999999
 20
794.7519999999999
 30
0.0
 11
268.1999999999999
 21
799.1019999999999
 31
0.0
  0
LINE
  5
488
330
1E
100
AcDbEntity
  8
0
100
AcDbLine
 10
261.8999999999999
 20
841.88
 30
0.0
 11
268.1999999999999
 21
837.5299999999999
 31
0.0
  0
LINE
  5
489
330
1E
100
AcDbEntity
  8
0
100
AcDbLine
 10
260.0
 20
763.4999999999999
 30
0.0
 11
260.0
 21
634.4999999999999
 31
0.0
  0
LINE
  5
48A
330
1E
100
AcDbEntity
  8
0
100
AcDbLine
 10
259.5
 20
634.4999999999999
 30
0.0
 11
260.0
 21
634.4999999999999
 31
0.0
  0
LINE
  5
48B
330
1E
100
AcDbEntity
  8
0
100
AcDbLine
 10
258.1999999999999
 20
634.4999999999999
 30
0.0
 11
259.5
 21
634.4999999999999
 31
0.0
  0
LINE
  5
48C
330
1E
100
AcDbEntity
  8
0
100
AcDbLine
 10
257.8
 20
634.0
 30
0.0
 11
259.0
 21
634.0
 31
0.0
  0
LINE
  5
48D
330
1E
100
AcDbEntity
  8
0
100
AcDbLine
 10
257.2999999999999
 20
783.755
 30
0.0
 11
266.9
 21
787.38
 31
0.0
  0
LINE
  5
48E
330
1E
100
AcDbEntity
  8
0
100
AcDbLine
 10
257.2999999999999
 20
859.2159999999999
 30
0.0
 11
266.9
 21
855.591
 31
0.0
  0
LINE
  5
48F
330
1E
100
AcDbEntity
  8
0
100
AcDbLine
 10
257.2999999999999
 20
853.7219999999999
 30
0.0
 11
266.9
 21
850.097
 31
0.0
  0
LINE
  5
490
330
1E
100
AcDbEntity
  8
0
100
AcDbLine
 10
257.0
 20
852.6049999999999
 30
0.0
 11
266.3999999999999
 21
849.1610000000001
 31
0.0
  0
LINE
  5
491
330
1E
100
AcDbEntity
  8
0
100
AcDbLine
 10
248.0
 20
861.8439999999999
 30
0.0
 11
248.0
 21
856.3500000000001
 31
0.0
  0
LINE
  5
492
330
1E
100
AcDbEntity
  8
0
100
AcDbLine
 10
248.0
 20
860.3617961165049
 30
0.0
 11
257.2999999999999
 21
859.2159999999999
 31
0.0
  0
LINE
  5
493
330
1E
100
AcDbEntity
  8
0
100
AcDbLine
 10
257.2999999999999
 20
871.6829999999999
 30
0.0
 11
266.9
 21
868.058
 31
0.0
  0
LINE
  5
494
330
1E
100
AcDbEntity
  8
0
100
AcDbLine
 10
248.0
 20
860.9957961165049
 30
0.0
 11
257.2999999999999
 21
859.8499999999999
 31
0.0
  0
LINE
  5
495
330
1E
100
AcDbEntity
  8
0
100
AcDbLine
 10
257.2999999999999
 20
859.8499999999999
 30
0.0
 11
266.9
 21
856.225
 31
0.0
  0
LINE
  5
496
330
1E
100
AcDbEntity
  8
0
100
AcDbLine
 10
247.0
 20
875.0
 30
0.0
 11
264.0
 21
875.0
 31
0.0
  0
LINE
  5
497
330
1E
100
AcDbEntity
  8
0
100
AcDbLine
 10
247.0
 20
875.0
 30
0.0
 11
247.0
 21
872.952
 31
0.0
  0
LINE
  5
498
330
1E
100
AcDbEntity
  8
0
100
AcDbLine
 10
264.0
 20
880.0
 30
0.0
 11
272.0
 21
880.0
 31
0.0
  0
LINE
  5
499
330
1E
100
AcDbEntity
  8
0
100
AcDbLine
 10
264.0
 20
893.5999999999999
 30
0.0
 11
264.0
 21
900.0
 31
0.0
  0
LINE
  5
49A
330
1E
100
AcDbEntity
  8
0
100
AcDbLine
 10
264.0
 20
893.5999999999999
 30
0.0
 11
264.0
 21
887.6000000000001
 31
0.0
  0
LINE
  5
49B
330
1E
100
AcDbEntity
  8
0
100
AcDbLine
 10
264.0
 20
887.6000000000001
 30
0.0
 11
264.0
 21
893.5999999999999
 31
0.0
  0
LINE
  5
49C
330
1E
100
AcDbEntity
  8
0
100
AcDbLine
 10
264.0
 20
887.6000000000001
 30
0.0
 11
264.0
 21
882.3
 31
0.0
  0
LINE
  5
49D
330
1E
100
AcDbEntity
  8
0
100
AcDbLine
 10
264.0
 20
882.3
 30
0.0
 11
264.0
 21
887.6000000000001
 31
0.0
  0
LINE
  5
49E
330
1E
100
AcDbEntity
  8
0
100
AcDbLine
 10
264.0
 20
882.3
 30
0.0
 11
264.0
 21
878.2999999999999
 31
0.0
  0
LINE
  5
49F
330
1E
100
AcDbEntity
  8
0
100
AcDbLine
 10
264.0
 20
878.2999999999999
 30
0.0
 11
264.0
 21
882.3
 31
0.0
  0
LINE
  5
4A0
330
1E
100
AcDbEntity
  8
0
100
AcDbLine
 10
264.0
 20
878.2999999999999
 30
0.0
 11
264.0
 21
875.9
 31
0.0
  0
LINE
  5
4A1
330
1E
100
AcDbEntity
  8
0
100
AcDbLine
 10
264.0
 20
875.9
 30
0.0
 11
264.0
 21
878.2999999999999
 31
0.0
  0
LINE
  5
4A2
330
1E
100
AcDbEntity
  8
0
100
AcDbLine
 10
264.0
 20
875.9
 30
0.0
 11
264.0
 21
875.0
 31
0.0
  0
LINE
  5
4A3
330
1E
100
AcDbEntity
  8
0
100
AcDbLine
 10
264.0
 20
875.0
 30
0.0
 11
264.0
 21
875.9
 31
0.0
  0
LINE
  5
4A4
330
1E
100
AcDbEntity
  8
0
100
AcDbLine
 10
234.6
 20
900.0
 30
0.0
 11
234.6
 21
906.4
 31
0.0
  0
LINE
  5
4A5
330
1E
100
AcDbEntity
  8
0
100
AcDbLine
 10
234.6
 20
900.0
 30
0.0
 11
234.6
 21
893.5999999999999
 31
0.0
  0
LINE
  5
4A6
330
1E
100
AcDbEntity
  8
0
100
AcDbLine
 10
234.6
 20
906.4
 30
0.0
 11
234.6
 21
912.4
 31
0.0
  0
LINE
  5
4A7
330
1E
100
AcDbEntity
  8
0
100
AcDbLine
 10
234.6
 20
906.4
 30
0.0
 11
234.6
 21
900.0
 31
0.0
  0
LINE
  5
4A8
330
1E
100
AcDbEntity
  8
0
100
AcDbLine
 10
264.0
 20
900.0
 30
0.0
 11
264.0
 21
906.4
 31
0.0
  0
LINE
  5
4A9
330
1E
100
AcDbEntity
  8
0
100
AcDbLine
 10
264.0
 20
900.0
 30
0.0
 11
264.0
 21
893.5999999999999
 31
0.0
  0
LINE
  5
4AA
330
1E
100
AcDbEntity
  8
0
100
AcDbLine
 10
234.0
 20
912.1
 30
0.0
 11
234.0
 21
917.2
 31
0.0
  0
LINE
  5
4AB
330
1E
100
AcDbEntity
  8
0
100
AcDbLine
 10
234.0
 20
912.1
 30
0.0
 11
234.0
 21
906.3
 31
0.0
  0
LINE
  5
4AC
330
1E
100
AcDbEntity
  8
0
100
AcDbLine
 10
234.0
 20
917.2
 30
0.0
 11
234.0
 21
921.1
 31
0.0
  0
LINE
  5
4AD
330
1E
100
AcDbEntity
  8
0
100
AcDbLine
 10
234.0
 20
917.2
 30
0.0
 11
234.0
 21
912.1
 31
0.0
  0
LINE
  5
4AE
330
1E
100
AcDbEntity
  8
0
100
AcDbLine
 10
234.6
 20
912.4
 30
0.0
 11
234.6
 21
917.7000000000001
 31
0.0
  0
LINE
  5
4AF
330
1E
100
AcDbEntity
  8
0
100
AcDbLine
 10
234.6
 20
912.4
 30
0.0
 11
234.6
 21
906.4
 31
0.0
  0
LINE
  5
4B0
330
1E
100
AcDbEntity
  8
0
100
AcDbLine
 10
234.6
 20
917.7000000000001
 30
0.0
 11
234.6
 21
921.7
 31
0.0
  0
LINE
  5
4B1
330
1E
100
AcDbEntity
  8
0
100
AcDbLine
 10
234.6
 20
917.7000000000001
 30
0.0
 11
234.6
 21
912.4
 31
0.0
  0
LINE
  5
4B2
330
1E
100
AcDbEntity
  8
0
100
AcDbLine
 10
264.0
 20
906.4
 30
0.0
 11
264.0
 21
912.4
 31
0.0
  0
LINE
  5
4B3
330
1E
100
AcDbEntity
  8
0
100
AcDbLine
 10
264.0
 20
906.4
 30
0.0
 11
264.0
 21
900.0
 31
0.0
  0
LINE
  5
4B4
330
1E
100
AcDbEntity
  8
0
100
AcDbLine
 10
264.0
 20
912.4
 30
0.0
 11
264.0
 21
917.7000000000001
 31
0.0
  0
LINE
  5
4B5
330
1E
100
AcDbEntity
  8
0
100
AcDbLine
 10
264.0
 20
912.4
 30
0.0
 11
264.0
 21
906.4
 31
0.0
  0
LINE
  5
4B6
330
1E
100
AcDbEntity
  8
0
100
AcDbLine
 10
234.0
 20
921.1
 30
0.0
 11
234.0
 21
923.4999999999999
 31
0.0
  0
LINE
  5
4B7
330
1E
100
AcDbEntity
  8
0
100
AcDbLine
 10
234.0
 20
921.1
 30
0.0
 11
234.0
 21
917.2
 31
0.0
  0
LINE
  5
4B8
330
1E
100
AcDbEntity
  8
0
100
AcDbLine
 10
234.0
 20
923.4999999999999
 30
0.0
 11
234.0
 21
924.3999999999999
 31
0.0
  0
LINE
  5
4B9
330
1E
100
AcDbEntity
  8
0
100
AcDbLine
 10
234.0
 20
923.4999999999999
 30
0.0
 11
234.0
 21
921.1
 31
0.0
  0
LINE
  5
4BA
330
1E
100
AcDbEntity
  8
0
100
AcDbLine
 10
234.6
 20
921.7
 30
0.0
 11
234.6
 21
924.0999999999999
 31
0.0
  0
LINE
  5
4BB
330
1E
100
AcDbEntity
  8
0
100
AcDbLine
 10
234.6
 20
921.7
 30
0.0
 11
234.6
 21
917.7000000000001
 31
0.0
  0
LINE
  5
4BC
330
1E
100
AcDbEntity
  8
0
100
AcDbLine
 10
264.0
 20
920.0
 30
0.0
 11
272.0
 21
920.0
 31
0.0
  0
LINE
  5
4BD
330
1E
100
AcDbEntity
  8
0
100
AcDbLine
 10
234.6
 20
924.0999999999999
 30
0.0
 11
234.6
 21
925.0
 31
0.0
  0
LINE
  5
4BE
330
1E
100
AcDbEntity
  8
0
100
AcDbLine
 10
234.6
 20
924.0999999999999
 30
0.0
 11
234.6
 21
921.7
 31
0.0
  0
LINE
  5
4BF
330
1E
100
AcDbEntity
  8
0
100
AcDbLine
 10
264.0
 20
917.7000000000001
 30
0.0
 11
264.0
 21
921.7
 31
0.0
  0
LINE
  5
4C0
330
1E
100
AcDbEntity
  8
0
100
AcDbLine
 10
264.0
 20
917.7000000000001
 30
0.0
 11
264.0
 21
912.4
 31
0.0
  0
LINE
  5
4C1
330
1E
100
AcDbEntity
  8
0
100
AcDbLine
 10
264.3999999999999
 20
790.311
 30
0.0
 11
271.7
 21
795.9299999999999
 31
0.0
  0
LINE
  5
4C3
330
1E
100
AcDbEntity
  8
0
100
AcDbLine
 10
266.3999999999999
 20
787.8939999999999
 30
0.0
 11
274.5
 21
793.6039999999999
 31
0.0
  0
LINE
  5
4C4
330
1E
100
AcDbEntity
  8
0
100
AcDbLine
 10
264.3999999999999
 20
846.532
 30
0.0
 11
271.7
 21
840.9130000000001
 31
0.0
  0
LINE
  5
4C5
330
1E
100
AcDbEntity
  8
0
100
AcDbLine
 10
266.9
 20
787.38
 30
0.0
 11
275.1999999999999
 21
793.181
 31
0.0
  0
LINE
  5
4C6
330
1E
100
AcDbEntity
  8
0
100
AcDbLine
 10
266.9
 20
855.591
 30
0.0
 11
275.1999999999999
 21
849.791
 31
0.0
  0
LINE
  5
4C7
330
1E
100
AcDbEntity
  8
0
100
AcDbLine
 10
266.9
 20
850.097
 30
0.0
 11
275.1999999999999
 21
844.297
 31
0.0
  0
LINE
  5
4C8
330
1E
100
AcDbEntity
  8
0
100
AcDbLine
 10
266.3999999999999
 20
849.1610000000001
 30
0.0
 11
274.5
 21
843.4509999999999
 31
0.0
  0
LINE
  5
4C9
330
1E
100
AcDbEntity
  8
0
100
AcDbLine
 10
266.9
 20
868.058
 30
0.0
 11
275.1999999999999
 21
862.2580000000001
 31
0.0
  0
LINE
  5
4CA
330
1E
100
AcDbEntity
  8
0
100
AcDbLine
 10
270.172
 20
1.79319999999998
 30
0.0
 11
272.062
 21
2.120699999999979
 31
0.0
  0
LINE
  5
4CB
330
1E
100
AcDbEntity
  8
0
100
AcDbLine
 10
270.074
 20
750.0
 30
0.0
 11
270.087
 21
747.5999999999999
 31
0.0
  0
LINE
  5
4CC
330
1E
100
AcDbEntity
  8
0
100
AcDbLine
 10
270.074
 20
750.0
 30
0.0
 11
270.087
 21
752.4
 31
0.0
  0
LINE
  5
4CD
330
1E
100
AcDbEntity
  8
0
100
AcDbLine
 10
270.502
 20
390.5
 30
0.0
 11
275.497
 21
388.5
 31
0.0
  0
LINE
  5
4CE
330
1E
100
AcDbEntity
  8
0
100
AcDbLine
 10
270.502
 20
390.5
 30
0.0
 11
270.61
 21
390.8
 31
0.0
  0
LINE
  5
4CF
330
1E
100
AcDbEntity
  8
0
100
AcDbLine
 10
270.61
 20
390.8
 30
0.0
 11
270.7139999999999
 21
391.8
 31
0.0
  0
LINE
  5
4D0
330
1E
100
AcDbEntity
  8
0
100
AcDbLine
 10
270.4069999999999
 20
392.3
 30
0.0
 11
270.502
 21
392.0
 31
0.0
  0
LINE
  5
4D1
330
1E
100
AcDbEntity
  8
0
100
AcDbLine
 10
270.502
 20
392.0
 30
0.0
 11
270.5969999999999
 21
392.3
 31
0.0
  0
LINE
  5
4D2
330
1E
100
AcDbEntity
  8
0
100
AcDbLine
 10
270.3219999999999
 20
393.1
 30
0.0
 11
270.4069999999999
 21
392.3
 31
0.0
  0
LINE
  5
4D3
330
1E
100
AcDbEntity
  8
0
100
AcDbLine
 10
270.5969999999999
 20
392.3
 30
0.0
 11
270.683
 21
393.1
 31
0.0
  0
LINE
  5
4D4
330
1E
100
AcDbEntity
  8
0
100
AcDbLine
 10
270.683
 20
393.1
 30
0.0
 11
270.7549999999999
 21
394.3999999999999
 31
0.0
  0
LINE
  5
4D5
330
1E
100
AcDbEntity
  8
0
100
AcDbLine
 10
270.7139999999999
 20
391.8
 30
0.0
 11
270.804
 21
393.3
 31
0.0
  0
LINE
  5
4D6
330
1E
100
AcDbEntity
  8
0
100
AcDbLine
 10
270.804
 20
393.3
 30
0.0
 11
270.872
 21
395.3
 31
0.0
  0
LINE
  5
4D7
330
1E
100
AcDbEntity
  8
0
100
AcDbLine
 10
270.394
 20
390.8
 30
0.0
 11
270.502
 21
390.5
 31
0.0
  0
LINE
  5
4D8
330
1E
100
AcDbEntity
  8
0
100
AcDbLine
 10
270.29
 20
391.8
 30
0.0
 11
270.394
 21
390.8
 31
0.0
  0
LINE
  5
4D9
330
1E
100
AcDbEntity
  8
0
100
AcDbLine
 10
270.25
 20
394.3999999999999
 30
0.0
 11
270.3219999999999
 21
393.1
 31
0.0
  0
LINE
  5
4DA
330
1E
100
AcDbEntity
  8
0
100
AcDbLine
 10
270.7549999999999
 20
394.3999999999999
 30
0.0
 11
270.813
 21
396.0
 31
0.0
  0
LINE
  5
4DB
330
1E
100
AcDbEntity
  8
0
100
AcDbLine
 10
270.1909999999999
 20
396.0
 30
0.0
 11
270.25
 21
394.3999999999999
 31
0.0
  0
LINE
  5
4DC
330
1E
100
AcDbEntity
  8
0
100
AcDbLine
 10
270.813
 20
396.0
 30
0.0
 11
270.85
 21
397.8999999999999
 31
0.0
  0
LINE
  5
4DD
330
1E
100
AcDbEntity
  8
0
100
AcDbLine
 10
270.872
 20
395.3
 30
0.0
 11
270.917
 21
397.6
 31
0.0
  0
LINE
  5
4DE
330
1E
100
AcDbEntity
  8
0
100
AcDbLine
 10
270.917
 20
397.6
 30
0.0
 11
270.9309999999999
 21
400.0
 31
0.0
  0
LINE
  5
4DF
330
1E
100
AcDbEntity
  8
0
100
AcDbLine
 10
270.1999999999999
 20
393.3
 30
0.0
 11
270.29
 21
391.8
 31
0.0
  0
LINE
  5
4E0
330
1E
100
AcDbEntity
  8
0
100
AcDbLine
 10
270.1319999999999
 20
395.3
 30
0.0
 11
270.1999999999999
 21
393.3
 31
0.0
  0
LINE
  5
4E1
330
1E
100
AcDbEntity
  8
0
100
AcDbLine
 10
270.087
 20
752.4
 30
0.0
 11
270.1319999999999
 21
754.7
 31
0.0
  0
LINE
  5
4E2
330
1E
100
AcDbEntity
  8
0
100
AcDbLine
 10
270.087
 20
747.5999999999999
 30
0.0
 11
270.1319999999999
 21
745.2999999999999
 31
0.0
  0
LINE
  5
4E3
330
1E
100
AcDbEntity
  8
0
100
AcDbLine
 10
270.1549999999999
 20
397.8999999999999
 30
0.0
 11
270.1909999999999
 21
396.0
 31
0.0
  0
LINE
  5
4ED
330
1E
100
AcDbEntity
  8
0
100
AcDbLine
 10
270.1409999999999
 20
400.0
 30
0.0
 11
270.1549999999999
 21
397.8999999999999
 31
0.0
  0
LINE
  5
4EE
330
1E
100
AcDbEntity
  8
0
100
AcDbLine
 10
270.1409999999999
 20
400.0
 30
0.0
 11
270.1549999999999
 21
402.0999999999999
 31
0.0
  0
LINE
  5
501
330
1E
100
AcDbEntity
  8
0
100
AcDbLine
 10
270.813
 20
404.0
 30
0.0
 11
270.85
 21
402.0999999999999
 31
0.0
  0
LINE
  5
502
330
1E
100
AcDbEntity
  8
0
100
AcDbLine
 10
270.85
 20
402.0999999999999
 30
0.0
 11
270.8629999999999
 21
400.0
 31
0.0
  0
LINE
  5
504
330
1E
100
AcDbEntity
  8
0
100
AcDbLine
 10
270.1909999999999
 20
404.0
 30
0.0
 11
270.25
 21
405.6
 31
0.0
  0
LINE
  5
505
330
1E
100
AcDbEntity
  8
0
100
AcDbLine
 10
270.1549999999999
 20
402.0999999999999
 30
0.0
 11
270.1909999999999
 21
404.0
 31
0.0
  0
LINE
  5
508
330
1E
100
AcDbEntity
  8
0
100
AcDbLine
 10
270.872
 20
404.6999999999999
 30
0.0
 11
270.917
 21
402.4
 31
0.0
  0
LINE
  5
509
330
1E
100
AcDbEntity
  8
0
100
AcDbLine
 10
270.917
 20
402.4
 30
0.0
 11
270.9309999999999
 21
400.0
 31
0.0
  0
LINE
  5
50A
330
1E
100
AcDbEntity
  8
0
100
AcDbLine
 10
270.85
 20
397.8999999999999
 30
0.0
 11
270.8629999999999
 21
400.0
 31
0.0
  0
LINE
  5
50B
330
1E
100
AcDbEntity
  8
0
100
AcDbLine
 10
270.1999999999999
 20
743.2999999999999
 30
0.0
 11
270.29
 21
741.7999999999999
 31
0.0
  0
LINE
  5
50C
330
1E
100
AcDbEntity
  8
0
100
AcDbLine
 10
270.1909999999999
 20
746.0
 30
0.0
 11
270.25
 21
744.3999999999999
 31
0.0
  0
LINE
  5
50D
330
1E
100
AcDbEntity
  8
0
100
AcDbLine
 10
270.1909999999999
 20
754.0
 30
0.0
 11
270.25
 21
755.6
 31
0.0
  0
LINE
  5
50E
330
1E
100
AcDbEntity
  8
0
100
AcDbLine
 10
270.1549999999999
 20
752.1
 30
0.0
 11
270.1909999999999
 21
754.0
 31
0.0
  0
LINE
  5
50F
330
1E
100
AcDbEntity
  8
0
100
AcDbLine
 10
270.1549999999999
 20
747.9
 30
0.0
 11
270.1909999999999
 21
746.0
 31
0.0
  0
LINE
  5
510
330
1E
100
AcDbEntity
  8
0
100
AcDbLine
 10
270.1409999999999
 20
750.0
 30
0.0
 11
270.1549999999999
 21
747.9
 31
0.0
  0
LINE
  5
511
330
1E
100
AcDbEntity
  8
0
100
AcDbLine
 10
270.1409999999999
 20
750.0
 30
0.0
 11
270.1549999999999
 21
752.1
 31
0.0
  0
LINE
  5
512
330
1E
100
AcDbEntity
  8
0
100
AcDbLine
 10
270.1999999999999
 20
756.7
 30
0.0
 11
270.29
 21
758.2
 31
0.0
  0
LINE
  5
513
330
1E
100
AcDbEntity
  8
0
100
AcDbLine
 10
270.1319999999999
 20
754.7
 30
0.0
 11
270.1999999999999
 21
756.7
 31
0.0
  0
LINE
  5
514
330
1E
100
AcDbEntity
  8
0
100
AcDbLine
 10
270.1319999999999
 20
745.2999999999999
 30
0.0
 11
270.1999999999999
 21
743.2999999999999
 31
0.0
  0
LINE
  5
515
330
1E
100
AcDbEntity
  8
0
100
AcDbLine
 10
270.683
 20
406.8999999999999
 30
0.0
 11
270.7549999999999
 21
405.6
 31
0.0
  0
LINE
  5
516
330
1E
100
AcDbEntity
  8
0
100
AcDbLine
 10
270.7549999999999
 20
405.6
 30
0.0
 11
270.813
 21
404.0
 31
0.0
  0
LINE
  5
517
330
1E
100
AcDbEntity
  8
0
100
AcDbLine
 10
270.804
 20
406.7
 30
0.0
 11
270.872
 21
404.6999999999999
 31
0.0
  0
LINE
  5
518
330
1E
100
AcDbEntity
  8
0
100
AcDbLine
 10
270.502
 20
408.0
 30
0.0
 11
270.5969999999999
 21
407.6999999999999
 31
0.0
  0
LINE
  5
519
330
1E
100
AcDbEntity
  8
0
100
AcDbLine
 10
270.5969999999999
 20
407.6999999999999
 30
0.0
 11
270.683
 21
406.8999999999999
 31
0.0
  0
LINE
  5
51A
330
1E
100
AcDbEntity
  8
0
100
AcDbLine
 10
270.7139999999999
 20
408.1999999999999
 30
0.0
 11
270.804
 21
406.7
 31
0.0
  0
LINE
  5
51B
330
1E
100
AcDbEntity
  8
0
100
AcDbLine
 10
270.4069999999999
 20
407.6999999999999
 30
0.0
 11
270.502
 21
408.0
 31
0.0
  0
LINE
  5
51C
330
1E
100
AcDbEntity
  8
0
100
AcDbLine
 10
270.3219999999999
 20
406.8999999999999
 30
0.0
 11
270.4069999999999
 21
407.6999999999999
 31
0.0
  0
LINE
  5
51D
330
1E
100
AcDbEntity
  8
0
100
AcDbLine
 10
270.25
 20
405.6
 30
0.0
 11
270.3219999999999
 21
406.8999999999999
 31
0.0
  0
LINE
  5
51E
330
1E
100
AcDbEntity
  8
0
100
AcDbLine
 10
270.394
 20
740.7999999999999
 30
0.0
 11
270.502
 21
740.5
 31
0.0
  0
LINE
  5
51F
330
1E
100
AcDbEntity
  8
0
100
AcDbLine
 10
270.25
 20
755.6
 30
0.0
 11
270.3219999999999
 21
756.8999999999999
 31
0.0
  0
LINE
  5
520
330
1E
100
AcDbEntity
  8
0
100
AcDbLine
 10
270.25
 20
744.3999999999999
 30
0.0
 11
270.3219999999999
 21
743.1
 31
0.0
  0
LINE
  5
521
330
1E
100
AcDbEntity
  8
0
100
AcDbLine
 10
270.3219999999999
 20
756.8999999999999
 30
0.0
 11
270.4069999999999
 21
757.7
 31
0.0
  0
LINE
  5
522
330
1E
100
AcDbEntity
  8
0
100
AcDbLine
 10
270.3219999999999
 20
743.1
 30
0.0
 11
270.4069999999999
 21
742.3
 31
0.0
  0
LINE
  5
525
330
1E
100
AcDbEntity
  8
0
100
AcDbLine
 10
270.4069999999999
 20
757.7
 30
0.0
 11
270.502
 21
758.0
 31
0.0
  0
LINE
  5
52A
330
1E
100
AcDbEntity
  8
0
100
AcDbLine
 10
270.502
 20
758.0
 30
0.0
 11
270.5969999999999
 21
757.7
 31
0.0
  0
LINE
  5
530
330
1E
100
AcDbEntity
  8
0
100
AcDbLine
 10
270.4069999999999
 20
742.3
 30
0.0
 11
270.502
 21
742.0
 31
0.0
  0
LINE
  5
532
330
1E
100
AcDbEntity
  8
0
100
AcDbLine
 10
270.502
 20
742.0
 30
0.0
 11
270.5969999999999
 21
742.3
 31
0.0
  0
LINE
  5
533
330
1E
100
AcDbEntity
  8
0
100
AcDbLine
 10
270.394
 20
759.2
 30
0.0
 11
270.502
 21
759.4999999999999
 31
0.0
  0
LINE
  5
534
330
1E
100
AcDbEntity
  8
0
100
AcDbLine
 10
270.502
 20
759.4999999999999
 30
0.0
 11
275.497
 21
761.5
 31
0.0
  0
LINE
  5
535
330
1E
100
AcDbEntity
  8
0
100
AcDbLine
 10
270.502
 20
759.4999999999999
 30
0.0
 11
270.61
 21
759.2
 31
0.0
  0
LINE
  5
536
330
1E
100
AcDbEntity
  8
0
100
AcDbLine
 10
270.29
 20
758.2
 30
0.0
 11
270.394
 21
759.2
 31
0.0
  0
LINE
  5
537
330
1E
100
AcDbEntity
  8
0
100
AcDbLine
 10
270.29
 20
741.7999999999999
 30
0.0
 11
270.394
 21
740.7999999999999
 31
0.0
  0
LINE
  5
538
330
1E
100
AcDbEntity
  8
0
100
AcDbLine
 10
270.502
 20
740.5
 30
0.0
 11
275.497
 21
738.4999999999999
 31
0.0
  0
LINE
  5
539
330
1E
100
AcDbEntity
  8
0
100
AcDbLine
 10
270.502
 20
740.5
 30
0.0
 11
270.61
 21
740.7999999999999
 31
0.0
  0
LINE
  5
53A
330
1E
100
AcDbEntity
  8
0
100
AcDbLine
 10
270.394
 20
409.1999999999999
 30
0.0
 11
270.502
 21
409.4999999999999
 31
0.0
  0
LINE
  5
53B
330
1E
100
AcDbEntity
  8
0
100
AcDbLine
 10
270.61
 20
409.1999999999999
 30
0.0
 11
270.7139999999999
 21
408.1999999999999
 31
0.0
  0
LINE
  5
53C
330
1E
100
AcDbEntity
  8
0
100
AcDbLine
 10
270.5969999999999
 20
742.3
 30
0.0
 11
270.683
 21
743.1
 31
0.0
  0
LINE
  5
53D
330
1E
100
AcDbEntity
  8
0
100
AcDbLine
 10
270.683
 20
743.1
 30
0.0
 11
270.7549999999999
 21
744.3999999999999
 31
0.0
  0
LINE
  5
53E
330
1E
100
AcDbEntity
  8
0
100
AcDbLine
 10
270.61
 20
740.7999999999999
 30
0.0
 11
270.7139999999999
 21
741.7999999999999
 31
0.0
  0
LINE
  5
53F
330
1E
100
AcDbEntity
  8
0
100
AcDbLine
 10
270.7139999999999
 20
741.7999999999999
 30
0.0
 11
270.804
 21
743.2999999999999
 31
0.0
  0
LINE
  5
540
330
1E
100
AcDbEntity
  8
0
100
AcDbLine
 10
270.7549999999999
 20
744.3999999999999
 30
0.0
 11
270.813
 21
746.0
 31
0.0
  0
LINE
  5
541
330
1E
100
AcDbEntity
  8
0
100
AcDbLine
 10
270.813
 20
746.0
 30
0.0
 11
270.85
 21
747.9
 31
0.0
  0
LINE
  5
542
330
1E
100
AcDbEntity
  8
0
100
AcDbLine
 10
270.804
 20
743.2999999999999
 30
0.0
 11
270.872
 21
745.2999999999999
 31
0.0
  0
LINE
  5
543
330
1E
100
AcDbEntity
  8
0
100
AcDbLine
 10
270.872
 20
745.2999999999999
 30
0.0
 11
270.917
 21
747.5999999999999
 31
0.0
  0
LINE
  5
553
330
1E
100
AcDbEntity
  8
0
100
AcDbLine
 10
270.5969999999999
 20
757.7
 30
0.0
 11
270.683
 21
756.8999999999999
 31
0.0
  0
LINE
  5
554
330
1E
100
AcDbEntity
  8
0
100
AcDbLine
 10
270.683
 20
756.8999999999999
 30
0.0
 11
270.7549999999999
 21
755.6
 31
0.0
  0
LINE
  5
555
330
1E
100
AcDbEntity
  8
0
100
AcDbLine
 10
270.7549999999999
 20
755.6
 30
0.0
 11
270.813
 21
754.0
 31
0.0
  0
LINE
  5
556
330
1E
100
AcDbEntity
  8
0
100
AcDbLine
 10
270.61
 20
759.2
 30
0.0
 11
270.7139999999999
 21
758.2
 31
0.0
  0
LINE
  5
557
330
1E
100
AcDbEntity
  8
0
100
AcDbLine
 10
270.7139999999999
 20
758.2
 30
0.0
 11
270.804
 21
756.7
 31
0.0
  0
LINE
  5
558
330
1E
100
AcDbEntity
  8
0
100
AcDbLine
 10
270.813
 20
754.0
 30
0.0
 11
270.85
 21
752.1
 31
0.0
  0
LINE
  5
559
330
1E
100
AcDbEntity
  8
0
100
AcDbLine
 10
270.85
 20
752.1
 30
0.0
 11
270.8629999999999
 21
750.0
 31
0.0
  0
LINE
  5
55A
330
1E
100
AcDbEntity
  8
0
100
AcDbLine
 10
270.804
 20
756.7
 30
0.0
 11
270.872
 21
754.7
 31
0.0
  0
LINE
  5
55E
330
1E
100
AcDbEntity
  8
0
100
AcDbLine
 10
270.872
 20
754.7
 30
0.0
 11
270.917
 21
752.4
 31
0.0
  0
LINE
  5
55F
330
1E
100
AcDbEntity
  8
0
100
AcDbLine
 10
270.917
 20
752.4
 30
0.0
 11
270.9309999999999
 21
750.0
 31
0.0
  0
LINE
  5
560
330
1E
100
AcDbEntity
  8
0
100
AcDbLine
 10
270.85
 20
747.9
 30
0.0
 11
270.8629999999999
 21
750.0
 31
0.0
  0
LINE
  5
561
330
1E
100
AcDbEntity
  8
0
100
AcDbLine
 10
270.917
 20
747.5999999999999
 30
0.0
 11
270.9309999999999
 21
750.0
 31
0.0
  0
LINE
  5
562
330
1E
100
AcDbEntity
  8
0
100
AcDbLine
 10
270.502
 20
409.4999999999999
 30
0.0
 11
275.497
 21
411.5
 31
0.0
  0
LINE
  5
563
330
1E
100
AcDbEntity
  8
0
100
AcDbLine
 10
270.502
 20
409.4999999999999
 30
0.0
 11
270.61
 21
409.1999999999999
 31
0.0
  0
LINE
  5
564
330
1E
100
AcDbEntity
  8
0
100
AcDbLine
 10
270.29
 20
408.1999999999999
 30
0.0
 11
270.394
 21
409.1999999999999
 31
0.0
  0
LINE
  5
565
330
1E
100
AcDbEntity
  8
0
100
AcDbLine
 10
270.1999999999999
 20
406.7
 30
0.0
 11
270.29
 21
408.1999999999999
 31
0.0
  0
LINE
  5
566
330
1E
100
AcDbEntity
  8
0
100
AcDbLine
 10
270.1319999999999
 20
404.6999999999999
 30
0.0
 11
270.1999999999999
 21
406.7
 31
0.0
  0
LINE
  5
567
330
1E
100
AcDbEntity
  8
0
100
AcDbLine
 10
270.087
 20
402.4
 30
0.0
 11
270.1319999999999
 21
404.6999999999999
 31
0.0
  0
LINE
  5
568
330
1E
100
AcDbEntity
  8
0
100
AcDbLine
 10
270.087
 20
397.6
 30
0.0
 11
270.1319999999999
 21
395.3
 31
0.0
  0
LINE
  5
569
330
1E
100
AcDbEntity
  8
0
100
AcDbLine
 10
270.074
 20
400.0
 30
0.0
 11
270.087
 21
397.6
 31
0.0
  0
LINE
  5
56A
330
1E
100
AcDbEntity
  8
0
100
AcDbLine
 10
270.074
 20
400.0
 30
0.0
 11
270.087
 21
402.4
 31
0.0
  0
LINE
  5
56B
330
1E
100
AcDbEntity
  8
0
100
AcDbLine
 10
268.1999999999999
 20
799.1019999999999
 30
0.0
 11
273.0
 21
804.812
 31
0.0
  0
LINE
  5
56C
330
1E
100
AcDbEntity
  8
0
100
AcDbLine
 10
271.7
 20
795.9299999999999
 30
0.0
 11
277.3
 21
802.546
 31
0.0
  0
LINE
  5
56D
330
1E
100
AcDbEntity
  8
0
100
AcDbLine
 10
268.1999999999999
 20
837.5299999999999
 30
0.0
 11
273.0
 21
831.82
 31
0.0
  0
LINE
  5
570
330
1E
100
AcDbEntity
  8
0
100
AcDbLine
 10
268.063494170985
 20
17.533
 30
0.0
 11
282.961
 21
23.28199999999999
 31
0.0
  0
LINE
  5
571
330
1E
100
AcDbEntity
  8
0
100
AcDbLine
 10
271.7
 20
840.9130000000001
 30
0.0
 11
277.3
 21
834.2970000000001
 31
0.0
  0
LINE
  5
572
330
1E
100
AcDbEntity
  8
0
100
AcDbLine
 10
266.9
 20
856.225
 30
0.0
 11
275.1999999999999
 21
850.4239999999999
 31
0.0
  0
LINE
  5
573
330
1E
100
AcDbEntity
  8
0
100
AcDbLine
 10
272.0
 20
880.0
 30
0.0
 11
272.0
 21
878.8999999999999
 31
0.0
  0
LINE
  5
574
330
1E
100
AcDbEntity
  8
0
100
AcDbLine
 10
272.0
 20
878.8999999999999
 30
0.0
 11
272.0
 21
882.7999999999999
 31
0.0
  0
LINE
  5
575
330
1E
100
AcDbEntity
  8
0
100
AcDbLine
 10
272.0
 20
878.8999999999999
 30
0.0
 11
272.0
 21
876.5
 31
0.0
  0
LINE
  5
576
330
1E
100
AcDbEntity
  8
0
100
AcDbLine
 10
272.0
 20
878.8999999999999
 30
0.0
 11
272.0
 21
880.0
 31
0.0
  0
LINE
  5
577
330
1E
100
AcDbEntity
  8
0
100
AcDbLine
 10
272.0
 20
876.5
 30
0.0
 11
272.0
 21
878.8999999999999
 31
0.0
  0
LINE
  5
578
330
1E
100
AcDbEntity
  8
0
100
AcDbLine
 10
272.0
 20
876.5
 30
0.0
 11
272.0
 21
875.6
 31
0.0
  0
LINE
  5
579
330
1E
100
AcDbEntity
  8
0
100
AcDbLine
 10
272.0
 20
875.6
 30
0.0
 11
272.0
 21
876.5
 31
0.0
  0
LINE
  5
57A
330
1E
100
AcDbEntity
  8
0
100
AcDbLine
 10
272.0
 20
875.6
 30
0.0
 11
272.6
 21
875.0
 31
0.0
  0
LINE
  5
57B
330
1E
100
AcDbEntity
  8
0
100
AcDbLine
 10
272.0
 20
882.7999999999999
 30
0.0
 11
272.0
 21
887.8999999999999
 31
0.0
  0
LINE
  5
57C
330
1E
100
AcDbEntity
  8
0
100
AcDbLine
 10
272.0
 20
882.7999999999999
 30
0.0
 11
272.0
 21
878.8999999999999
 31
0.0
  0
LINE
  5
57D
330
1E
100
AcDbEntity
  8
0
100
AcDbLine
 10
272.0
 20
893.7000000000001
 30
0.0
 11
272.0
 21
900.0
 31
0.0
  0
LINE
  5
57E
330
1E
100
AcDbEntity
  8
0
100
AcDbLine
 10
272.0
 20
893.7000000000001
 30
0.0
 11
272.0
 21
887.8999999999999
 31
0.0
  0
LINE
  5
57F
330
1E
100
AcDbEntity
  8
0
100
AcDbLine
 10
272.0
 20
887.8999999999999
 30
0.0
 11
272.0
 21
893.7000000000001
 31
0.0
  0
LINE
  5
580
330
1E
100
AcDbEntity
  8
0
100
AcDbLine
 10
272.0
 20
887.8999999999999
 30
0.0
 11
272.0
 21
882.7999999999999
 31
0.0
  0
LINE
  5
581
330
1E
100
AcDbEntity
  8
0
100
AcDbLine
 10
272.0
 20
906.3
 30
0.0
 11
272.0
 21
912.1
 31
0.0
  0
LINE
  5
582
330
1E
100
AcDbEntity
  8
0
100
AcDbLine
 10
272.0
 20
906.3
 30
0.0
 11
272.0
 21
900.0
 31
0.0
  0
LINE
  5
583
330
1E
100
AcDbEntity
  8
0
100
AcDbLine
 10
272.0
 20
900.0
 30
0.0
 11
272.0
 21
894.88
 31
0.0
  0
LINE
  5
584
330
1E
100
AcDbEntity
  8
0
100
AcDbLine
 10
272.0
 20
900.0
 30
0.0
 11
272.0
 21
906.3
 31
0.0
  0
LINE
  5
585
330
1E
100
AcDbEntity
  8
0
100
AcDbLine
 10
272.0
 20
900.0
 30
0.0
 11
272.0
 21
893.7000000000001
 31
0.0
  0
LINE
  5
586
330
1E
100
AcDbEntity
  8
0
100
AcDbLine
 10
272.0
 20
894.88
 30
0.0
 11
272.0
 21
890.08
 31
0.0
  0
LINE
  5
587
330
1E
100
AcDbEntity
  8
0
100
AcDbLine
 10
272.0
 20
890.08
 30
0.0
 11
272.0
 21
885.8400000000001
 31
0.0
  0
LINE
  5
588
330
1E
100
AcDbEntity
  8
0
100
AcDbLine
 10
272.0
 20
885.8400000000001
 30
0.0
 11
272.0
 21
882.6399999999999
 31
0.0
  0
LINE
  5
589
330
1E
100
AcDbEntity
  8
0
100
AcDbLine
 10
272.0
 20
882.6399999999999
 30
0.0
 11
272.0
 21
880.7199999999999
 31
0.0
  0
LINE
  5
58A
330
1E
100
AcDbEntity
  8
0
100
AcDbLine
 10
272.0
 20
880.7199999999999
 30
0.0
 11
272.0
 21
880.0
 31
0.0
  0
LINE
  5
58B
330
1E
100
AcDbEntity
  8
0
100
AcDbLine
 10
272.0
 20
905.1199999999999
 30
0.0
 11
272.0
 21
900.0
 31
0.0
  0
LINE
  5
58C
330
1E
100
AcDbEntity
  8
0
100
AcDbLine
 10
272.0
 20
912.1
 30
0.0
 11
272.0
 21
917.2
 31
0.0
  0
LINE
  5
58D
330
1E
100
AcDbEntity
  8
0
100
AcDbLine
 10
272.0
 20
912.1
 30
0.0
 11
272.0
 21
906.3
 31
0.0
  0
LINE
  5
58E
330
1E
100
AcDbEntity
  8
0
100
AcDbLine
 10
272.0
 20
917.2
 30
0.0
 11
272.0
 21
921.1
 31
0.0
  0
LINE
  5
58F
330
1E
100
AcDbEntity
  8
0
100
AcDbLine
 10
272.0
 20
917.2
 30
0.0
 11
272.0
 21
912.1
 31
0.0
  0
LINE
  5
590
330
1E
100
AcDbEntity
  8
0
100
AcDbLine
 10
272.0
 20
909.9199999999999
 30
0.0
 11
272.0
 21
905.1199999999999
 31
0.0
  0
LINE
  5
591
330
1E
100
AcDbEntity
  8
0
100
AcDbLine
 10
272.0
 20
914.16
 30
0.0
 11
272.0
 21
909.9199999999999
 31
0.0
  0
LINE
  5
592
330
1E
100
AcDbEntity
  8
0
100
AcDbLine
 10
272.0
 20
917.36
 30
0.0
 11
272.0
 21
914.16
 31
0.0
  0
LINE
  5
593
330
1E
100
AcDbEntity
  8
0
100
AcDbLine
 10
272.062
 20
2.120699999999979
 30
0.0
 11
290.047
 21
8.89479999999998
 31
0.0
  0
LINE
  5
594
330
1E
100
AcDbEntity
  8
0
100
AcDbLine
 10
272.6
 20
893.5999999999999
 30
0.0
 11
272.6
 21
900.0
 31
0.0
  0
LINE
  5
595
330
1E
100
AcDbEntity
  8
0
100
AcDbLine
 10
272.6
 20
893.5999999999999
 30
0.0
 11
272.6
 21
887.6000000000001
 31
0.0
  0
LINE
  5
596
330
1E
100
AcDbEntity
  8
0
100
AcDbLine
 10
272.6
 20
887.6000000000001
 30
0.0
 11
272.6
 21
893.5999999999999
 31
0.0
  0
LINE
  5
597
330
1E
100
AcDbEntity
  8
0
100
AcDbLine
 10
272.6
 20
887.6000000000001
 30
0.0
 11
272.6
 21
882.3
 31
0.0
  0
LINE
  5
598
330
1E
100
AcDbEntity
  8
0
100
AcDbLine
 10
272.6
 20
882.3
 30
0.0
 11
272.6
 21
887.6000000000001
 31
0.0
  0
LINE
  5
599
330
1E
100
AcDbEntity
  8
0
100
AcDbLine
 10
272.6
 20
882.3
 30
0.0
 11
272.6
 21
878.2999999999999
 31
0.0
  0
LINE
  5
59A
330
1E
100
AcDbEntity
  8
0
100
AcDbLine
 10
272.6
 20
878.2999999999999
 30
0.0
 11
272.6
 21
882.3
 31
0.0
  0
LINE
  5
59B
330
1E
100
AcDbEntity
  8
0
100
AcDbLine
 10
272.6
 20
878.2999999999999
 30
0.0
 11
272.6
 21
875.9
 31
0.0
  0
LINE
  5
59C
330
1E
100
AcDbEntity
  8
0
100
AcDbLine
 10
272.6
 20
875.9
 30
0.0
 11
272.6
 21
878.2999999999999
 31
0.0
  0
LINE
  5
59D
330
1E
100
AcDbEntity
  8
0
100
AcDbLine
 10
272.6
 20
875.9
 30
0.0
 11
272.6
 21
875.0
 31
0.0
  0
LINE
  5
59E
330
1E
100
AcDbEntity
  8
0
100
AcDbLine
 10
272.6
 20
875.0
 30
0.0
 11
272.6
 21
875.9
 31
0.0
  0
LINE
  5
59F
330
1E
100
AcDbEntity
  8
0
100
AcDbLine
 10
272.6
 20
875.0
 30
0.0
 11
278.0
 21
875.0
 31
0.0
  0
LINE
  5
5A0
330
1E
100
AcDbEntity
  8
0
100
AcDbLine
 10
272.6
 20
900.0
 30
0.0
 11
272.6
 21
906.4
 31
0.0
  0
LINE
  5
5A1
330
1E
100
AcDbEntity
  8
0
100
AcDbLine
 10
272.6
 20
900.0
 30
0.0
 11
272.6
 21
893.5999999999999
 31
0.0
  0
LINE
  5
5A2
330
1E
100
AcDbEntity
  8
0
100
AcDbLine
 10
272.6
 20
906.4
 30
0.0
 11
272.6
 21
912.4
 31
0.0
  0
LINE
  5
5A3
330
1E
100
AcDbEntity
  8
0
100
AcDbLine
 10
272.6
 20
906.4
 30
0.0
 11
272.6
 21
900.0
 31
0.0
  0
LINE
  5
5A6
330
1E
100
AcDbEntity
  8
0
100
AcDbLine
 10
273.0
 20
804.812
 30
0.0
 11
275.8999999999999
 21
811.3369999999999
 31
0.0
  0
LINE
  5
5A7
330
1E
100
AcDbEntity
  8
0
100
AcDbLine
 10
273.0
 20
831.82
 30
0.0
 11
275.8999999999999
 21
825.295
 31
0.0
  0
LINE
  5
5A8
330
1E
100
AcDbEntity
  8
0
100
AcDbLine
 10
274.5
 20
793.6039999999999
 30
0.0
 11
280.8
 21
800.9450000000001
 31
0.0
  0
LINE
  5
5A9
330
1E
100
AcDbEntity
  8
0
100
AcDbLine
 10
275.1999999999999
 20
793.181
 30
0.0
 11
281.6
 21
800.703
 31
0.0
  0
LINE
  5
5AA
330
1E
100
AcDbEntity
  8
0
100
AcDbLine
 10
275.1999999999999
 20
849.791
 30
0.0
 11
281.6
 21
842.2679999999999
 31
0.0
  0
LINE
  5
5AB
330
1E
100
AcDbEntity
  8
0
100
AcDbLine
 10
275.1999999999999
 20
844.297
 30
0.0
 11
281.6
 21
836.7739999999999
 31
0.0
  0
LINE
  5
5AC
330
1E
100
AcDbEntity
  8
0
100
AcDbLine
 10
274.5
 20
843.4509999999999
 30
0.0
 11
280.8
 21
836.11
 31
0.0
  0
LINE
  5
5AD
330
1E
100
AcDbEntity
  8
0
100
AcDbLine
 10
275.1999999999999
 20
862.2580000000001
 30
0.0
 11
281.6
 21
854.7349999999999
 31
0.0
  0
LINE
  5
5AE
330
1E
100
AcDbEntity
  8
0
100
AcDbLine
 10
276.050836226548
 20
388.437822198839
 30
0.0
 11
276.057
 21
388.1
 31
0.0
  0
LINE
  5
5AF
330
1E
100
AcDbEntity
  8
0
100
AcDbLine
 10
276.043636363636
 20
388.5
 30
0.0
 11
276.057
 21
388.1
 31
0.0
  0
LINE
  5
5B0
330
1E
100
AcDbEntity
  8
0
100
AcDbLine
 10
276.716
 20
376.8999999999999
 30
0.0
 11
276.9959999999999
 21
376.0
 31
0.0
  0
LINE
  5
5B1
330
1E
100
AcDbEntity
  8
0
100
AcDbLine
 10
276.459
 20
379.1999999999999
 30
0.0
 11
276.716
 21
376.8999999999999
 31
0.0
  0
LINE
  5
5B2
330
1E
100
AcDbEntity
  8
0
100
AcDbLine
 10
276.3199999999999
 20
385.5
 30
0.0
 11
276.4959999999999
 21
385.0
 31
0.0
  0
LINE
  5
5B3
330
1E
100
AcDbEntity
  8
0
100
AcDbLine
 10
276.4959999999999
 20
385.0
 30
0.0
 11
276.672
 21
385.5
 31
0.0
  0
LINE
  5
5B4
330
1E
100
AcDbEntity
  8
0
100
AcDbLine
 10
276.158
 20
387.0
 30
0.0
 11
276.3199999999999
 21
385.5
 31
0.0
  0
LINE
  5
5B5
330
1E
100
AcDbEntity
  8
0
100
AcDbLine
 10
276.0704999999999
 20
388.5
 30
0.0
 11
276.158
 21
387.0
 31
0.0
  0
LINE
  5
5B6
330
1E
100
AcDbEntity
  8
0
100
AcDbLine
 10
276.4959999999999
 20
388.5
 30
0.0
 11
276.924278969957
 21
388.547639484979
 31
0.0
  0
LINE
  5
5B7
330
1E
100
AcDbEntity
  8
0
100
AcDbLine
 10
276.672
 20
385.5
 30
0.0
 11
276.834
 21
387.0
 31
0.0
  0
LINE
  5
5B8
330
1E
100
AcDbEntity
  8
0
100
AcDbLine
 10
276.834
 20
387.0
 30
0.0
 11
276.974
 21
389.3999999999999
 31
0.0
  0
LINE
  5
5B9
330
1E
100
AcDbEntity
  8
0
100
AcDbLine
 10
276.2329999999999
 20
383.1
 30
0.0
 11
276.459
 21
379.1999999999999
 31
0.0
  0
LINE
  5
5BA
330
1E
100
AcDbEntity
  8
0
100
AcDbLine
 10
276.057
 20
388.1
 30
0.0
 11
276.2329999999999
 21
383.1
 31
0.0
  0
LINE
  5
5BB
330
1E
100
AcDbEntity
  8
0
100
AcDbLine
 10
275.632
 20
388.8999999999999
 30
0.0
 11
275.754
 21
390.0
 31
0.0
  0
LINE
  5
5BC
330
1E
100
AcDbEntity
  8
0
100
AcDbLine
 10
275.754
 20
390.0
 30
0.0
 11
275.862
 21
391.9
 31
0.0
  0
LINE
  5
5BD
330
1E
100
AcDbEntity
  8
0
100
AcDbLine
 10
275.862
 20
391.9
 30
0.0
 11
275.9479999999999
 21
394.2999999999999
 31
0.0
  0
LINE
  5
5BE
330
1E
100
AcDbEntity
  8
0
100
AcDbLine
 10
275.9479999999999
 20
394.2999999999999
 30
0.0
 11
275.998
 21
397.0
 31
0.0
  0
LINE
  5
5BF
330
1E
100
AcDbEntity
  8
0
100
AcDbLine
 10
275.497
 20
411.5
 30
0.0
 11
275.632
 21
411.1
 31
0.0
  0
LINE
  5
5C0
330
1E
100
AcDbEntity
  8
0
100
AcDbLine
 10
275.497
 20
411.5
 30
0.0
 11
276.4959999999999
 21
411.5
 31
0.0
  0
LINE
  5
5C1
330
1E
100
AcDbEntity
  8
0
100
AcDbLine
 10
275.632
 20
411.1
 30
0.0
 11
275.754
 21
410.0
 31
0.0
  0
LINE
  5
5C2
330
1E
100
AcDbEntity
  8
0
100
AcDbLine
 10
275.754
 20
410.0
 30
0.0
 11
275.862
 21
408.1
 31
0.0
  0
LINE
  5
5C3
330
1E
100
AcDbEntity
  8
0
100
AcDbLine
 10
275.862
 20
408.1
 30
0.0
 11
275.9479999999999
 21
405.7
 31
0.0
  0
LINE
  5
5C4
330
1E
100
AcDbEntity
  8
0
100
AcDbLine
 10
275.9479999999999
 20
405.7
 30
0.0
 11
275.998
 21
403.0
 31
0.0
  0
LINE
  5
5C5
330
1E
100
AcDbEntity
  8
0
100
AcDbLine
 10
275.998
 20
403.0
 30
0.0
 11
276.0159999999999
 21
400.0
 31
0.0
  0
LINE
  5
5C6
330
1E
100
AcDbEntity
  8
0
100
AcDbLine
 10
275.998
 20
397.0
 30
0.0
 11
276.0159999999999
 21
400.0
 31
0.0
  0
LINE
  5
5C7
330
1E
100
AcDbEntity
  8
0
100
AcDbLine
 10
276.0704999999999
 20
411.5
 30
0.0
 11
276.158
 21
413.0
 31
0.0
  0
LINE
  5
5C8
330
1E
100
AcDbEntity
  8
0
100
AcDbLine
 10
276.050836226548
 20
411.5621778011609
 30
0.0
 11
276.057
 21
411.8999999999999
 31
0.0
  0
LINE
  5
5C9
330
1E
100
AcDbEntity
  8
0
100
AcDbLine
 10
276.4959999999999
 20
411.5
 30
0.0
 11
276.924278969957
 21
411.4523605150219
 31
0.0
  0
LINE
  5
5CA
330
1E
100
AcDbEntity
  8
0
100
AcDbLine
 10
276.974
 20
410.5999999999999
 30
0.0
 11
277.0829999999999
 21
407.5
 31
0.0
  0
LINE
  5
5CB
330
1E
100
AcDbEntity
  8
0
100
AcDbLine
 10
276.974
 20
389.3999999999999
 30
0.0
 11
277.0829999999999
 21
392.5
 31
0.0
  0
LINE
  5
5CC
330
1E
100
AcDbEntity
  8
0
100
AcDbLine
 10
276.043636363636
 20
411.5
 30
0.0
 11
276.057
 21
411.8999999999999
 31
0.0
  0
LINE
  5
5CD
330
1E
100
AcDbEntity
  8
0
100
AcDbLine
 10
276.050836226548
 20
738.4378221988389
 30
0.0
 11
276.057
 21
738.1
 31
0.0
  0
LINE
  5
5CE
330
1E
100
AcDbEntity
  8
0
100
AcDbLine
 10
276.043636363636
 20
738.4999999999999
 30
0.0
 11
276.057
 21
738.1
 31
0.0
  0
LINE
  5
5CF
330
1E
100
AcDbEntity
  8
0
100
AcDbLine
 10
276.158
 20
413.0
 30
0.0
 11
276.3199999999999
 21
414.5
 31
0.0
  0
LINE
  5
5D0
330
1E
100
AcDbEntity
  8
0
100
AcDbLine
 10
276.158
 20
737.0
 30
0.0
 11
276.3199999999999
 21
735.5
 31
0.0
  0
LINE
  5
5D1
330
1E
100
AcDbEntity
  8
0
100
AcDbLine
 10
276.0704999999999
 20
738.4999999999999
 30
0.0
 11
276.158
 21
737.0
 31
0.0
  0
LINE
  5
5D2
330
1E
100
AcDbEntity
  8
0
100
AcDbLine
 10
276.2329999999999
 20
733.1
 30
0.0
 11
276.459
 21
729.2
 31
0.0
  0
LINE
  5
5D3
330
1E
100
AcDbEntity
  8
0
100
AcDbLine
 10
276.057
 20
738.1
 30
0.0
 11
276.2329999999999
 21
733.1
 31
0.0
  0
LINE
  5
5D4
330
1E
100
AcDbEntity
  8
0
100
AcDbLine
 10
275.632
 20
738.9
 30
0.0
 11
275.754
 21
740.0
 31
0.0
  0
LINE
  5
5D5
330
1E
100
AcDbEntity
  8
0
100
AcDbLine
 10
275.754
 20
740.0
 30
0.0
 11
275.862
 21
741.8999999999999
 31
0.0
  0
LINE
  5
5D6
330
1E
100
AcDbEntity
  8
0
100
AcDbLine
 10
275.862
 20
741.8999999999999
 30
0.0
 11
275.9479999999999
 21
744.2999999999999
 31
0.0
  0
LINE
  5
5D7
330
1E
100
AcDbEntity
  8
0
100
AcDbLine
 10
275.9479999999999
 20
744.2999999999999
 30
0.0
 11
275.998
 21
747.0
 31
0.0
  0
LINE
  5
5D8
330
1E
100
AcDbEntity
  8
0
100
AcDbLine
 10
275.497
 20
761.5
 30
0.0
 11
275.632
 21
761.1
 31
0.0
  0
LINE
  5
5D9
330
1E
100
AcDbEntity
  8
0
100
AcDbLine
 10
275.497
 20
761.5
 30
0.0
 11
276.4959999999999
 21
761.5
 31
0.0
  0
LINE
  5
5DA
330
1E
100
AcDbEntity
  8
0
100
AcDbLine
 10
275.632
 20
761.1
 30
0.0
 11
275.754
 21
760.0
 31
0.0
  0
LINE
  5
5DB
330
1E
100
AcDbEntity
  8
0
100
AcDbLine
 10
275.754
 20
760.0
 30
0.0
 11
275.862
 21
758.1
 31
0.0
  0
LINE
  5
5DC
330
1E
100
AcDbEntity
  8
0
100
AcDbLine
 10
275.862
 20
758.1
 30
0.0
 11
275.9479999999999
 21
755.7
 31
0.0
  0
LINE
  5
5DD
330
1E
100
AcDbEntity
  8
0
100
AcDbLine
 10
275.9479999999999
 20
755.7
 30
0.0
 11
275.998
 21
753.0
 31
0.0
  0
LINE
  5
5DE
330
1E
100
AcDbEntity
  8
0
100
AcDbLine
 10
276.043636363636
 20
761.5
 30
0.0
 11
276.057
 21
761.8999999999999
 31
0.0
  0
LINE
  5
5DF
330
1E
100
AcDbEntity
  8
0
100
AcDbLine
 10
276.050836226548
 20
761.562177801161
 30
0.0
 11
276.057
 21
761.8999999999999
 31
0.0
  0
LINE
  5
5E0
330
1E
100
AcDbEntity
  8
0
100
AcDbLine
 10
275.998
 20
753.0
 30
0.0
 11
276.0159999999999
 21
750.0
 31
0.0
  0
LINE
  5
5E1
330
1E
100
AcDbEntity
  8
0
100
AcDbLine
 10
275.998
 20
747.0
 30
0.0
 11
276.0159999999999
 21
750.0
 31
0.0
  0
LINE
  5
5E2
330
1E
100
AcDbEntity
  8
0
100
AcDbLine
 10
276.158
 20
763.0
 30
0.0
 11
276.3199999999999
 21
764.5
 31
0.0
  0
LINE
  5
5E3
330
1E
100
AcDbEntity
  8
0
100
AcDbLine
 10
276.0704999999999
 20
761.5
 30
0.0
 11
276.158
 21
763.0
 31
0.0
  0
LINE
  5
5E4
330
1E
100
AcDbEntity
  8
0
100
AcDbLine
 10
276.2329999999999
 20
766.8999999999999
 30
0.0
 11
276.459
 21
770.7999999999999
 31
0.0
  0
LINE
  5
5E5
330
1E
100
AcDbEntity
  8
0
100
AcDbLine
 10
276.057
 20
761.8999999999999
 30
0.0
 11
276.2329999999999
 21
766.8999999999999
 31
0.0
  0
LINE
  5
5E6
330
1E
100
AcDbEntity
  8
0
100
AcDbLine
 10
275.497
 20
738.4999999999999
 30
0.0
 11
276.043636363636
 21
738.4999999999999
 31
0.0
  0
LINE
  5
5E7
330
1E
100
AcDbEntity
  8
0
100
AcDbLine
 10
275.497
 20
738.4999999999999
 30
0.0
 11
275.632
 21
738.9
 31
0.0
  0
LINE
  5
5E8
330
1E
100
AcDbEntity
  8
0
100
AcDbLine
 10
275.497
 20
738.4999999999999
 30
0.0
 11
276.4959999999999
 21
738.4999999999999
 31
0.0
  0
LINE
  5
5E9
330
1E
100
AcDbEntity
  8
0
100
AcDbLine
 10
276.3199999999999
 20
414.5
 30
0.0
 11
276.4959999999999
 21
415.0
 31
0.0
  0
LINE
  5
5EA
330
1E
100
AcDbEntity
  8
0
100
AcDbLine
 10
276.4959999999999
 20
415.0
 30
0.0
 11
276.672
 21
414.5
 31
0.0
  0
LINE
  5
5EB
330
1E
100
AcDbEntity
  8
0
100
AcDbLine
 10
276.672
 20
414.5
 30
0.0
 11
276.834
 21
413.0
 31
0.0
  0
LINE
  5
5EC
330
1E
100
AcDbEntity
  8
0
100
AcDbLine
 10
276.834
 20
413.0
 30
0.0
 11
276.974
 21
410.5999999999999
 31
0.0
  0
LINE
  5
5ED
330
1E
100
AcDbEntity
  8
0
100
AcDbLine
 10
276.716
 20
726.9
 30
0.0
 11
276.9959999999999
 21
726.0
 31
0.0
  0
LINE
  5
5EE
330
1E
100
AcDbEntity
  8
0
100
AcDbLine
 10
276.3199999999999
 20
764.5
 30
0.0
 11
276.4959999999999
 21
765.0
 31
0.0
  0
LINE
  5
5EF
330
1E
100
AcDbEntity
  8
0
100
AcDbLine
 10
276.3199999999999
 20
735.5
 30
0.0
 11
276.4959999999999
 21
735.0
 31
0.0
  0
LINE
  5
5F0
330
1E
100
AcDbEntity
  8
0
100
AcDbLine
 10
276.4959999999999
 20
735.0
 30
0.0
 11
276.672
 21
735.5
 31
0.0
  0
LINE
  5
5F1
330
1E
100
AcDbEntity
  8
0
100
AcDbLine
 10
276.4959999999999
 20
761.5
 30
0.0
 11
276.924278969957
 21
761.4523605150219
 31
0.0
  0
LINE
  5
5F2
330
1E
100
AcDbEntity
  8
0
100
AcDbLine
 10
276.4959999999999
 20
765.0
 30
0.0
 11
276.672
 21
764.5
 31
0.0
  0
LINE
  5
5F3
330
1E
100
AcDbEntity
  8
0
100
AcDbLine
 10
276.716
 20
773.1
 30
0.0
 11
276.9959999999999
 21
774.0
 31
0.0
  0
LINE
  5
5F4
330
1E
100
AcDbEntity
  8
0
100
AcDbLine
 10
276.672
 20
764.5
 30
0.0
 11
276.834
 21
763.0
 31
0.0
  0
LINE
  5
5F5
330
1E
100
AcDbEntity
  8
0
100
AcDbLine
 10
276.4959999999999
 20
738.4999999999999
 30
0.0
 11
276.924278969957
 21
738.5476394849789
 31
0.0
  0
LINE
  5
5F6
330
1E
100
AcDbEntity
  8
0
100
AcDbLine
 10
276.672
 20
735.5
 30
0.0
 11
276.834
 21
737.0
 31
0.0
  0
LINE
  5
5F7
330
1E
100
AcDbEntity
  8
0
100
AcDbLine
 10
276.459
 20
770.7999999999999
 30
0.0
 11
276.716
 21
773.1
 31
0.0
  0
LINE
  5
5F8
330
1E
100
AcDbEntity
  8
0
100
AcDbLine
 10
276.459
 20
729.2
 30
0.0
 11
276.716
 21
726.9
 31
0.0
  0
LINE
  5
5F9
330
1E
100
AcDbEntity
  8
0
100
AcDbLine
 10
276.834
 20
763.0
 30
0.0
 11
276.974
 21
760.6
 31
0.0
  0
LINE
  5
5FA
330
1E
100
AcDbEntity
  8
0
100
AcDbLine
 10
276.974
 20
760.6
 30
0.0
 11
277.0829999999999
 21
757.5
 31
0.0
  0
LINE
  5
5FB
330
1E
100
AcDbEntity
  8
0
100
AcDbLine
 10
276.834
 20
737.0
 30
0.0
 11
276.974
 21
739.4
 31
0.0
  0
LINE
  5
5FC
330
1E
100
AcDbEntity
  8
0
100
AcDbLine
 10
276.9959999999999
 20
774.0
 30
0.0
 11
277.9949999999999
 21
775.0
 31
0.0
  0
LINE
  5
5FD
330
1E
100
AcDbEntity
  8
0
100
AcDbLine
 10
276.9959999999999
 20
774.0
 30
0.0
 11
277.2749999999999
 21
773.1
 31
0.0
  0
LINE
  5
5FE
330
1E
100
AcDbEntity
  8
0
100
AcDbLine
 10
276.974
 20
739.4
 30
0.0
 11
277.0829999999999
 21
742.4999999999999
 31
0.0
  0
LINE
  5
5FF
330
1E
100
AcDbEntity
  8
0
100
AcDbLine
 10
276.9959999999999
 20
726.0
 30
0.0
 11
277.9949999999999
 21
725.0
 31
0.0
  0
LINE
  5
600
330
1E
100
AcDbEntity
  8
0
100
AcDbLine
 10
276.9959999999999
 20
726.0
 30
0.0
 11
277.2749999999999
 21
726.9
 31
0.0
  0
LINE
  5
601
330
1E
100
AcDbEntity
  8
0
100
AcDbLine
 10
276.716
 20
423.0999999999999
 30
0.0
 11
276.9959999999999
 21
424.0
 31
0.0
  0
LINE
  5
602
330
1E
100
AcDbEntity
  8
0
100
AcDbLine
 10
276.459
 20
420.8
 30
0.0
 11
276.716
 21
423.0999999999999
 31
0.0
  0
LINE
  5
603
330
1E
100
AcDbEntity
  8
0
100
AcDbLine
 10
276.2329999999999
 20
416.8999999999999
 30
0.0
 11
276.459
 21
420.8
 31
0.0
  0
LINE
  5
604
330
1E
100
AcDbEntity
  8
0
100
AcDbLine
 10
276.057
 20
411.8999999999999
 30
0.0
 11
276.2329999999999
 21
416.8999999999999
 31
0.0
  0
LINE
  5
605
330
1E
100
AcDbEntity
  8
0
100
AcDbLine
 10
276.9959999999999
 20
424.0
 30
0.0
 11
277.9949999999999
 21
425.0
 31
0.0
  0
LINE
  5
606
330
1E
100
AcDbEntity
  8
0
100
AcDbLine
 10
276.9959999999999
 20
424.0
 30
0.0
 11
277.2749999999999
 21
423.0999999999999
 31
0.0
  0
LINE
  5
607
330
1E
100
AcDbEntity
  8
0
100
AcDbLine
 10
275.497
 20
388.5
 30
0.0
 11
276.043636363636
 21
388.5
 31
0.0
  0
LINE
  5
608
330
1E
100
AcDbEntity
  8
0
100
AcDbLine
 10
275.497
 20
388.5
 30
0.0
 11
275.632
 21
388.8999999999999
 31
0.0
  0
LINE
  5
609
330
1E
100
AcDbEntity
  8
0
100
AcDbLine
 10
275.497
 20
388.5
 30
0.0
 11
276.4959999999999
 21
388.5
 31
0.0
  0
LINE
  5
60A
330
1E
100
AcDbEntity
  8
0
100
AcDbLine
 10
277.0
 20
309.0
 30
0.0
 11
277.0
 21
301.0
 31
0.0
  0
LINE
  5
60B
330
1E
100
AcDbEntity
  8
0
100
AcDbLine
 10
277.0
 20
309.0
 30
0.0
 11
278.0
 21
309.0
 31
0.0
  0
LINE
  5
60C
330
1E
100
AcDbEntity
  8
0
100
AcDbLine
 10
277.0
 20
301.0
 30
0.0
 11
277.0
 21
309.0
 31
0.0
  0
LINE
  5
60D
330
1E
100
AcDbEntity
  8
0
100
AcDbLine
 10
277.0
 20
301.0
 30
0.0
 11
278.0
 21
301.0
 31
0.0
  0
LINE
  5
60E
330
1E
100
AcDbEntity
  8
0
100
AcDbLine
 10
277.0829999999999
 20
392.5
 30
0.0
 11
277.1499999999999
 21
396.1
 31
0.0
  0
LINE
  5
60F
330
1E
100
AcDbEntity
  8
0
100
AcDbLine
 10
277.0829999999999
 20
407.5
 30
0.0
 11
277.1499999999999
 21
403.8999999999999
 31
0.0
  0
LINE
  5
610
330
1E
100
AcDbEntity
  8
0
100
AcDbLine
 10
277.1499999999999
 20
403.8999999999999
 30
0.0
 11
277.173
 21
400.0
 31
0.0
  0
LINE
  5
611
330
1E
100
AcDbEntity
  8
0
100
AcDbLine
 10
277.2749999999999
 20
423.0999999999999
 30
0.0
 11
277.5319999999999
 21
420.8
 31
0.0
  0
LINE
  5
612
330
1E
100
AcDbEntity
  8
0
100
AcDbLine
 10
277.1499999999999
 20
396.1
 30
0.0
 11
277.173
 21
400.0
 31
0.0
  0
LINE
  5
613
330
1E
100
AcDbEntity
  8
0
100
AcDbLine
 10
277.2749999999999
 20
376.8999999999999
 30
0.0
 11
277.5319999999999
 21
379.1999999999999
 31
0.0
  0
LINE
  5
614
330
1E
100
AcDbEntity
  8
0
100
AcDbLine
 10
277.0829999999999
 20
757.5
 30
0.0
 11
277.1499999999999
 21
753.8999999999999
 31
0.0
  0
LINE
  5
615
330
1E
100
AcDbEntity
  8
0
100
AcDbLine
 10
277.1499999999999
 20
753.8999999999999
 30
0.0
 11
277.173
 21
750.0
 31
0.0
  0
LINE
  5
616
330
1E
100
AcDbEntity
  8
0
100
AcDbLine
 10
277.0829999999999
 20
742.4999999999999
 30
0.0
 11
277.1499999999999
 21
746.1
 31
0.0
  0
LINE
  5
617
330
1E
100
AcDbEntity
  8
0
100
AcDbLine
 10
277.2749999999999
 20
773.1
 30
0.0
 11
277.5319999999999
 21
770.7999999999999
 31
0.0
  0
LINE
  5
618
330
1E
100
AcDbEntity
  8
0
100
AcDbLine
 10
277.1499999999999
 20
746.1
 30
0.0
 11
277.173
 21
750.0
 31
0.0
  0
LINE
  5
619
330
1E
100
AcDbEntity
  8
0
100
AcDbLine
 10
277.2749999999999
 20
726.9
 30
0.0
 11
277.5319999999999
 21
729.2
 31
0.0
  0
LINE
  5
61A
330
1E
100
AcDbEntity
  8
0
100
AcDbLine
 10
276.9959999999999
 20
376.0
 30
0.0
 11
277.9949999999999
 21
375.0
 31
0.0
  0
LINE
  5
61B
330
1E
100
AcDbEntity
  8
0
100
AcDbLine
 10
276.9959999999999
 20
376.0
 30
0.0
 11
277.2749999999999
 21
376.8999999999999
 31
0.0
  0
LINE
  5
61C
330
1E
100
AcDbEntity
  8
0
100
AcDbLine
 10
275.8999999999999
 20
811.3369999999999
 30
0.0
 11
277.0
 21
818.316
 31
0.0
  0
LINE
  5
61D
330
1E
100
AcDbEntity
  8
0
100
AcDbLine
 10
277.3
 20
802.546
 30
0.0
 11
280.7
 21
810.1589999999999
 31
0.0
  0
LINE
  5
61E
330
1E
100
AcDbEntity
  8
0
100
AcDbLine
 10
275.8999999999999
 20
825.295
 30
0.0
 11
277.0
 21
818.316
 31
0.0
  0
LINE
  5
61F
330
1E
100
AcDbEntity
  8
0
100
AcDbLine
 10
277.5319999999999
 20
379.1999999999999
 30
0.0
 11
277.7579999999999
 21
383.1
 31
0.0
  0
LINE
  5
620
330
1E
100
AcDbEntity
  8
0
100
AcDbLine
 10
277.5319999999999
 20
420.8
 30
0.0
 11
277.7579999999999
 21
416.8999999999999
 31
0.0
  0
LINE
  5
621
330
1E
100
AcDbEntity
  8
0
100
AcDbLine
 10
277.7579999999999
 20
416.8999999999999
 30
0.0
 11
277.934
 21
411.8999999999999
 31
0.0
  0
LINE
  5
622
330
1E
100
AcDbEntity
  8
0
100
AcDbLine
 10
277.934
 20
411.8999999999999
 30
0.0
 11
278.038
 21
406.2
 31
0.0
  0
LINE
  5
623
330
1E
100
AcDbEntity
  8
0
100
AcDbLine
 10
277.7579999999999
 20
383.1
 30
0.0
 11
277.934
 21
388.1
 31
0.0
  0
LINE
  5
624
330
1E
100
AcDbEntity
  8
0
100
AcDbLine
 10
278.0
 20
309.0
 30
0.0
 11
279.0
 21
309.0
 31
0.0
  0
LINE
  5
625
330
1E
100
AcDbEntity
  8
0
100
AcDbLine
 10
278.0
 20
301.0
 30
0.0
 11
279.0
 21
301.0
 31
0.0
  0
LINE
  5
626
330
1E
100
AcDbEntity
  8
0
100
AcDbLine
 10
278.0
 20
300.0
 30
0.0
 11
279.0
 21
300.0
 31
0.0
  0
LINE
  5
627
330
1E
100
AcDbEntity
  8
0
100
AcDbLine
 10
278.0
 20
310.0
 30
0.0
 11
278.0
 21
375.0156249999999
 31
0.0
  0
LINE
  5
628
330
1E
100
AcDbEntity
  8
0
100
AcDbLine
 10
278.0
 20
310.0
 30
0.0
 11
279.0
 21
310.0
 31
0.0
  0
LINE
  5
629
330
1E
100
AcDbEntity
  8
0
100
AcDbLine
 10
278.0
 20
600.0
 30
0.0
 11
278.0
 21
424.984375
 31
0.0
  0
LINE
  5
62A
330
1E
100
AcDbEntity
  8
0
100
AcDbLine
 10
278.0
 20
626.0
 30
0.0
 11
278.0
 21
725.0156249999999
 31
0.0
  0
LINE
  5
62B
330
1E
100
AcDbEntity
  8
0
100
AcDbLine
 10
278.0
 20
424.984375
 30
0.0
 11
278.0
 21
600.0
 31
0.0
  0
LINE
  5
62C
330
1E
100
AcDbEntity
  8
0
100
AcDbLine
 10
277.9949999999999
 20
425.0
 30
0.0
 11
278.283
 21
424.1
 31
0.0
  0
LINE
  5
62D
330
1E
100
AcDbEntity
  8
0
100
AcDbLine
 10
277.9949999999999
 20
375.0
 30
0.0
 11
278.283
 21
375.8999999999999
 31
0.0
  0
LINE
  5
62E
330
1E
100
AcDbEntity
  8
0
100
AcDbLine
 10
277.934
 20
388.1
 30
0.0
 11
278.038
 21
393.8
 31
0.0
  0
LINE
  5
62F
330
1E
100
AcDbEntity
  8
0
100
AcDbLine
 10
277.5319999999999
 20
729.2
 30
0.0
 11
277.7579999999999
 21
733.1
 31
0.0
  0
LINE
  5
630
330
1E
100
AcDbEntity
  8
0
100
AcDbLine
 10
277.7579999999999
 20
733.1
 30
0.0
 11
277.934
 21
738.1
 31
0.0
  0
LINE
  5
631
330
1E
100
AcDbEntity
  8
0
100
AcDbLine
 10
277.5319999999999
 20
770.7999999999999
 30
0.0
 11
277.7579999999999
 21
766.8999999999999
 31
0.0
  0
LINE
  5
632
330
1E
100
AcDbEntity
  8
0
100
AcDbLine
 10
277.7579999999999
 20
766.8999999999999
 30
0.0
 11
277.934
 21
761.8999999999999
 31
0.0
  0
LINE
  5
633
330
1E
100
AcDbEntity
  8
0
100
AcDbLine
 10
277.934
 20
761.8999999999999
 30
0.0
 11
278.038
 21
756.2
 31
0.0
  0
LINE
  5
634
330
1E
100
AcDbEntity
  8
0
100
AcDbLine
 10
277.934
 20
738.1
 30
0.0
 11
278.038
 21
743.7999999999999
 31
0.0
  0
LINE
  5
635
330
1E
100
AcDbEntity
  8
0
100
AcDbLine
 10
278.0
 20
725.0156249999999
 30
0.0
 11
278.0
 21
626.0
 31
0.0
  0
LINE
  5
636
330
1E
100
AcDbEntity
  8
0
100
AcDbLine
 10
278.0
 20
796.4718749999999
 30
0.0
 11
278.0
 21
774.984375
 31
0.0
  0
LINE
  5
637
330
1E
100
AcDbEntity
  8
0
100
AcDbLine
 10
278.0
 20
774.984375
 30
0.0
 11
278.0
 21
796.4718749999999
 31
0.0
  0
LINE
  5
638
330
1E
100
AcDbEntity
  8
0
100
AcDbLine
 10
277.9949999999999
 20
775.0
 30
0.0
 11
278.283
 21
774.1
 31
0.0
  0
LINE
  5
639
330
1E
100
AcDbEntity
  8
0
100
AcDbLine
 10
277.9949999999999
 20
725.0
 30
0.0
 11
278.283
 21
725.9
 31
0.0
  0
LINE
  5
63B
330
1E
100
AcDbEntity
  8
0
100
AcDbLine
 10
278.0
 20
858.9666875
 30
0.0
 11
278.0
 21
1075.015625
 31
0.0
  0
LINE
  5
63C
330
1E
100
AcDbEntity
  8
0
100
AcDbLine
 10
277.3
 20
834.2970000000001
 30
0.0
 11
280.7
 21
826.684
 31
0.0
  0
LINE
  5
63D
330
1E
100
AcDbEntity
  8
0
100
AcDbLine
 10
275.1999999999999
 20
850.4239999999999
 30
0.0
 11
281.6
 21
842.9019999999999
 31
0.0
  0
LINE
  5
63E
330
1E
100
AcDbEntity
  8
0
100
AcDbLine
 10
278.0
 20
900.0
 30
0.0
 11
278.0
 21
893.5999999999999
 31
0.0
  0
LINE
  5
63F
330
1E
100
AcDbEntity
  8
0
100
AcDbLine
 10
278.0
 20
893.5999999999999
 30
0.0
 11
278.0
 21
887.6000000000001
 31
0.0
  0
LINE
  5
640
330
1E
100
AcDbEntity
  8
0
100
AcDbLine
 10
278.0
 20
887.6000000000001
 30
0.0
 11
278.0
 21
882.3
 31
0.0
  0
LINE
  5
641
330
1E
100
AcDbEntity
  8
0
100
AcDbLine
 10
278.0
 20
882.3
 30
0.0
 11
278.0
 21
878.2999999999999
 31
0.0
  0
LINE
  5
642
330
1E
100
AcDbEntity
  8
0
100
AcDbLine
 10
278.0
 20
878.2999999999999
 30
0.0
 11
278.0
 21
875.9
 31
0.0
  0
LINE
  5
643
330
1E
100
AcDbEntity
  8
0
100
AcDbLine
 10
278.0
 20
875.9
 30
0.0
 11
278.0
 21
875.0
 31
0.0
  0
LINE
  5
644
330
1E
100
AcDbEntity
  8
0
100
AcDbLine
 10
278.0
 20
906.4
 30
0.0
 11
278.0
 21
900.0
 31
0.0
  0
LINE
  5
645
330
1E
100
AcDbEntity
  8
0
100
AcDbLine
 10
278.038
 20
406.2
 30
0.0
 11
278.0779999999999
 21
400.0
 31
0.0
  0
LINE
  5
646
330
1E
100
AcDbEntity
  8
0
100
AcDbLine
 10
278.283
 20
375.8999999999999
 30
0.0
 11
278.554
 21
378.3
 31
0.0
  0
LINE
  5
647
330
1E
100
AcDbEntity
  8
0
100
AcDbLine
 10
278.283
 20
424.1
 30
0.0
 11
278.554
 21
421.6999999999999
 31
0.0
  0
LINE
  5
648
330
1E
100
AcDbEntity
  8
0
100
AcDbLine
 10
278.554
 20
421.6999999999999
 30
0.0
 11
278.793
 21
417.6999999999999
 31
0.0
  0
LINE
  5
649
330
1E
100
AcDbEntity
  8
0
100
AcDbLine
 10
278.554
 20
378.3
 30
0.0
 11
278.793
 21
382.3
 31
0.0
  0
LINE
  5
64A
330
1E
100
AcDbEntity
  8
0
100
AcDbLine
 10
278.038
 20
393.8
 30
0.0
 11
278.0779999999999
 21
400.0
 31
0.0
  0
LINE
  5
64B
330
1E
100
AcDbEntity
  8
0
100
AcDbLine
 10
278.283
 20
725.9
 30
0.0
 11
278.554
 21
728.2999999999999
 31
0.0
  0
LINE
  5
64E
330
1E
100
AcDbEntity
  8
0
100
AcDbLine
 10
278.793
 20
382.3
 30
0.0
 11
278.974
 21
387.6
 31
0.0
  0
LINE
  5
652
330
1E
100
AcDbEntity
  8
0
100
AcDbLine
 10
278.793
 20
417.6999999999999
 30
0.0
 11
278.974
 21
412.3999999999999
 31
0.0
  0
LINE
  5
653
330
1E
100
AcDbEntity
  8
0
100
AcDbLine
 10
278.974
 20
412.3999999999999
 30
0.0
 11
279.082
 21
406.4
 31
0.0
  0
LINE
  5
654
330
1E
100
AcDbEntity
  8
0
100
AcDbLine
 10
278.974
 20
387.6
 30
0.0
 11
279.082
 21
393.6
 31
0.0
  0
LINE
  5
655
330
1E
100
AcDbEntity
  8
0
100
AcDbLine
 10
278.554
 20
728.2999999999999
 30
0.0
 11
278.793
 21
732.2999999999999
 31
0.0
  0
LINE
  5
657
330
1E
100
AcDbEntity
  8
0
100
AcDbLine
 10
278.793
 20
732.2999999999999
 30
0.0
 11
278.974
 21
737.6
 31
0.0
  0
LINE
  5
658
330
1E
100
AcDbEntity
  8
0
100
AcDbLine
 10
279.0
 20
309.0
 30
0.0
 11
280.0
 21
309.0
 31
0.0
  0
LINE
  5
659
330
1E
100
AcDbEntity
  8
0
100
AcDbLine
 10
279.0
 20
301.0
 30
0.0
 11
280.0
 21
301.0
 31
0.0
  0
LINE
  5
65A
330
1E
100
AcDbEntity
  8
0
100
AcDbLine
 10
279.0
 20
300.0
 30
0.0
 11
280.0
 21
300.0
 31
0.0
  0
LINE
  5
65B
330
1E
100
AcDbEntity
  8
0
100
AcDbLine
 10
279.0
 20
310.0
 30
0.0
 11
280.0
 21
310.0
 31
0.0
  0
LINE
  5
662
330
1E
100
AcDbEntity
  8
0
100
AcDbLine
 10
279.082
 20
406.4
 30
0.0
 11
279.122
 21
400.0
 31
0.0
  0
LINE
  5
663
330
1E
100
AcDbEntity
  8
0
100
AcDbLine
 10
279.082
 20
393.6
 30
0.0
 11
279.122
 21
400.0
 31
0.0
  0
LINE
  5
664
330
1E
100
AcDbEntity
  8
0
100
AcDbLine
 10
278.974
 20
737.6
 30
0.0
 11
279.082
 21
743.5999999999999
 31
0.0
  0
LINE
  5
666
330
1E
100
AcDbEntity
  8
0
100
AcDbLine
 10
278.283
 20
774.1
 30
0.0
 11
278.554
 21
771.7
 31
0.0
  0
LINE
  5
668
330
1E
100
AcDbEntity
  8
0
100
AcDbLine
 10
278.554
 20
771.7
 30
0.0
 11
278.793
 21
767.7
 31
0.0
  0
LINE
  5
669
330
1E
100
AcDbEntity
  8
0
100
AcDbLine
 10
278.793
 20
767.7
 30
0.0
 11
278.974
 21
762.3999999999999
 31
0.0
  0
LINE
  5
66C
330
1E
100
AcDbEntity
  8
0
100
AcDbLine
 10
278.974
 20
762.3999999999999
 30
0.0
 11
279.082
 21
756.4
 31
0.0
  0
LINE
  5
66D
330
1E
100
AcDbEntity
  8
0
100
AcDbLine
 10
279.082
 20
756.4
 30
0.0
 11
279.122
 21
750.0
 31
0.0
  0
LINE
  5
66E
330
1E
100
AcDbEntity
  8
0
100
AcDbLine
 10
278.038
 20
756.2
 30
0.0
 11
278.0779999999999
 21
750.0
 31
0.0
  0
LINE
  5
66F
330
1E
100
AcDbEntity
  8
0
100
AcDbLine
 10
278.038
 20
743.7999999999999
 30
0.0
 11
278.0779999999999
 21
750.0
 31
0.0
  0
LINE
  5
670
330
1E
100
AcDbEntity
  8
0
100
AcDbLine
 10
280.0
 20
309.0
 30
0.0
 11
280.0
 21
301.0
 31
0.0
  0
LINE
  5
671
330
1E
100
AcDbEntity
  8
0
100
AcDbLine
 10
280.0
 20
309.0
 30
0.0
 11
281.0
 21
309.0
 31
0.0
  0
LINE
  5
672
330
1E
100
AcDbEntity
  8
0
100
AcDbLine
 10
280.0
 20
309.0
 30
0.0
 11
281.0
 21
310.0
 31
0.0
  0
LINE
  5
673
330
1E
100
AcDbEntity
  8
0
100
AcDbLine
 10
280.0
 20
301.0
 30
0.0
 11
281.0
 21
300.0
 31
0.0
  0
LINE
  5
674
330
1E
100
AcDbEntity
  8
0
100
AcDbLine
 10
280.0
 20
301.0
 30
0.0
 11
281.0
 21
301.0
 31
0.0
  0
LINE
  5
675
330
1E
100
AcDbEntity
  8
0
100
AcDbLine
 10
280.0
 20
301.0
 30
0.0
 11
280.0
 21
309.0
 31
0.0
  0
LINE
  5
676
330
1E
100
AcDbEntity
  8
0
100
AcDbLine
 10
280.0
 20
300.0
 30
0.0
 11
281.0
 21
300.0
 31
0.0
  0
LINE
  5
677
330
1E
100
AcDbEntity
  8
0
100
AcDbLine
 10
280.0
 20
310.0
 30
0.0
 11
281.0
 21
310.0
 31
0.0
  0
LINE
  5
678
330
1E
100
AcDbEntity
  8
0
100
AcDbLine
 10
279.082
 20
743.5999999999999
 30
0.0
 11
279.122
 21
750.0
 31
0.0
  0
LINE
  5
679
330
1E
100
AcDbEntity
  8
0
100
AcDbLine
 10
280.7
 20
810.1589999999999
 30
0.0
 11
282.0
 21
818.316
 31
0.0
  0
LINE
  5
67A
330
1E
100
AcDbEntity
  8
0
100
AcDbLine
 10
281.0
 20
309.0
 30
0.0
 11
281.0
 21
301.0
 31
0.0
  0
LINE
  5
67B
330
1E
100
AcDbEntity
  8
0
100
AcDbLine
 10
281.0
 20
309.0
 30
0.0
 11
306.0
 21
309.0
 31
0.0
  0
LINE
  5
67C
330
1E
100
AcDbEntity
  8
0
100
AcDbLine
 10
281.0
 20
309.0
 30
0.0
 11
281.0
 21
310.0
 31
0.0
  0
LINE
  5
67D
330
1E
100
AcDbEntity
  8
0
100
AcDbLine
 10
281.0
 20
301.0
 30
0.0
 11
281.0
 21
300.0
 31
0.0
  0
LINE
  5
67E
330
1E
100
AcDbEntity
  8
0
100
AcDbLine
 10
281.0
 20
301.0
 30
0.0
 11
306.0
 21
301.0
 31
0.0
  0
LINE
  5
67F
330
1E
100
AcDbEntity
  8
0
100
AcDbLine
 10
281.0
 20
301.0
 30
0.0
 11
281.0
 21
309.0
 31
0.0
  0
LINE
  5
680
330
1E
100
AcDbEntity
  8
0
100
AcDbLine
 10
281.0
 20
300.0
 30
0.0
 11
306.0
 21
300.0
 31
0.0
  0
LINE
  5
681
330
1E
100
AcDbEntity
  8
0
100
AcDbLine
 10
281.0
 20
300.0
 30
0.0
 11
281.0
 21
301.0
 31
0.0
  0
LINE
  5
682
330
1E
100
AcDbEntity
  8
0
100
AcDbLine
 10
281.0
 20
310.0
 30
0.0
 11
281.0
 21
400.0
 31
0.0
  0
LINE
  5
683
330
1E
100
AcDbEntity
  8
0
100
AcDbLine
 10
281.0
 20
310.0
 30
0.0
 11
306.0
 21
310.0
 31
0.0
  0
LINE
  5
684
330
1E
100
AcDbEntity
  8
0
100
AcDbLine
 10
281.0
 20
310.0
 30
0.0
 11
281.0
 21
309.0
 31
0.0
  0
LINE
  5
685
330
1E
100
AcDbEntity
  8
0
100
AcDbLine
 10
281.0
 20
600.0
 30
0.0
 11
281.0
 21
400.0
 31
0.0
  0
LINE
  5
686
330
1E
100
AcDbEntity
  8
0
100
AcDbLine
 10
281.0
 20
626.0
 30
0.0
 11
281.0
 21
750.0
 31
0.0
  0
LINE
  5
687
330
1E
100
AcDbEntity
  8
0
100
AcDbLine
 10
281.0
 20
400.0
 30
0.0
 11
281.0
 21
600.0
 31
0.0
  0
LINE
  5
688
330
1E
100
AcDbEntity
  8
0
100
AcDbLine
 10
281.0
 20
799.9978125
 30
0.0
 11
281.0
 21
750.0
 31
0.0
  0
LINE
  5
689
330
1E
100
AcDbEntity
  8
0
100
AcDbLine
 10
281.0
 20
750.0
 30
0.0
 11
281.0
 21
799.9978125
 31
0.0
  0
LINE
  5
68A
330
1E
100
AcDbEntity
  8
0
100
AcDbLine
 10
281.0
 20
750.0
 30
0.0
 11
281.0
 21
626.0
 31
0.0
  0
LINE
  5
68B
330
1E
100
AcDbEntity
  8
0
100
AcDbLine
 10
282.961
 20
23.28199999999999
 30
0.0
 11
297.165
 21
32.148
 31
0.0
  0
LINE
  5
68C
330
1E
100
AcDbEntity
  8
0
100
AcDbLine
 10
282.0
 20
818.316
 30
0.0
 11
282.0
 21
818.5269999999999
 31
0.0
  0
LINE
  5
68D
330
1E
100
AcDbEntity
  8
0
100
AcDbLine
 10
281.6
 20
800.703
 30
0.0
 11
285.6
 21
809.4039999999999
 31
0.0
  0
LINE
  5
68E
330
1E
100
AcDbEntity
  8
0
100
AcDbLine
 10
280.8
 20
800.9450000000001
 30
0.0
 11
284.6
 21
809.464
 31
0.0
  0
LINE
  5
68F
330
1E
100
AcDbEntity
  8
0
100
AcDbLine
 10
282.0
 20
818.5269999999999
 30
0.0
 11
282.0
 21
818.316
 31
0.0
  0
LINE
  5
691
330
1E
100
AcDbEntity
  8
0
100
AcDbLine
 10
281.983185189726
 20
818.4215064672349
 30
0.0
 11
282.0
 21
818.5269999999999
 31
0.0
  0
LINE
  5
692
330
1E
100
AcDbEntity
  8
0
100
AcDbLine
 10
284.6
 20
809.464
 30
0.0
 11
286.0
 21
818.5269999999999
 31
0.0
  0
LINE
  5
693
330
1E
100
AcDbEntity
  8
0
100
AcDbLine
 10
280.7
 20
826.684
 30
0.0
 11
282.0
 21
818.5269999999999
 31
0.0
  0
LINE
  5
695
330
1E
100
AcDbEntity
  8
0
100
AcDbLine
 10
287.0
 20
824.867
 30
0.0
 11
287.0
 21
836.7
 31
0.0
  0
LINE
  5
696
330
1E
100
AcDbEntity
  8
0
100
AcDbLine
 10
286.9524584895549
 20
824.5499999999999
 30
0.0
 11
287.0
 21
824.867
 31
0.0
  0
LINE
  5
697
330
1E
100
AcDbEntity
  8
0
100
AcDbLine
 10
287.0
 20
818.7389999999998
 30
0.0
 11
287.0
 21
824.233
 31
0.0
  0
LINE
  5
698
330
1E
100
AcDbEntity
  8
0
100
AcDbLine
 10
285.6
 20
809.4039999999999
 30
0.0
 11
287.0
 21
818.7389999999998
 31
0.0
  0
LINE
  5
699
330
1E
100
AcDbEntity
  8
0
100
AcDbLine
 10
290.047
 20
8.89479999999998
 30
0.0
 11
306.109
 21
18.95599999999999
 31
0.0
  0
LINE
  5
69F
330
1E
100
AcDbEntity
  8
0
100
AcDbLine
 10
306.109
 20
18.95599999999999
 30
0.0
 11
322.637
 21
36.091
 31
0.0
  0
LINE
  5
6A0
330
1E
100
AcDbEntity
  8
0
100
AcDbLine
 10
297.165
 20
32.148
 30
0.0
 11
311.979
 21
47.88800000000001
 31
0.0
  0
LINE
  5
6A2
330
1E
100
AcDbEntity
  8
0
100
AcDbLine
 10
311.979
 20
47.88800000000001
 30
0.0
 11
323.318608449243
 21
62.2370362483733
 31
0.0
  0
LINE
  5
6A3
330
1E
100
AcDbEntity
  8
0
100
AcDbLine
 10
306.0
 20
309.0
 30
0.0
 11
306.0
 21
301.0
 31
0.0
  0
LINE
  5
6A4
330
1E
100
AcDbEntity
  8
0
100
AcDbLine
 10
306.0
 20
309.0
 30
0.0
 11
307.0
 21
309.0
 31
0.0
  0
LINE
  5
6A5
330
1E
100
AcDbEntity
  8
0
100
AcDbLine
 10
306.0
 20
309.0
 30
0.0
 11
306.0
 21
310.0
 31
0.0
  0
LINE
  5
6A6
330
1E
100
AcDbEntity
  8
0
100
AcDbLine
 10
306.0
 20
301.0
 30
0.0
 11
306.0
 21
300.0
 31
0.0
  0
LINE
  5
6A7
330
1E
100
AcDbEntity
  8
0
100
AcDbLine
 10
306.0
 20
301.0
 30
0.0
 11
307.0
 21
301.0
 31
0.0
  0
LINE
  5
6A8
330
1E
100
AcDbEntity
  8
0
100
AcDbLine
 10
306.0
 20
301.0
 30
0.0
 11
306.0
 21
309.0
 31
0.0
  0
LINE
  5
6A9
330
1E
100
AcDbEntity
  8
0
100
AcDbLine
 10
307.0
 20
301.0
 30
0.0
 11
307.0
 21
309.0
 31
0.0
  0
LINE
  5
6AA
330
1E
100
AcDbEntity
  8
0
100
AcDbLine
 10
307.0
 20
309.0
 30
0.0
 11
307.0
 21
301.0
 31
0.0
  0
LINE
  5
6AB
330
1E
100
AcDbEntity
  8
0
100
AcDbLine
 10
306.0
 20
300.0
 30
0.0
 11
307.0
 21
301.0
 31
0.0
  0
LINE
  5
6AC
330
1E
100
AcDbEntity
  8
0
100
AcDbLine
 10
306.0
 20
300.0
 30
0.0
 11
306.0
 21
301.0
 31
0.0
  0
LINE
  5
6AD
330
1E
100
AcDbEntity
  8
0
100
AcDbLine
 10
306.0
 20
310.0
 30
0.0
 11
306.0
 21
400.0
 31
0.0
  0
LINE
  5
6AE
330
1E
100
AcDbEntity
  8
0
100
AcDbLine
 10
306.0
 20
310.0
 30
0.0
 11
306.0
 21
309.0
 31
0.0
  0
LINE
  5
6AF
330
1E
100
AcDbEntity
  8
0
100
AcDbLine
 10
306.0
 20
310.0
 30
0.0
 11
307.0
 21
309.0
 31
0.0
  0
LINE
  5
6B1
330
1E
100
AcDbEntity
  8
0
100
AcDbLine
 10
306.0
 20
400.0
 30
0.0
 11
306.0
 21
600.0
 31
0.0
  0
LINE
  5
6B2
330
1E
100
AcDbEntity
  8
0
100
AcDbLine
 10
307.0
 20
361.0
 30
0.0
 11
307.0
 21
1169.0
 31
0.0
  0
LINE
  5
6B3
330
1E
100
AcDbEntity
  8
0
100
AcDbLine
 10
308.0
 20
361.0
 30
0.0
 11
308.0
 21
1169.0
 31
0.0
  0
LINE
  5
6B4
330
1E
100
AcDbEntity
  8
0
100
AcDbLine
 10
308.0
 20
361.0
 30
0.0
 11
308.0
 21
360.0
 31
0.0
  0
LINE
  5
6B5
330
1E
100
AcDbEntity
  8
0
100
AcDbLine
 10
308.0
 20
361.0
 30
0.0
 11
373.0
 21
361.0
 31
0.0
  0
LINE
  5
6B6
330
1E
100
AcDbEntity
  8
0
100
AcDbLine
 10
308.0
 20
361.0
 30
0.0
 11
308.0
 21
1169.0
 31
0.0
  0
LINE
  5
6B7
330
1E
100
AcDbEntity
  8
0
100
AcDbLine
 10
307.0
 20
361.0
 30
0.0
 11
308.0
 21
360.0
 31
0.0
  0
LINE
  5
6B8
330
1E
100
AcDbEntity
  8
0
100
AcDbLine
 10
307.0
 20
361.0
 30
0.0
 11
307.0
 21
1169.0
 31
0.0
  0
LINE
  5
6B9
330
1E
100
AcDbEntity
  8
0
100
AcDbLine
 10
307.0
 20
361.0
 30
0.0
 11
308.0
 21
361.0
 31
0.0
  0
LINE
  5
6BA
330
1E
100
AcDbEntity
  8
0
100
AcDbLine
 10
308.0
 20
360.0
 30
0.0
 11
310.3779999999999
 21
360.0
 31
0.0
  0
LINE
  5
6BB
330
1E
100
AcDbEntity
  8
0
100
AcDbLine
 10
308.0
 20
360.0
 30
0.0
 11
373.0
 21
360.0
 31
0.0
  0
LINE
  5
6BC
330
1E
100
AcDbEntity
  8
0
100
AcDbLine
 10
308.0
 20
360.0
 30
0.0
 11
308.0
 21
361.0
 31
0.0
  0
LINE
  5
6BD
330
1E
100
AcDbEntity
  8
0
100
AcDbLine
 10
306.0
 20
600.0
 30
0.0
 11
307.0
 21
600.0
 31
0.0
  0
LINE
  5
6BE
330
1E
100
AcDbEntity
  8
0
100
AcDbLine
 10
306.0
 20
600.0
 30
0.0
 11
306.0
 21
400.0
 31
0.0
  0
LINE
  5
6BF
330
1E
100
AcDbEntity
  8
0
100
AcDbLine
 10
306.0
 20
626.0
 30
0.0
 11
306.0
 21
750.0
 31
0.0
  0
LINE
  5
6C0
330
1E
100
AcDbEntity
  8
0
100
AcDbLine
 10
306.0
 20
750.0
 30
0.0
 11
306.0
 21
1100.0
 31
0.0
  0
LINE
  5
6C1
330
1E
100
AcDbEntity
  8
0
100
AcDbLine
 10
306.0
 20
750.0
 30
0.0
 11
306.0
 21
626.0
 31
0.0
  0
LINE
  5
6C2
330
1E
100
AcDbEntity
  8
0
100
AcDbLine
 10
307.0
 20
625.6879999999999
 30
0.0
 11
307.0
 21
626.0
 31
0.0
  0
LINE
  5
6C3
330
1E
100
AcDbEntity
  8
0
100
AcDbLine
 10
307.0
 20
625.6879999999999
 30
0.0
 11
307.0
 21
613.0
 31
0.0
  0
LINE
  5
6C4
330
1E
100
AcDbEntity
  8
0
100
AcDbLine
 10
307.0
 20
626.0
 30
0.0
 11
307.0
 21
625.6879999999999
 31
0.0
  0
LINE
  5
6C5
330
1E
100
AcDbEntity
  8
0
100
AcDbLine
 10
307.0
 20
613.0
 30
0.0
 11
307.0
 21
600.312
 31
0.0
  0
LINE
  5
6C6
330
1E
100
AcDbEntity
  8
0
100
AcDbLine
 10
307.0
 20
613.0
 30
0.0
 11
307.0
 21
625.6879999999999
 31
0.0
  0
LINE
  5
6C7
330
1E
100
AcDbEntity
  8
0
100
AcDbLine
 10
307.0
 20
600.312
 30
0.0
 11
307.0
 21
613.0
 31
0.0
  0
LINE
  5
6C8
330
1E
100
AcDbEntity
  8
0
100
AcDbLine
 10
307.0
 20
600.312
 30
0.0
 11
307.0
 21
600.0
 31
0.0
  0
LINE
  5
6C9
330
1E
100
AcDbEntity
  8
0
100
AcDbLine
 10
307.0
 20
600.0
 30
0.0
 11
307.0
 21
600.312
 31
0.0
  0
LINE
  5
6CA
330
1E
100
AcDbEntity
  8
0
100
AcDbLine
 10
311.952
 20
360.0
 30
0.0
 11
314.358
 21
360.0
 31
0.0
  0
LINE
  5
6CC
330
1E
100
AcDbEntity
  8
0
100
AcDbLine
 10
310.544
 20
360.0
 30
0.0
 11
311.952
 21
360.0
 31
0.0
  0
LINE
  5
6CD
330
1E
100
AcDbEntity
  8
0
100
AcDbLine
 10
310.3779999999999
 20
360.0
 30
0.0
 11
310.434
 21
360.0
 31
0.0
  0
LINE
  5
6CE
330
1E
100
AcDbEntity
  8
0
100
AcDbLine
 10
310.3779999999999
 20
360.0
 30
0.0
 11
310.387
 21
359.919
 31
0.0
  0
LINE
  5
6CF
330
1E
100
AcDbEntity
  8
0
100
AcDbLine
 10
310.3779999999999
 20
360.0
 30
0.0
 11
310.544
 21
360.0
 31
0.0
  0
LINE
  5
6D0
330
1E
100
AcDbEntity
  8
0
100
AcDbLine
 10
310.387
 20
359.919
 30
0.0
 11
314.216
 21
334.5159999999999
 31
0.0
  0
LINE
  5
6D1
330
1E
100
AcDbEntity
  8
0
100
AcDbLine
 10
314.358
 20
360.0
 30
0.0
 11
317.267
 21
360.0
 31
0.0
  0
LINE
  5
6D3
330
1E
100
AcDbEntity
  8
0
100
AcDbLine
 10
317.267
 20
360.0
 30
0.0
 11
320.341
 21
360.0
 31
0.0
  0
LINE
  5
6D5
330
1E
100
AcDbEntity
  8
0
100
AcDbLine
 10
314.216
 20
334.5159999999999
 30
0.0
 11
319.3299999999999
 21
311.2049999999999
 31
0.0
  0
LINE
  5
6D8
330
1E
100
AcDbEntity
  8
0
100
AcDbLine
 10
322.637
 20
36.091
 30
0.0
 11
336.4809999999999
 21
53.805
 31
0.0
  0
LINE
  5
6DA
330
1E
100
AcDbEntity
  8
0
100
AcDbLine
 10
336.4809999999999
 20
53.805
 30
0.0
 11
346.7359999999999
 21
74.525
 31
0.0
  0
LINE
  5
6DE
330
1E
100
AcDbEntity
  8
0
100
AcDbLine
 10
323.318608449243
 20
62.2370362483733
 30
0.0
 11
332.4959999999999
 21
81.18
 31
0.0
  0
LINE
  5
6DF
330
1E
100
AcDbEntity
  8
0
100
AcDbLine
 10
325.968
 20
289.868
 30
0.0
 11
334.4619999999999
 21
267.7669999999999
 31
0.0
  0
LINE
  5
6E0
330
1E
100
AcDbEntity
  8
0
100
AcDbLine
 10
325.553
 20
291.082
 30
0.0
 11
325.968
 21
289.868
 31
0.0
  0
LINE
  5
6E5
330
1E
100
AcDbEntity
  8
0
100
AcDbLine
 10
320.341
 20
360.0
 30
0.0
 11
320.603
 21
360.0
 31
0.0
  0
LINE
  5
6E9
330
1E
100
AcDbEntity
  8
0
100
AcDbLine
 10
320.603
 20
360.0
 30
0.0
 11
323.1429999999999
 21
360.0
 31
0.0
  0
LINE
  5
6EA
330
1E
100
AcDbEntity
  8
0
100
AcDbLine
 10
323.1429999999999
 20
360.0
 30
0.0
 11
325.1979999999999
 21
360.0
 31
0.0
  0
LINE
  5
6EC
330
1E
100
AcDbEntity
  8
0
100
AcDbLine
 10
325.1979999999999
 20
360.0
 30
0.0
 11
326.102
 21
360.0
 31
0.0
  0
LINE
  5
6ED
330
1E
100
AcDbEntity
  8
0
100
AcDbLine
 10
326.102
 20
360.0
 30
0.0
 11
329.078
 21
339.218
 31
0.0
  0
LINE
  5
6EE
330
1E
100
AcDbEntity
  8
0
100
AcDbLine
 10
326.102
 20
360.0
 30
0.0
 11
373.0
 21
360.0
 31
0.0
  0
LINE
  5
6EF
330
1E
100
AcDbEntity
  8
0
100
AcDbLine
 10
329.078
 20
339.218
 30
0.0
 11
334.063
 21
316.4049999999999
 31
0.0
  0
LINE
  5
6F1
330
1E
100
AcDbEntity
  8
0
100
AcDbLine
 10
319.3299999999999
 20
311.2049999999999
 30
0.0
 11
325.553
 21
291.082
 31
0.0
  0
LINE
  5
6F5
330
1E
100
AcDbEntity
  8
0
100
AcDbLine
 10
346.7359999999999
 20
74.525
 30
0.0
 11
356.2689999999999
 21
97.73700000000001
 31
0.0
  0
LINE
  5
6F9
330
1E
100
AcDbEntity
  8
0
100
AcDbLine
 10
356.2689999999999
 20
97.73700000000001
 30
0.0
 11
362.458
 21
121.048
 31
0.0
  0
LINE
  5
6FB
330
1E
100
AcDbEntity
  8
0
100
AcDbLine
 10
334.4619999999999
 20
267.7669999999999
 30
0.0
 11
334.949
 21
266.4529999999999
 31
0.0
  0
LINE
  5
6FC
330
1E
100
AcDbEntity
  8
0
100
AcDbLine
 10
334.949
 20
266.4529999999999
 30
0.0
 11
341.793031807752
 21
248.128344458152
 31
0.0
  0
LINE
  5
70A
330
1E
100
AcDbEntity
  8
0
100
AcDbLine
 10
334.063
 20
316.4049999999999
 30
0.0
 11
340.074
 21
296.6809999999999
 31
0.0
  0
LINE
  5
70C
330
1E
100
AcDbEntity
  8
0
100
AcDbLine
 10
339.853831994219
 20
297.403441148897
 30
0.0
 11
348.1449999999999
 21
276.377
 31
0.0
  0
LINE
  5
70F
330
1E
100
AcDbEntity
  8
0
100
AcDbLine
 10
341.793031807752
 20
248.128344458152
 30
0.0
 11
345.3355864559719
 21
236.246418681417
 31
0.0
  0
LINE
  5
710
330
1E
100
AcDbEntity
  8
0
100
AcDbLine
 10
341.793031807752
 20
248.128344458152
 30
0.0
 11
345.3355864559719
 21
236.246418681417
 31
0.0
  0
LINE
  5
718
330
1E
100
AcDbEntity
  8
0
100
AcDbLine
 10
345.3355864559719
 20
236.246418681417
 30
0.0
 11
351.403
 21
205.704
 31
0.0
  0
LINE
  5
71E
330
1E
100
AcDbEntity
  8
0
100
AcDbLine
 10
348.1449999999999
 20
276.377
 30
0.0
 11
348.5479999999999
 21
274.9639999999999
 31
0.0
  0
LINE
  5
720
330
1E
100
AcDbEntity
  8
0
100
AcDbLine
 10
348.5479999999999
 20
274.9639999999999
 30
0.0
 11
356.19
 21
254.3569999999999
 31
0.0
  0
LINE
  5
727
330
1E
100
AcDbEntity
  8
0
100
AcDbLine
 10
353.0609999999999
 20
164.86
 30
0.0
 11
353.179
 21
184.087
 31
0.0
  0
LINE
  5
72C
330
1E
100
AcDbEntity
  8
0
100
AcDbLine
 10
356.5319999999999
 20
253.243
 30
0.0
 11
363.5209999999999
 21
230.0309999999999
 31
0.0
  0
LINE
  5
72D
330
1E
100
AcDbEntity
  8
0
100
AcDbLine
 10
356.19
 20
254.3569999999999
 30
0.0
 11
356.5319999999999
 21
253.243
 31
0.0
  0
LINE
  5
72F
330
1E
100
AcDbEntity
  8
0
100
AcDbLine
 10
351.403
 20
205.704
 30
0.0
 11
353.179
 21
184.087
 31
0.0
  0
LINE
  5
731
330
1E
100
AcDbEntity
  8
0
100
AcDbLine
 10
351.0719999999999
 20
145.6339999999999
 30
0.0
 11
353.0609999999999
 21
164.86
 31
0.0
  0
LINE
  5
732
330
1E
100
AcDbEntity
  8
0
100
AcDbLine
 10
346.925
 20
124.016
 30
0.0
 11
351.0719999999999
 21
145.6339999999999
 31
0.0
  0
LINE
  5
734
330
1E
100
AcDbEntity
  8
0
100
AcDbLine
 10
341.231
 20
102.598
 30
0.0
 11
346.925
 21
124.016
 31
0.0
  0
LINE
  5
737
330
1E
100
AcDbEntity
  8
0
100
AcDbLine
 10
362.458
 20
121.048
 30
0.0
 11
366.8369999999999
 21
144.06
 31
0.0
  0
LINE
  5
73B
330
1E
100
AcDbEntity
  8
0
100
AcDbLine
 10
366.8369999999999
 20
144.06
 30
0.0
 11
368.781
 21
163.884
 31
0.0
  0
LINE
  5
73D
330
1E
100
AcDbEntity
  8
0
100
AcDbLine
 10
368.781
 20
163.884
 30
0.0
 11
369.01
 21
183.708
 31
0.0
  0
LINE
  5
73F
330
1E
100
AcDbEntity
  8
0
100
AcDbLine
 10
367.154
 20
206.72
 30
0.0
 11
369.01
 21
183.708
 31
0.0
  0
LINE
  5
741
330
1E
100
AcDbEntity
  8
0
100
AcDbLine
 10
373.0
 20
361.0
 30
0.0
 11
373.0
 21
1169.0
 31
0.0
  0
LINE
  5
742
330
1E
100
AcDbEntity
  8
0
100
AcDbLine
 10
373.0
 20
361.0
 30
0.0
 11
374.0
 21
361.0
 31
0.0
  0
LINE
  5
743
330
1E
100
AcDbEntity
  8
0
100
AcDbLine
 10
373.0
 20
361.0
 30
0.0
 11
373.0
 21
360.0
 31
0.0
  0
LINE
  5
744
330
1E
100
AcDbEntity
  8
0
100
AcDbLine
 10
373.0
 20
361.0
 30
0.0
 11
373.0
 21
1169.0
 31
0.0
  0
LINE
  5
745
330
1E
100
AcDbEntity
  8
0
100
AcDbLine
 10
374.0
 20
361.0
 30
0.0
 11
374.0
 21
1169.0
 31
0.0
  0
LINE
  5
746
330
1E
100
AcDbEntity
  8
0
100
AcDbLine
 10
374.0
 20
361.0
 30
0.0
 11
374.0
 21
1169.0
 31
0.0
  0
LINE
  5
747
330
1E
100
AcDbEntity
  8
0
100
AcDbLine
 10
373.0
 20
360.0
 30
0.0
 11
374.0
 21
361.0
 31
0.0
  0
LINE
  5
748
330
1E
100
AcDbEntity
  8
0
100
AcDbLine
 10
373.0
 20
360.0
 30
0.0
 11
373.0
 21
361.0
 31
0.0
  0
LINE
  5
749
330
1E
100
AcDbEntity
  8
0
100
AcDbLine
 10
363.5209999999999
 20
230.0309999999999
 30
0.0
 11
367.154
 21
206.72
 31
0.0
  0
LINE
  5
74B
330
1E
100
AcDbEntity
  8
0
100
AcDbLine
 10
332.4959999999999
 20
81.18
 30
0.0
 11
341.231
 21
102.598
 31
0.0
  0
LINE
  5
74C
330
1E
100
AcDbEntity
  8
0
100
AcDbLine
 10
287.0
 20
824.233
 30
0.0
 11
287.0
 21
818.7389999999998
 31
0.0
  0
LINE
  5
74D
330
1E
100
AcDbEntity
  8
0
100
AcDbLine
 10
285.6
 20
828.0739999999999
 30
0.0
 11
287.0
 21
818.7389999999998
 31
0.0
  0
LINE
  5
74E
330
1E
100
AcDbEntity
  8
0
100
AcDbLine
 10
284.6
 20
827.59
 30
0.0
 11
286.0
 21
818.5269999999999
 31
0.0
  0
LINE
  5
74F
330
1E
100
AcDbEntity
  8
0
100
AcDbLine
 10
285.6
 20
833.5679999999999
 30
0.0
 11
287.0
 21
824.233
 31
0.0
  0
LINE
  5
750
330
1E
100
AcDbEntity
  8
0
100
AcDbLine
 10
281.6
 20
842.2679999999999
 30
0.0
 11
285.6
 21
833.5679999999999
 31
0.0
  0
LINE
  5
751
330
1E
100
AcDbEntity
  8
0
100
AcDbLine
 10
281.6
 20
836.7739999999999
 30
0.0
 11
285.6
 21
828.0739999999999
 31
0.0
  0
LINE
  5
752
330
1E
100
AcDbEntity
  8
0
100
AcDbLine
 10
280.8
 20
836.11
 30
0.0
 11
284.6
 21
827.59
 31
0.0
  0
LINE
  5
753
330
1E
100
AcDbEntity
  8
0
100
AcDbLine
 10
281.0
 20
855.4402812499999
 30
0.0
 11
281.0
 21
1100.0
 31
0.0
  0
LINE
  5
754
330
1E
100
AcDbEntity
  8
0
100
AcDbLine
 10
281.6
 20
854.7349999999999
 30
0.0
 11
285.6
 21
846.035
 31
0.0
  0
LINE
  5
755
330
1E
100
AcDbEntity
  8
0
100
AcDbLine
 10
285.6
 20
846.035
 30
0.0
 11
287.0
 21
836.7
 31
0.0
  0
LINE
  5
756
330
1E
100
AcDbEntity
  8
0
100
AcDbLine
 10
281.6
 20
842.9019999999999
 30
0.0
 11
285.6
 21
834.2019999999999
 31
0.0
  0
LINE
  5
757
330
1E
100
AcDbEntity
  8
0
100
AcDbLine
 10
287.0
 20
836.7
 30
0.0
 11
287.0
 21
824.867
 31
0.0
  0
LINE
  5
758
330
1E
100
AcDbEntity
  8
0
100
AcDbLine
 10
285.6
 20
834.2019999999999
 30
0.0
 11
287.0
 21
824.867
 31
0.0
  0
LINE
  5
759
330
1E
100
AcDbEntity
  8
0
100
AcDbLine
 10
278.0
 20
912.4
 30
0.0
 11
278.0
 21
906.4
 31
0.0
  0
LINE
  5
75A
330
1E
100
AcDbEntity
  8
0
100
AcDbLine
 10
278.0
 20
917.7000000000001
 30
0.0
 11
278.0
 21
912.4
 31
0.0
  0
LINE
  5
75B
330
1E
100
AcDbEntity
  8
0
100
AcDbLine
 10
272.6
 20
912.4
 30
0.0
 11
272.6
 21
917.7000000000001
 31
0.0
  0
LINE
  5
75C
330
1E
100
AcDbEntity
  8
0
100
AcDbLine
 10
272.6
 20
912.4
 30
0.0
 11
272.6
 21
906.4
 31
0.0
  0
LINE
  5
75D
330
1E
100
AcDbEntity
  8
0
100
AcDbLine
 10
272.6
 20
917.7000000000001
 30
0.0
 11
272.6
 21
921.7
 31
0.0
  0
LINE
  5
75E
330
1E
100
AcDbEntity
  8
0
100
AcDbLine
 10
272.6
 20
917.7000000000001
 30
0.0
 11
272.6
 21
912.4
 31
0.0
  0
LINE
  5
75F
330
1E
100
AcDbEntity
  8
0
100
AcDbLine
 10
272.0
 20
919.28
 30
0.0
 11
272.0
 21
917.36
 31
0.0
  0
LINE
  5
760
330
1E
100
AcDbEntity
  8
0
100
AcDbLine
 10
272.0
 20
921.1
 30
0.0
 11
272.0
 21
923.4999999999999
 31
0.0
  0
LINE
  5
761
330
1E
100
AcDbEntity
  8
0
100
AcDbLine
 10
272.0
 20
921.1
 30
0.0
 11
272.0
 21
917.2
 31
0.0
  0
LINE
  5
762
330
1E
100
AcDbEntity
  8
0
100
AcDbLine
 10
272.0
 20
921.1
 30
0.0
 11
272.0
 21
920.0
 31
0.0
  0
LINE
  5
763
330
1E
100
AcDbEntity
  8
0
100
AcDbLine
 10
272.0
 20
923.4999999999999
 30
0.0
 11
272.0
 21
924.3999999999999
 31
0.0
  0
LINE
  5
764
330
1E
100
AcDbEntity
  8
0
100
AcDbLine
 10
272.0
 20
923.4999999999999
 30
0.0
 11
272.0
 21
921.1
 31
0.0
  0
LINE
  5
765
330
1E
100
AcDbEntity
  8
0
100
AcDbLine
 10
272.6
 20
921.7
 30
0.0
 11
272.6
 21
924.0999999999999
 31
0.0
  0
LINE
  5
766
330
1E
100
AcDbEntity
  8
0
100
AcDbLine
 10
272.6
 20
921.7
 30
0.0
 11
272.6
 21
917.7000000000001
 31
0.0
  0
LINE
  5
767
330
1E
100
AcDbEntity
  8
0
100
AcDbLine
 10
278.0
 20
921.7
 30
0.0
 11
278.0
 21
917.7000000000001
 31
0.0
  0
LINE
  5
768
330
1E
100
AcDbEntity
  8
0
100
AcDbLine
 10
278.0
 20
924.0999999999999
 30
0.0
 11
278.0
 21
921.7
 31
0.0
  0
LINE
  5
769
330
1E
100
AcDbEntity
  8
0
100
AcDbLine
 10
272.6
 20
924.0999999999999
 30
0.0
 11
272.6
 21
925.0
 31
0.0
  0
LINE
  5
76A
330
1E
100
AcDbEntity
  8
0
100
AcDbLine
 10
272.6
 20
924.0999999999999
 30
0.0
 11
272.6
 21
921.7
 31
0.0
  0
LINE
  5
76B
330
1E
100
AcDbEntity
  8
0
100
AcDbLine
 10
272.0
 20
920.0
 30
0.0
 11
272.0
 21
919.28
 31
0.0
  0
LINE
  5
76C
330
1E
100
AcDbEntity
  8
0
100
AcDbLine
 10
272.0
 20
920.0
 30
0.0
 11
272.0
 21
921.1
 31
0.0
  0
LINE
  5
76D
330
1E
100
AcDbEntity
  8
0
100
AcDbLine
 10
264.0
 20
921.7
 30
0.0
 11
264.0
 21
924.0999999999999
 31
0.0
  0
LINE
  5
76E
330
1E
100
AcDbEntity
  8
0
100
AcDbLine
 10
264.0
 20
921.7
 30
0.0
 11
264.0
 21
917.7000000000001
 31
0.0
  0
LINE
  5
76F
330
1E
100
AcDbEntity
  8
0
100
AcDbLine
 10
234.0
 20
924.3999999999999
 30
0.0
 11
234.6
 21
925.0
 31
0.0
  0
LINE
  5
770
330
1E
100
AcDbEntity
  8
0
100
AcDbLine
 10
234.0
 20
924.3999999999999
 30
0.0
 11
234.0
 21
923.4999999999999
 31
0.0
  0
LINE
  5
771
330
1E
100
AcDbEntity
  8
0
100
AcDbLine
 10
223.0
 20
986.5
 30
0.0
 11
223.0
 21
985.5999999999999
 31
0.0
  0
LINE
  5
772
330
1E
100
AcDbEntity
  8
0
100
AcDbLine
 10
223.0
 20
986.5
 30
0.0
 11
223.0
 21
988.8999999999999
 31
0.0
  0
LINE
  5
773
330
1E
100
AcDbEntity
  8
0
100
AcDbLine
 10
223.0
 20
985.5999999999999
 30
0.0
 11
223.6
 21
985.0
 31
0.0
  0
LINE
  5
774
330
1E
100
AcDbEntity
  8
0
100
AcDbLine
 10
223.0
 20
985.5999999999999
 30
0.0
 11
223.0
 21
986.5
 31
0.0
  0
LINE
  5
775
330
1E
100
AcDbEntity
  8
0
100
AcDbLine
 10
223.6
 20
988.2999999999999
 30
0.0
 11
223.6
 21
985.8999999999999
 31
0.0
  0
LINE
  5
776
330
1E
100
AcDbEntity
  8
0
100
AcDbLine
 10
223.6
 20
988.2999999999999
 30
0.0
 11
223.6
 21
992.3
 31
0.0
  0
LINE
  5
777
330
1E
100
AcDbEntity
  8
0
100
AcDbLine
 10
223.6
 20
985.0
 30
0.0
 11
263.0
 21
985.0
 31
0.0
  0
LINE
  5
778
330
1E
100
AcDbEntity
  8
0
100
AcDbLine
 10
223.6
 20
985.0
 30
0.0
 11
223.6
 21
985.8999999999999
 31
0.0
  0
LINE
  5
779
330
1E
100
AcDbEntity
  8
0
100
AcDbLine
 10
263.0
 20
985.0
 30
0.0
 11
263.0
 21
985.8999999999999
 31
0.0
  0
LINE
  5
77A
330
1E
100
AcDbEntity
  8
0
100
AcDbLine
 10
223.6
 20
985.8999999999999
 30
0.0
 11
223.6
 21
985.0
 31
0.0
  0
LINE
  5
77B
330
1E
100
AcDbEntity
  8
0
100
AcDbLine
 10
223.6
 20
985.8999999999999
 30
0.0
 11
223.6
 21
988.2999999999999
 31
0.0
  0
LINE
  5
77C
330
1E
100
AcDbEntity
  8
0
100
AcDbLine
 10
223.0
 20
992.7999999999999
 30
0.0
 11
223.0
 21
988.8999999999999
 31
0.0
  0
LINE
  5
77D
330
1E
100
AcDbEntity
  8
0
100
AcDbLine
 10
223.0
 20
992.7999999999999
 30
0.0
 11
223.0
 21
997.8999999999999
 31
0.0
  0
LINE
  5
77E
330
1E
100
AcDbEntity
  8
0
100
AcDbLine
 10
223.0
 20
988.8999999999999
 30
0.0
 11
223.0
 21
986.5
 31
0.0
  0
LINE
  5
77F
330
1E
100
AcDbEntity
  8
0
100
AcDbLine
 10
223.0
 20
988.8999999999999
 30
0.0
 11
223.0
 21
992.7999999999999
 31
0.0
  0
LINE
  5
780
330
1E
100
AcDbEntity
  8
0
100
AcDbLine
 10
223.6
 20
997.6
 30
0.0
 11
223.6
 21
992.3
 31
0.0
  0
LINE
  5
781
330
1E
100
AcDbEntity
  8
0
100
AcDbLine
 10
223.6
 20
997.6
 30
0.0
 11
223.6
 21
1003.6
 31
0.0
  0
LINE
  5
782
330
1E
100
AcDbEntity
  8
0
100
AcDbLine
 10
263.0
 20
990.0
 30
0.0
 11
278.0
 21
990.0
 31
0.0
  0
LINE
  5
783
330
1E
100
AcDbEntity
  8
0
100
AcDbLine
 10
223.6
 20
992.3
 30
0.0
 11
223.6
 21
988.2999999999999
 31
0.0
  0
LINE
  5
784
330
1E
100
AcDbEntity
  8
0
100
AcDbLine
 10
223.6
 20
992.3
 30
0.0
 11
223.6
 21
997.6
 31
0.0
  0
LINE
  5
785
330
1E
100
AcDbEntity
  8
0
100
AcDbLine
 10
223.0
 20
1010.0
 30
0.0
 11
223.0
 21
1003.7
 31
0.0
  0
LINE
  5
786
330
1E
100
AcDbEntity
  8
0
100
AcDbLine
 10
223.0
 20
1010.0
 30
0.0
 11
223.0
 21
1016.299999999999
 31
0.0
  0
LINE
  5
787
330
1E
100
AcDbEntity
  8
0
100
AcDbLine
 10
223.0
 20
1003.7
 30
0.0
 11
223.0
 21
997.8999999999999
 31
0.0
  0
LINE
  5
788
330
1E
100
AcDbEntity
  8
0
100
AcDbLine
 10
223.0
 20
1003.7
 30
0.0
 11
223.0
 21
1010.0
 31
0.0
  0
LINE
  5
789
330
1E
100
AcDbEntity
  8
0
100
AcDbLine
 10
223.0
 20
997.8999999999999
 30
0.0
 11
223.0
 21
992.7999999999999
 31
0.0
  0
LINE
  5
78A
330
1E
100
AcDbEntity
  8
0
100
AcDbLine
 10
223.0
 20
997.8999999999999
 30
0.0
 11
223.0
 21
1003.7
 31
0.0
  0
LINE
  5
78B
330
1E
100
AcDbEntity
  8
0
100
AcDbLine
 10
223.6
 20
1010.0
 30
0.0
 11
223.6
 21
1003.6
 31
0.0
  0
LINE
  5
78C
330
1E
100
AcDbEntity
  8
0
100
AcDbLine
 10
223.6
 20
1010.0
 30
0.0
 11
223.6
 21
1016.399999999999
 31
0.0
  0
LINE
  5
78D
330
1E
100
AcDbEntity
  8
0
100
AcDbLine
 10
223.6
 20
1003.6
 30
0.0
 11
223.6
 21
997.6
 31
0.0
  0
LINE
  5
78E
330
1E
100
AcDbEntity
  8
0
100
AcDbLine
 10
223.6
 20
1003.6
 30
0.0
 11
223.6
 21
1010.0
 31
0.0
  0
LINE
  5
78F
330
1E
100
AcDbEntity
  8
0
100
AcDbLine
 10
223.0
 20
1022.1
 30
0.0
 11
223.0
 21
1027.2
 31
0.0
  0
LINE
  5
790
330
1E
100
AcDbEntity
  8
0
100
AcDbLine
 10
223.0
 20
1016.299999999999
 30
0.0
 11
223.0
 21
1022.1
 31
0.0
  0
LINE
  5
791
330
1E
100
AcDbEntity
  8
0
100
AcDbLine
 10
223.0
 20
1016.299999999999
 30
0.0
 11
223.0
 21
1010.0
 31
0.0
  0
LINE
  5
792
330
1E
100
AcDbEntity
  8
0
100
AcDbLine
 10
223.0
 20
1027.2
 30
0.0
 11
223.0
 21
1022.1
 31
0.0
  0
LINE
  5
793
330
1E
100
AcDbEntity
  8
0
100
AcDbLine
 10
223.0
 20
1027.2
 30
0.0
 11
223.0
 21
1031.1
 31
0.0
  0
LINE
  5
794
330
1E
100
AcDbEntity
  8
0
100
AcDbLine
 10
223.6
 20
1022.399999999999
 30
0.0
 11
223.6
 21
1027.7
 31
0.0
  0
LINE
  5
795
330
1E
100
AcDbEntity
  8
0
100
AcDbLine
 10
223.6
 20
1016.399999999999
 30
0.0
 11
223.6
 21
1022.399999999999
 31
0.0
  0
LINE
  5
796
330
1E
100
AcDbEntity
  8
0
100
AcDbLine
 10
223.6
 20
1016.399999999999
 30
0.0
 11
223.6
 21
1010.0
 31
0.0
  0
LINE
  5
797
330
1E
100
AcDbEntity
  8
0
100
AcDbLine
 10
223.0
 20
1031.1
 30
0.0
 11
223.0
 21
1027.2
 31
0.0
  0
LINE
  5
798
330
1E
100
AcDbEntity
  8
0
100
AcDbLine
 10
223.0
 20
1031.1
 30
0.0
 11
223.0
 21
1033.5
 31
0.0
  0
LINE
  5
799
330
1E
100
AcDbEntity
  8
0
100
AcDbLine
 10
223.0
 20
1033.5
 30
0.0
 11
223.0
 21
1031.1
 31
0.0
  0
LINE
  5
79A
330
1E
100
AcDbEntity
  8
0
100
AcDbLine
 10
223.0
 20
1033.5
 30
0.0
 11
223.0
 21
1034.4
 31
0.0
  0
LINE
  5
79B
330
1E
100
AcDbEntity
  8
0
100
AcDbLine
 10
223.6
 20
1027.7
 30
0.0
 11
223.6
 21
1022.399999999999
 31
0.0
  0
LINE
  5
79C
330
1E
100
AcDbEntity
  8
0
100
AcDbLine
 10
223.6
 20
1027.7
 30
0.0
 11
223.6
 21
1031.7
 31
0.0
  0
LINE
  5
79D
330
1E
100
AcDbEntity
  8
0
100
AcDbLine
 10
223.6
 20
1031.7
 30
0.0
 11
223.6
 21
1027.7
 31
0.0
  0
LINE
  5
79E
330
1E
100
AcDbEntity
  8
0
100
AcDbLine
 10
223.6
 20
1031.7
 30
0.0
 11
223.6
 21
1034.1
 31
0.0
  0
LINE
  5
79F
330
1E
100
AcDbEntity
  8
0
100
AcDbLine
 10
238.0
 20
1035.0
 30
0.0
 11
238.0
 21
1040.0
 31
0.0
  0
LINE
  5
7A0
330
1E
100
AcDbEntity
  8
0
100
AcDbLine
 10
223.0
 20
1034.4
 30
0.0
 11
223.0
 21
1033.5
 31
0.0
  0
LINE
  5
7A1
330
1E
100
AcDbEntity
  8
0
100
AcDbLine
 10
223.0
 20
1034.4
 30
0.0
 11
223.6
 21
1035.0
 31
0.0
  0
LINE
  5
7A2
330
1E
100
AcDbEntity
  8
0
100
AcDbLine
 10
223.6
 20
1034.1
 30
0.0
 11
223.6
 21
1031.7
 31
0.0
  0
LINE
  5
7A3
330
1E
100
AcDbEntity
  8
0
100
AcDbLine
 10
223.6
 20
1034.1
 30
0.0
 11
223.6
 21
1035.0
 31
0.0
  0
LINE
  5
7A4
330
1E
100
AcDbEntity
  8
0
100
AcDbLine
 10
244.0
 20
1035.0
 30
0.0
 11
263.0
 21
1035.0
 31
0.0
  0
LINE
  5
7A5
330
1E
100
AcDbEntity
  8
0
100
AcDbLine
 10
244.0
 20
1035.0
 30
0.0
 11
244.0
 21
1040.0
 31
0.0
  0
LINE
  5
7A6
330
1E
100
AcDbEntity
  8
0
100
AcDbLine
 10
238.0
 20
1040.0
 30
0.0
 11
238.0
 21
1035.0
 31
0.0
  0
LINE
  5
7A7
330
1E
100
AcDbEntity
  8
0
100
AcDbLine
 10
238.0
 20
1040.0
 30
0.0
 11
238.108
 21
1040.0
 31
0.0
  0
LINE
  5
7A8
330
1E
100
AcDbEntity
  8
0
100
AcDbLine
 10
238.108
 20
1040.0
 30
0.0
 11
238.396
 21
1040.0
 31
0.0
  0
LINE
  5
7A9
330
1E
100
AcDbEntity
  8
0
100
AcDbLine
 10
238.396
 20
1040.0
 30
0.0
 11
238.8759999999999
 21
1040.0
 31
0.0
  0
LINE
  5
7AA
330
1E
100
AcDbEntity
  8
0
100
AcDbLine
 10
238.8759999999999
 20
1040.0
 30
0.0
 11
239.5119999999999
 21
1040.0
 31
0.0
  0
LINE
  5
7AB
330
1E
100
AcDbEntity
  8
0
100
AcDbLine
 10
239.5119999999999
 20
1040.0
 30
0.0
 11
240.232
 21
1040.0
 31
0.0
  0
LINE
  5
7AC
330
1E
100
AcDbEntity
  8
0
100
AcDbLine
 10
244.0
 20
1040.0
 30
0.0
 11
244.0
 21
1035.0
 31
0.0
  0
LINE
  5
7AD
330
1E
100
AcDbEntity
  8
0
100
AcDbLine
 10
243.8919999999999
 20
1040.0
 30
0.0
 11
244.0
 21
1040.0
 31
0.0
  0
LINE
  5
7AE
330
1E
100
AcDbEntity
  8
0
100
AcDbLine
 10
243.604
 20
1040.0
 30
0.0
 11
243.8919999999999
 21
1040.0
 31
0.0
  0
LINE
  5
7AF
330
1E
100
AcDbEntity
  8
0
100
AcDbLine
 10
243.124
 20
1040.0
 30
0.0
 11
243.604
 21
1040.0
 31
0.0
  0
LINE
  5
7B0
330
1E
100
AcDbEntity
  8
0
100
AcDbLine
 10
242.4879999999999
 20
1040.0
 30
0.0
 11
243.124
 21
1040.0
 31
0.0
  0
LINE
  5
7B1
330
1E
100
AcDbEntity
  8
0
100
AcDbLine
 10
241.768
 20
1040.0
 30
0.0
 11
242.4879999999999
 21
1040.0
 31
0.0
  0
LINE
  5
7B2
330
1E
100
AcDbEntity
  8
0
100
AcDbLine
 10
241.0
 20
1040.0
 30
0.0
 11
241.768
 21
1040.0
 31
0.0
  0
LINE
  5
7B3
330
1E
100
AcDbEntity
  8
0
100
AcDbLine
 10
240.232
 20
1040.0
 30
0.0
 11
241.0
 21
1040.0
 31
0.0
  0
LINE
  5
7B4
330
1E
100
AcDbEntity
  8
0
100
AcDbLine
 10
223.6
 20
1035.0
 30
0.0
 11
223.6
 21
1034.1
 31
0.0
  0
LINE
  5
7B5
330
1E
100
AcDbEntity
  8
0
100
AcDbLine
 10
223.6
 20
1035.0
 30
0.0
 11
238.030857142857
 21
1035.0
 31
0.0
  0
LINE
  5
7B6
330
1E
100
AcDbEntity
  8
0
100
AcDbLine
 10
263.0
 20
1016.399999999999
 30
0.0
 11
263.0
 21
1022.399999999999
 31
0.0
  0
LINE
  5
7B7
330
1E
100
AcDbEntity
  8
0
100
AcDbLine
 10
263.0
 20
1016.399999999999
 30
0.0
 11
263.0
 21
1010.0
 31
0.0
  0
LINE
  5
7B8
330
1E
100
AcDbEntity
  8
0
100
AcDbLine
 10
263.0
 20
1010.0
 30
0.0
 11
263.0
 21
1003.6
 31
0.0
  0
LINE
  5
7B9
330
1E
100
AcDbEntity
  8
0
100
AcDbLine
 10
263.0
 20
1010.0
 30
0.0
 11
263.0
 21
1016.399999999999
 31
0.0
  0
LINE
  5
7BA
330
1E
100
AcDbEntity
  8
0
100
AcDbLine
 10
263.0
 20
1003.6
 30
0.0
 11
263.0
 21
997.6
 31
0.0
  0
LINE
  5
7BB
330
1E
100
AcDbEntity
  8
0
100
AcDbLine
 10
263.0
 20
1003.6
 30
0.0
 11
263.0
 21
1010.0
 31
0.0
  0
LINE
  5
7BC
330
1E
100
AcDbEntity
  8
0
100
AcDbLine
 10
263.0
 20
997.6
 30
0.0
 11
263.0
 21
992.3
 31
0.0
  0
LINE
  5
7BD
330
1E
100
AcDbEntity
  8
0
100
AcDbLine
 10
263.0
 20
997.6
 30
0.0
 11
263.0
 21
1003.6
 31
0.0
  0
LINE
  5
7BE
330
1E
100
AcDbEntity
  8
0
100
AcDbLine
 10
263.0
 20
992.3
 30
0.0
 11
263.0
 21
988.2999999999999
 31
0.0
  0
LINE
  5
7BF
330
1E
100
AcDbEntity
  8
0
100
AcDbLine
 10
263.0
 20
992.3
 30
0.0
 11
263.0
 21
997.6
 31
0.0
  0
LINE
  5
7C0
330
1E
100
AcDbEntity
  8
0
100
AcDbLine
 10
263.0
 20
988.2999999999999
 30
0.0
 11
263.0
 21
985.8999999999999
 31
0.0
  0
LINE
  5
7C1
330
1E
100
AcDbEntity
  8
0
100
AcDbLine
 10
263.0
 20
988.2999999999999
 30
0.0
 11
263.0
 21
992.3
 31
0.0
  0
LINE
  5
7C2
330
1E
100
AcDbEntity
  8
0
100
AcDbLine
 10
263.0
 20
1030.0
 30
0.0
 11
278.0
 21
1030.0
 31
0.0
  0
LINE
  5
7C3
330
1E
100
AcDbEntity
  8
0
100
AcDbLine
 10
263.0
 20
1022.399999999999
 30
0.0
 11
263.0
 21
1027.7
 31
0.0
  0
LINE
  5
7C4
330
1E
100
AcDbEntity
  8
0
100
AcDbLine
 10
263.0
 20
1027.7
 30
0.0
 11
263.0
 21
1022.399999999999
 31
0.0
  0
LINE
  5
7C5
330
1E
100
AcDbEntity
  8
0
100
AcDbLine
 10
263.0
 20
1027.7
 30
0.0
 11
263.0
 21
1031.7
 31
0.0
  0
LINE
  5
7C6
330
1E
100
AcDbEntity
  8
0
100
AcDbLine
 10
263.0
 20
1031.7
 30
0.0
 11
263.0
 21
1027.7
 31
0.0
  0
LINE
  5
7C7
330
1E
100
AcDbEntity
  8
0
100
AcDbLine
 10
263.0
 20
1031.7
 30
0.0
 11
263.0
 21
1034.1
 31
0.0
  0
LINE
  5
7C8
330
1E
100
AcDbEntity
  8
0
100
AcDbLine
 10
263.0
 20
1034.1
 30
0.0
 11
263.0
 21
1031.7
 31
0.0
  0
LINE
  5
7C9
330
1E
100
AcDbEntity
  8
0
100
AcDbLine
 10
263.0
 20
1034.1
 30
0.0
 11
263.0
 21
1035.0
 31
0.0
  0
LINE
  5
7CA
330
1E
100
AcDbEntity
  8
0
100
AcDbLine
 10
263.0
 20
1035.0
 30
0.0
 11
263.0
 21
1034.1
 31
0.0
  0
LINE
  5
7CB
330
1E
100
AcDbEntity
  8
0
100
AcDbLine
 10
263.0
 20
985.8999999999999
 30
0.0
 11
263.0
 21
985.0
 31
0.0
  0
LINE
  5
7CC
330
1E
100
AcDbEntity
  8
0
100
AcDbLine
 10
263.0
 20
985.8999999999999
 30
0.0
 11
263.0
 21
988.2999999999999
 31
0.0
  0
LINE
  5
7CD
330
1E
100
AcDbEntity
  8
0
100
AcDbLine
 10
234.6
 20
925.0
 30
0.0
 11
264.0
 21
925.0
 31
0.0
  0
LINE
  5
7CE
330
1E
100
AcDbEntity
  8
0
100
AcDbLine
 10
234.6
 20
925.0
 30
0.0
 11
234.6
 21
924.0999999999999
 31
0.0
  0
LINE
  5
7CF
330
1E
100
AcDbEntity
  8
0
100
AcDbLine
 10
272.0
 20
924.3999999999999
 30
0.0
 11
272.6
 21
925.0
 31
0.0
  0
LINE
  5
7D0
330
1E
100
AcDbEntity
  8
0
100
AcDbLine
 10
272.0
 20
924.3999999999999
 30
0.0
 11
272.0
 21
923.4999999999999
 31
0.0
  0
LINE
  5
7D1
330
1E
100
AcDbEntity
  8
0
100
AcDbLine
 10
272.6
 20
925.0
 30
0.0
 11
278.0
 21
925.0
 31
0.0
  0
LINE
  5
7D2
330
1E
100
AcDbEntity
  8
0
100
AcDbLine
 10
272.6
 20
925.0
 30
0.0
 11
272.6
 21
924.0999999999999
 31
0.0
  0
LINE
  5
7D3
330
1E
100
AcDbEntity
  8
0
100
AcDbLine
 10
270.087
 20
1097.599999999999
 30
0.0
 11
270.1319999999999
 21
1095.299999999999
 31
0.0
  0
LINE
  5
7D4
330
1E
100
AcDbEntity
  8
0
100
AcDbLine
 10
270.394
 20
1090.799999999999
 30
0.0
 11
270.502
 21
1090.5
 31
0.0
  0
LINE
  5
7D5
330
1E
100
AcDbEntity
  8
0
100
AcDbLine
 10
270.4069999999999
 20
1092.3
 30
0.0
 11
270.502
 21
1092.0
 31
0.0
  0
LINE
  5
7D6
330
1E
100
AcDbEntity
  8
0
100
AcDbLine
 10
270.3219999999999
 20
1093.099999999999
 30
0.0
 11
270.4069999999999
 21
1092.3
 31
0.0
  0
LINE
  5
7D7
330
1E
100
AcDbEntity
  8
0
100
AcDbLine
 10
270.502
 20
1092.0
 30
0.0
 11
270.5969999999999
 21
1092.3
 31
0.0
  0
LINE
  5
7D8
330
1E
100
AcDbEntity
  8
0
100
AcDbLine
 10
270.29
 20
1091.799999999999
 30
0.0
 11
270.394
 21
1090.799999999999
 31
0.0
  0
LINE
  5
7D9
330
1E
100
AcDbEntity
  8
0
100
AcDbLine
 10
270.25
 20
1094.4
 30
0.0
 11
270.3219999999999
 21
1093.099999999999
 31
0.0
  0
LINE
  5
7DF
330
1E
100
AcDbEntity
  8
0
100
AcDbLine
 10
270.1909999999999
 20
1096.0
 30
0.0
 11
270.25
 21
1094.4
 31
0.0
  0
LINE
  5
7E0
330
1E
100
AcDbEntity
  8
0
100
AcDbLine
 10
270.1549999999999
 20
1097.9
 30
0.0
 11
270.1909999999999
 21
1096.0
 31
0.0
  0
LINE
  5
7E1
330
1E
100
AcDbEntity
  8
0
100
AcDbLine
 10
270.1409999999999
 20
1100.0
 30
0.0
 11
270.1549999999999
 21
1097.9
 31
0.0
  0
LINE
  5
7E2
330
1E
100
AcDbEntity
  8
0
100
AcDbLine
 10
270.1409999999999
 20
1100.0
 30
0.0
 11
270.1549999999999
 21
1102.099999999999
 31
0.0
  0
LINE
  5
7E4
330
1E
100
AcDbEntity
  8
0
100
AcDbLine
 10
270.1999999999999
 20
1093.299999999999
 30
0.0
 11
270.29
 21
1091.799999999999
 31
0.0
  0
LINE
  5
7E5
330
1E
100
AcDbEntity
  8
0
100
AcDbLine
 10
270.1319999999999
 20
1095.299999999999
 30
0.0
 11
270.1999999999999
 21
1093.299999999999
 31
0.0
  0
LINE
  5
7E6
330
1E
100
AcDbEntity
  8
0
100
AcDbLine
 10
270.087
 20
1102.4
 30
0.0
 11
270.1319999999999
 21
1104.7
 31
0.0
  0
LINE
  5
7ED
330
1E
100
AcDbEntity
  8
0
100
AcDbLine
 10
270.25
 20
1105.599999999999
 30
0.0
 11
270.3219999999999
 21
1106.9
 31
0.0
  0
LINE
  5
7EE
330
1E
100
AcDbEntity
  8
0
100
AcDbLine
 10
270.1909999999999
 20
1104.0
 30
0.0
 11
270.25
 21
1105.599999999999
 31
0.0
  0
LINE
  5
7EF
330
1E
100
AcDbEntity
  8
0
100
AcDbLine
 10
270.1549999999999
 20
1102.099999999999
 30
0.0
 11
270.1909999999999
 21
1104.0
 31
0.0
  0
LINE
  5
7F0
330
1E
100
AcDbEntity
  8
0
100
AcDbLine
 10
270.3219999999999
 20
1106.9
 30
0.0
 11
270.4069999999999
 21
1107.7
 31
0.0
  0
LINE
  5
7F1
330
1E
100
AcDbEntity
  8
0
100
AcDbLine
 10
270.502
 20
1108.0
 30
0.0
 11
270.5969999999999
 21
1107.7
 31
0.0
  0
LINE
  5
7F2
330
1E
100
AcDbEntity
  8
0
100
AcDbLine
 10
270.4069999999999
 20
1107.7
 30
0.0
 11
270.502
 21
1108.0
 31
0.0
  0
LINE
  5
7F3
330
1E
100
AcDbEntity
  8
0
100
AcDbLine
 10
270.394
 20
1109.2
 30
0.0
 11
270.502
 21
1109.5
 31
0.0
  0
LINE
  5
7F4
330
1E
100
AcDbEntity
  8
0
100
AcDbLine
 10
270.502
 20
1109.5
 30
0.0
 11
275.497
 21
1111.5
 31
0.0
  0
LINE
  5
7F5
330
1E
100
AcDbEntity
  8
0
100
AcDbLine
 10
270.502
 20
1109.5
 30
0.0
 11
270.61
 21
1109.2
 31
0.0
  0
LINE
  5
7F6
330
1E
100
AcDbEntity
  8
0
100
AcDbLine
 10
270.29
 20
1108.2
 30
0.0
 11
270.394
 21
1109.2
 31
0.0
  0
LINE
  5
7F7
330
1E
100
AcDbEntity
  8
0
100
AcDbLine
 10
270.1999999999999
 20
1106.7
 30
0.0
 11
270.29
 21
1108.2
 31
0.0
  0
LINE
  5
7F8
330
1E
100
AcDbEntity
  8
0
100
AcDbLine
 10
270.1319999999999
 20
1104.7
 30
0.0
 11
270.1999999999999
 21
1106.7
 31
0.0
  0
LINE
  5
7F9
330
1E
100
AcDbEntity
  8
0
100
AcDbLine
 10
270.074
 20
1100.0
 30
0.0
 11
270.087
 21
1097.599999999999
 31
0.0
  0
LINE
  5
7FA
330
1E
100
AcDbEntity
  8
0
100
AcDbLine
 10
270.074
 20
1100.0
 30
0.0
 11
270.087
 21
1102.4
 31
0.0
  0
LINE
  5
7FB
330
1E
100
AcDbEntity
  8
0
100
AcDbLine
 10
270.5969999999999
 20
1092.3
 30
0.0
 11
270.683
 21
1093.099999999999
 31
0.0
  0
LINE
  5
7FC
330
1E
100
AcDbEntity
  8
0
100
AcDbLine
 10
270.683
 20
1093.099999999999
 30
0.0
 11
270.7549999999999
 21
1094.4
 31
0.0
  0
LINE
  5
7FD
330
1E
100
AcDbEntity
  8
0
100
AcDbLine
 10
270.61
 20
1090.799999999999
 30
0.0
 11
270.7139999999999
 21
1091.799999999999
 31
0.0
  0
LINE
  5
7FE
330
1E
100
AcDbEntity
  8
0
100
AcDbLine
 10
270.7139999999999
 20
1091.799999999999
 30
0.0
 11
270.804
 21
1093.299999999999
 31
0.0
  0
LINE
  5
7FF
330
1E
100
AcDbEntity
  8
0
100
AcDbLine
 10
270.7549999999999
 20
1094.4
 30
0.0
 11
270.813
 21
1096.0
 31
0.0
  0
LINE
  5
800
330
1E
100
AcDbEntity
  8
0
100
AcDbLine
 10
270.813
 20
1096.0
 30
0.0
 11
270.85
 21
1097.9
 31
0.0
  0
LINE
  5
801
330
1E
100
AcDbEntity
  8
0
100
AcDbLine
 10
270.804
 20
1093.299999999999
 30
0.0
 11
270.872
 21
1095.299999999999
 31
0.0
  0
LINE
  5
802
330
1E
100
AcDbEntity
  8
0
100
AcDbLine
 10
270.872
 20
1095.299999999999
 30
0.0
 11
270.917
 21
1097.599999999999
 31
0.0
  0
LINE
  5
812
330
1E
100
AcDbEntity
  8
0
100
AcDbLine
 10
270.5969999999999
 20
1107.7
 30
0.0
 11
270.683
 21
1106.9
 31
0.0
  0
LINE
  5
813
330
1E
100
AcDbEntity
  8
0
100
AcDbLine
 10
270.683
 20
1106.9
 30
0.0
 11
270.7549999999999
 21
1105.599999999999
 31
0.0
  0
LINE
  5
814
330
1E
100
AcDbEntity
  8
0
100
AcDbLine
 10
270.7549999999999
 20
1105.599999999999
 30
0.0
 11
270.813
 21
1104.0
 31
0.0
  0
LINE
  5
815
330
1E
100
AcDbEntity
  8
0
100
AcDbLine
 10
270.61
 20
1109.2
 30
0.0
 11
270.7139999999999
 21
1108.2
 31
0.0
  0
LINE
  5
816
330
1E
100
AcDbEntity
  8
0
100
AcDbLine
 10
270.7139999999999
 20
1108.2
 30
0.0
 11
270.804
 21
1106.7
 31
0.0
  0
LINE
  5
817
330
1E
100
AcDbEntity
  8
0
100
AcDbLine
 10
270.813
 20
1104.0
 30
0.0
 11
270.85
 21
1102.099999999999
 31
0.0
  0
LINE
  5
818
330
1E
100
AcDbEntity
  8
0
100
AcDbLine
 10
270.85
 20
1102.099999999999
 30
0.0
 11
270.8629999999999
 21
1100.0
 31
0.0
  0
LINE
  5
819
330
1E
100
AcDbEntity
  8
0
100
AcDbLine
 10
270.804
 20
1106.7
 30
0.0
 11
270.872
 21
1104.7
 31
0.0
  0
LINE
  5
81D
330
1E
100
AcDbEntity
  8
0
100
AcDbLine
 10
270.872
 20
1104.7
 30
0.0
 11
270.917
 21
1102.4
 31
0.0
  0
LINE
  5
81E
330
1E
100
AcDbEntity
  8
0
100
AcDbLine
 10
270.917
 20
1102.4
 30
0.0
 11
270.9309999999999
 21
1100.0
 31
0.0
  0
LINE
  5
81F
330
1E
100
AcDbEntity
  8
0
100
AcDbLine
 10
270.85
 20
1097.9
 30
0.0
 11
270.8629999999999
 21
1100.0
 31
0.0
  0
LINE
  5
820
330
1E
100
AcDbEntity
  8
0
100
AcDbLine
 10
270.917
 20
1097.599999999999
 30
0.0
 11
270.9309999999999
 21
1100.0
 31
0.0
  0
LINE
  5
821
330
1E
100
AcDbEntity
  8
0
100
AcDbLine
 10
270.502
 20
1090.5
 30
0.0
 11
275.497
 21
1088.5
 31
0.0
  0
LINE
  5
822
330
1E
100
AcDbEntity
  8
0
100
AcDbLine
 10
270.502
 20
1090.5
 30
0.0
 11
270.61
 21
1090.799999999999
 31
0.0
  0
LINE
  5
823
330
1E
100
AcDbEntity
  8
0
100
AcDbLine
 10
275.497
 20
1111.5
 30
0.0
 11
275.632
 21
1111.099999999999
 31
0.0
  0
LINE
  5
824
330
1E
100
AcDbEntity
  8
0
100
AcDbLine
 10
275.497
 20
1111.5
 30
0.0
 11
276.4959999999999
 21
1111.5
 31
0.0
  0
LINE
  5
825
330
1E
100
AcDbEntity
  8
0
100
AcDbLine
 10
276.158
 20
1087.0
 30
0.0
 11
276.3199999999999
 21
1085.5
 31
0.0
  0
LINE
  5
826
330
1E
100
AcDbEntity
  8
0
100
AcDbLine
 10
276.9959999999999
 20
1076.0
 30
0.0
 11
277.2749999999999
 21
1076.9
 31
0.0
  0
LINE
  5
827
330
1E
100
AcDbEntity
  8
0
100
AcDbLine
 10
276.9959999999999
 20
1076.0
 30
0.0
 11
277.9949999999999
 21
1075.0
 31
0.0
  0
LINE
  5
828
330
1E
100
AcDbEntity
  8
0
100
AcDbLine
 10
277.9949999999999
 20
1075.0
 30
0.0
 11
278.283
 21
1075.9
 31
0.0
  0
LINE
  5
829
330
1E
100
AcDbEntity
  8
0
100
AcDbLine
 10
277.2749999999999
 20
1076.9
 30
0.0
 11
277.5319999999999
 21
1079.199999999999
 31
0.0
  0
LINE
  5
82A
330
1E
100
AcDbEntity
  8
0
100
AcDbLine
 10
277.5319999999999
 20
1079.199999999999
 30
0.0
 11
277.7579999999999
 21
1083.099999999999
 31
0.0
  0
LINE
  5
82B
330
1E
100
AcDbEntity
  8
0
100
AcDbLine
 10
276.716
 20
1076.9
 30
0.0
 11
276.9959999999999
 21
1076.0
 31
0.0
  0
LINE
  5
82C
330
1E
100
AcDbEntity
  8
0
100
AcDbLine
 10
276.3199999999999
 20
1085.5
 30
0.0
 11
276.4959999999999
 21
1085.0
 31
0.0
  0
LINE
  5
82D
330
1E
100
AcDbEntity
  8
0
100
AcDbLine
 10
276.4959999999999
 20
1085.0
 30
0.0
 11
276.672
 21
1085.5
 31
0.0
  0
LINE
  5
82E
330
1E
100
AcDbEntity
  8
0
100
AcDbLine
 10
276.672
 20
1085.5
 30
0.0
 11
276.834
 21
1087.0
 31
0.0
  0
LINE
  5
82F
330
1E
100
AcDbEntity
  8
0
100
AcDbLine
 10
276.834
 20
1087.0
 30
0.0
 11
276.974
 21
1089.4
 31
0.0
  0
LINE
  5
830
330
1E
100
AcDbEntity
  8
0
100
AcDbLine
 10
277.7579999999999
 20
1083.099999999999
 30
0.0
 11
277.934
 21
1088.099999999999
 31
0.0
  0
LINE
  5
831
330
1E
100
AcDbEntity
  8
0
100
AcDbLine
 10
277.934
 20
1088.099999999999
 30
0.0
 11
278.038
 21
1093.8
 31
0.0
  0
LINE
  5
832
330
1E
100
AcDbEntity
  8
0
100
AcDbLine
 10
276.459
 20
1079.199999999999
 30
0.0
 11
276.716
 21
1076.9
 31
0.0
  0
LINE
  5
833
330
1E
100
AcDbEntity
  8
0
100
AcDbLine
 10
276.2329999999999
 20
1083.099999999999
 30
0.0
 11
276.459
 21
1079.199999999999
 31
0.0
  0
LINE
  5
834
330
1E
100
AcDbEntity
  8
0
100
AcDbLine
 10
275.632
 20
1088.9
 30
0.0
 11
275.754
 21
1090.0
 31
0.0
  0
LINE
  5
835
330
1E
100
AcDbEntity
  8
0
100
AcDbLine
 10
275.754
 20
1090.0
 30
0.0
 11
275.862
 21
1091.9
 31
0.0
  0
LINE
  5
836
330
1E
100
AcDbEntity
  8
0
100
AcDbLine
 10
275.862
 20
1091.9
 30
0.0
 11
275.9479999999999
 21
1094.3
 31
0.0
  0
LINE
  5
837
330
1E
100
AcDbEntity
  8
0
100
AcDbLine
 10
275.632
 20
1111.099999999999
 30
0.0
 11
275.754
 21
1110.0
 31
0.0
  0
LINE
  5
838
330
1E
100
AcDbEntity
  8
0
100
AcDbLine
 10
275.754
 20
1110.0
 30
0.0
 11
275.862
 21
1108.1
 31
0.0
  0
LINE
  5
839
330
1E
100
AcDbEntity
  8
0
100
AcDbLine
 10
275.862
 20
1108.1
 30
0.0
 11
275.9479999999999
 21
1105.7
 31
0.0
  0
LINE
  5
83A
330
1E
100
AcDbEntity
  8
0
100
AcDbLine
 10
275.9479999999999
 20
1105.7
 30
0.0
 11
275.998
 21
1103.0
 31
0.0
  0
LINE
  5
83B
330
1E
100
AcDbEntity
  8
0
100
AcDbLine
 10
275.998
 20
1103.0
 30
0.0
 11
276.0159999999999
 21
1100.0
 31
0.0
  0
LINE
  5
83C
330
1E
100
AcDbEntity
  8
0
100
AcDbLine
 10
275.9479999999999
 20
1094.3
 30
0.0
 11
275.998
 21
1097.0
 31
0.0
  0
LINE
  5
83D
330
1E
100
AcDbEntity
  8
0
100
AcDbLine
 10
275.998
 20
1097.0
 30
0.0
 11
276.0159999999999
 21
1100.0
 31
0.0
  0
LINE
  5
83E
330
1E
100
AcDbEntity
  8
0
100
AcDbLine
 10
276.043636363636
 20
1111.5
 30
0.0
 11
276.057
 21
1111.9
 31
0.0
  0
LINE
  5
83F
330
1E
100
AcDbEntity
  8
0
100
AcDbLine
 10
276.0704999999999
 20
1088.5
 30
0.0
 11
276.158
 21
1087.0
 31
0.0
  0
LINE
  5
840
330
1E
100
AcDbEntity
  8
0
100
AcDbLine
 10
276.050836226548
 20
1088.437822198839
 30
0.0
 11
276.057
 21
1088.099999999999
 31
0.0
  0
LINE
  5
841
330
1E
100
AcDbEntity
  8
0
100
AcDbLine
 10
276.4959999999999
 20
1088.5
 30
0.0
 11
276.924278969957
 21
1088.54763948498
 31
0.0
  0
LINE
  5
842
330
1E
100
AcDbEntity
  8
0
100
AcDbLine
 10
276.974
 20
1089.4
 30
0.0
 11
277.0829999999999
 21
1092.5
 31
0.0
  0
LINE
  5
843
330
1E
100
AcDbEntity
  8
0
100
AcDbLine
 10
276.0704999999999
 20
1111.5
 30
0.0
 11
276.158
 21
1113.0
 31
0.0
  0
LINE
  5
844
330
1E
100
AcDbEntity
  8
0
100
AcDbLine
 10
276.050836226548
 20
1111.56217780116
 30
0.0
 11
276.057
 21
1111.9
 31
0.0
  0
LINE
  5
845
330
1E
100
AcDbEntity
  8
0
100
AcDbLine
 10
276.4959999999999
 20
1111.5
 30
0.0
 11
276.924278969957
 21
1111.45236051502
 31
0.0
  0
LINE
  5
846
330
1E
100
AcDbEntity
  8
0
100
AcDbLine
 10
276.974
 20
1110.6
 30
0.0
 11
277.0829999999999
 21
1107.5
 31
0.0
  0
LINE
  5
847
330
1E
100
AcDbEntity
  8
0
100
AcDbLine
 10
277.0829999999999
 20
1107.5
 30
0.0
 11
277.1499999999999
 21
1103.9
 31
0.0
  0
LINE
  5
848
330
1E
100
AcDbEntity
  8
0
100
AcDbLine
 10
277.1499999999999
 20
1103.9
 30
0.0
 11
277.173
 21
1100.0
 31
0.0
  0
LINE
  5
849
330
1E
100
AcDbEntity
  8
0
100
AcDbLine
 10
277.0829999999999
 20
1092.5
 30
0.0
 11
277.1499999999999
 21
1096.099999999999
 31
0.0
  0
LINE
  5
84A
330
1E
100
AcDbEntity
  8
0
100
AcDbLine
 10
277.934
 20
1111.9
 30
0.0
 11
278.038
 21
1106.2
 31
0.0
  0
LINE
  5
84B
330
1E
100
AcDbEntity
  8
0
100
AcDbLine
 10
277.1499999999999
 20
1096.099999999999
 30
0.0
 11
277.173
 21
1100.0
 31
0.0
  0
LINE
  5
84C
330
1E
100
AcDbEntity
  8
0
100
AcDbLine
 10
276.158
 20
1113.0
 30
0.0
 11
276.3199999999999
 21
1114.5
 31
0.0
  0
LINE
  5
84D
330
1E
100
AcDbEntity
  8
0
100
AcDbLine
 10
276.3199999999999
 20
1114.5
 30
0.0
 11
276.4959999999999
 21
1115.0
 31
0.0
  0
LINE
  5
84E
330
1E
100
AcDbEntity
  8
0
100
AcDbLine
 10
276.4959999999999
 20
1115.0
 30
0.0
 11
276.672
 21
1114.5
 31
0.0
  0
LINE
  5
84F
330
1E
100
AcDbEntity
  8
0
100
AcDbLine
 10
276.672
 20
1114.5
 30
0.0
 11
276.834
 21
1113.0
 31
0.0
  0
LINE
  5
850
330
1E
100
AcDbEntity
  8
0
100
AcDbLine
 10
276.834
 20
1113.0
 30
0.0
 11
276.974
 21
1110.6
 31
0.0
  0
LINE
  5
851
330
1E
100
AcDbEntity
  8
0
100
AcDbLine
 10
277.5319999999999
 20
1120.8
 30
0.0
 11
277.7579999999999
 21
1116.9
 31
0.0
  0
LINE
  5
852
330
1E
100
AcDbEntity
  8
0
100
AcDbLine
 10
277.7579999999999
 20
1116.9
 30
0.0
 11
277.934
 21
1111.9
 31
0.0
  0
LINE
  5
853
330
1E
100
AcDbEntity
  8
0
100
AcDbLine
 10
276.9959999999999
 20
1124.0
 30
0.0
 11
277.9949999999999
 21
1125.0
 31
0.0
  0
LINE
  5
854
330
1E
100
AcDbEntity
  8
0
100
AcDbLine
 10
276.9959999999999
 20
1124.0
 30
0.0
 11
277.2749999999999
 21
1123.099999999999
 31
0.0
  0
LINE
  5
855
330
1E
100
AcDbEntity
  8
0
100
AcDbLine
 10
277.9949999999999
 20
1125.0
 30
0.0
 11
278.283
 21
1124.1
 31
0.0
  0
LINE
  5
856
330
1E
100
AcDbEntity
  8
0
100
AcDbLine
 10
277.2749999999999
 20
1123.099999999999
 30
0.0
 11
277.5319999999999
 21
1120.8
 31
0.0
  0
LINE
  5
857
330
1E
100
AcDbEntity
  8
0
100
AcDbLine
 10
276.716
 20
1123.099999999999
 30
0.0
 11
276.9959999999999
 21
1124.0
 31
0.0
  0
LINE
  5
858
330
1E
100
AcDbEntity
  8
0
100
AcDbLine
 10
276.459
 20
1120.8
 30
0.0
 11
276.716
 21
1123.099999999999
 31
0.0
  0
LINE
  5
859
330
1E
100
AcDbEntity
  8
0
100
AcDbLine
 10
276.2329999999999
 20
1116.9
 30
0.0
 11
276.459
 21
1120.8
 31
0.0
  0
LINE
  5
85A
330
1E
100
AcDbEntity
  8
0
100
AcDbLine
 10
276.057
 20
1111.9
 30
0.0
 11
276.2329999999999
 21
1116.9
 31
0.0
  0
LINE
  5
85B
330
1E
100
AcDbEntity
  8
0
100
AcDbLine
 10
276.043636363636
 20
1088.5
 30
0.0
 11
276.057
 21
1088.099999999999
 31
0.0
  0
LINE
  5
85C
330
1E
100
AcDbEntity
  8
0
100
AcDbLine
 10
276.057
 20
1088.099999999999
 30
0.0
 11
276.2329999999999
 21
1083.099999999999
 31
0.0
  0
LINE
  5
85D
330
1E
100
AcDbEntity
  8
0
100
AcDbLine
 10
275.497
 20
1088.5
 30
0.0
 11
276.043636363636
 21
1088.5
 31
0.0
  0
LINE
  5
85E
330
1E
100
AcDbEntity
  8
0
100
AcDbLine
 10
275.497
 20
1088.5
 30
0.0
 11
275.632
 21
1088.9
 31
0.0
  0
LINE
  5
85F
330
1E
100
AcDbEntity
  8
0
100
AcDbLine
 10
275.497
 20
1088.5
 30
0.0
 11
276.4959999999999
 21
1088.5
 31
0.0
  0
LINE
  5
860
330
1E
100
AcDbEntity
  8
0
100
AcDbLine
 10
278.0
 20
1010.0
 30
0.0
 11
278.0
 21
1015.12
 31
0.0
  0
LINE
  5
861
330
1E
100
AcDbEntity
  8
0
100
AcDbLine
 10
278.0
 20
1015.12
 30
0.0
 11
278.0
 21
1019.919999999999
 31
0.0
  0
LINE
  5
862
330
1E
100
AcDbEntity
  8
0
100
AcDbLine
 10
278.0
 20
1004.879999999999
 30
0.0
 11
278.0
 21
1010.0
 31
0.0
  0
LINE
  5
863
330
1E
100
AcDbEntity
  8
0
100
AcDbLine
 10
278.0
 20
1000.08
 30
0.0
 11
278.0
 21
1004.879999999999
 31
0.0
  0
LINE
  5
864
330
1E
100
AcDbEntity
  8
0
100
AcDbLine
 10
278.0
 20
995.8400000000001
 30
0.0
 11
278.0
 21
1000.08
 31
0.0
  0
LINE
  5
865
330
1E
100
AcDbEntity
  8
0
100
AcDbLine
 10
278.0
 20
992.6399999999999
 30
0.0
 11
278.0
 21
995.8400000000001
 31
0.0
  0
LINE
  5
866
330
1E
100
AcDbEntity
  8
0
100
AcDbLine
 10
278.0
 20
990.7200000000001
 30
0.0
 11
278.0
 21
992.6399999999999
 31
0.0
  0
LINE
  5
867
330
1E
100
AcDbEntity
  8
0
100
AcDbLine
 10
278.0
 20
1019.919999999999
 30
0.0
 11
278.0
 21
1024.16
 31
0.0
  0
LINE
  5
868
330
1E
100
AcDbEntity
  8
0
100
AcDbLine
 10
278.0
 20
1024.16
 30
0.0
 11
278.0
 21
1027.36
 31
0.0
  0
LINE
  5
869
330
1E
100
AcDbEntity
  8
0
100
AcDbLine
 10
278.0
 20
1027.36
 30
0.0
 11
278.0
 21
1029.279999999999
 31
0.0
  0
LINE
  5
86A
330
1E
100
AcDbEntity
  8
0
100
AcDbLine
 10
278.038
 20
1106.2
 30
0.0
 11
278.0779999999999
 21
1100.0
 31
0.0
  0
LINE
  5
86B
330
1E
100
AcDbEntity
  8
0
100
AcDbLine
 10
278.283
 20
1075.9
 30
0.0
 11
278.554
 21
1078.3
 31
0.0
  0
LINE
  5
86D
330
1E
100
AcDbEntity
  8
0
100
AcDbLine
 10
278.554
 20
1078.3
 30
0.0
 11
278.793
 21
1082.3
 31
0.0
  0
LINE
  5
86E
330
1E
100
AcDbEntity
  8
0
100
AcDbLine
 10
278.793
 20
1082.3
 30
0.0
 11
278.974
 21
1087.599999999999
 31
0.0
  0
LINE
  5
86F
330
1E
100
AcDbEntity
  8
0
100
AcDbLine
 10
278.038
 20
1093.8
 30
0.0
 11
278.0779999999999
 21
1100.0
 31
0.0
  0
LINE
  5
871
330
1E
100
AcDbEntity
  8
0
100
AcDbLine
 10
278.0
 20
1124.984375
 30
0.0
 11
278.0
 21
1825.0
 31
0.0
  0
LINE
  5
872
330
1E
100
AcDbEntity
  8
0
100
AcDbLine
 10
278.283
 20
1124.1
 30
0.0
 11
278.554
 21
1121.7
 31
0.0
  0
LINE
  5
873
330
1E
100
AcDbEntity
  8
0
100
AcDbLine
 10
278.554
 20
1121.7
 30
0.0
 11
278.793
 21
1117.7
 31
0.0
  0
LINE
  5
874
330
1E
100
AcDbEntity
  8
0
100
AcDbLine
 10
278.793
 20
1117.7
 30
0.0
 11
278.974
 21
1112.4
 31
0.0
  0
LINE
  5
878
330
1E
100
AcDbEntity
  8
0
100
AcDbLine
 10
278.974
 20
1087.599999999999
 30
0.0
 11
279.082
 21
1093.6
 31
0.0
  0
LINE
  5
87B
330
1E
100
AcDbEntity
  8
0
100
AcDbLine
 10
278.974
 20
1112.4
 30
0.0
 11
279.082
 21
1106.4
 31
0.0
  0
LINE
  5
87C
330
1E
100
AcDbEntity
  8
0
100
AcDbLine
 10
306.0
 20
1100.0
 30
0.0
 11
306.0
 21
1825.0
 31
0.0
  0
LINE
  5
87D
330
1E
100
AcDbEntity
  8
0
100
AcDbLine
 10
281.0
 20
1100.0
 30
0.0
 11
281.0
 21
1825.0
 31
0.0
  0
LINE
  5
87E
330
1E
100
AcDbEntity
  8
0
100
AcDbLine
 10
373.0
 20
1169.0
 30
0.0
 11
374.0
 21
1169.0
 31
0.0
  0
LINE
  5
87F
330
1E
100
AcDbEntity
  8
0
100
AcDbLine
 10
373.0
 20
1169.0
 30
0.0
 11
373.0
 21
1170.0
 31
0.0
  0
LINE
  5
880
330
1E
100
AcDbEntity
  8
0
100
AcDbLine
 10
308.0
 20
1169.0
 30
0.0
 11
373.0
 21
1169.0
 31
0.0
  0
LINE
  5
881
330
1E
100
AcDbEntity
  8
0
100
AcDbLine
 10
308.0
 20
1169.0
 30
0.0
 11
308.0
 21
1170.0
 31
0.0
  0
LINE
  5
885
330
1E
100
AcDbEntity
  8
0
100
AcDbLine
 10
308.0
 20
1430.0
 30
0.0
 11
310.0
 21
1430.0
 31
0.0
  0
LINE
  5
886
330
1E
100
AcDbEntity
  8
0
100
AcDbLine
 10
307.0
 20
1430.0
 30
0.0
 11
307.0
 21
1402.0
 31
0.0
  0
LINE
  5
887
330
1E
100
AcDbEntity
  8
0
100
AcDbLine
 10
307.0
 20
1430.0
 30
0.0
 11
308.0
 21
1430.0
 31
0.0
  0
LINE
  5
888
330
1E
100
AcDbEntity
  8
0
100
AcDbLine
 10
307.0
 20
1402.0
 30
0.0
 11
307.0
 21
1430.0
 31
0.0
  0
LINE
  5
88A
330
1E
100
AcDbEntity
  8
0
100
AcDbLine
 10
371.4999999999999
 20
1400.0
 30
0.0
 11
372.0
 21
1400.0
 31
0.0
  0
LINE
  5
88B
330
1E
100
AcDbEntity
  8
0
100
AcDbLine
 10
371.0
 20
1400.0
 30
0.0
 11
371.4999999999999
 21
1400.0
 31
0.0
  0
LINE
  5
88C
330
1E
100
AcDbEntity
  8
0
100
AcDbLine
 10
310.0
 20
1400.0
 30
0.0
 11
371.0
 21
1400.0
 31
0.0
  0
LINE
  5
88E
330
1E
100
AcDbEntity
  8
0
100
AcDbLine
 10
310.0
 20
1430.0
 30
0.0
 11
371.0
 21
1430.0
 31
0.0
  0
LINE
  5
88F
330
1E
100
AcDbEntity
  8
0
100
AcDbLine
 10
374.0
 20
1402.0
 30
0.0
 11
374.0
 21
1430.0
 31
0.0
  0
LINE
  5
892
330
1E
100
AcDbEntity
  8
0
100
AcDbLine
 10
374.0
 20
1430.0
 30
0.0
 11
374.0
 21
1402.0
 31
0.0
  0
LINE
  5
894
330
1E
100
AcDbEntity
  8
0
100
AcDbLine
 10
373.0
 20
1430.0
 30
0.0
 11
374.0
 21
1430.0
 31
0.0
  0
LINE
  5
896
330
1E
100
AcDbEntity
  8
0
100
AcDbLine
 10
371.0
 20
1430.0
 30
0.0
 11
373.0
 21
1430.0
 31
0.0
  0
LINE
  5
89B
330
1E
100
AcDbEntity
  8
0
100
AcDbLine
 10
309.5
 20
1400.0
 30
0.0
 11
310.0
 21
1400.0
 31
0.0
  0
LINE
  5
89C
330
1E
100
AcDbEntity
  8
0
100
AcDbLine
 10
309.0
 20
1400.0
 30
0.0
 11
372.0
 21
1400.0
 31
0.0
  0
LINE
  5
89D
330
1E
100
AcDbEntity
  8
0
100
AcDbLine
 10
309.0
 20
1400.0
 30
0.0
 11
309.5
 21
1400.0
 31
0.0
  0
LINE
  5
89E
330
1E
100
AcDbEntity
  8
0
100
AcDbLine
 10
373.0
 20
1170.0
 30
0.0
 11
374.0
 21
1169.0
 31
0.0
  0
LINE
  5
89F
330
1E
100
AcDbEntity
  8
0
100
AcDbLine
 10
373.0
 20
1170.0
 30
0.0
 11
373.0
 21
1169.0
 31
0.0
  0
LINE
  5
8A0
330
1E
100
AcDbEntity
  8
0
100
AcDbLine
 10
308.0
 20
1170.0
 30
0.0
 11
308.0
 21
1169.0
 31
0.0
  0
LINE
  5
8A1
330
1E
100
AcDbEntity
  8
0
100
AcDbLine
 10
308.0
 20
1170.0
 30
0.0
 11
373.0
 21
1170.0
 31
0.0
  0
LINE
  5
8A2
330
1E
100
AcDbEntity
  8
0
100
AcDbLine
 10
307.0
 20
1169.0
 30
0.0
 11
308.0
 21
1169.0
 31
0.0
  0
LINE
  5
8A3
330
1E
100
AcDbEntity
  8
0
100
AcDbLine
 10
307.0
 20
1169.0
 30
0.0
 11
308.0
 21
1170.0
 31
0.0
  0
LINE
  5
8A4
330
1E
100
AcDbEntity
  8
0
100
AcDbLine
 10
279.082
 20
1106.4
 30
0.0
 11
279.122
 21
1100.0
 31
0.0
  0
LINE
  5
8A5
330
1E
100
AcDbEntity
  8
0
100
AcDbLine
 10
279.082
 20
1093.6
 30
0.0
 11
279.122
 21
1100.0
 31
0.0
  0
LINE
  5
8A7
330
1E
100
AcDbEntity
  8
0
100
AcDbLine
 10
278.0
 20
1029.279999999999
 30
0.0
 11
278.0
 21
1030.0
 31
0.0
  0
LINE
  5
8A8
330
1E
100
AcDbEntity
  8
0
100
AcDbLine
 10
278.0
 20
990.0
 30
0.0
 11
278.0
 21
990.7200000000001
 31
0.0
  0
LINE
  5
8A9
330
1E
100
AcDbEntity
  8
0
100
AcDbLine
 10
278.0
 20
925.0
 30
0.0
 11
278.0
 21
924.0999999999999
 31
0.0
  0
LINE
  5
8AA
330
1E
100
AcDbEntity
  8
0
100
AcDbLine
 10
264.0
 20
925.0
 30
0.0
 11
264.0
 21
924.0999999999999
 31
0.0
  0
LINE
  5
8AB
330
1E
100
AcDbEntity
  8
0
100
AcDbLine
 10
264.0
 20
924.0999999999999
 30
0.0
 11
264.0
 21
925.0
 31
0.0
  0
LINE
  5
8AC
330
1E
100
AcDbEntity
  8
0
100
AcDbLine
 10
264.0
 20
924.0999999999999
 30
0.0
 11
264.0
 21
921.7
 31
0.0
  0
LINE
  5
8AD
330
1E
100
AcDbEntity
  8
0
100
AcDbLine
 10
165.279
 20
1688.0
 30
0.0
 11
166.354
 21
1688.64
 31
0.0
  0
LINE
  5
8AE
330
1E
100
AcDbEntity
  8
0
100
AcDbLine
 10
166.354
 20
1688.64
 30
0.0
 11
171.3309999999999
 21
1700.61
 31
0.0
  0
LINE
  5
8AF
330
1E
100
AcDbEntity
  8
0
100
AcDbLine
 10
165.5229999999999
 20
1688.98
 30
0.0
 11
166.354
 21
1688.64
 31
0.0
  0
LINE
  5
8B0
330
1E
100
AcDbEntity
  8
0
100
AcDbLine
 10
162.299
 20
1689.23
 30
0.0
 11
164.447
 21
1688.339999999999
 31
0.0
  0
LINE
  5
8B1
330
1E
100
AcDbEntity
  8
0
100
AcDbLine
 10
164.447
 20
1688.339999999999
 30
0.0
 11
165.279
 21
1688.0
 31
0.0
  0
LINE
  5
8B2
330
1E
100
AcDbEntity
  8
0
100
AcDbLine
 10
158.275
 20
1688.73
 30
0.0
 11
159.037953995125
 21
1690.575052145069
 31
0.0
  0
LINE
  5
8B3
330
1E
100
AcDbEntity
  8
0
100
AcDbLine
 10
156.6195925210059
 20
1691.574177991979
 30
0.0
 11
157.652847571447
 21
1691.147231764309
 31
0.0
  0
LINE
  5
8B4
330
1E
100
AcDbEntity
  8
0
100
AcDbLine
 10
159.839
 20
1691.329999999999
 30
0.0
 11
163.3739999999999
 21
1689.869999999999
 31
0.0
  0
LINE
  5
8B5
330
1E
100
AcDbEntity
  8
0
100
AcDbLine
 10
163.3739999999999
 20
1689.869999999999
 30
0.0
 11
165.5229999999999
 21
1688.98
 31
0.0
  0
LINE
  5
8B6
330
1E
100
AcDbEntity
  8
0
100
AcDbLine
 10
158.8319999999999
 20
1690.66
 30
0.0
 11
162.299
 21
1689.23
 31
0.0
  0
LINE
  5
8B7
330
1E
100
AcDbEntity
  8
0
100
AcDbLine
 10
156.888
 20
1689.31
 30
0.0
 11
158.275
 21
1688.73
 31
0.0
  0
LINE
  5
8B8
330
1E
100
AcDbEntity
  8
0
100
AcDbLine
 10
156.888
 20
1689.31
 30
0.0
 11
157.652847571447
 21
1691.147231764309
 31
0.0
  0
LINE
  5
8B9
330
1E
100
AcDbEntity
  8
0
100
AcDbLine
 10
155.857
 20
1689.73
 30
0.0
 11
156.6195925210059
 21
1691.574177991979
 31
0.0
  0
LINE
  5
8BA
330
1E
100
AcDbEntity
  8
0
100
AcDbLine
 10
155.959295802187
 20
1691.84701594531
 30
0.0
 11
156.263
 21
1691.72
 31
0.0
  0
LINE
  5
8BB
330
1E
100
AcDbEntity
  8
0
100
AcDbLine
 10
156.263
 20
1691.72
 30
0.0
 11
156.3285892529409
 21
1691.69442201835
 31
0.0
  0
LINE
  5
8BC
330
1E
100
AcDbEntity
  8
0
100
AcDbLine
 10
155.497
 20
1689.88
 30
0.0
 11
156.263
 21
1691.72
 31
0.0
  0
LINE
  5
8BD
330
1E
100
AcDbEntity
  8
0
100
AcDbLine
 10
155.497
 20
1689.88
 30
0.0
 11
155.857
 21
1689.73
 31
0.0
  0
LINE
  5
8BE
330
1E
100
AcDbEntity
  8
0
100
AcDbLine
 10
155.1949999999999
 20
1693.24
 30
0.0
 11
159.839
 21
1691.329999999999
 31
0.0
  0
LINE
  5
8BF
330
1E
100
AcDbEntity
  8
0
100
AcDbLine
 10
154.2579999999999
 20
1692.549999999999
 30
0.0
 11
158.8319999999999
 21
1690.66
 31
0.0
  0
LINE
  5
8C0
330
1E
100
AcDbEntity
  8
0
100
AcDbLine
 10
154.2579999999999
 20
1692.549999999999
 30
0.0
 11
154.9221633883769
 21
1692.27556431919
 31
0.0
  0
LINE
  5
8C1
330
1E
100
AcDbEntity
  8
0
100
AcDbLine
 10
155.959295802187
 20
1691.84701594531
 30
0.0
 11
156.263
 21
1691.72
 31
0.0
  0
LINE
  5
8C2
330
1E
100
AcDbEntity
  8
0
100
AcDbLine
 10
154.1579999999999
 20
1690.43
 30
0.0
 11
155.497
 21
1689.88
 31
0.0
  0
LINE
  5
8C3
330
1E
100
AcDbEntity
  8
0
100
AcDbLine
 10
154.1579999999999
 20
1690.43
 30
0.0
 11
154.9221633883769
 21
1692.27556431919
 31
0.0
  0
LINE
  5
8C4
330
1E
100
AcDbEntity
  8
0
100
AcDbLine
 10
145.8129999999999
 20
1693.88
 30
0.0
 11
146.579
 21
1695.72
 31
0.0
  0
LINE
  5
8C5
330
1E
100
AcDbEntity
  8
0
100
AcDbLine
 10
145.455
 20
1694.03
 30
0.0
 11
146.2199999999999
 21
1695.87
 31
0.0
  0
LINE
  5
8C6
330
1E
100
AcDbEntity
  8
0
100
AcDbLine
 10
145.455
 20
1694.03
 30
0.0
 11
145.8129999999999
 21
1693.88
 31
0.0
  0
LINE
  5
8C7
330
1E
100
AcDbEntity
  8
0
100
AcDbLine
 10
147.256
 20
1695.44
 30
0.0
 11
147.416600000003
 21
1695.374
 31
0.0
  0
LINE
  5
8C8
330
1E
100
AcDbEntity
  8
0
100
AcDbLine
 10
148.690483818136
 20
1694.85137238835
 30
0.0
 11
154.2579999999999
 21
1692.549999999999
 31
0.0
  0
LINE
  5
8C9
330
1E
100
AcDbEntity
  8
0
100
AcDbLine
 10
149.026
 20
1695.789999999999
 30
0.0
 11
155.1949999999999
 21
1693.24
 31
0.0
  0
LINE
  5
8CA
330
1E
100
AcDbEntity
  8
0
100
AcDbLine
 10
148.089
 20
1695.1
 30
0.0
 11
154.2579999999999
 21
1692.549999999999
 31
0.0
  0
LINE
  5
8CB
330
1E
100
AcDbEntity
  8
0
100
AcDbLine
 10
148.690483818136
 20
1694.85137238835
 30
0.0
 11
149.1709999999999
 21
1694.65
 31
0.0
  0
LINE
  5
8CC
330
1E
100
AcDbEntity
  8
0
100
AcDbLine
 10
148.690483818136
 20
1694.85137238835
 30
0.0
 11
154.2579999999999
 21
1692.549999999999
 31
0.0
  0
LINE
  5
8CD
330
1E
100
AcDbEntity
  8
0
100
AcDbLine
 10
147.278
 20
1695.429999999999
 30
0.0
 11
148.2535480623619
 21
1695.0319828888
 31
0.0
  0
LINE
  5
8CE
330
1E
100
AcDbEntity
  8
0
100
AcDbLine
 10
147.278
 20
1695.429999999999
 30
0.0
 11
147.830066878978
 21
1695.206942675159
 31
0.0
  0
LINE
  5
8CF
330
1E
100
AcDbEntity
  8
0
100
AcDbLine
 10
145.8785498783709
 20
1696.01294403892
 30
0.0
 11
147.830066878978
 21
1695.206942675159
 31
0.0
  0
LINE
  5
8D0
330
1E
100
AcDbEntity
  8
0
100
AcDbLine
 10
145.8785498783709
 20
1696.01294403892
 30
0.0
 11
146.579
 21
1695.72
 31
0.0
  0
LINE
  5
8D1
330
1E
100
AcDbEntity
  8
0
100
AcDbLine
 10
145.8785498783709
 20
1696.01294403892
 30
0.0
 11
147.830066878978
 21
1695.206942675159
 31
0.0
  0
LINE
  5
8D2
330
1E
100
AcDbEntity
  8
0
100
AcDbLine
 10
145.8785498783709
 20
1696.01294403892
 30
0.0
 11
146.579
 21
1695.72
 31
0.0
  0
LINE
  5
8D3
330
1E
100
AcDbEntity
  8
0
100
AcDbLine
 10
146.2199999999999
 20
1695.87
 30
0.0
 11
146.579
 21
1695.72
 31
0.0
  0
LINE
  5
8D4
330
1E
100
AcDbEntity
  8
0
100
AcDbLine
 10
144.8809999999999
 20
1696.42
 30
0.0
 11
146.2199999999999
 21
1695.87
 31
0.0
  0
LINE
  5
8D5
330
1E
100
AcDbEntity
  8
0
100
AcDbLine
 10
144.8809999999999
 20
1696.42
 30
0.0
 11
145.095614227084
 21
1696.336306429549
 31
0.0
  0
LINE
  5
8D6
330
1E
100
AcDbEntity
  8
0
100
AcDbLine
 10
144.8809999999999
 20
1696.42
 30
0.0
 11
145.095614227084
 21
1696.336306429549
 31
0.0
  0
LINE
  5
8D7
330
1E
100
AcDbEntity
  8
0
100
AcDbLine
 10
144.115
 20
1694.58
 30
0.0
 11
145.455
 21
1694.03
 31
0.0
  0
LINE
  5
8D8
330
1E
100
AcDbEntity
  8
0
100
AcDbLine
 10
144.115
 20
1694.58
 30
0.0
 11
144.8809999999999
 21
1696.42
 31
0.0
  0
LINE
  5
8D9
330
1E
100
AcDbEntity
  8
0
100
AcDbLine
 10
144.115
 20
1694.58
 30
0.0
 11
144.4739999999999
 21
1694.43
 31
0.0
  0
LINE
  5
8DA
330
1E
100
AcDbEntity
  8
0
100
AcDbLine
 10
139.402
 20
1696.53
 30
0.0
 11
140.1679999999999
 21
1698.369999999999
 31
0.0
  0
LINE
  5
8DB
330
1E
100
AcDbEntity
  8
0
100
AcDbLine
 10
139.8860049423439
 20
1698.48800658978
 30
0.0
 11
141.019
 21
1698.02
 31
0.0
  0
LINE
  5
8DC
330
1E
100
AcDbEntity
  8
0
100
AcDbLine
 10
138.345120000002
 20
1696.9612
 30
0.0
 11
138.708
 21
1696.81
 31
0.0
  0
LINE
  5
8DD
330
1E
100
AcDbEntity
  8
0
100
AcDbLine
 10
139.886004942345
 20
1698.48800658978
 30
0.0
 11
141.019
 21
1698.02
 31
0.0
  0
LINE
  5
8DE
330
1E
100
AcDbEntity
  8
0
100
AcDbLine
 10
141.019
 20
1698.02
 30
0.0
 11
148.089
 21
1695.1
 31
0.0
  0
LINE
  5
8DF
330
1E
100
AcDbEntity
  8
0
100
AcDbLine
 10
141.019
 20
1698.02
 30
0.0
 11
145.095614227084
 21
1696.336306429549
 31
0.0
  0
LINE
  5
8E0
330
1E
100
AcDbEntity
  8
0
100
AcDbLine
 10
171.021
 20
1701.82
 30
0.0
 11
171.3309999999999
 21
1700.61
 31
0.0
  0
LINE
  5
8E1
330
1E
100
AcDbEntity
  8
0
100
AcDbLine
 10
168.3499999999999
 20
1701.85
 30
0.0
 11
170.499
 21
1700.96
 31
0.0
  0
LINE
  5
8E2
330
1E
100
AcDbEntity
  8
0
100
AcDbLine
 10
170.499
 20
1700.96
 30
0.0
 11
171.3309999999999
 21
1700.61
 31
0.0
  0
LINE
  5
8E3
330
1E
100
AcDbEntity
  8
0
100
AcDbLine
 10
141.887
 20
1698.74
 30
0.0
 11
149.026
 21
1695.789999999999
 31
0.0
  0
LINE
  5
8E4
330
1E
100
AcDbEntity
  8
0
100
AcDbLine
 10
139.886004942345
 20
1698.48800658978
 30
0.0
 11
140.1679999999999
 21
1698.369999999999
 31
0.0
  0
LINE
  5
8E5
330
1E
100
AcDbEntity
  8
0
100
AcDbLine
 10
139.886004942345
 20
1698.48800658978
 30
0.0
 11
140.1679999999999
 21
1698.369999999999
 31
0.0
  0
LINE
  5
8E6
330
1E
100
AcDbEntity
  8
0
100
AcDbLine
 10
138.708
 20
1696.81
 30
0.0
 11
139.474214360708
 21
1698.65810504212
 31
0.0
  0
LINE
  5
8E7
330
1E
100
AcDbEntity
  8
0
100
AcDbLine
 10
138.708
 20
1696.81
 30
0.0
 11
139.402
 21
1696.53
 31
0.0
  0
LINE
  5
8E8
330
1E
100
AcDbEntity
  8
0
100
AcDbLine
 10
138.274
 20
1699.15
 30
0.0
 11
139.0378311425749
 21
1698.838361981799
 31
0.0
  0
LINE
  5
8E9
330
1E
100
AcDbEntity
  8
0
100
AcDbLine
 10
138.274
 20
1699.15
 30
0.0
 11
138.6774436229269
 21
1698.98722735674
 31
0.0
  0
LINE
  5
8EA
330
1E
100
AcDbEntity
  8
0
100
AcDbLine
 10
138.274
 20
1699.15
 30
0.0
 11
139.0378311425749
 21
1698.838361981799
 31
0.0
  0
LINE
  5
8EB
330
1E
100
AcDbEntity
  8
0
100
AcDbLine
 10
138.274
 20
1699.15
 30
0.0
 11
138.6774436229269
 21
1698.98722735674
 31
0.0
  0
LINE
  5
8EC
330
1E
100
AcDbEntity
  8
0
100
AcDbLine
 10
131.055681347176
 20
1702.13532815198
 30
0.0
 11
131.1639999999999
 21
1702.09
 31
0.0
  0
LINE
  5
8ED
330
1E
100
AcDbEntity
  8
0
100
AcDbLine
 10
131.055681347176
 20
1702.13532815198
 30
0.0
 11
131.1639999999999
 21
1702.09
 31
0.0
  0
LINE
  5
8EE
330
1E
100
AcDbEntity
  8
0
100
AcDbLine
 10
130.3979999999999
 20
1700.25
 30
0.0
 11
131.1639999999999
 21
1702.09
 31
0.0
  0
LINE
  5
8EF
330
1E
100
AcDbEntity
  8
0
100
AcDbLine
 10
170.189
 20
1702.17
 30
0.0
 11
171.021
 21
1701.82
 31
0.0
  0
LINE
  5
8F0
330
1E
100
AcDbEntity
  8
0
100
AcDbLine
 10
131.055681347176
 20
1702.13532815198
 30
0.0
 11
131.1639999999999
 21
1702.09
 31
0.0
  0
LINE
  5
8F1
330
1E
100
AcDbEntity
  8
0
100
AcDbLine
 10
129.704
 20
1700.529999999999
 30
0.0
 11
130.469857458033
 21
1702.37724419473
 31
0.0
  0
LINE
  5
8F2
330
1E
100
AcDbEntity
  8
0
100
AcDbLine
 10
129.704
 20
1700.529999999999
 30
0.0
 11
130.3979999999999
 21
1700.25
 31
0.0
  0
LINE
  5
8F3
330
1E
100
AcDbEntity
  8
0
100
AcDbLine
 10
125.697
 20
1702.19
 30
0.0
 11
127.0829999999999
 21
1701.619999999999
 31
0.0
  0
LINE
  5
8F4
330
1E
100
AcDbEntity
  8
0
100
AcDbLine
 10
129.3530769230829
 20
1702.83643356643
 30
0.0
 11
129.575898876403
 21
1702.74640449438
 31
0.0
  0
LINE
  5
8F5
330
1E
100
AcDbEntity
  8
0
100
AcDbLine
 10
129.3530769230829
 20
1702.83643356643
 30
0.0
 11
129.575898876403
 21
1702.74640449438
 31
0.0
  0
LINE
  5
8F6
330
1E
100
AcDbEntity
  8
0
100
AcDbLine
 10
129.383480314967
 20
1702.8237007874
 30
0.0
 11
129.8198473917779
 21
1702.645665926749
 31
0.0
  0
LINE
  5
8F7
330
1E
100
AcDbEntity
  8
0
100
AcDbLine
 10
129.383480314967
 20
1702.8237007874
 30
0.0
 11
129.8198473917779
 21
1702.645665926749
 31
0.0
  0
LINE
  5
8F8
330
1E
100
AcDbEntity
  8
0
100
AcDbLine
 10
125.727
 20
1702.18
 30
0.0
 11
126.492818099087
 21
1704.01956305786
 31
0.0
  0
LINE
  5
8F9
330
1E
100
AcDbEntity
  8
0
100
AcDbLine
 10
125.3679999999999
 20
1702.32
 30
0.0
 11
126.134052754357
 21
1704.16771524845
 31
0.0
  0
LINE
  5
8FA
330
1E
100
AcDbEntity
  8
0
100
AcDbLine
 10
125.3679999999999
 20
1702.32
 30
0.0
 11
125.727
 21
1702.18
 31
0.0
  0
LINE
  5
8FB
330
1E
100
AcDbEntity
  8
0
100
AcDbLine
 10
125.3679999999999
 20
1702.32
 30
0.0
 11
125.69760856994
 21
1702.191461839019
 31
0.0
  0
LINE
  5
8FC
330
1E
100
AcDbEntity
  8
0
100
AcDbLine
 10
122.430675521788
 20
1705.696883828809
 30
0.0
 11
122.4949999999999
 21
1705.67
 31
0.0
  0
LINE
  5
8FD
330
1E
100
AcDbEntity
  8
0
100
AcDbLine
 10
121.7289999999999
 20
1703.829999999999
 30
0.0
 11
122.4949999999999
 21
1705.67
 31
0.0
  0
LINE
  5
8FE
330
1E
100
AcDbEntity
  8
0
100
AcDbLine
 10
124.5579999999999
 20
1705.9
 30
0.0
 11
133.7069999999999
 21
1702.12
 31
0.0
  0
LINE
  5
8FF
330
1E
100
AcDbEntity
  8
0
100
AcDbLine
 10
123.8279999999999
 20
1705.119999999999
 30
0.0
 11
132.9089999999999
 21
1701.37
 31
0.0
  0
LINE
  5
900
330
1E
100
AcDbEntity
  8
0
100
AcDbLine
 10
123.8279999999999
 20
1705.119999999999
 30
0.0
 11
125.0656403940789
 21
1704.60891625616
 31
0.0
  0
LINE
  5
901
330
1E
100
AcDbEntity
  8
0
100
AcDbLine
 10
123.8279999999999
 20
1705.119999999999
 30
0.0
 11
125.0656403940789
 21
1704.60891625616
 31
0.0
  0
LINE
  5
902
330
1E
100
AcDbEntity
  8
0
100
AcDbLine
 10
122.430675521788
 20
1705.696883828809
 30
0.0
 11
122.4949999999999
 21
1705.67
 31
0.0
  0
LINE
  5
903
330
1E
100
AcDbEntity
  8
0
100
AcDbLine
 10
129.013397806027
 20
1702.97868937643
 30
0.0
 11
129.575898876403
 21
1702.74640449438
 31
0.0
  0
LINE
  5
904
330
1E
100
AcDbEntity
  8
0
100
AcDbLine
 10
129.013397806027
 20
1702.97868937643
 30
0.0
 11
129.846
 21
1702.63
 31
0.0
  0
LINE
  5
905
330
1E
100
AcDbEntity
  8
0
100
AcDbLine
 10
168.0399999999999
 20
1703.05
 30
0.0
 11
170.189
 21
1702.17
 31
0.0
  0
LINE
  5
906
330
1E
100
AcDbEntity
  8
0
100
AcDbLine
 10
164.8159999999999
 20
1703.31
 30
0.0
 11
168.3499999999999
 21
1701.85
 31
0.0
  0
LINE
  5
907
330
1E
100
AcDbEntity
  8
0
100
AcDbLine
 10
129.013397806027
 20
1702.97868937643
 30
0.0
 11
129.846
 21
1702.63
 31
0.0
  0
LINE
  5
908
330
1E
100
AcDbEntity
  8
0
100
AcDbLine
 10
127.8479788995589
 20
1703.45994924861
 30
0.0
 11
128.7025475727879
 21
1703.107055016189
 31
0.0
  0
LINE
  5
909
330
1E
100
AcDbEntity
  8
0
100
AcDbLine
 10
127.8479788995589
 20
1703.45994924861
 30
0.0
 11
128.702547572787
 21
1703.107055016189
 31
0.0
  0
LINE
  5
90A
330
1E
100
AcDbEntity
  8
0
100
AcDbLine
 10
126.492818099087
 20
1704.01956305786
 30
0.0
 11
127.8054573377239
 21
1703.47750853249
 31
0.0
  0
LINE
  5
90B
330
1E
100
AcDbEntity
  8
0
100
AcDbLine
 10
164.5749999999999
 20
1704.49
 30
0.0
 11
168.0399999999999
 21
1703.05
 31
0.0
  0
LINE
  5
90C
330
1E
100
AcDbEntity
  8
0
100
AcDbLine
 10
160.172
 20
1705.219999999999
 30
0.0
 11
164.8159999999999
 21
1703.31
 31
0.0
  0
LINE
  5
90D
330
1E
100
AcDbEntity
  8
0
100
AcDbLine
 10
126.492166002238
 20
1704.01799666334
 30
0.0
 11
127.8054573377239
 21
1703.47750853249
 31
0.0
  0
LINE
  5
90E
330
1E
100
AcDbEntity
  8
0
100
AcDbLine
 10
126.492166002238
 20
1704.01799666334
 30
0.0
 11
127.8054573377239
 21
1703.47750853249
 31
0.0
  0
LINE
  5
90F
330
1E
100
AcDbEntity
  8
0
100
AcDbLine
 10
127.886
 20
1703.44
 30
0.0
 11
128.7025475727879
 21
1703.107055016189
 31
0.0
  0
LINE
  5
910
330
1E
100
AcDbEntity
  8
0
100
AcDbLine
 10
127.886
 20
1703.44
 30
0.0
 11
128.7025475727879
 21
1703.107055016189
 31
0.0
  0
LINE
  5
911
330
1E
100
AcDbEntity
  8
0
100
AcDbLine
 10
124.795
 20
1704.72
 30
0.0
 11
125.0656403940789
 21
1704.60891625616
 31
0.0
  0
LINE
  5
912
330
1E
100
AcDbEntity
  8
0
100
AcDbLine
 10
124.795
 20
1704.72
 30
0.0
 11
125.0656403940789
 21
1704.60891625616
 31
0.0
  0
LINE
  5
913
330
1E
100
AcDbEntity
  8
0
100
AcDbLine
 10
124.0299999999999
 20
1702.88
 30
0.0
 11
125.3679999999999
 21
1702.32
 31
0.0
  0
LINE
  5
914
330
1E
100
AcDbEntity
  8
0
100
AcDbLine
 10
124.0299999999999
 20
1702.88
 30
0.0
 11
124.795
 21
1704.72
 31
0.0
  0
LINE
  5
915
330
1E
100
AcDbEntity
  8
0
100
AcDbLine
 10
120.859506966502
 20
1706.345538988029
 30
0.0
 11
121.517
 21
1706.07
 31
0.0
  0
LINE
  5
916
330
1E
100
AcDbEntity
  8
0
100
AcDbLine
 10
159.999
 20
1706.37
 30
0.0
 11
164.5749999999999
 21
1704.49
 31
0.0
  0
LINE
  5
917
330
1E
100
AcDbEntity
  8
0
100
AcDbLine
 10
120.859506966502
 20
1706.345538988029
 30
0.0
 11
121.517
 21
1706.07
 31
0.0
  0
LINE
  5
918
330
1E
100
AcDbEntity
  8
0
100
AcDbLine
 10
120.752
 20
1704.23
 30
0.0
 11
121.517
 21
1706.07
 31
0.0
  0
LINE
  5
919
330
1E
100
AcDbEntity
  8
0
100
AcDbLine
 10
154.0029999999999
 20
1707.77
 30
0.0
 11
160.172
 21
1705.219999999999
 31
0.0
  0
LINE
  5
91A
330
1E
100
AcDbEntity
  8
0
100
AcDbLine
 10
120.4447241379499
 20
1706.51678160919
 30
0.0
 11
121.517
 21
1706.07
 31
0.0
  0
LINE
  5
91B
330
1E
100
AcDbEntity
  8
0
100
AcDbLine
 10
119.551
 20
1704.73
 30
0.0
 11
120.316826772338
 21
1706.56958389178
 31
0.0
  0
LINE
  5
91C
330
1E
100
AcDbEntity
  8
0
100
AcDbLine
 10
119.551
 20
1704.73
 30
0.0
 11
120.752
 21
1704.23
 31
0.0
  0
LINE
  5
91D
330
1E
100
AcDbEntity
  8
0
100
AcDbLine
 10
115.554
 20
1706.38
 30
0.0
 11
116.3189999999999
 21
1708.22
 31
0.0
  0
LINE
  5
91E
330
1E
100
AcDbEntity
  8
0
100
AcDbLine
 10
153.831
 20
1708.92
 30
0.0
 11
159.999
 21
1706.37
 31
0.0
  0
LINE
  5
91F
330
1E
100
AcDbEntity
  8
0
100
AcDbLine
 10
114.3529999999999
 20
1706.87
 30
0.0
 11
115.1165566423769
 21
1708.716509527319
 31
0.0
  0
LINE
  5
920
330
1E
100
AcDbEntity
  8
0
100
AcDbLine
 10
114.3529999999999
 20
1706.87
 30
0.0
 11
115.554
 21
1706.38
 31
0.0
  0
LINE
  5
921
330
1E
100
AcDbEntity
  8
0
100
AcDbLine
 10
111.119261635088
 20
1710.36822406348
 30
0.0
 11
111.261726829202
 21
1710.30934381949
 31
0.0
  0
LINE
  5
922
330
1E
100
AcDbEntity
  8
0
100
AcDbLine
 10
114.1069728341929
 20
1709.13341604279
 30
0.0
 11
114.1629999999999
 21
1709.11
 31
0.0
  0
LINE
  5
923
330
1E
100
AcDbEntity
  8
0
100
AcDbLine
 10
114.3329999999999
 20
1709.039999999999
 30
0.0
 11
123.8279999999999
 21
1705.119999999999
 31
0.0
  0
LINE
  5
924
330
1E
100
AcDbEntity
  8
0
100
AcDbLine
 10
114.1629999999999
 20
1709.11
 30
0.0
 11
114.218192778746
 21
1709.08744932431
 31
0.0
  0
LINE
  5
925
330
1E
100
AcDbEntity
  8
0
100
AcDbLine
 10
114.1629999999999
 20
1709.11
 30
0.0
 11
114.218192778746
 21
1709.08744932431
 31
0.0
  0
LINE
  5
926
330
1E
100
AcDbEntity
  8
0
100
AcDbLine
 10
114.1069728341929
 20
1709.13341604279
 30
0.0
 11
114.1629999999999
 21
1709.11
 31
0.0
  0
LINE
  5
927
330
1E
100
AcDbEntity
  8
0
100
AcDbLine
 10
111.4901445783059
 20
1710.21493975904
 30
0.0
 11
112.4619999999999
 21
1709.81
 31
0.0
  0
LINE
  5
928
330
1E
100
AcDbEntity
  8
0
100
AcDbLine
 10
146.863
 20
1710.72
 30
0.0
 11
154.0029999999999
 21
1707.77
 31
0.0
  0
LINE
  5
929
330
1E
100
AcDbEntity
  8
0
100
AcDbLine
 10
114.9229999999999
 20
1709.88
 30
0.0
 11
124.5579999999999
 21
1705.9
 31
0.0
  0
LINE
  5
92A
330
1E
100
AcDbEntity
  8
0
100
AcDbLine
 10
112.1049999999869
 20
1709.95875000001
 30
0.0
 11
112.522687019153
 21
1709.78819446718
 31
0.0
  0
LINE
  5
92B
330
1E
100
AcDbEntity
  8
0
100
AcDbLine
 10
112.1049999999869
 20
1709.95875000001
 30
0.0
 11
112.522687019153
 21
1709.78819446718
 31
0.0
  0
LINE
  5
92C
330
1E
100
AcDbEntity
  8
0
100
AcDbLine
 10
112.4619999999999
 20
1709.81
 30
0.0
 11
112.8159776595829
 21
1709.6669787234
 31
0.0
  0
LINE
  5
92D
330
1E
100
AcDbEntity
  8
0
100
AcDbLine
 10
111.4901445783059
 20
1710.21493975904
 30
0.0
 11
112.4619999999999
 21
1709.81
 31
0.0
  0
LINE
  5
92E
330
1E
100
AcDbEntity
  8
0
100
AcDbLine
 10
114.4249999999999
 20
1709.0
 30
0.0
 11
114.6540869565209
 21
1708.907439613529
 31
0.0
  0
LINE
  5
92F
330
1E
100
AcDbEntity
  8
0
100
AcDbLine
 10
110.355
 20
1708.53
 30
0.0
 11
111.119261635088
 21
1710.36822406348
 31
0.0
  0
LINE
  5
930
330
1E
100
AcDbEntity
  8
0
100
AcDbLine
 10
109.9199999999999
 20
1710.86
 30
0.0
 11
110.7006187592219
 21
1710.54124733998
 31
0.0
  0
LINE
  5
931
330
1E
100
AcDbEntity
  8
0
100
AcDbLine
 10
109.9199999999999
 20
1710.86
 30
0.0
 11
110.7006187592219
 21
1710.54124733998
 31
0.0
  0
LINE
  5
932
330
1E
100
AcDbEntity
  8
0
100
AcDbLine
 10
109.155
 20
1709.019999999999
 30
0.0
 11
109.9199999999999
 21
1710.86
 31
0.0
  0
LINE
  5
933
330
1E
100
AcDbEntity
  8
0
100
AcDbLine
 10
109.155
 20
1709.019999999999
 30
0.0
 11
110.355
 21
1708.53
 31
0.0
  0
LINE
  5
934
330
1E
100
AcDbEntity
  8
0
100
AcDbLine
 10
109.155
 20
1709.019999999999
 30
0.0
 11
109.289491746295
 21
1708.96508253693
 31
0.0
  0
LINE
  5
935
330
1E
100
AcDbEntity
  8
0
100
AcDbLine
 10
105.9193284568189
 20
1712.51353940538
 30
0.0
 11
106.6586317829649
 21
1712.211782945729
 31
0.0
  0
LINE
  5
936
330
1E
100
AcDbEntity
  8
0
100
AcDbLine
 10
105.9193284568189
 20
1712.51353940538
 30
0.0
 11
106.6586317829649
 21
1712.211782945729
 31
0.0
  0
LINE
  5
937
330
1E
100
AcDbEntity
  8
0
100
AcDbLine
 10
106.97724213902
 20
1712.0801026738
 30
0.0
 11
107.7909999999999
 21
1711.739999999999
 31
0.0
  0
LINE
  5
938
330
1E
100
AcDbEntity
  8
0
100
AcDbLine
 10
146.761
 20
1711.84
 30
0.0
 11
153.831
 21
1708.92
 31
0.0
  0
LINE
  5
939
330
1E
100
AcDbEntity
  8
0
100
AcDbLine
 10
107.054280765412
 20
1712.04826294519
 30
0.0
 11
109.456808642022
 21
1711.055308641959
 31
0.0
  0
LINE
  5
93A
330
1E
100
AcDbEntity
  8
0
100
AcDbLine
 10
107.054280765412
 20
1712.04826294519
 30
0.0
 11
109.456808642022
 21
1711.055308641959
 31
0.0
  0
LINE
  5
93B
330
1E
100
AcDbEntity
  8
0
100
AcDbLine
 10
106.97724213902
 20
1712.0801026738
 30
0.0
 11
107.7909999999999
 21
1711.739999999999
 31
0.0
  0
LINE
  5
93C
330
1E
100
AcDbEntity
  8
0
100
AcDbLine
 10
105.920668472624
 20
1712.51677996648
 30
0.0
 11
106.184422857162
 21
1712.40777142856
 31
0.0
  0
LINE
  5
93D
330
1E
100
AcDbEntity
  8
0
100
AcDbLine
 10
105.920668472624
 20
1712.51677996648
 30
0.0
 11
106.184422857162
 21
1712.40777142856
 31
0.0
  0
LINE
  5
93E
330
1E
100
AcDbEntity
  8
0
100
AcDbLine
 10
105.920450632911
 20
1712.51625316456
 30
0.0
 11
106.184422857162
 21
1712.40777142856
 31
0.0
  0
LINE
  5
93F
330
1E
100
AcDbEntity
  8
0
100
AcDbLine
 10
105.920450632911
 20
1712.51625316456
 30
0.0
 11
106.184422857162
 21
1712.40777142856
 31
0.0
  0
LINE
  5
940
330
1E
100
AcDbEntity
  8
0
100
AcDbLine
 10
105.9195287736339
 20
1712.51402383166
 30
0.0
 11
105.9741176470589
 21
1712.49117647059
 31
0.0
  0
LINE
  5
941
330
1E
100
AcDbEntity
  8
0
100
AcDbLine
 10
109.227
 20
1711.15
 30
0.0
 11
109.9199999999999
 21
1710.86
 31
0.0
  0
LINE
  5
942
330
1E
100
AcDbEntity
  8
0
100
AcDbLine
 10
109.227
 20
1711.15
 30
0.0
 11
110.0699999999869
 21
1710.79875000001
 31
0.0
  0
LINE
  5
943
330
1E
100
AcDbEntity
  8
0
100
AcDbLine
 10
109.227
 20
1711.15
 30
0.0
 11
110.0699999999869
 21
1710.79875000001
 31
0.0
  0
LINE
  5
944
330
1E
100
AcDbEntity
  8
0
100
AcDbLine
 10
105.157
 20
1710.67
 30
0.0
 11
105.920668472624
 21
1712.51677996648
 31
0.0
  0
LINE
  5
945
330
1E
100
AcDbEntity
  8
0
100
AcDbLine
 10
104.354842189992
 20
1713.16392914655
 30
0.0
 11
104.900000000002
 21
1712.93696919234
 31
0.0
  0
LINE
  5
946
330
1E
100
AcDbEntity
  8
0
100
AcDbLine
 10
104.7209999999999
 20
1713.009999999999
 30
0.0
 11
105.210922700139
 21
1712.81011480177
 31
0.0
  0
LINE
  5
947
330
1E
100
AcDbEntity
  8
0
100
AcDbLine
 10
104.7209999999999
 20
1713.009999999999
 30
0.0
 11
105.210922700139
 21
1712.81011480177
 31
0.0
  0
LINE
  5
948
330
1E
100
AcDbEntity
  8
0
100
AcDbLine
 10
103.956
 20
1711.17
 30
0.0
 11
104.7209999999999
 21
1713.009999999999
 31
0.0
  0
LINE
  5
949
330
1E
100
AcDbEntity
  8
0
100
AcDbLine
 10
103.956
 20
1711.17
 30
0.0
 11
105.157
 21
1710.67
 31
0.0
  0
LINE
  5
94A
330
1E
100
AcDbEntity
  8
0
100
AcDbLine
 10
104.0739999999999
 20
1713.28
 30
0.0
 11
114.3329999999999
 21
1709.039999999999
 31
0.0
  0
LINE
  5
94B
330
1E
100
AcDbEntity
  8
0
100
AcDbLine
 10
103.197694589175
 20
1713.63926637609
 30
0.0
 11
103.7472465036539
 21
1713.414866011009
 31
0.0
  0
LINE
  5
94C
330
1E
100
AcDbEntity
  8
0
100
AcDbLine
 10
103.197694589175
 20
1713.63926637609
 30
0.0
 11
103.7472465036539
 21
1713.414866011009
 31
0.0
  0
LINE
  5
94D
330
1E
100
AcDbEntity
  8
0
100
AcDbLine
 10
103.458
 20
1713.53
 30
0.0
 11
103.9463597561039
 21
1713.33268292683
 31
0.0
  0
LINE
  5
94E
330
1E
100
AcDbEntity
  8
0
100
AcDbLine
 10
103.458
 20
1713.53
 30
0.0
 11
103.9463597561039
 21
1713.33268292683
 31
0.0
  0
LINE
  5
94F
330
1E
100
AcDbEntity
  8
0
100
AcDbLine
 10
103.197376644915
 20
1713.63850264575
 30
0.0
 11
103.458
 21
1713.53
 31
0.0
  0
LINE
  5
950
330
1E
100
AcDbEntity
  8
0
100
AcDbLine
 10
104.219003533551
 20
1713.22007067139
 30
0.0
 11
104.7209999999999
 21
1713.009999999999
 31
0.0
  0
LINE
  5
951
330
1E
100
AcDbEntity
  8
0
100
AcDbLine
 10
102.947560538113
 20
1713.74493273543
 30
0.0
 11
103.1979999999999
 21
1713.64
 31
0.0
  0
LINE
  5
952
330
1E
100
AcDbEntity
  8
0
100
AcDbLine
 10
138.684
 20
1714.1
 30
0.0
 11
146.863
 21
1710.72
 31
0.0
  0
LINE
  5
953
330
1E
100
AcDbEntity
  8
0
100
AcDbLine
 10
104.664
 20
1714.109999999999
 30
0.0
 11
114.9229999999999
 21
1709.88
 31
0.0
  0
LINE
  5
954
330
1E
100
AcDbEntity
  8
0
100
AcDbLine
 10
102.947560538113
 20
1713.74493273543
 30
0.0
 11
103.1979999999999
 21
1713.64
 31
0.0
  0
LINE
  5
955
330
1E
100
AcDbEntity
  8
0
100
AcDbLine
 10
102.432
 20
1711.8
 30
0.0
 11
103.1979999999999
 21
1713.64
 31
0.0
  0
LINE
  5
956
330
1E
100
AcDbEntity
  8
0
100
AcDbLine
 10
101.8589999999999
 20
1714.19
 30
0.0
 11
103.1979999999999
 21
1713.64
 31
0.0
  0
LINE
  5
957
330
1E
100
AcDbEntity
  8
0
100
AcDbLine
 10
101.0929999999999
 20
1712.349999999999
 30
0.0
 11
101.8589999999999
 21
1714.19
 31
0.0
  0
LINE
  5
958
330
1E
100
AcDbEntity
  8
0
100
AcDbLine
 10
101.0929999999999
 20
1712.349999999999
 30
0.0
 11
102.432
 21
1711.8
 31
0.0
  0
LINE
  5
959
330
1E
100
AcDbEntity
  8
0
100
AcDbLine
 10
101.0929999999999
 20
1712.349999999999
 30
0.0
 11
101.959616083033
 21
1711.994033722429
 31
0.0
  0
LINE
  5
95A
330
1E
100
AcDbEntity
  8
0
100
AcDbLine
 10
101.0929999999999
 20
1712.349999999999
 30
0.0
 11
101.959616083034
 21
1711.994033722429
 31
0.0
  0
LINE
  5
95B
330
1E
100
AcDbEntity
  8
0
100
AcDbLine
 10
109.6079999999999
 20
1727.19
 30
0.0
 11
111.732874376428
 21
1726.30776417233
 31
0.0
  0
LINE
  5
95C
330
1E
100
AcDbEntity
  8
0
100
AcDbLine
 10
109.6079999999999
 20
1727.19
 30
0.0
 11
111.732874376427
 21
1726.30776417233
 31
0.0
  0
LINE
  5
95D
330
1E
100
AcDbEntity
  8
0
100
AcDbLine
 10
105.796
 20
1728.76
 30
0.0
 11
109.6079999999999
 21
1727.19
 31
0.0
  0
LINE
  5
95E
330
1E
100
AcDbEntity
  8
0
100
AcDbLine
 10
106.9439999999999
 20
1731.53
 30
0.0
 11
110.756
 21
1729.95
 31
0.0
  0
LINE
  5
95F
330
1E
100
AcDbEntity
  8
0
100
AcDbLine
 10
102.9249999999999
 20
1733.19
 30
0.0
 11
106.9439999999999
 21
1731.53
 31
0.0
  0
LINE
  5
960
330
1E
100
AcDbEntity
  8
0
100
AcDbLine
 10
101.776
 20
1730.42
 30
0.0
 11
105.796
 21
1728.76
 31
0.0
  0
LINE
  5
961
330
1E
100
AcDbEntity
  8
0
100
AcDbLine
 10
123.194
 20
1721.579999999999
 30
0.0
 11
124.3429999999999
 21
1724.34
 31
0.0
  0
LINE
  5
962
330
1E
100
AcDbEntity
  8
0
100
AcDbLine
 10
122.847
 20
1721.72
 30
0.0
 11
123.194
 21
1721.579999999999
 31
0.0
  0
LINE
  5
963
330
1E
100
AcDbEntity
  8
0
100
AcDbLine
 10
138.651
 20
1715.19
 30
0.0
 11
146.761
 21
1711.84
 31
0.0
  0
LINE
  5
964
330
1E
100
AcDbEntity
  8
0
100
AcDbLine
 10
129.5709999999999
 20
1718.94
 30
0.0
 11
138.651
 21
1715.19
 31
0.0
  0
LINE
  5
965
330
1E
100
AcDbEntity
  8
0
100
AcDbLine
 10
129.5339999999999
 20
1717.88
 30
0.0
 11
138.684
 21
1714.1
 31
0.0
  0
LINE
  5
966
330
1E
100
AcDbEntity
  8
0
100
AcDbLine
 10
120.4909999999999
 20
1722.69
 30
0.0
 11
121.947
 21
1722.09
 31
0.0
  0
LINE
  5
967
330
1E
100
AcDbEntity
  8
0
100
AcDbLine
 10
121.947
 20
1722.09
 30
0.0
 11
122.847
 21
1721.72
 31
0.0
  0
LINE
  5
968
330
1E
100
AcDbEntity
  8
0
100
AcDbLine
 10
118.7926249999939
 20
1723.39
 30
0.0
 11
120.4909999999999
 21
1722.69
 31
0.0
  0
LINE
  5
969
330
1E
100
AcDbEntity
  8
0
100
AcDbLine
 10
114.1529999999999
 20
1728.55
 30
0.0
 11
117.1329999999999
 21
1727.319999999999
 31
0.0
  0
LINE
  5
96A
330
1E
100
AcDbEntity
  8
0
100
AcDbLine
 10
117.1329999999999
 20
1727.319999999999
 30
0.0
 11
119.6979999999999
 21
1726.259999999999
 31
0.0
  0
LINE
  5
96B
330
1E
100
AcDbEntity
  8
0
100
AcDbLine
 10
119.6979999999999
 20
1726.259999999999
 30
0.0
 11
121.639
 21
1725.459999999999
 31
0.0
  0
LINE
  5
96C
330
1E
100
AcDbEntity
  8
0
100
AcDbLine
 10
121.639
 20
1725.459999999999
 30
0.0
 11
123.0949999999999
 21
1724.86
 31
0.0
  0
LINE
  5
96D
330
1E
100
AcDbEntity
  8
0
100
AcDbLine
 10
123.0949999999999
 20
1724.86
 30
0.0
 11
123.996
 21
1724.48
 31
0.0
  0
LINE
  5
96E
330
1E
100
AcDbEntity
  8
0
100
AcDbLine
 10
123.996
 20
1724.48
 30
0.0
 11
124.3429999999999
 21
1724.34
 31
0.0
  0
LINE
  5
96F
330
1E
100
AcDbEntity
  8
0
100
AcDbLine
 10
118.7926249999939
 20
1723.39
 30
0.0
 11
120.4909999999999
 21
1722.69
 31
0.0
  0
LINE
  5
970
330
1E
100
AcDbEntity
  8
0
100
AcDbLine
 10
110.756
 20
1729.95
 30
0.0
 11
114.1529999999999
 21
1728.55
 31
0.0
  0
LINE
  5
971
330
1E
100
AcDbEntity
  8
0
100
AcDbLine
 10
120.0749999999999
 20
1722.86
 30
0.0
 11
129.5709999999999
 21
1718.94
 31
0.0
  0
LINE
  5
972
330
1E
100
AcDbEntity
  8
0
100
AcDbLine
 10
109.816
 20
1727.1
 30
0.0
 11
120.0749999999999
 21
1722.86
 31
0.0
  0
LINE
  5
973
330
1E
100
AcDbEntity
  8
0
100
AcDbLine
 10
119.9
 20
1721.859999999999
 30
0.0
 11
129.5339999999999
 21
1717.88
 31
0.0
  0
LINE
  5
974
330
1E
100
AcDbEntity
  8
0
100
AcDbLine
 10
109.642
 20
1726.09
 30
0.0
 11
119.9
 21
1721.859999999999
 31
0.0
  0
LINE
  5
975
330
1E
100
AcDbEntity
  8
0
100
AcDbLine
 10
101.5
 20
1714.339999999999
 30
0.0
 11
101.8589999999999
 21
1714.19
 31
0.0
  0
LINE
  5
976
330
1E
100
AcDbEntity
  8
0
100
AcDbLine
 10
101.5
 20
1714.339999999999
 30
0.0
 11
102.547466252899
 21
1713.91006982157
 31
0.0
  0
LINE
  5
977
330
1E
100
AcDbEntity
  8
0
100
AcDbLine
 10
101.5
 20
1714.339999999999
 30
0.0
 11
102.547466252899
 21
1713.91006982157
 31
0.0
  0
LINE
  5
978
330
1E
100
AcDbEntity
  8
0
100
AcDbLine
 10
101.5
 20
1714.339999999999
 30
0.0
 11
102.2567482114089
 21
1714.02939439084
 31
0.0
  0
LINE
  5
979
330
1E
100
AcDbEntity
  8
0
100
AcDbLine
 10
100.7777506354409
 20
1734.074217335989
 30
0.0
 11
106.135
 21
1746.979999999999
 31
0.0
  0
LINE
  5
97A
330
1E
100
AcDbEntity
  8
0
100
AcDbLine
 10
100.7777506354409
 20
1734.074217335989
 30
0.0
 11
102.9249999999999
 21
1733.19
 31
0.0
  0
LINE
  5
97B
330
1E
100
AcDbEntity
  8
0
100
AcDbLine
 10
105.7649999999999
 20
1747.13
 30
0.0
 11
106.135
 21
1746.979999999999
 31
0.0
  0
LINE
  5
97C
330
1E
100
AcDbEntity
  8
0
100
AcDbLine
 10
100.405
 20
1734.23
 30
0.0
 11
100.5224470989819
 21
1734.17934896001
 31
0.0
  0
LINE
  5
97D
330
1E
100
AcDbEntity
  8
0
100
AcDbLine
 10
100.405
 20
1734.23
 30
0.0
 11
100.5224470989819
 21
1734.17934896001
 31
0.0
  0
LINE
  5
97E
330
1E
100
AcDbEntity
  8
0
100
AcDbLine
 10
105.5939999999999
 20
1748.28
 30
0.0
 11
106.135
 21
1746.979999999999
 31
0.0
  0
LINE
  5
97F
330
1E
100
AcDbEntity
  8
0
100
AcDbLine
 10
105.5939999999999
 20
1748.28
 30
0.0
 11
106.9
 21
1748.82
 31
0.0
  0
LINE
  5
980
330
1E
100
AcDbEntity
  8
0
100
AcDbLine
 10
104.656
 20
1747.589999999999
 30
0.0
 11
105.7649999999999
 21
1747.13
 31
0.0
  0
LINE
  5
981
330
1E
100
AcDbEntity
  8
0
100
AcDbLine
 10
100.000399962857
 20
1734.39432311978
 30
0.0
 11
100.405
 21
1734.23
 31
0.0
  0
LINE
  5
982
330
1E
100
AcDbEntity
  8
0
100
AcDbLine
 10
100.000399962857
 20
1734.39432311978
 30
0.0
 11
100.5224470989819
 21
1734.17934896001
 31
0.0
  0
LINE
  5
983
330
1E
100
AcDbEntity
  8
0
100
AcDbLine
 10
106.9
 20
1748.82
 30
0.0
 11
108.431
 21
1752.5
 31
0.0
  0
LINE
  5
984
330
1E
100
AcDbEntity
  8
0
100
AcDbLine
 10
106.53
 20
1748.969999999999
 30
0.0
 11
106.9
 21
1748.82
 31
0.0
  0
LINE
  5
985
330
1E
100
AcDbEntity
  8
0
100
AcDbLine
 10
105.2239999999999
 20
1748.43
 30
0.0
 11
105.5939999999999
 21
1748.28
 31
0.0
  0
LINE
  5
986
330
1E
100
AcDbEntity
  8
0
100
AcDbLine
 10
104.207
 20
1748.85
 30
0.0
 11
105.2239999999999
 21
1748.43
 31
0.0
  0
LINE
  5
987
330
1E
100
AcDbEntity
  8
0
100
AcDbLine
 10
102.901
 20
1748.31
 30
0.0
 11
104.656
 21
1747.589999999999
 31
0.0
  0
LINE
  5
988
330
1E
100
AcDbEntity
  8
0
100
AcDbLine
 10
97.5407
 20
1735.41
 30
0.0
 11
98.18079206956801
 21
1735.14394795264
 31
0.0
  0
LINE
  5
989
330
1E
100
AcDbEntity
  8
0
100
AcDbLine
 10
105.422
 20
1749.43
 30
0.0
 11
106.53
 21
1748.969999999999
 31
0.0
  0
LINE
  5
98A
330
1E
100
AcDbEntity
  8
0
100
AcDbLine
 10
103.6659999999999
 20
1750.15
 30
0.0
 11
105.422
 21
1749.43
 31
0.0
  0
LINE
  5
98B
330
1E
100
AcDbEntity
  8
0
100
AcDbLine
 10
102.636
 20
1749.5
 30
0.0
 11
104.207
 21
1748.85
 31
0.0
  0
LINE
  5
98C
330
1E
100
AcDbEntity
  8
0
100
AcDbLine
 10
100.5889999999999
 20
1749.27
 30
0.0
 11
102.901
 21
1748.31
 31
0.0
  0
LINE
  5
98D
330
1E
100
AcDbEntity
  8
0
100
AcDbLine
 10
96.04971244811521
 20
1736.02307053943
 30
0.0
 11
97.5407
 21
1735.41
 31
0.0
  0
LINE
  5
98E
330
1E
100
AcDbEntity
  8
0
100
AcDbLine
 10
101.3549999999999
 20
1751.109999999999
 30
0.0
 11
103.6659999999999
 21
1750.15
 31
0.0
  0
LINE
  5
98F
330
1E
100
AcDbEntity
  8
0
100
AcDbLine
 10
100.51
 20
1750.38
 30
0.0
 11
102.636
 21
1749.5
 31
0.0
  0
LINE
  5
990
330
1E
100
AcDbEntity
  8
0
100
AcDbLine
 10
103.8208124619339
 20
1754.412511342169
 30
0.0
 11
106.952
 21
1753.12
 31
0.0
  0
LINE
  5
991
330
1E
100
AcDbEntity
  8
0
100
AcDbLine
 10
103.812093859314
 20
1754.41027995574
 30
0.0
 11
105.197
 21
1753.84
 31
0.0
  0
LINE
  5
992
330
1E
100
AcDbEntity
  8
0
100
AcDbLine
 10
103.811
 20
1754.41
 30
0.0
 11
108.656
 21
1755.65
 31
0.0
  0
LINE
  5
993
330
1E
100
AcDbEntity
  8
0
100
AcDbLine
 10
103.5339999999999
 20
1754.53
 30
0.0
 11
103.811
 21
1754.41
 31
0.0
  0
LINE
  5
994
330
1E
100
AcDbEntity
  8
0
100
AcDbLine
 10
108.062
 20
1752.66
 30
0.0
 11
108.431
 21
1752.5
 31
0.0
  0
LINE
  5
995
330
1E
100
AcDbEntity
  8
0
100
AcDbLine
 10
106.952
 20
1753.12
 30
0.0
 11
108.062
 21
1752.66
 31
0.0
  0
LINE
  5
996
330
1E
100
AcDbEntity
  8
0
100
AcDbLine
 10
105.197
 20
1753.84
 30
0.0
 11
106.952
 21
1753.12
 31
0.0
  0
LINE
  5
997
330
1E
100
AcDbEntity
  8
0
100
AcDbLine
 10
98.67510000000001
 20
1752.22
 30
0.0
 11
101.3549999999999
 21
1751.109999999999
 31
0.0
  0
LINE
  5
998
330
1E
100
AcDbEntity
  8
0
100
AcDbLine
 10
95.8101
 20
1753.4
 30
0.0
 11
98.67510000000001
 21
1752.22
 31
0.0
  0
LINE
  5
999
330
1E
100
AcDbEntity
  8
0
100
AcDbLine
 10
98.0151
 20
1751.41
 30
0.0
 11
100.51
 21
1750.38
 31
0.0
  0
LINE
  5
99A
330
1E
100
AcDbEntity
  8
0
100
AcDbLine
 10
95.4272
 20
1752.48
 30
0.0
 11
98.0151
 21
1751.41
 31
0.0
  0
LINE
  5
99B
330
1E
100
AcDbEntity
  8
0
100
AcDbLine
 10
97.9094
 20
1750.37
 30
0.0
 11
100.5889999999999
 21
1749.27
 31
0.0
  0
LINE
  5
99C
330
1E
100
AcDbEntity
  8
0
100
AcDbLine
 10
95.0445
 20
1751.56
 30
0.0
 11
97.9094
 21
1750.37
 31
0.0
  0
LINE
  5
99D
330
1E
100
AcDbEntity
  8
0
100
AcDbLine
 10
99.005
 20
1756.4
 30
0.0
 11
100.5759999999999
 21
1755.75
 31
0.0
  0
LINE
  5
99E
330
1E
100
AcDbEntity
  8
0
100
AcDbLine
 10
102.9789999999999
 20
1754.76
 30
0.0
 11
106.952
 21
1753.12
 31
0.0
  0
LINE
  5
99F
330
1E
100
AcDbEntity
  8
0
100
AcDbLine
 10
102.9789999999999
 20
1754.76
 30
0.0
 11
103.5339999999999
 21
1754.53
 31
0.0
  0
LINE
  5
9A0
330
1E
100
AcDbEntity
  8
0
100
AcDbLine
 10
107.074389105084
 20
1756.30093385213
 30
0.0
 11
107.2699999999999
 21
1756.22
 31
0.0
  0
LINE
  5
9A1
330
1E
100
AcDbEntity
  8
0
100
AcDbLine
 10
107.074389105084
 20
1756.30093385213
 30
0.0
 11
108.101
 21
1755.88
 31
0.0
  0
LINE
  5
9A2
330
1E
100
AcDbEntity
  8
0
100
AcDbLine
 10
108.653000351394
 20
1755.64923228808
 30
0.0
 11
109.2109999999999
 21
1755.42
 31
0.0
  0
LINE
  5
9A3
330
1E
100
AcDbEntity
  8
0
100
AcDbLine
 10
108.653000351394
 20
1755.64923228808
 30
0.0
 11
109.2109999999999
 21
1755.42
 31
0.0
  0
LINE
  5
9A4
330
1E
100
AcDbEntity
  8
0
100
AcDbLine
 10
109.58
 20
1755.27
 30
0.0
 11
117.5371300111639
 21
1773.735660422939
 31
0.0
  0
LINE
  5
9A5
330
1E
100
AcDbEntity
  8
0
100
AcDbLine
 10
109.2109999999999
 20
1755.42
 30
0.0
 11
109.58
 21
1755.27
 31
0.0
  0
LINE
  5
9A6
330
1E
100
AcDbEntity
  8
0
100
AcDbLine
 10
108.101
 20
1755.88
 30
0.0
 11
109.2109999999999
 21
1755.42
 31
0.0
  0
LINE
  5
9A7
330
1E
100
AcDbEntity
  8
0
100
AcDbLine
 10
108.2859999999999
 20
1755.799999999999
 30
0.0
 11
108.656
 21
1755.65
 31
0.0
  0
LINE
  5
9A8
330
1E
100
AcDbEntity
  8
0
100
AcDbLine
 10
108.2859999999999
 20
1755.799999999999
 30
0.0
 11
109.2109999999999
 21
1755.42
 31
0.0
  0
LINE
  5
9A9
330
1E
100
AcDbEntity
  8
0
100
AcDbLine
 10
107.2699999999999
 20
1756.22
 30
0.0
 11
108.2859999999999
 21
1755.799999999999
 31
0.0
  0
LINE
  5
9AA
330
1E
100
AcDbEntity
  8
0
100
AcDbLine
 10
107.2699999999999
 20
1756.22
 30
0.0
 11
108.101
 21
1755.88
 31
0.0
  0
LINE
  5
9AB
330
1E
100
AcDbEntity
  8
0
100
AcDbLine
 10
106.345
 20
1756.599999999999
 30
0.0
 11
108.101
 21
1755.88
 31
0.0
  0
LINE
  5
9AC
330
1E
100
AcDbEntity
  8
0
100
AcDbLine
 10
107.074389105084
 20
1756.30093385213
 30
0.0
 11
107.2699999999999
 21
1756.22
 31
0.0
  0
LINE
  5
9AD
330
1E
100
AcDbEntity
  8
0
100
AcDbLine
 10
107.074389105084
 20
1756.30093385213
 30
0.0
 11
108.101
 21
1755.88
 31
0.0
  0
LINE
  5
9AE
330
1E
100
AcDbEntity
  8
0
100
AcDbLine
 10
101.9987958435119
 20
1755.157738386309
 30
0.0
 11
102.9789999999999
 21
1754.76
 31
0.0
  0
LINE
  5
9AF
330
1E
100
AcDbEntity
  8
0
100
AcDbLine
 10
101.9987958435119
 20
1755.157738386309
 30
0.0
 11
102.8869999999999
 21
1754.789999999999
 31
0.0
  0
LINE
  5
9B0
330
1E
100
AcDbEntity
  8
0
100
AcDbLine
 10
102.344097499967
 20
1755.01477500001
 30
0.0
 11
105.197
 21
1753.84
 31
0.0
  0
LINE
  5
9B1
330
1E
100
AcDbEntity
  8
0
100
AcDbLine
 10
102.344097499967
 20
1755.01477500001
 30
0.0
 11
103.776918481016
 21
1754.424764556959
 31
0.0
  0
LINE
  5
9B2
330
1E
100
AcDbEntity
  8
0
100
AcDbLine
 10
100.5759999999999
 20
1755.75
 30
0.0
 11
101.5465000000149
 21
1755.34499999999
 31
0.0
  0
LINE
  5
9B3
330
1E
100
AcDbEntity
  8
0
100
AcDbLine
 10
102.8869999999999
 20
1754.789999999999
 30
0.0
 11
105.197
 21
1753.84
 31
0.0
  0
LINE
  5
9B4
330
1E
100
AcDbEntity
  8
0
100
AcDbLine
 10
100.2059999999999
 20
1755.9
 30
0.0
 11
102.8869999999999
 21
1754.789999999999
 31
0.0
  0
LINE
  5
9B5
330
1E
100
AcDbEntity
  8
0
100
AcDbLine
 10
100.2059999999999
 20
1755.9
 30
0.0
 11
101.5465000000149
 21
1755.34499999999
 31
0.0
  0
LINE
  5
9B6
330
1E
100
AcDbEntity
  8
0
100
AcDbLine
 10
104.0349999999999
 20
1757.56
 30
0.0
 11
106.345
 21
1756.599999999999
 31
0.0
  0
LINE
  5
9B7
330
1E
100
AcDbEntity
  8
0
100
AcDbLine
 10
104.0349999999999
 20
1757.56
 30
0.0
 11
104.776691176443
 21
1757.251764705889
 31
0.0
  0
LINE
  5
9B8
330
1E
100
AcDbEntity
  8
0
100
AcDbLine
 10
104.0349999999999
 20
1757.56
 30
0.0
 11
104.776691176443
 21
1757.251764705889
 31
0.0
  0
LINE
  5
9B9
330
1E
100
AcDbEntity
  8
0
100
AcDbLine
 10
101.3549999999999
 20
1758.67
 30
0.0
 11
104.0349999999999
 21
1757.56
 31
0.0
  0
LINE
  5
9BA
330
1E
100
AcDbEntity
  8
0
100
AcDbLine
 10
103.573
 20
1757.75
 30
0.0
 11
104.776691176443
 21
1757.251764705889
 31
0.0
  0
LINE
  5
9BB
330
1E
100
AcDbEntity
  8
0
100
AcDbLine
 10
103.573
 20
1757.75
 30
0.0
 11
104.0349999999999
 21
1757.56
 31
0.0
  0
LINE
  5
9BC
330
1E
100
AcDbEntity
  8
0
100
AcDbLine
 10
103.573
 20
1757.75
 30
0.0
 11
104.776691176443
 21
1757.251764705889
 31
0.0
  0
LINE
  5
9BD
330
1E
100
AcDbEntity
  8
0
100
AcDbLine
 10
101.078
 20
1758.78
 30
0.0
 11
103.573
 21
1757.75
 31
0.0
  0
LINE
  5
9BE
330
1E
100
AcDbEntity
  8
0
100
AcDbLine
 10
97.3413
 20
1757.08
 30
0.0
 11
100.2059999999999
 21
1755.9
 31
0.0
  0
LINE
  5
9BF
330
1E
100
AcDbEntity
  8
0
100
AcDbLine
 10
97.3413
 20
1757.08
 30
0.0
 11
99.005
 21
1756.4
 31
0.0
  0
LINE
  5
9C0
330
1E
100
AcDbEntity
  8
0
100
AcDbLine
 10
94.47639999999999
 20
1758.269999999999
 30
0.0
 11
97.3413
 21
1757.08
 31
0.0
  0
LINE
  5
9C1
330
1E
100
AcDbEntity
  8
0
100
AcDbLine
 10
92.9451
 20
1754.579999999999
 30
0.0
 11
95.8101
 21
1753.4
 31
0.0
  0
LINE
  5
9C2
330
1E
100
AcDbEntity
  8
0
100
AcDbLine
 10
92.8395
 20
1753.549999999999
 30
0.0
 11
95.4272
 21
1752.48
 31
0.0
  0
LINE
  5
9C3
330
1E
100
AcDbEntity
  8
0
100
AcDbLine
 10
92.8128
 20
1758.96
 30
0.0
 11
93.13303411861729
 21
1758.82635255889
 31
0.0
  0
LINE
  5
9C4
330
1E
100
AcDbEntity
  8
0
100
AcDbLine
 10
92.8128
 20
1758.96
 30
0.0
 11
93.13303411861721
 21
1758.82635255889
 31
0.0
  0
LINE
  5
9C5
330
1E
100
AcDbEntity
  8
0
100
AcDbLine
 10
92.69067638553471
 20
1759.00955421687
 30
0.0
 11
93.13303411861721
 21
1758.82635255889
 31
0.0
  0
LINE
  5
9C6
330
1E
100
AcDbEntity
  8
0
100
AcDbLine
 10
87.72969999999999
 20
1761.05
 30
0.0
 11
89.4857
 21
1760.33
 31
0.0
  0
LINE
  5
9C7
330
1E
100
AcDbEntity
  8
0
100
AcDbLine
 10
87.3995
 20
1764.43
 30
0.0
 11
87.76909999999999
 21
1764.28
 31
0.0
  0
LINE
  5
9C8
330
1E
100
AcDbEntity
  8
0
100
AcDbLine
 10
87.3995
 20
1764.43
 30
0.0
 11
96.44384352190719
 21
1785.51683737876
 31
0.0
  0
LINE
  5
9C9
330
1E
100
AcDbEntity
  8
0
100
AcDbLine
 10
87.76909999999999
 20
1764.28
 30
0.0
 11
88.32371634518292
 21
1764.04997248329
 31
0.0
  0
LINE
  5
9CA
330
1E
100
AcDbEntity
  8
0
100
AcDbLine
 10
87.76909999999999
 20
1764.28
 30
0.0
 11
88.87820000000001
 21
1763.82
 31
0.0
  0
LINE
  5
9CB
330
1E
100
AcDbEntity
  8
0
100
AcDbLine
 10
88.87820000000001
 20
1763.82
 30
0.0
 11
90.6342
 21
1763.09
 31
0.0
  0
LINE
  5
9CC
330
1E
100
AcDbEntity
  8
0
100
AcDbLine
 10
90.6342
 20
1763.09
 30
0.0
 11
92.9447
 21
1762.14
 31
0.0
  0
LINE
  5
9CD
330
1E
100
AcDbEntity
  8
0
100
AcDbLine
 10
89.4857
 20
1760.33
 30
0.0
 11
91.79619999999999
 21
1759.38
 31
0.0
  0
LINE
  5
9CE
330
1E
100
AcDbEntity
  8
0
100
AcDbLine
 10
92.9447
 20
1762.14
 30
0.0
 11
95.62470000000001
 21
1761.029999999999
 31
0.0
  0
LINE
  5
9CF
330
1E
100
AcDbEntity
  8
0
100
AcDbLine
 10
109.685
 20
1778.119999999999
 30
0.0
 11
112.26
 21
1776.69
 31
0.0
  0
LINE
  5
9D0
330
1E
100
AcDbEntity
  8
0
100
AcDbLine
 10
106.9649999999999
 20
1779.64
 30
0.0
 11
109.685
 21
1778.119999999999
 31
0.0
  0
LINE
  5
9D1
330
1E
100
AcDbEntity
  8
0
100
AcDbLine
 10
104.3129999999999
 20
1781.12
 30
0.0
 11
106.9649999999999
 21
1779.64
 31
0.0
  0
LINE
  5
9D2
330
1E
100
AcDbEntity
  8
0
100
AcDbLine
 10
101.737
 20
1782.56
 30
0.0
 11
104.3129999999999
 21
1781.12
 31
0.0
  0
LINE
  5
9D3
330
1E
100
AcDbEntity
  8
0
100
AcDbLine
 10
114.467
 20
1775.45
 30
0.0
 11
116.2
 21
1774.49
 31
0.0
  0
LINE
  5
9D4
330
1E
100
AcDbEntity
  8
0
100
AcDbLine
 10
116.2
 20
1774.49
 30
0.0
 11
117.2379999999999
 21
1773.91
 31
0.0
  0
LINE
  5
9D5
330
1E
100
AcDbEntity
  8
0
100
AcDbLine
 10
117.564
 20
1773.72
 30
0.0
 11
119.93
 21
1776.699999999999
 31
0.0
  0
LINE
  5
9D6
330
1E
100
AcDbEntity
  8
0
100
AcDbLine
 10
117.2379999999999
 20
1773.91
 30
0.0
 11
117.564
 21
1773.72
 31
0.0
  0
LINE
  5
9D7
330
1E
100
AcDbEntity
  8
0
100
AcDbLine
 10
117.187
 20
1773.93
 30
0.0
 11
117.412878542513
 21
1773.80807692308
 31
0.0
  0
LINE
  5
9D8
330
1E
100
AcDbEntity
  8
0
100
AcDbLine
 10
115.303732262882
 20
1774.98648991785
 30
0.0
 11
116.2
 21
1774.49
 31
0.0
  0
LINE
  5
9D9
330
1E
100
AcDbEntity
  8
0
100
AcDbLine
 10
116.132
 20
1774.52
 30
0.0
 11
117.187
 21
1773.93
 31
0.0
  0
LINE
  5
9DA
330
1E
100
AcDbEntity
  8
0
100
AcDbLine
 10
115.303732262882
 20
1774.98648991785
 30
0.0
 11
116.132
 21
1774.52
 31
0.0
  0
LINE
  5
9DB
330
1E
100
AcDbEntity
  8
0
100
AcDbLine
 10
119.93
 20
1776.699999999999
 30
0.0
 11
123.2699999999999
 21
1779.3
 31
0.0
  0
LINE
  5
9DC
330
1E
100
AcDbEntity
  8
0
100
AcDbLine
 10
123.2699999999999
 20
1779.3
 30
0.0
 11
127.217
 21
1780.9
 31
0.0
  0
LINE
  5
9DD
330
1E
100
AcDbEntity
  8
0
100
AcDbLine
 10
127.217
 20
1780.9
 30
0.0
 11
131.366
 21
1781.4
 31
0.0
  0
LINE
  5
9DE
330
1E
100
AcDbEntity
  8
0
100
AcDbLine
 10
278.0
 20
1781.4
 30
0.0
 11
278.0
 21
1781.8
 31
0.0
  0
LINE
  5
9DF
330
1E
100
AcDbEntity
  8
0
100
AcDbLine
 10
278.0
 20
1781.8
 30
0.0
 11
278.0
 21
1783.0
 31
0.0
  0
LINE
  5
9E0
330
1E
100
AcDbEntity
  8
0
100
AcDbLine
 10
131.366
 20
1781.4
 30
0.0
 11
278.0
 21
1781.4
 31
0.0
  0
LINE
  5
9E1
330
1E
100
AcDbEntity
  8
0
100
AcDbLine
 10
112.26
 20
1776.69
 30
0.0
 11
113.2786688720849
 21
1776.11766225583
 31
0.0
  0
LINE
  5
9E2
330
1E
100
AcDbEntity
  8
0
100
AcDbLine
 10
112.26
 20
1776.69
 30
0.0
 11
114.467
 21
1775.45
 31
0.0
  0
LINE
  5
9E3
330
1E
100
AcDbEntity
  8
0
100
AcDbLine
 10
111.041286713298
 20
1777.36679999999
 30
0.0
 11
112.26
 21
1776.69
 31
0.0
  0
LINE
  5
9E4
330
1E
100
AcDbEntity
  8
0
100
AcDbLine
 10
112.2659999999999
 20
1776.679999999999
 30
0.0
 11
113.2786688720849
 21
1776.11766225583
 31
0.0
  0
LINE
  5
9E5
330
1E
100
AcDbEntity
  8
0
100
AcDbLine
 10
111.041286713298
 20
1777.36679999999
 30
0.0
 11
112.2659999999999
 21
1776.679999999999
 31
0.0
  0
LINE
  5
9E6
330
1E
100
AcDbEntity
  8
0
100
AcDbLine
 10
98.4898
 20
1759.849999999999
 30
0.0
 11
101.078
 21
1758.78
 31
0.0
  0
LINE
  5
9E7
330
1E
100
AcDbEntity
  8
0
100
AcDbLine
 10
98.4898
 20
1759.849999999999
 30
0.0
 11
101.3549999999999
 21
1758.67
 31
0.0
  0
LINE
  5
9E8
330
1E
100
AcDbEntity
  8
0
100
AcDbLine
 10
95.62470000000001
 20
1761.029999999999
 30
0.0
 11
98.4898
 21
1759.849999999999
 31
0.0
  0
LINE
  5
9E9
330
1E
100
AcDbEntity
  8
0
100
AcDbLine
 10
92.38261618331248
 20
1759.13713679446
 30
0.0
 11
92.8128
 21
1758.96
 31
0.0
  0
LINE
  5
9EA
330
1E
100
AcDbEntity
  8
0
100
AcDbLine
 10
91.79619999999999
 20
1759.38
 30
0.0
 11
94.47639999999999
 21
1758.269999999999
 31
0.0
  0
LINE
  5
9EB
330
1E
100
AcDbEntity
  8
0
100
AcDbLine
 10
99.53200000000002
 20
1783.79
 30
0.0
 11
101.737
 21
1782.56
 31
0.0
  0
LINE
  5
9EC
330
1E
100
AcDbEntity
  8
0
100
AcDbLine
 10
97.86090000000001
 20
1784.73
 30
0.0
 11
98.74778776867429
 21
1784.23112231311
 31
0.0
  0
LINE
  5
9ED
330
1E
100
AcDbEntity
  8
0
100
AcDbLine
 10
97.86090000000001
 20
1784.73
 30
0.0
 11
99.53200000000002
 21
1783.79
 31
0.0
  0
LINE
  5
9EE
330
1E
100
AcDbEntity
  8
0
100
AcDbLine
 10
97.8519
 20
1784.73
 30
0.0
 11
98.74778776867429
 21
1784.23112231311
 31
0.0
  0
LINE
  5
9EF
330
1E
100
AcDbEntity
  8
0
100
AcDbLine
 10
96.7594
 20
1785.34
 30
0.0
 11
97.86090000000001
 21
1784.73
 31
0.0
  0
LINE
  5
9F0
330
1E
100
AcDbEntity
  8
0
100
AcDbLine
 10
96.4382000000001
 20
1785.519999999999
 30
0.0
 11
102.7249999999999
 21
1793.72
 31
0.0
  0
LINE
  5
9F1
330
1E
100
AcDbEntity
  8
0
100
AcDbLine
 10
96.4382000000001
 20
1785.519999999999
 30
0.0
 11
96.7594
 21
1785.34
 31
0.0
  0
LINE
  5
9F2
330
1E
100
AcDbEntity
  8
0
100
AcDbLine
 10
96.98003177712509
 20
1785.21781626505
 30
0.0
 11
97.8519
 21
1784.73
 31
0.0
  0
LINE
  5
9F3
330
1E
100
AcDbEntity
  8
0
100
AcDbLine
 10
96.98003177712509
 20
1785.21781626505
 30
0.0
 11
97.86090000000001
 21
1784.73
 31
0.0
  0
LINE
  5
9F4
330
1E
100
AcDbEntity
  8
0
100
AcDbLine
 10
102.7249999999999
 20
1793.72
 30
0.0
 11
111.125
 21
1800.019999999999
 31
0.0
  0
LINE
  5
9F5
330
1E
100
AcDbEntity
  8
0
100
AcDbLine
 10
111.125
 20
1800.019999999999
 30
0.0
 11
120.841
 21
1804.03
 31
0.0
  0
LINE
  5
9F6
330
1E
100
AcDbEntity
  8
0
100
AcDbLine
 10
278.0
 20
1783.0
 30
0.0
 11
278.0
 21
1784.909999999999
 31
0.0
  0
LINE
  5
9F7
330
1E
100
AcDbEntity
  8
0
100
AcDbLine
 10
278.0
 20
1784.909999999999
 30
0.0
 11
278.0
 21
1787.41
 31
0.0
  0
LINE
  5
9F8
330
1E
100
AcDbEntity
  8
0
100
AcDbLine
 10
278.0
 20
1787.41
 30
0.0
 11
278.0
 21
1790.309999999999
 31
0.0
  0
LINE
  5
9F9
330
1E
100
AcDbEntity
  8
0
100
AcDbLine
 10
278.0
 20
1790.309999999999
 30
0.0
 11
278.0
 21
1793.42
 31
0.0
  0
LINE
  5
9FA
330
1E
100
AcDbEntity
  8
0
100
AcDbLine
 10
278.0
 20
1793.42
 30
0.0
 11
278.0
 21
1796.52
 31
0.0
  0
LINE
  5
9FB
330
1E
100
AcDbEntity
  8
0
100
AcDbLine
 10
278.0
 20
1796.52
 30
0.0
 11
278.0
 21
1799.42
 31
0.0
  0
LINE
  5
9FC
330
1E
100
AcDbEntity
  8
0
100
AcDbLine
 10
278.0
 20
1799.42
 30
0.0
 11
278.0
 21
1801.93
 31
0.0
  0
LINE
  5
9FD
330
1E
100
AcDbEntity
  8
0
100
AcDbLine
 10
278.0
 20
1801.93
 30
0.0
 11
278.0
 21
1803.829999999999
 31
0.0
  0
LINE
  5
9FE
330
1E
100
AcDbEntity
  8
0
100
AcDbLine
 10
278.0
 20
1803.829999999999
 30
0.0
 11
278.0
 21
1805.03
 31
0.0
  0
LINE
  5
9FF
330
1E
100
AcDbEntity
  8
0
100
AcDbLine
 10
278.0
 20
1805.03
 30
0.0
 11
278.0
 21
1805.43
 31
0.0
  0
LINE
  5
A00
330
1E
100
AcDbEntity
  8
0
100
AcDbLine
 10
120.841
 20
1804.03
 30
0.0
 11
131.366
 21
1805.43
 31
0.0
  0
LINE
  5
A01
330
1E
100
AcDbEntity
  8
0
100
AcDbLine
 10
278.0
 20
1826.0
 30
0.0
 11
279.0
 21
1826.0
 31
0.0
  0
LINE
  5
A02
330
1E
100
AcDbEntity
  8
0
100
AcDbLine
 10
278.0
 20
1864.0
 30
0.0
 11
279.0
 21
1864.0
 31
0.0
  0
LINE
  5
A03
330
1E
100
AcDbEntity
  8
0
100
AcDbLine
 10
278.0
 20
1865.0
 30
0.0
 11
279.0
 21
1865.0
 31
0.0
  0
LINE
  5
A04
330
1E
100
AcDbEntity
  8
0
100
AcDbLine
 10
277.0
 20
1864.0
 30
0.0
 11
277.0
 21
1826.0
 31
0.0
  0
LINE
  5
A05
330
1E
100
AcDbEntity
  8
0
100
AcDbLine
 10
277.0
 20
1864.0
 30
0.0
 11
278.0
 21
1864.0
 31
0.0
  0
LINE
  5
A06
330
1E
100
AcDbEntity
  8
0
100
AcDbLine
 10
277.0
 20
1864.0
 30
0.0
 11
278.0
 21
1865.0
 31
0.0
  0
LINE
  5
A07
330
1E
100
AcDbEntity
  8
0
100
AcDbLine
 10
277.0
 20
1826.0
 30
0.0
 11
278.0
 21
1825.0
 31
0.0
  0
LINE
  5
A08
330
1E
100
AcDbEntity
  8
0
100
AcDbLine
 10
277.0
 20
1826.0
 30
0.0
 11
278.0
 21
1826.0
 31
0.0
  0
LINE
  5
A09
330
1E
100
AcDbEntity
  8
0
100
AcDbLine
 10
277.0
 20
1826.0
 30
0.0
 11
277.0
 21
1864.0
 31
0.0
  0
LINE
  5
A0A
330
1E
100
AcDbEntity
  8
0
100
AcDbLine
 10
306.0
 20
1825.0
 30
0.0
 11
306.0
 21
1826.0
 31
0.0
  0
LINE
  5
A0B
330
1E
100
AcDbEntity
  8
0
100
AcDbLine
 10
306.0
 20
1825.0
 30
0.0
 11
307.0
 21
1826.0
 31
0.0
  0
LINE
  5
A0C
330
1E
100
AcDbEntity
  8
0
100
AcDbLine
 10
281.0
 20
1825.0
 30
0.0
 11
306.0
 21
1825.0
 31
0.0
  0
LINE
  5
A0D
330
1E
100
AcDbEntity
  8
0
100
AcDbLine
 10
281.0
 20
1825.0
 30
0.0
 11
281.0
 21
1826.0
 31
0.0
  0
LINE
  5
A0E
330
1E
100
AcDbEntity
  8
0
100
AcDbLine
 10
280.0
 20
1825.0
 30
0.0
 11
281.0
 21
1825.0
 31
0.0
  0
LINE
  5
A0F
330
1E
100
AcDbEntity
  8
0
100
AcDbLine
 10
279.0
 20
1865.0
 30
0.0
 11
280.0
 21
1865.0
 31
0.0
  0
LINE
  5
A10
330
1E
100
AcDbEntity
  8
0
100
AcDbLine
 10
279.0
 20
1864.0
 30
0.0
 11
280.0
 21
1864.0
 31
0.0
  0
LINE
  5
A11
330
1E
100
AcDbEntity
  8
0
100
AcDbLine
 10
307.0
 20
1826.0
 30
0.0
 11
307.0
 21
1864.0
 31
0.0
  0
LINE
  5
A12
330
1E
100
AcDbEntity
  8
0
100
AcDbLine
 10
306.0
 20
1826.0
 30
0.0
 11
307.0
 21
1826.0
 31
0.0
  0
LINE
  5
A13
330
1E
100
AcDbEntity
  8
0
100
AcDbLine
 10
306.0
 20
1826.0
 30
0.0
 11
306.0
 21
1825.0
 31
0.0
  0
LINE
  5
A14
330
1E
100
AcDbEntity
  8
0
100
AcDbLine
 10
306.0
 20
1826.0
 30
0.0
 11
306.0
 21
1864.0
 31
0.0
  0
LINE
  5
A15
330
1E
100
AcDbEntity
  8
0
100
AcDbLine
 10
281.0
 20
1826.0
 30
0.0
 11
281.0
 21
1825.0
 31
0.0
  0
LINE
  5
A16
330
1E
100
AcDbEntity
  8
0
100
AcDbLine
 10
281.0
 20
1826.0
 30
0.0
 11
306.0
 21
1826.0
 31
0.0
  0
LINE
  5
A17
330
1E
100
AcDbEntity
  8
0
100
AcDbLine
 10
281.0
 20
1826.0
 30
0.0
 11
281.0
 21
1864.0
 31
0.0
  0
LINE
  5
A18
330
1E
100
AcDbEntity
  8
0
100
AcDbLine
 10
280.0
 20
1865.0
 30
0.0
 11
281.0
 21
1865.0
 31
0.0
  0
LINE
  5
A19
330
1E
100
AcDbEntity
  8
0
100
AcDbLine
 10
307.0
 20
1864.0
 30
0.0
 11
307.0
 21
1826.0
 31
0.0
  0
LINE
  5
A1A
330
1E
100
AcDbEntity
  8
0
100
AcDbLine
 10
306.0
 20
1864.0
 30
0.0
 11
306.0
 21
1826.0
 31
0.0
  0
LINE
  5
A1B
330
1E
100
AcDbEntity
  8
0
100
AcDbLine
 10
306.0
 20
1864.0
 30
0.0
 11
307.0
 21
1864.0
 31
0.0
  0
LINE
  5
A1C
330
1E
100
AcDbEntity
  8
0
100
AcDbLine
 10
306.0
 20
1864.0
 30
0.0
 11
306.0
 21
1865.0
 31
0.0
  0
LINE
  5
A1D
330
1E
100
AcDbEntity
  8
0
100
AcDbLine
 10
306.0
 20
1865.0
 30
0.0
 11
307.0
 21
1864.0
 31
0.0
  0
LINE
  5
A1E
330
1E
100
AcDbEntity
  8
0
100
AcDbLine
 10
306.0
 20
1865.0
 30
0.0
 11
306.0
 21
1864.0
 31
0.0
  0
LINE
  5
A1F
330
1E
100
AcDbEntity
  8
0
100
AcDbLine
 10
281.0
 20
1865.0
 30
0.0
 11
281.0
 21
1864.0
 31
0.0
  0
LINE
  5
A20
330
1E
100
AcDbEntity
  8
0
100
AcDbLine
 10
281.0
 20
1865.0
 30
0.0
 11
306.0
 21
1865.0
 31
0.0
  0
LINE
  5
A21
330
1E
100
AcDbEntity
  8
0
100
AcDbLine
 10
281.0
 20
1864.0
 30
0.0
 11
281.0
 21
1826.0
 31
0.0
  0
LINE
  5
A22
330
1E
100
AcDbEntity
  8
0
100
AcDbLine
 10
281.0
 20
1864.0
 30
0.0
 11
306.0
 21
1864.0
 31
0.0
  0
LINE
  5
A23
330
1E
100
AcDbEntity
  8
0
100
AcDbLine
 10
281.0
 20
1864.0
 30
0.0
 11
281.0
 21
1865.0
 31
0.0
  0
LINE
  5
A24
330
1E
100
AcDbEntity
  8
0
100
AcDbLine
 10
280.0
 20
1864.0
 30
0.0
 11
280.0
 21
1826.0
 31
0.0
  0
LINE
  5
A25
330
1E
100
AcDbEntity
  8
0
100
AcDbLine
 10
280.0
 20
1864.0
 30
0.0
 11
281.0
 21
1864.0
 31
0.0
  0
LINE
  5
A26
330
1E
100
AcDbEntity
  8
0
100
AcDbLine
 10
280.0
 20
1864.0
 30
0.0
 11
281.0
 21
1865.0
 31
0.0
  0
LINE
  5
A27
330
1E
100
AcDbEntity
  8
0
100
AcDbLine
 10
280.0
 20
1826.0
 30
0.0
 11
281.0
 21
1825.0
 31
0.0
  0
LINE
  5
A28
330
1E
100
AcDbEntity
  8
0
100
AcDbLine
 10
280.0
 20
1826.0
 30
0.0
 11
281.0
 21
1826.0
 31
0.0
  0
LINE
  5
A29
330
1E
100
AcDbEntity
  8
0
100
AcDbLine
 10
280.0
 20
1826.0
 30
0.0
 11
280.0
 21
1864.0
 31
0.0
  0
LINE
  5
A2A
330
1E
100
AcDbEntity
  8
0
100
AcDbLine
 10
279.0
 20
1826.0
 30
0.0
 11
280.0
 21
1826.0
 31
0.0
  0
LINE
  5
A2B
330
1E
100
AcDbEntity
  8
0
100
AcDbLine
 10
279.0
 20
1825.0
 30
0.0
 11
280.0
 21
1825.0
 31
0.0
  0
LINE
  5
A2C
330
1E
100
AcDbEntity
  8
0
100
AcDbLine
 10
278.0
 20
1825.0
 30
0.0
 11
279.0
 21
1825.0
 31
0.0
  0
LINE
  5
A2D
330
1E
100
AcDbEntity
  8
0
100
AcDbLine
 10
131.366
 20
1805.43
 30
0.0
 11
278.0
 21
1805.43
 31
0.0
  0
LINE
  5
A2E
330
1E
100
AcDbEntity
  8
0
100
AcDbLine
 10
88.32371634518292
 20
1764.04997248329
 30
0.0
 11
90.87200000000001
 21
1759.759999999999
 31
0.0
  0
LINE
  5
A2F
330
1E
100
AcDbEntity
  8
0
100
AcDbLine
 10
92.69067638553471
 20
1759.00955421687
 30
0.0
 11
93.13303411861721
 21
1758.82635255889
 31
0.0
  0
LINE
  5
A30
330
1E
100
AcDbEntity
  8
0
100
AcDbLine
 10
92.69067638553471
 20
1759.00955421687
 30
0.0
 11
92.8128
 21
1758.96
 31
0.0
  0
LINE
  5
A31
330
1E
100
AcDbEntity
  8
0
100
AcDbLine
 10
86.8201
 20
1739.84
 30
0.0
 11
89.685
 21
1738.65
 31
0.0
  0
LINE
  5
A36
330
1E
100
AcDbEntity
  8
0
100
AcDbLine
 10
372.0
 20
1400.0
 30
0.0
 11
374.0
 21
1402.0
 31
0.0
  0
LINE
  5
A38
330
1E
100
AcDbEntity
  8
0
100
AcDbLine
 10
309.0
 20
1400.0
 30
0.0
 11
307.0
 21
1402.0
 31
0.0
  0
ENDSEC
  0
SECTION
  2
OBJECTS
  0
DICTIONARY
  5
C
330
0
100
AcDbDictionary
  3
ACAD_GROUP
350
D
  3
ACAD_LAYOUT
350
19
  3
ACAD_MLINESTYLE
350
16
  3
ACAD_PLOTSETTINGS
350
18
  3
ACAD_PLOTSTYLENAME
350
E
  3
ACDBHEADERROUNDTRIPXREC
350
A63
  3
ACDBVARIABLEDICTIONARY
350
A3A
  0
DICTIONARY
  5
A85
330
1E
100
AcDbDictionary
280
     1
  3
ACAD_LAYOUTSELFREF
360
A86
  0
DICTIONARY
  5
A83
330
1A
100
AcDbDictionary
280
     1
  3
ACAD_LAYOUTSELFREF
360
A84
  0
DICTIONARY
  5
D
102
{ACAD_REACTORS
330
C
102
}
330
C
100
AcDbDictionary
  0
DICTIONARY
  5
19
102
{ACAD_REACTORS
330
C
102
}
330
C
100
AcDbDictionary
  0
DICTIONARY
  5
16
102
{ACAD_REACTORS
330
C
102
}
330
C
100
AcDbDictionary
  3
STANDARD
350
17
  0
DICTIONARY
  5
18
102
{ACAD_REACTORS
330
C
102
}
330
C
100
AcDbDictionary
  0
ACDBDICTIONARYWDFLT
  5
E
102
{ACAD_REACTORS
330
C
102
}
330
C
100
AcDbDictionary
281
     1
  3
Normal
350
F
100
AcDbDictionaryWithDefault
340
F
  0
DICTIONARY
  5
A63
102
{ACAD_REACTORS
330
C
102
}
330
C
100
AcDbDictionary
  3
CEPSNTYPE
350
A6D
  3
FINGERPRINTGUID
350
A6E
  3
HYPERLINKBASE
350
A66
  3
INSUNITS
350
A6C
  3
LAYOUTDICT
350
A68
  3
LWETCUNION
350
A6B
  3
PLOTSETDICT
350
A69
  3
PLOTSTYLNAMDICT
350
A6A
  3
PSVPSCALE
350
A70
  3
PUCSBASE
350
A73
  3
PUCSORGBACK
350
A79
  3
PUCSORGBOTTOM
350
A75
  3
PUCSORGFRONT
350
A78
  3
PUCSORGLEFT
350
A76
  3
PUCSORGRIGHT
350
A77
  3
PUCSORGTOP
350
A74
  3
PUCSORTHOREF
350
A71
  3
PUCSORTHOVIEW
350
A72
  3
STYLESHEET
350
A67
  3
TSTACKALIGN
350
A64
  3
TSTACKSIZE
350
A65
  3
UCSBASE
350
A7C
  3
UCSORGBACK
350
A82
  3
UCSORGBOTTOM
350
A7E
  3
UCSORGFRONT
350
A81
  3
UCSORGLEFT
350
A7F
  3
UCSORGRIGHT
350
A80
  3
UCSORGTOP
350
A7D
  3
UCSORTHOREF
350
A7A
  3
UCSORTHOVIEW
350
A7B
  3
VERSIONGUID
350
A6F
  0
DICTIONARY
  5
A3A
102
{ACAD_REACTORS
330
C
102
}
330
C
100
AcDbDictionary
  3
DIMASSOC
350
A3B
  0
XRECORD
  5
A86
102
{ACAD_REACTORS
330
A85
102
}
330
A85
100
AcDbXrecord
340
1E
  0
XRECORD
  5
A84
102
{ACAD_REACTORS
330
A83
102
}
330
A83
100
AcDbXrecord
340
1A
  0
MLINESTYLE
  5
17
102
{ACAD_REACTORS
330
16
102
}
330
16
100
AcDbMlineStyle
  2
STANDARD
 70
     0
  3

 62
   256
 51
90.0
 52
90.0
 71
     2
 49
0.5
 62
   256
  6
BYLAYER
 49
-0.5
 62
   256
  6
BYLAYER
  0
ACDBPLACEHOLDER
  5
F
102
{ACAD_REACTORS
330
E
102
}
330
E
100
AcDbPlaceHolder
280
     0
  0
XRECORD
  5
A6D
102
{ACAD_REACTORS
330
A63
102
}
330
A63
100
AcDbXrecord
 90
        0
  0
XRECORD
  5
A6E
102
{ACAD_REACTORS
330
A63
102
}
330
A63
100
AcDbXrecord
  1
{103A7945-0BFA-4435-BE51-94221CA0E0B9}
  0
XRECORD
  5
A66
102
{ACAD_REACTORS
330
A63
102
}
330
A63
100
AcDbXrecord
  1

  0
XRECORD
  5
A6C
102
{ACAD_REACTORS
330
A63
102
}
330
A63
100
AcDbXrecord
 90
        0
  0
XRECORD
  5
A68
102
{ACAD_REACTORS
330
A63
102
}
330
A63
100
AcDbXrecord
340
19
  0
XRECORD
  5
A6B
102
{ACAD_REACTORS
330
A63
102
}
330
A63
100
AcDbXrecord
 90
    10781
  0
XRECORD
  5
A69
102
{ACAD_REACTORS
330
A63
102
}
330
A63
100
AcDbXrecord
340
18
  0
XRECORD
  5
A6A
102
{ACAD_REACTORS
330
A63
102
}
330
A63
100
AcDbXrecord
340
E
  0
XRECORD
  5
A70
102
{ACAD_REACTORS
330
A63
102
}
330
A63
100
AcDbXrecord
 40
0.0
  0
XRECORD
  5
A73
102
{ACAD_REACTORS
330
A63
102
}
330
A63
100
AcDbXrecord
340
0
  0
XRECORD
  5
A79
102
{ACAD_REACTORS
330
A63
102
}
330
A63
100
AcDbXrecord
 10
0.0
 20
0.0
 30
0.0
  0
XRECORD
  5
A75
102
{ACAD_REACTORS
330
A63
102
}
330
A63
100
AcDbXrecord
 10
0.0
 20
0.0
 30
0.0
  0
XRECORD
  5
A78
102
{ACAD_REACTORS
330
A63
102
}
330
A63
100
AcDbXrecord
 10
0.0
 20
0.0
 30
0.0
  0
XRECORD
  5
A76
102
{ACAD_REACTORS
330
A63
102
}
330
A63
100
AcDbXrecord
 10
0.0
 20
0.0
 30
0.0
  0
XRECORD
  5
A77
102
{ACAD_REACTORS
330
A63
102
}
330
A63
100
AcDbXrecord
 10
0.0
 20
0.0
 30
0.0
  0
XRECORD
  5
A74
102
{ACAD_REACTORS
330
A63
102
}
330
A63
100
AcDbXrecord
 10
0.0
 20
0.0
 30
0.0
  0
XRECORD
  5
A71
102
{ACAD_REACTORS
330
A63
102
}
330
A63
100
AcDbXrecord
340
0
  0
XRECORD
  5
A72
102
{ACAD_REACTORS
330
A63
102
}
330
A63
100
AcDbXrecord
 70
     0
  0
XRECORD
  5
A67
102
{ACAD_REACTORS
330
A63
102
}
330
A63
100
AcDbXrecord
  1

  0
XRECORD
  5
A64
102
{ACAD_REACTORS
330
A63
102
}
330
A63
100
AcDbXrecord
 90
        1
  0
XRECORD
  5
A65
102
{ACAD_REACTORS
330
A63
102
}
330
A63
100
AcDbXrecord
 90
       70
  0
XRECORD
  5
A7C
102
{ACAD_REACTORS
330
A63
102
}
330
A63
100
AcDbXrecord
340
0
  0
XRECORD
  5
A82
102
{ACAD_REACTORS
330
A63
102
}
330
A63
100
AcDbXrecord
 10
0.0
 20
0.0
 30
0.0
  0
XRECORD
  5
A7E
102
{ACAD_REACTORS
330
A63
102
}
330
A63
100
AcDbXrecord
 10
0.0
 20
0.0
 30
0.0
  0
XRECORD
  5
A81
102
{ACAD_REACTORS
330
A63
102
}
330
A63
100
AcDbXrecord
 10
0.0
 20
0.0
 30
0.0
  0
XRECORD
  5
A7F
102
{ACAD_REACTORS
330
A63
102
}
330
A63
100
AcDbXrecord
 10
0.0
 20
0.0
 30
0.0
  0
XRECORD
  5
A80
102
{ACAD_REACTORS
330
A63
102
}
330
A63
100
AcDbXrecord
 10
0.0
 20
0.0
 30
0.0
  0
XRECORD
  5
A7D
102
{ACAD_REACTORS
330
A63
102
}
330
A63
100
AcDbXrecord
 10
0.0
 20
0.0
 30
0.0
  0
XRECORD
  5
A7A
102
{ACAD_REACTORS
330
A63
102
}
330
A63
100
AcDbXrecord
340
0
  0
XRECORD
  5
A7B
102
{ACAD_REACTORS
330
A63
102
}
330
A63
100
AcDbXrecord
 70
     1
  0
XRECORD
  5
A6F
102
{ACAD_REACTORS
330
A63
102
}
330
A63
100
AcDbXrecord
  1
{98F5E74B-D085-42F1-BC5F-2FABA0152A8D}
  0
DICTIONARYVAR
  5
A3B
102
{ACAD_REACTORS
330
A3A
102
}
330
A3A
100
DictionaryVariables
280
     0
  1
1
  0
ENDSEC
  0
EOF
