  0
SECTION
  2
HEADER
  9
$ACADVER
  1
AC1015
  9
$ACADMAINTVER
 70
    13
  9
$DWGCODEPAGE
  3
ANSI_1252
  9
$INSBASE
 10
0.0
 20
0.0
 30
0.0
  9
$EXTMIN
 10
0.249999999999979
 20
-0.0000000000000616
 30
0.0
  9
$EXTMAX
 10
363.75
 20
555.0
 30
0.0
  9
$LIMMIN
 10
0.0
 20
0.0
  9
$LIMMAX
 10
12.0
 20
9.0
  9
$ORTHOMODE
 70
     0
  9
$REGENMODE
 70
     1
  9
$FILLMODE
 70
     1
  9
$QTEXTMODE
 70
     0
  9
$MIRRTEXT
 70
     1
  9
$LTSCALE
 40
1.0
  9
$ATTMODE
 70
     1
  9
$TEXTSIZE
 40
0.2
  9
$TRACEWID
 40
0.05
  9
$TEXTSTYLE
  7
Standard
  9
$CLAYER
  8
0
  9
$CELTYPE
  6
Continuous
  9
$CECOLOR
 62
   256
  9
$CELTSCALE
 40
1.0
  9
$DISPSILH
 70
     0
  9
$DIMSCALE
 40
1.0
  9
$DIMASZ
 40
0.18
  9
$DIMEXO
 40
0.0625
  9
$DIMDLI
 40
0.38
  9
$DIMRND
 40
0.0
  9
$DIMDLE
 40
0.0
  9
$DIMEXE
 40
0.18
  9
$DIMTP
 40
0.0
  9
$DIMTM
 40
0.0
  9
$DIMTXT
 40
0.18
  9
$DIMCEN
 40
0.09
  9
$DIMTSZ
 40
0.0
  9
$DIMTOL
 70
     0
  9
$DIMLIM
 70
     0
  9
$DIMTIH
 70
     1
  9
$DIMTOH
 70
     1
  9
$DIMSE1
 70
     0
  9
$DIMSE2
 70
     0
  9
$DIMTAD
 70
     0
  9
$DIMZIN
 70
     0
  9
$DIMBLK
  1

  9
$DIMASO
 70
     1
  9
$DIMSHO
 70
     1
  9
$DIMPOST
  1

  9
$DIMAPOST
  1

  9
$DIMALT
 70
     0
  9
$DIMALTD
 70
     2
  9
$DIMALTF
 40
25.4
  9
$DIMLFAC
 40
1.0
  9
$DIMTOFL
 70
     0
  9
$DIMTVP
 40
0.0
  9
$DIMTIX
 70
     0
  9
$DIMSOXD
 70
     0
  9
$DIMSAH
 70
     0
  9
$DIMBLK1
  1

  9
$DIMBLK2
  1

  9
$DIMSTYLE
  2
Standard
  9
$DIMCLRD
 70
     0
  9
$DIMCLRE
 70
     0
  9
$DIMCLRT
 70
     0
  9
$DIMTFAC
 40
1.0
  9
$DIMGAP
 40
0.09
  9
$DIMJUST
 70
     0
  9
$DIMSD1
 70
     0
  9
$DIMSD2
 70
     0
  9
$DIMTOLJ
 70
     1
  9
$DIMTZIN
 70
     0
  9
$DIMALTZ
 70
     0
  9
$DIMALTTZ
 70
     0
  9
$DIMUPT
 70
     0
  9
$DIMDEC
 70
     4
  9
$DIMTDEC
 70
     4
  9
$DIMALTU
 70
     2
  9
$DIMALTTD
 70
     2
  9
$DIMTXSTY
  7
Standard
  9
$DIMAUNIT
 70
     0
  9
$DIMADEC
 70
     0
  9
$DIMALTRND
 40
0.0
  9
$DIMAZIN
 70
     0
  9
$DIMDSEP
 70
    46
  9
$DIMATFIT
 70
     3
  9
$DIMFRAC
 70
     0
  9
$DIMLDRBLK
  1

  9
$DIMLUNIT
 70
     2
  9
$DIMLWD
 70
    -2
  9
$DIMLWE
 70
    -2
  9
$DIMTMOVE
 70
     0
  9
$LUNITS
 70
     2
  9
$LUPREC
 70
     4
  9
$SKETCHINC
 40
0.1
  9
$FILLETRAD
 40
0.0
  9
$AUNITS
 70
     0
  9
$AUPREC
 70
     0
  9
$MENU
  1
.
  9
$ELEVATION
 40
0.0
  9
$PELEVATION
 40
0.0
  9
$THICKNESS
 40
0.0
  9
$LIMCHECK
 70
     0
  9
$CHAMFERA
 40
0.0
  9
$CHAMFERB
 40
0.0
  9
$CHAMFERC
 40
0.0
  9
$CHAMFERD
 40
0.0
  9
$SKPOLY
 70
     0
  9
$TDCREATE
 40
2454834.801271331
  9
$TDUCREATE
 40
2454834.759604664
  9
$TDUPDATE
 40
2454834.809539201
  9
$TDUUPDATE
 40
2454834.767872534
  9
$TDINDWG
 40
0.0082680440
  9
$TDUSRTIMER
 40
0.0082680440
  9
$USRTIMER
 70
     1
  9
$ANGBASE
 50
0.0
  9
$ANGDIR
 70
     0
  9
$PDMODE
 70
     0
  9
$PDSIZE
 40
0.0
  9
$PLINEWID
 40
0.0
  9
$SPLFRAME
 70
     0
  9
$SPLINETYPE
 70
     6
  9
$SPLINESEGS
 70
     8
  9
$HANDSEED
  5
4D2
  9
$SURFTAB1
 70
     6
  9
$SURFTAB2
 70
     6
  9
$SURFTYPE
 70
     6
  9
$SURFU
 70
     6
  9
$SURFV
 70
     6
  9
$UCSBASE
  2

  9
$UCSNAME
  2

  9
$UCSORG
 10
0.0
 20
0.0
 30
0.0
  9
$UCSXDIR
 10
1.0
 20
0.0
 30
0.0
  9
$UCSYDIR
 10
0.0
 20
1.0
 30
0.0
  9
$UCSORTHOREF
  2

  9
$UCSORTHOVIEW
 70
     1
  9
$UCSORGTOP
 10
0.0
 20
0.0
 30
0.0
  9
$UCSORGBOTTOM
 10
0.0
 20
0.0
 30
0.0
  9
$UCSORGLEFT
 10
0.0
 20
0.0
 30
0.0
  9
$UCSORGRIGHT
 10
0.0
 20
0.0
 30
0.0
  9
$UCSORGFRONT
 10
0.0
 20
0.0
 30
0.0
  9
$UCSORGBACK
 10
0.0
 20
0.0
 30
0.0
  9
$PUCSBASE
  2

  9
$PUCSNAME
  2

  9
$PUCSORG
 10
0.0
 20
0.0
 30
0.0
  9
$PUCSXDIR
 10
1.0
 20
0.0
 30
0.0
  9
$PUCSYDIR
 10
0.0
 20
1.0
 30
0.0
  9
$PUCSORTHOREF
  2

  9
$PUCSORTHOVIEW
 70
     0
  9
$PUCSORGTOP
 10
0.0
 20
0.0
 30
0.0
  9
$PUCSORGBOTTOM
 10
0.0
 20
0.0
 30
0.0
  9
$PUCSORGLEFT
 10
0.0
 20
0.0
 30
0.0
  9
$PUCSORGRIGHT
 10
0.0
 20
0.0
 30
0.0
  9
$PUCSORGFRONT
 10
0.0
 20
0.0
 30
0.0
  9
$PUCSORGBACK
 10
0.0
 20
0.0
 30
0.0
  9
$USERI1
 70
     0
  9
$USERI2
 70
     0
  9
$USERI3
 70
     0
  9
$USERI4
 70
     0
  9
$USERI5
 70
     0
  9
$USERR1
 40
0.0
  9
$USERR2
 40
0.0
  9
$USERR3
 40
0.0
  9
$USERR4
 40
0.0
  9
$USERR5
 40
0.0
  9
$WORLDVIEW
 70
     1
  9
$SHADEDGE
 70
     3
  9
$SHADEDIF
 70
    70
  9
$TILEMODE
 70
     1
  9
$MAXACTVP
 70
    64
  9
$PINSBASE
 10
0.0
 20
0.0
 30
0.0
  9
$PLIMCHECK
 70
     0
  9
$PEXTMIN
 10
1.000000000000000E+20
 20
1.000000000000000E+20
 30
1.000000000000000E+20
  9
$PEXTMAX
 10
-1.000000000000000E+20
 20
-1.000000000000000E+20
 30
-1.000000000000000E+20
  9
$PLIMMIN
 10
0.0
 20
0.0
  9
$PLIMMAX
 10
12.0
 20
9.0
  9
$UNITMODE
 70
     0
  9
$VISRETAIN
 70
     1
  9
$PLINEGEN
 70
     0
  9
$PSLTSCALE
 70
     1
  9
$TREEDEPTH
 70
  3020
  9
$CMLSTYLE
  2
Standard
  9
$CMLJUST
 70
     0
  9
$CMLSCALE
 40
1.0
  9
$PROXYGRAPHICS
 70
     1
  9
$MEASUREMENT
 70
     0
  9
$CELWEIGHT
370
    -1
  9
$ENDCAPS
280
     0
  9
$JOINSTYLE
280
     0
  9
$LWDISPLAY
290
     0
  9
$INSUNITS
 70
     0
  9
$HYPERLINKBASE
  1

  9
$STYLESHEET
  1

  9
$XEDIT
290
     1
  9
$CEPSNTYPE
380
     0
  9
$PSTYLEMODE
290
     1
  9
$FINGERPRINTGUID
  2
{B9BA9548-C72A-4829-AE44-729504ED5C2D}
  9
$VERSIONGUID
  2
{A6FE6003-4AF8-4724-9601-F86A803B4A38}
  9
$EXTNAMES
290
     1
  9
$PSVPSCALE
 40
0.0
  9
$OLESTARTUP
290
     0
  0
ENDSEC
  0
SECTION
  2
CLASSES
  0
CLASS
  1
ACDBDICTIONARYWDFLT
  2
AcDbDictionaryWithDefault
  3
AutoCAD 2000
 90
        0
280
     0
281
     0
  0
CLASS
  1
ACDBPLACEHOLDER
  2
AcDbPlaceHolder
  3
AutoCAD 2000
 90
        0
280
     0
281
     0
  0
CLASS
  1
LAYOUT
  2
AcDbLayout
  3
AutoCAD 2000
 90
        0
280
     0
281
     0
  0
CLASS
  1
DICTIONARYVAR
  2
AcDbDictionaryVar
  3
AutoCAD 2000
 90
        0
280
     0
281
     0
  0
ENDSEC
  0
SECTION
  2
TABLES
  0
TABLE
  2
VPORT
  5
8
330
0
100
AcDbSymbolTable
 70
     2
  0
VPORT
  5
4D1
330
8
100
AcDbSymbolTableRecord
100
AcDbViewportTableRecord
  2
*Active
 70
     0
 10
0.0
 20
0.0
 11
1.0
 21
1.0
 12
181.9999999999999
 22
277.4999999999999
 13
0.0
 23
0.0
 14
1.0
 24
1.0
 15
0.0
 25
0.0
 16
0.0
 26
0.0
 36
1.0
 17
0.0
 27
0.0
 37
0.0
 40
559.2583120204604
 41
2.078104993597951
 42
50.0
 43
0.0
 44
0.0
 50
0.0
 51
0.0
 71
     0
 72
   100
 73
     1
 74
     3
 75
     0
 76
     0
 77
     0
 78
     0
281
     0
 65
     1
110
0.0
120
0.0
130
0.0
111
1.0
121
0.0
131
0.0
112
0.0
122
1.0
132
0.0
 79
     1
146
0.0
  0
ENDTAB
  0
TABLE
  2
LTYPE
  5
5
330
0
100
AcDbSymbolTable
 70
     1
  0
LTYPE
  5
13
330
5
100
AcDbSymbolTableRecord
100
AcDbLinetypeTableRecord
  2
ByBlock
 70
     0
  3

 72
    65
 73
     0
 40
0.0
  0
LTYPE
  5
14
330
5
100
AcDbSymbolTableRecord
100
AcDbLinetypeTableRecord
  2
ByLayer
 70
     0
  3

 72
    65
 73
     0
 40
0.0
  0
LTYPE
  5
15
330
5
100
AcDbSymbolTableRecord
100
AcDbLinetypeTableRecord
  2
Continuous
 70
     0
  3
Solid line
 72
    65
 73
     0
 40
0.0
  0
ENDTAB
  0
TABLE
  2
LAYER
  5
2
330
0
100
AcDbSymbolTable
 70
     1
  0
LAYER
  5
10
330
2
100
AcDbSymbolTableRecord
100
AcDbLayerTableRecord
  2
0
 70
     0
 62
     7
  6
Continuous
370
    -3
390
F
  0
ENDTAB
  0
TABLE
  2
STYLE
  5
3
330
0
100
AcDbSymbolTable
 70
     1
  0
STYLE
  5
11
330
3
100
AcDbSymbolTableRecord
100
AcDbTextStyleTableRecord
  2
Standard
 70
     0
 40
0.0
 41
1.0
 50
0.0
 71
     0
 42
0.2
  3
txt
  4

  0
ENDTAB
  0
TABLE
  2
VIEW
  5
6
330
0
100
AcDbSymbolTable
 70
     0
  0
ENDTAB
  0
TABLE
  2
UCS
  5
7
330
0
100
AcDbSymbolTable
 70
     0
  0
ENDTAB
  0
TABLE
  2
APPID
  5
9
330
0
100
AcDbSymbolTable
 70
     1
  0
APPID
  5
12
330
9
100
AcDbSymbolTableRecord
100
AcDbRegAppTableRecord
  2
ACAD
 70
     0
  0
ENDTAB
  0
TABLE
  2
DIMSTYLE
  5
A
330
0
100
AcDbSymbolTable
 70
     1
100
AcDbDimStyleTable
 71
     0
  0
DIMSTYLE
105
4C7
330
A
100
AcDbSymbolTableRecord
100
AcDbDimStyleTableRecord
  2
Standard
 70
     0
340
11
  0
ENDTAB
  0
TABLE
  2
BLOCK_RECORD
  5
1
330
0
100
AcDbSymbolTable
 70
     0
  0
BLOCK_RECORD
  5
1E
330
1
100
AcDbSymbolTableRecord
100
AcDbBlockTableRecord
  2
*Model_Space
340
21
  0
BLOCK_RECORD
  5
1A
330
1
100
AcDbSymbolTableRecord
100
AcDbBlockTableRecord
  2
*Paper_Space
340
1D
  0
ENDTAB
  0
ENDSEC
  0
SECTION
  2
BLOCKS
  0
BLOCK
  5
1F
330
1E
100
AcDbEntity
  8
0
100
AcDbBlockBegin
  2
*Model_Space
 70
     0
 10
0.0
 20
0.0
 30
0.0
  3
*Model_Space
  1

  0
ENDBLK
  5
20
330
1E
100
AcDbEntity
  8
0
100
AcDbBlockEnd
  0
BLOCK
  5
1B
330
1A
100
AcDbEntity
 67
     1
  8
0
100
AcDbBlockBegin
  2
*Paper_Space
 70
     0
 10
0.0
 20
0.0
 30
0.0
  3
*Paper_Space
  1

  0
ENDBLK
  5
1C
330
1A
100
AcDbEntity
 67
     1
  8
0
100
AcDbBlockEnd
  0
ENDSEC
  0
SECTION
  2
ENTITIES
  0
LINE
  5
22
330
1E
100
AcDbEntity
  8
0
100
AcDbLine
 10
0.249999999999979
 20
460.0999999999999
 30
0.0
 11
0.249999999999979
 21
458.1999999999999
 31
0.0
  0
LINE
  5
23
330
1E
100
AcDbEntity
  8
0
100
AcDbLine
 10
0.249999999999979
 20
460.0999999999999
 30
0.0
 11
0.249999999999979
 21
463.1999999999999
 31
0.0
  0
LINE
  5
24
330
1E
100
AcDbEntity
  8
0
100
AcDbLine
 10
0.249999999999979
 20
458.1999999999999
 30
0.0
 11
0.249999999999979
 21
457.5
 31
0.0
  0
LINE
  5
25
330
1E
100
AcDbEntity
  8
0
100
AcDbLine
 10
0.249999999999979
 20
458.1999999999999
 30
0.0
 11
0.249999999999979
 21
460.0999999999999
 31
0.0
  0
LINE
  5
26
330
1E
100
AcDbEntity
  8
0
100
AcDbLine
 10
0.249999999999979
 20
457.5
 30
0.0
 11
0.7499999999999791
 21
456.5
 31
0.0
  0
LINE
  5
27
330
1E
100
AcDbEntity
  8
0
100
AcDbLine
 10
0.249999999999979
 20
457.5
 30
0.0
 11
0.249999999999979
 21
458.1999999999999
 31
0.0
  0
LINE
  5
28
330
1E
100
AcDbEntity
  8
0
100
AcDbLine
 10
0.249999999999979
 20
471.4999999999999
 30
0.0
 11
0.249999999999979
 21
471.6999999999999
 31
0.0
  0
LINE
  5
29
330
1E
100
AcDbEntity
  8
0
100
AcDbLine
 10
0.249999999999979
 20
471.6999999999999
 30
0.0
 11
0.249999999999979
 21
471.4999999999999
 31
0.0
  0
LINE
  5
2A
330
1E
100
AcDbEntity
  8
0
100
AcDbLine
 10
0.249999999999979
 20
471.6999999999999
 30
0.0
 11
0.249999999999979
 21
472.2
 31
0.0
  0
LINE
  5
2B
330
1E
100
AcDbEntity
  8
0
100
AcDbLine
 10
0.249999999999979
 20
463.1999999999999
 30
0.0
 11
0.249999999999979
 21
467.3
 31
0.0
  0
LINE
  5
2C
330
1E
100
AcDbEntity
  8
0
100
AcDbLine
 10
0.249999999999979
 20
463.1999999999999
 30
0.0
 11
0.249999999999979
 21
460.0999999999999
 31
0.0
  0
LINE
  5
2D
330
1E
100
AcDbEntity
  8
0
100
AcDbLine
 10
0.249999999999979
 20
467.3
 30
0.0
 11
0.249999999999979
 21
463.1999999999999
 31
0.0
  0
LINE
  5
2E
330
1E
100
AcDbEntity
  8
0
100
AcDbLine
 10
0.249999999999979
 20
467.3
 30
0.0
 11
0.249999999999979
 21
472.0
 31
0.0
  0
LINE
  5
2F
330
1E
100
AcDbEntity
  8
0
100
AcDbLine
 10
0.249999999999979
 20
472.5
 30
0.0
 11
0.249999999999979
 21
472.7
 31
0.0
  0
LINE
  5
30
330
1E
100
AcDbEntity
  8
0
100
AcDbLine
 10
0.249999999999979
 20
472.7
 30
0.0
 11
0.249999999999979
 21
472.5
 31
0.0
  0
LINE
  5
31
330
1E
100
AcDbEntity
  8
0
100
AcDbLine
 10
0.249999999999979
 20
472.7
 30
0.0
 11
0.249999999999979
 21
473.1
 31
0.0
  0
LINE
  5
32
330
1E
100
AcDbEntity
  8
0
100
AcDbLine
 10
0.249999999999979
 20
472.2
 30
0.0
 11
0.249999999999979
 21
471.6999999999999
 31
0.0
  0
LINE
  5
33
330
1E
100
AcDbEntity
  8
0
100
AcDbLine
 10
0.249999999999979
 20
472.2
 30
0.0
 11
0.249999999999979
 21
473.1
 31
0.0
  0
LINE
  5
34
330
1E
100
AcDbEntity
  8
0
100
AcDbLine
 10
0.249999999999979
 20
473.8
 30
0.0
 11
0.249999999999979
 21
474.8
 31
0.0
  0
LINE
  5
35
330
1E
100
AcDbEntity
  8
0
100
AcDbLine
 10
0.249999999999979
 20
473.8
 30
0.0
 11
0.249999999999979
 21
473.1
 31
0.0
  0
LINE
  5
36
330
1E
100
AcDbEntity
  8
0
100
AcDbLine
 10
0.249999999999979
 20
473.1
 30
0.0
 11
0.249999999999979
 21
474.3
 31
0.0
  0
LINE
  5
37
330
1E
100
AcDbEntity
  8
0
100
AcDbLine
 10
0.249999999999979
 20
473.1
 30
0.0
 11
0.249999999999979
 21
472.2
 31
0.0
  0
LINE
  5
38
330
1E
100
AcDbEntity
  8
0
100
AcDbLine
 10
0.249999999999979
 20
473.1
 30
0.0
 11
0.249999999999979
 21
472.7
 31
0.0
  0
LINE
  5
39
330
1E
100
AcDbEntity
  8
0
100
AcDbLine
 10
0.249999999999979
 20
473.1
 30
0.0
 11
0.249999999999979
 21
473.8
 31
0.0
  0
LINE
  5
3A
330
1E
100
AcDbEntity
  8
0
100
AcDbLine
 10
0.249999999999979
 20
479.1999999999999
 30
0.0
 11
0.249999999999979
 21
478.2
 31
0.0
  0
LINE
  5
3B
330
1E
100
AcDbEntity
  8
0
100
AcDbLine
 10
0.249999999999979
 20
479.1999999999999
 30
0.0
 11
0.249999999999979
 21
480.1999999999999
 31
0.0
  0
LINE
  5
3C
330
1E
100
AcDbEntity
  8
0
100
AcDbLine
 10
0.249999999999979
 20
478.2
 30
0.0
 11
0.249999999999979
 21
477.0
 31
0.0
  0
LINE
  5
3D
330
1E
100
AcDbEntity
  8
0
100
AcDbLine
 10
0.249999999999979
 20
478.2
 30
0.0
 11
0.249999999999979
 21
479.1999999999999
 31
0.0
  0
LINE
  5
3E
330
1E
100
AcDbEntity
  8
0
100
AcDbLine
 10
0.249999999999979
 20
479.6999999999999
 30
0.0
 11
0.249999999999979
 21
478.3999999999999
 31
0.0
  0
LINE
  5
3F
330
1E
100
AcDbEntity
  8
0
100
AcDbLine
 10
0.249999999999979
 20
479.6999999999999
 30
0.0
 11
0.249999999999979
 21
480.9
 31
0.0
  0
LINE
  5
40
330
1E
100
AcDbEntity
  8
0
100
AcDbLine
 10
0.249999999999979
 20
478.3999999999999
 30
0.0
 11
0.249999999999979
 21
477.0
 31
0.0
  0
LINE
  5
41
330
1E
100
AcDbEntity
  8
0
100
AcDbLine
 10
0.249999999999979
 20
478.3999999999999
 30
0.0
 11
0.249999999999979
 21
479.6999999999999
 31
0.0
  0
LINE
  5
42
330
1E
100
AcDbEntity
  8
0
100
AcDbLine
 10
0.249999999999979
 20
480.1999999999999
 30
0.0
 11
0.249999999999979
 21
480.9
 31
0.0
  0
LINE
  5
43
330
1E
100
AcDbEntity
  8
0
100
AcDbLine
 10
0.249999999999979
 20
480.1999999999999
 30
0.0
 11
0.249999999999979
 21
479.1999999999999
 31
0.0
  0
LINE
  5
44
330
1E
100
AcDbEntity
  8
0
100
AcDbLine
 10
0.249999999999979
 20
481.3
 30
0.0
 11
0.249999999999979
 21
480.9
 31
0.0
  0
LINE
  5
45
330
1E
100
AcDbEntity
  8
0
100
AcDbLine
 10
0.249999999999979
 20
481.3
 30
0.0
 11
0.249999999999979
 21
481.5
 31
0.0
  0
LINE
  5
46
330
1E
100
AcDbEntity
  8
0
100
AcDbLine
 10
0.249999999999979
 20
481.5
 30
0.0
 11
0.249999999999979
 21
481.3
 31
0.0
  0
LINE
  5
47
330
1E
100
AcDbEntity
  8
0
100
AcDbLine
 10
0.249999999999979
 20
480.9
 30
0.0
 11
0.249999999999979
 21
481.8
 31
0.0
  0
LINE
  5
48
330
1E
100
AcDbEntity
  8
0
100
AcDbLine
 10
0.249999999999979
 20
480.9
 30
0.0
 11
0.249999999999979
 21
480.1999999999999
 31
0.0
  0
LINE
  5
49
330
1E
100
AcDbEntity
  8
0
100
AcDbLine
 10
0.249999999999979
 20
480.9
 30
0.0
 11
0.249999999999979
 21
481.3
 31
0.0
  0
LINE
  5
4A
330
1E
100
AcDbEntity
  8
0
100
AcDbLine
 10
0.249999999999979
 20
480.9
 30
0.0
 11
0.249999999999979
 21
479.6999999999999
 31
0.0
  0
LINE
  5
4B
330
1E
100
AcDbEntity
  8
0
100
AcDbLine
 10
0.249999999999979
 20
482.0
 30
0.0
 11
0.249999999999979
 21
477.0
 31
0.0
  0
LINE
  5
4C
330
1E
100
AcDbEntity
  8
0
100
AcDbLine
 10
0.249999999999979
 20
482.0
 30
0.0
 11
0.249999999999979
 21
486.6999999999999
 31
0.0
  0
LINE
  5
4D
330
1E
100
AcDbEntity
  8
0
100
AcDbLine
 10
0.249999999999979
 20
481.8
 30
0.0
 11
0.249999999999979
 21
480.9
 31
0.0
  0
LINE
  5
4E
330
1E
100
AcDbEntity
  8
0
100
AcDbLine
 10
0.249999999999979
 20
481.8
 30
0.0
 11
0.249999999999979
 21
482.3
 31
0.0
  0
LINE
  5
4F
330
1E
100
AcDbEntity
  8
0
100
AcDbLine
 10
0.249999999999979
 20
482.3
 30
0.0
 11
0.249999999999979
 21
481.8
 31
0.0
  0
LINE
  5
50
330
1E
100
AcDbEntity
  8
0
100
AcDbLine
 10
0.249999999999979
 20
482.3
 30
0.0
 11
0.249999999999979
 21
482.5
 31
0.0
  0
LINE
  5
51
330
1E
100
AcDbEntity
  8
0
100
AcDbLine
 10
0.249999999999979
 20
486.6999999999999
 30
0.0
 11
0.249999999999979
 21
482.0
 31
0.0
  0
LINE
  5
52
330
1E
100
AcDbEntity
  8
0
100
AcDbLine
 10
0.249999999999979
 20
486.6999999999999
 30
0.0
 11
0.249999999999979
 21
490.8
 31
0.0
  0
LINE
  5
53
330
1E
100
AcDbEntity
  8
0
100
AcDbLine
 10
0.249999999999979
 20
490.8
 30
0.0
 11
0.249999999999979
 21
493.9
 31
0.0
  0
LINE
  5
54
330
1E
100
AcDbEntity
  8
0
100
AcDbLine
 10
0.249999999999979
 20
490.8
 30
0.0
 11
0.249999999999979
 21
486.6999999999999
 31
0.0
  0
LINE
  5
55
330
1E
100
AcDbEntity
  8
0
100
AcDbLine
 10
0.249999999999979
 20
482.5
 30
0.0
 11
0.249999999999979
 21
482.3
 31
0.0
  0
LINE
  5
56
330
1E
100
AcDbEntity
  8
0
100
AcDbLine
 10
0.249999999999979
 20
493.9
 30
0.0
 11
0.249999999999979
 21
490.8
 31
0.0
  0
LINE
  5
57
330
1E
100
AcDbEntity
  8
0
100
AcDbLine
 10
0.249999999999979
 20
493.9
 30
0.0
 11
0.249999999999979
 21
495.8
 31
0.0
  0
LINE
  5
58
330
1E
100
AcDbEntity
  8
0
100
AcDbLine
 10
0.249999999999979
 20
495.8
 30
0.0
 11
0.249999999999979
 21
493.9
 31
0.0
  0
LINE
  5
59
330
1E
100
AcDbEntity
  8
0
100
AcDbLine
 10
0.249999999999979
 20
495.8
 30
0.0
 11
0.249999999999979
 21
496.4999999999999
 31
0.0
  0
LINE
  5
5A
330
1E
100
AcDbEntity
  8
0
100
AcDbLine
 10
0.249999999999979
 20
496.4999999999999
 30
0.0
 11
0.249999999999979
 21
495.8
 31
0.0
  0
LINE
  5
5B
330
1E
100
AcDbEntity
  8
0
100
AcDbLine
 10
0.249999999999979
 20
496.4999999999999
 30
0.0
 11
0.7499999999999791
 21
497.5
 31
0.0
  0
LINE
  5
5C
330
1E
100
AcDbEntity
  8
0
100
AcDbLine
 10
0.249999999999979
 20
474.8
 30
0.0
 11
0.249999999999979
 21
473.8
 31
0.0
  0
LINE
  5
5D
330
1E
100
AcDbEntity
  8
0
100
AcDbLine
 10
0.249999999999979
 20
474.8
 30
0.0
 11
0.249999999999979
 21
475.8
 31
0.0
  0
LINE
  5
5E
330
1E
100
AcDbEntity
  8
0
100
AcDbLine
 10
0.249999999999979
 20
475.8
 30
0.0
 11
0.249999999999979
 21
474.8
 31
0.0
  0
LINE
  5
5F
330
1E
100
AcDbEntity
  8
0
100
AcDbLine
 10
0.249999999999979
 20
475.8
 30
0.0
 11
0.249999999999979
 21
477.0
 31
0.0
  0
LINE
  5
60
330
1E
100
AcDbEntity
  8
0
100
AcDbLine
 10
0.249999999999979
 20
474.3
 30
0.0
 11
0.249999999999979
 21
473.1
 31
0.0
  0
LINE
  5
61
330
1E
100
AcDbEntity
  8
0
100
AcDbLine
 10
0.249999999999979
 20
474.3
 30
0.0
 11
0.249999999999979
 21
475.6
 31
0.0
  0
LINE
  5
62
330
1E
100
AcDbEntity
  8
0
100
AcDbLine
 10
0.249999999999979
 20
475.6
 30
0.0
 11
0.249999999999979
 21
474.3
 31
0.0
  0
LINE
  5
63
330
1E
100
AcDbEntity
  8
0
100
AcDbLine
 10
0.249999999999979
 20
475.6
 30
0.0
 11
0.249999999999979
 21
477.0
 31
0.0
  0
LINE
  5
64
330
1E
100
AcDbEntity
  8
0
100
AcDbLine
 10
0.249999999999979
 20
472.0
 30
0.0
 11
0.249999999999979
 21
467.3
 31
0.0
  0
LINE
  5
65
330
1E
100
AcDbEntity
  8
0
100
AcDbLine
 10
0.249999999999979
 20
472.0
 30
0.0
 11
0.249999999999979
 21
477.0
 31
0.0
  0
LINE
  5
66
330
1E
100
AcDbEntity
  8
0
100
AcDbLine
 10
72.75
 20
26.9999999999999
 30
0.0
 11
81.52500000000001
 21
19.34999999999989
 31
0.0
  0
LINE
  5
67
330
1E
100
AcDbEntity
  8
0
100
AcDbLine
 10
81.52500000000001
 20
19.34999999999989
 30
0.0
 11
91.34999999999999
 21
12.6749999999999
 31
0.0
  0
LINE
  5
68
330
1E
100
AcDbEntity
  8
0
100
AcDbLine
 10
72.225
 20
26.4749999999999
 30
0.0
 11
81.07499999999999
 21
18.74999999999989
 31
0.0
  0
LINE
  5
69
330
1E
100
AcDbEntity
  8
0
100
AcDbLine
 10
81.07499999999999
 20
18.74999999999989
 30
0.0
 11
90.975
 21
12.0749999999999
 31
0.0
  0
LINE
  5
6A
330
1E
100
AcDbEntity
  8
0
100
AcDbLine
 10
91.34999999999999
 20
12.6749999999999
 30
0.0
 11
101.625
 21
7.724999999999949
 31
0.0
  0
LINE
  5
6B
330
1E
100
AcDbEntity
  8
0
100
AcDbLine
 10
101.625
 20
7.724999999999949
 30
0.0
 11
112.7249999999999
 21
3.974999999999939
 31
0.0
  0
LINE
  5
6C
330
1E
100
AcDbEntity
  8
0
100
AcDbLine
 10
90.975
 20
12.0749999999999
 30
0.0
 11
101.4
 21
7.04999999999994
 31
0.0
  0
LINE
  5
6D
330
1E
100
AcDbEntity
  8
0
100
AcDbLine
 10
101.4
 20
7.04999999999994
 30
0.0
 11
112.5
 21
3.224999999999939
 31
0.0
  0
LINE
  5
6E
330
1E
100
AcDbEntity
  8
0
100
AcDbLine
 10
112.7249999999999
 20
3.974999999999939
 30
0.0
 11
124.0499999999999
 21
1.649999999999939
 31
0.0
  0
LINE
  5
6F
330
1E
100
AcDbEntity
  8
0
100
AcDbLine
 10
112.5
 20
3.224999999999939
 30
0.0
 11
124.0499999999999
 21
0.8999999999999369
 31
0.0
  0
LINE
  5
70
330
1E
100
AcDbEntity
  8
0
100
AcDbLine
 10
65.09999999999999
 20
35.77499999999989
 30
0.0
 11
72.75
 21
26.9999999999999
 31
0.0
  0
LINE
  5
71
330
1E
100
AcDbEntity
  8
0
100
AcDbLine
 10
64.5
 20
35.3249999999999
 30
0.0
 11
72.225
 21
26.4749999999999
 31
0.0
  0
LINE
  5
72
330
1E
100
AcDbEntity
  8
0
100
AcDbLine
 10
109.275
 20
63.52499999999989
 30
0.0
 11
112.9499999999999
 21
60.2999999999999
 31
0.0
  0
LINE
  5
73
330
1E
100
AcDbEntity
  8
0
100
AcDbLine
 10
112.9499999999999
 20
60.2999999999999
 30
0.0
 11
117.0749999999999
 21
57.52499999999989
 31
0.0
  0
LINE
  5
74
330
1E
100
AcDbEntity
  8
0
100
AcDbLine
 10
117.0749999999999
 20
57.52499999999989
 30
0.0
 11
121.425
 21
55.42499999999989
 31
0.0
  0
LINE
  5
75
330
1E
100
AcDbEntity
  8
0
100
AcDbLine
 10
121.425
 20
55.42499999999989
 30
0.0
 11
126.075
 21
53.8499999999999
 31
0.0
  0
LINE
  5
76
330
1E
100
AcDbEntity
  8
0
100
AcDbLine
 10
58.425
 20
45.6
 30
0.0
 11
65.09999999999999
 21
35.77499999999989
 31
0.0
  0
LINE
  5
77
330
1E
100
AcDbEntity
  8
0
100
AcDbLine
 10
53.475
 20
55.87499999999989
 30
0.0
 11
58.425
 21
45.6
 31
0.0
  0
LINE
  5
78
330
1E
100
AcDbEntity
  8
0
100
AcDbLine
 10
57.825
 20
45.22499999999989
 30
0.0
 11
64.5
 21
35.3249999999999
 31
0.0
  0
LINE
  5
79
330
1E
100
AcDbEntity
  8
0
100
AcDbLine
 10
52.8
 20
55.64999999999989
 30
0.0
 11
57.825
 21
45.22499999999989
 31
0.0
  0
LINE
  5
7A
330
1E
100
AcDbEntity
  8
0
100
AcDbLine
 10
106.0499999999999
 20
67.19999999999989
 30
0.0
 11
109.275
 21
63.52499999999989
 31
0.0
  0
LINE
  5
7B
330
1E
100
AcDbEntity
  8
0
100
AcDbLine
 10
49.725
 20
66.97499999999999
 30
0.0
 11
53.475
 21
55.87499999999989
 31
0.0
  0
LINE
  5
7C
330
1E
100
AcDbEntity
  8
0
100
AcDbLine
 10
48.975
 20
66.7499999999999
 30
0.0
 11
52.8
 21
55.64999999999989
 31
0.0
  0
LINE
  5
7D
330
1E
100
AcDbEntity
  8
0
100
AcDbLine
 10
124.0499999999999
 20
1.649999999999939
 30
0.0
 11
135.7499999999999
 21
0.749999999999938
 31
0.0
  0
LINE
  5
7E
330
1E
100
AcDbEntity
  8
0
100
AcDbLine
 10
124.0499999999999
 20
0.8999999999999369
 30
0.0
 11
135.7499999999999
 21
-0.0000000000000616
 31
0.0
  0
LINE
  5
7F
330
1E
100
AcDbEntity
  8
0
100
AcDbLine
 10
124.038
 20
69.9999999999999
 30
0.0
 11
124.4699999999999
 21
69.9999999999999
 31
0.0
  0
LINE
  5
80
330
1E
100
AcDbEntity
  8
0
100
AcDbLine
 10
124.4699999999999
 20
69.9999999999999
 30
0.0
 11
125.622
 21
69.9999999999999
 31
0.0
  0
LINE
  5
81
330
1E
100
AcDbEntity
  8
0
100
AcDbLine
 10
126.075
 20
53.8499999999999
 30
0.0
 11
130.875
 21
52.87499999999989
 31
0.0
  0
LINE
  5
82
330
1E
100
AcDbEntity
  8
0
100
AcDbLine
 10
125.622
 20
69.9999999999999
 30
0.0
 11
127.4939999999999
 21
69.9999999999999
 31
0.0
  0
LINE
  5
83
330
1E
100
AcDbEntity
  8
0
100
AcDbLine
 10
127.4939999999999
 20
69.9999999999999
 30
0.0
 11
129.942
 21
69.9999999999999
 31
0.0
  0
LINE
  5
84
330
1E
100
AcDbEntity
  8
0
100
AcDbLine
 10
135.7499999999999
 20
52.49999999999989
 30
0.0
 11
140.625
 21
52.87499999999989
 31
0.0
  0
LINE
  5
85
330
1E
100
AcDbEntity
  8
0
100
AcDbLine
 10
135.7499999999999
 20
0.749999999999938
 30
0.0
 11
147.4499999999999
 21
1.649999999999939
 31
0.0
  0
LINE
  5
86
330
1E
100
AcDbEntity
  8
0
100
AcDbLine
 10
135.7499999999999
 20
-0.0000000000000616
 30
0.0
 11
147.4499999999999
 21
0.8999999999999369
 31
0.0
  0
LINE
  5
87
330
1E
100
AcDbEntity
  8
0
100
AcDbLine
 10
130.875
 20
52.87499999999989
 30
0.0
 11
135.7499999999999
 21
52.49999999999989
 31
0.0
  0
LINE
  5
88
330
1E
100
AcDbEntity
  8
0
100
AcDbLine
 10
129.942
 20
69.9999999999999
 30
0.0
 11
132.726
 21
69.9999999999999
 31
0.0
  0
LINE
  5
89
330
1E
100
AcDbEntity
  8
0
100
AcDbLine
 10
132.726
 20
69.9999999999999
 30
0.0
 11
135.7499999999999
 21
69.9999999999999
 31
0.0
  0
LINE
  5
8A
330
1E
100
AcDbEntity
  8
0
100
AcDbLine
 10
140.625
 20
52.87499999999989
 30
0.0
 11
145.425
 21
53.8499999999999
 31
0.0
  0
LINE
  5
8B
330
1E
100
AcDbEntity
  8
0
100
AcDbLine
 10
145.425
 20
53.8499999999999
 30
0.0
 11
150.075
 21
55.42499999999989
 31
0.0
  0
LINE
  5
8C
330
1E
100
AcDbEntity
  8
0
100
AcDbLine
 10
147.4499999999999
 20
1.649999999999939
 30
0.0
 11
158.7749999999999
 21
3.974999999999939
 31
0.0
  0
LINE
  5
8D
330
1E
100
AcDbEntity
  8
0
100
AcDbLine
 10
147.4499999999999
 20
0.8999999999999369
 30
0.0
 11
159.0
 21
3.224999999999939
 31
0.0
  0
LINE
  5
8E
330
1E
100
AcDbEntity
  8
0
100
AcDbLine
 10
147.462
 20
69.9999999999999
 30
0.0
 11
147.75
 21
70.6352999999999
 31
0.0
  0
LINE
  5
8F
330
1E
100
AcDbEntity
  8
0
100
AcDbLine
 10
147.0299999999999
 20
69.9999999999999
 30
0.0
 11
147.462
 21
69.9999999999999
 31
0.0
  0
LINE
  5
90
330
1E
100
AcDbEntity
  8
0
100
AcDbLine
 10
145.8779999999999
 20
69.9999999999999
 30
0.0
 11
147.0299999999999
 21
69.9999999999999
 31
0.0
  0
LINE
  5
91
330
1E
100
AcDbEntity
  8
0
100
AcDbLine
 10
144.006
 20
69.9999999999999
 30
0.0
 11
145.8779999999999
 21
69.9999999999999
 31
0.0
  0
LINE
  5
92
330
1E
100
AcDbEntity
  8
0
100
AcDbLine
 10
141.558
 20
69.9999999999999
 30
0.0
 11
144.006
 21
69.9999999999999
 31
0.0
  0
LINE
  5
93
330
1E
100
AcDbEntity
  8
0
100
AcDbLine
 10
138.7739999999999
 20
69.9999999999999
 30
0.0
 11
141.558
 21
69.9999999999999
 31
0.0
  0
LINE
  5
94
330
1E
100
AcDbEntity
  8
0
100
AcDbLine
 10
46.5
 20
89.99999999999991
 30
0.0
 11
47.4
 21
78.2999999999999
 31
0.0
  0
LINE
  5
95
330
1E
100
AcDbEntity
  8
0
100
AcDbLine
 10
46.5
 20
89.99999999999991
 30
0.0
 11
47.4
 21
101.7
 31
0.0
  0
LINE
  5
96
330
1E
100
AcDbEntity
  8
0
100
AcDbLine
 10
103.275
 20
71.3249999999999
 30
0.0
 11
106.0499999999999
 21
67.19999999999989
 31
0.0
  0
LINE
  5
97
330
1E
100
AcDbEntity
  8
0
100
AcDbLine
 10
101.1749999999999
 20
75.6749999999999
 30
0.0
 11
103.275
 21
71.3249999999999
 31
0.0
  0
LINE
  5
98
330
1E
100
AcDbEntity
  8
0
100
AcDbLine
 10
99.6
 20
80.32499999999989
 30
0.0
 11
101.1749999999999
 21
75.6749999999999
 31
0.0
  0
LINE
  5
99
330
1E
100
AcDbEntity
  8
0
100
AcDbLine
 10
98.625
 20
85.1249999999999
 30
0.0
 11
99.6
 21
80.32499999999989
 31
0.0
  0
LINE
  5
9A
330
1E
100
AcDbEntity
  8
0
100
AcDbLine
 10
98.25000000000001
 20
89.99999999999991
 30
0.0
 11
98.625
 21
85.1249999999999
 31
0.0
  0
LINE
  5
9B
330
1E
100
AcDbEntity
  8
0
100
AcDbLine
 10
98.25000000000001
 20
89.99999999999991
 30
0.0
 11
98.625
 21
94.8749999999999
 31
0.0
  0
LINE
  5
9C
330
1E
100
AcDbEntity
  8
0
100
AcDbLine
 10
47.4
 20
78.2999999999999
 30
0.0
 11
49.725
 21
66.97499999999999
 31
0.0
  0
LINE
  5
9D
330
1E
100
AcDbEntity
  8
0
100
AcDbLine
 10
46.65
 20
78.2999999999999
 30
0.0
 11
48.975
 21
66.7499999999999
 31
0.0
  0
LINE
  5
9E
330
1E
100
AcDbEntity
  8
0
100
AcDbLine
 10
47.4
 20
101.7
 30
0.0
 11
49.725
 21
113.0249999999999
 31
0.0
  0
LINE
  5
9F
330
1E
100
AcDbEntity
  8
0
100
AcDbLine
 10
53.475
 20
124.1249999999999
 30
0.0
 11
58.425
 21
134.4
 31
0.0
  0
LINE
  5
A0
330
1E
100
AcDbEntity
  8
0
100
AcDbLine
 10
49.725
 20
113.0249999999999
 30
0.0
 11
53.475
 21
124.1249999999999
 31
0.0
  0
LINE
  5
A1
330
1E
100
AcDbEntity
  8
0
100
AcDbLine
 10
65.09999999999999
 20
144.225
 30
0.0
 11
72.75
 21
153.0
 31
0.0
  0
LINE
  5
A2
330
1E
100
AcDbEntity
  8
0
100
AcDbLine
 10
58.425
 20
134.4
 30
0.0
 11
65.09999999999999
 21
144.225
 31
0.0
  0
LINE
  5
A3
330
1E
100
AcDbEntity
  8
0
100
AcDbLine
 10
64.5
 20
144.675
 30
0.0
 11
72.225
 21
153.525
 31
0.0
  0
LINE
  5
A4
330
1E
100
AcDbEntity
  8
0
100
AcDbLine
 10
57.825
 20
134.775
 30
0.0
 11
64.5
 21
144.675
 31
0.0
  0
LINE
  5
A5
330
1E
100
AcDbEntity
  8
0
100
AcDbLine
 10
52.8
 20
124.35
 30
0.0
 11
57.825
 21
134.775
 31
0.0
  0
LINE
  5
A6
330
1E
100
AcDbEntity
  8
0
100
AcDbLine
 10
48.975
 20
113.25
 30
0.0
 11
52.8
 21
124.35
 31
0.0
  0
LINE
  5
A7
330
1E
100
AcDbEntity
  8
0
100
AcDbLine
 10
46.65
 20
101.7
 30
0.0
 11
48.975
 21
113.25
 31
0.0
  0
LINE
  5
A8
330
1E
100
AcDbEntity
  8
0
100
AcDbLine
 10
98.625
 20
94.8749999999999
 30
0.0
 11
99.6
 21
99.6749999999999
 31
0.0
  0
LINE
  5
A9
330
1E
100
AcDbEntity
  8
0
100
AcDbLine
 10
101.1749999999999
 20
104.325
 30
0.0
 11
103.275
 21
108.675
 31
0.0
  0
LINE
  5
AA
330
1E
100
AcDbEntity
  8
0
100
AcDbLine
 10
99.6
 20
99.6749999999999
 30
0.0
 11
101.1749999999999
 21
104.325
 31
0.0
  0
LINE
  5
AB
330
1E
100
AcDbEntity
  8
0
100
AcDbLine
 10
72.75
 20
153.0
 30
0.0
 11
81.52500000000001
 21
160.65
 31
0.0
  0
LINE
  5
AC
330
1E
100
AcDbEntity
  8
0
100
AcDbLine
 10
81.52500000000001
 20
160.65
 30
0.0
 11
91.34999999999999
 21
167.3249999999999
 31
0.0
  0
LINE
  5
AD
330
1E
100
AcDbEntity
  8
0
100
AcDbLine
 10
72.225
 20
153.525
 30
0.0
 11
81.07499999999999
 21
161.25
 31
0.0
  0
LINE
  5
AE
330
1E
100
AcDbEntity
  8
0
100
AcDbLine
 10
91.34999999999999
 20
167.3249999999999
 30
0.0
 11
101.625
 21
172.275
 31
0.0
  0
LINE
  5
AF
330
1E
100
AcDbEntity
  8
0
100
AcDbLine
 10
90.975
 20
167.925
 30
0.0
 11
101.4
 21
172.9499999999999
 31
0.0
  0
LINE
  5
B0
330
1E
100
AcDbEntity
  8
0
100
AcDbLine
 10
81.07499999999999
 20
161.25
 30
0.0
 11
90.975
 21
167.925
 31
0.0
  0
LINE
  5
B1
330
1E
100
AcDbEntity
  8
0
100
AcDbLine
 10
106.0499999999999
 20
112.7999999999999
 30
0.0
 11
109.275
 21
116.4749999999999
 31
0.0
  0
LINE
  5
B2
330
1E
100
AcDbEntity
  8
0
100
AcDbLine
 10
103.275
 20
108.675
 30
0.0
 11
106.0499999999999
 21
112.7999999999999
 31
0.0
  0
LINE
  5
B3
330
1E
100
AcDbEntity
  8
0
100
AcDbLine
 10
109.275
 20
116.4749999999999
 30
0.0
 11
112.9499999999999
 21
119.7
 31
0.0
  0
LINE
  5
B4
330
1E
100
AcDbEntity
  8
0
100
AcDbLine
 10
101.625
 20
172.275
 30
0.0
 11
112.7249999999999
 21
176.025
 31
0.0
  0
LINE
  5
B5
330
1E
100
AcDbEntity
  8
0
100
AcDbLine
 10
112.9499999999999
 20
119.7
 30
0.0
 11
117.0749999999999
 21
122.475
 31
0.0
  0
LINE
  5
B6
330
1E
100
AcDbEntity
  8
0
100
AcDbLine
 10
117.0749999999999
 20
122.475
 30
0.0
 11
121.425
 21
124.575
 31
0.0
  0
LINE
  5
B7
330
1E
100
AcDbEntity
  8
0
100
AcDbLine
 10
121.425
 20
124.575
 30
0.0
 11
123.75
 21
125.3624999999999
 31
0.0
  0
LINE
  5
B8
330
1E
100
AcDbEntity
  8
0
100
AcDbLine
 10
112.7249999999999
 20
176.025
 30
0.0
 11
123.75
 21
178.288410596026
 31
0.0
  0
LINE
  5
B9
330
1E
100
AcDbEntity
  8
0
100
AcDbLine
 10
112.5
 20
176.775
 30
0.0
 11
123.75
 21
179.03961038961
 31
0.0
  0
LINE
  5
BA
330
1E
100
AcDbEntity
  8
0
100
AcDbLine
 10
101.4
 20
172.9499999999999
 30
0.0
 11
112.5
 21
176.775
 31
0.0
  0
LINE
  5
BB
330
1E
100
AcDbEntity
  8
0
100
AcDbLine
 10
45.75
 20
89.99999999999991
 30
0.0
 11
46.65
 21
78.2999999999999
 31
0.0
  0
LINE
  5
BC
330
1E
100
AcDbEntity
  8
0
100
AcDbLine
 10
45.75
 20
89.99999999999991
 30
0.0
 11
46.65
 21
101.7
 31
0.0
  0
LINE
  5
BD
330
1E
100
AcDbEntity
  8
0
100
AcDbLine
 10
122.761
 20
357.869
 30
0.0
 11
123.75
 21
353.634514459665
 31
0.0
  0
LINE
  5
BE
330
1E
100
AcDbEntity
  8
0
100
AcDbLine
 10
122.761
 20
368.369
 30
0.0
 11
123.75
 21
364.134514459665
 31
0.0
  0
LINE
  5
BF
330
1E
100
AcDbEntity
  8
0
100
AcDbLine
 10
122.2499999999999
 20
363.4319999999999
 30
0.0
 11
122.2499999999999
 21
373.9319999999999
 31
0.0
  0
LINE
  5
C0
330
1E
100
AcDbEntity
  8
0
100
AcDbLine
 10
122.2499999999999
 20
363.4319999999999
 30
0.0
 11
122.761
 21
357.869
 31
0.0
  0
LINE
  5
C1
330
1E
100
AcDbEntity
  8
0
100
AcDbLine
 10
122.761
 20
379.494
 30
0.0
 11
123.75
 21
383.7284855403349
 31
0.0
  0
LINE
  5
C2
330
1E
100
AcDbEntity
  8
0
100
AcDbLine
 10
122.2499999999999
 20
373.9319999999999
 30
0.0
 11
122.761
 21
379.494
 31
0.0
  0
LINE
  5
C3
330
1E
100
AcDbEntity
  8
0
100
AcDbLine
 10
122.2499999999999
 20
373.9319999999999
 30
0.0
 11
122.761
 21
368.369
 31
0.0
  0
LINE
  5
C4
330
1E
100
AcDbEntity
  8
0
100
AcDbLine
 10
122.2499999999999
 20
373.9319999999999
 30
0.0
 11
122.2499999999999
 21
363.4319999999999
 31
0.0
  0
LINE
  5
C5
330
1E
100
AcDbEntity
  8
0
100
AcDbLine
 10
123.75
 20
89.99999999999991
 30
0.0
 11
123.767448706784
 21
89.87592030731059
 31
0.0
  0
LINE
  5
C6
330
1E
100
AcDbEntity
  8
0
100
AcDbLine
 10
123.75
 20
89.99999999999991
 30
0.0
 11
123.767675215358
 21
90.1256904203255
 31
0.0
  0
LINE
  5
C7
330
1E
100
AcDbEntity
  8
0
100
AcDbLine
 10
147.75
 20
125.3624999999999
 30
0.0
 11
150.075
 21
124.575
 31
0.0
  0
LINE
  5
C8
330
1E
100
AcDbEntity
  8
0
100
AcDbLine
 10
147.75
 20
178.288410596026
 30
0.0
 11
158.7749999999999
 21
176.025
 31
0.0
  0
LINE
  5
C9
330
1E
100
AcDbEntity
  8
0
100
AcDbLine
 10
147.75
 20
179.03961038961
 30
0.0
 11
159.0
 21
176.775
 31
0.0
  0
LINE
  5
CA
330
1E
100
AcDbEntity
  8
0
100
AcDbLine
 10
147.75
 20
325.778874111323
 30
0.0
 11
153.126
 21
323.4809999999999
 31
0.0
  0
LINE
  5
CB
330
1E
100
AcDbEntity
  8
0
100
AcDbLine
 10
147.75
 20
336.278874111323
 30
0.0
 11
153.126
 21
333.9809999999999
 31
0.0
  0
LINE
  5
CC
330
1E
100
AcDbEntity
  8
0
100
AcDbLine
 10
147.75
 20
337.4417286140869
 30
0.0
 11
153.418
 21
335.113
 31
0.0
  0
LINE
  5
CD
330
1E
100
AcDbEntity
  8
0
100
AcDbLine
 10
123.4909999999999
 20
368.9319999999999
 30
0.0
 11
123.75
 21
367.8371458501209
 31
0.0
  0
LINE
  5
CE
330
1E
100
AcDbEntity
  8
0
100
AcDbLine
 10
123.4909999999999
 20
379.9309999999999
 30
0.0
 11
123.75
 21
381.026062852538
 31
0.0
  0
LINE
  5
CF
330
1E
100
AcDbEntity
  8
0
100
AcDbLine
 10
122.98
 20
374.4319999999999
 30
0.0
 11
123.4909999999999
 21
379.9309999999999
 31
0.0
  0
LINE
  5
D0
330
1E
100
AcDbEntity
  8
0
100
AcDbLine
 10
122.98
 20
374.4319999999999
 30
0.0
 11
123.4909999999999
 21
368.9319999999999
 31
0.0
  0
LINE
  5
D1
330
1E
100
AcDbEntity
  8
0
100
AcDbLine
 10
147.75
 20
411.5841258886769
 30
0.0
 11
153.126
 21
413.8819999999999
 31
0.0
  0
LINE
  5
D2
330
1E
100
AcDbEntity
  8
0
100
AcDbLine
 10
147.75
 20
411.421271385912
 30
0.0
 11
153.418
 21
413.75
 31
0.0
  0
LINE
  5
D3
330
1E
100
AcDbEntity
  8
0
100
AcDbLine
 10
123.75
 20
70.6352999999999
 30
0.0
 11
124.038
 21
69.9999999999999
 31
0.0
  0
LINE
  5
D4
330
1E
100
AcDbEntity
  8
0
100
AcDbLine
 10
123.75
 20
70.6352999999999
 30
0.0
 11
123.75
 21
547.0
 31
0.0
  0
LINE
  5
D5
330
1E
100
AcDbEntity
  8
0
100
AcDbLine
 10
147.75
 20
70.6352999999999
 30
0.0
 11
147.75
 21
547.0
 31
0.0
  0
LINE
  5
D6
330
1E
100
AcDbEntity
  8
0
100
AcDbLine
 10
135.7499999999999
 20
69.9999999999999
 30
0.0
 11
138.7739999999999
 21
69.9999999999999
 31
0.0
  0
LINE
  5
D7
330
1E
100
AcDbEntity
  8
0
100
AcDbLine
 10
154.425
 20
122.475
 30
0.0
 11
158.55
 21
119.7
 31
0.0
  0
LINE
  5
D8
330
1E
100
AcDbEntity
  8
0
100
AcDbLine
 10
150.075
 20
124.575
 30
0.0
 11
154.425
 21
122.475
 31
0.0
  0
LINE
  5
D9
330
1E
100
AcDbEntity
  8
0
100
AcDbLine
 10
158.55
 20
119.7
 30
0.0
 11
162.225
 21
116.4749999999999
 31
0.0
  0
LINE
  5
DA
330
1E
100
AcDbEntity
  8
0
100
AcDbLine
 10
158.7749999999999
 20
176.025
 30
0.0
 11
169.8749999999999
 21
172.275
 31
0.0
  0
LINE
  5
DB
330
1E
100
AcDbEntity
  8
0
100
AcDbLine
 10
158.55
 20
60.2999999999999
 30
0.0
 11
162.225
 21
63.52499999999989
 31
0.0
  0
LINE
  5
DC
330
1E
100
AcDbEntity
  8
0
100
AcDbLine
 10
154.425
 20
57.52499999999989
 30
0.0
 11
158.55
 21
60.2999999999999
 31
0.0
  0
LINE
  5
DD
330
1E
100
AcDbEntity
  8
0
100
AcDbLine
 10
150.075
 20
55.42499999999989
 30
0.0
 11
154.425
 21
57.52499999999989
 31
0.0
  0
LINE
  5
DE
330
1E
100
AcDbEntity
  8
0
100
AcDbLine
 10
159.0
 20
176.775
 30
0.0
 11
170.1
 21
172.9499999999999
 31
0.0
  0
LINE
  5
DF
330
1E
100
AcDbEntity
  8
0
100
AcDbLine
 10
158.7749999999999
 20
3.974999999999939
 30
0.0
 11
169.8749999999999
 21
7.724999999999949
 31
0.0
  0
LINE
  5
E0
330
1E
100
AcDbEntity
  8
0
100
AcDbLine
 10
159.0
 20
3.224999999999939
 30
0.0
 11
170.1
 21
7.04999999999994
 31
0.0
  0
LINE
  5
E1
330
1E
100
AcDbEntity
  8
0
100
AcDbLine
 10
170.1
 20
7.04999999999994
 30
0.0
 11
180.525
 21
12.0749999999999
 31
0.0
  0
LINE
  5
E2
330
1E
100
AcDbEntity
  8
0
100
AcDbLine
 10
162.225
 20
63.52499999999989
 30
0.0
 11
165.4499999999999
 21
67.19999999999989
 31
0.0
  0
LINE
  5
E3
330
1E
100
AcDbEntity
  8
0
100
AcDbLine
 10
165.4499999999999
 20
67.19999999999989
 30
0.0
 11
168.2249999999999
 21
71.3249999999999
 31
0.0
  0
LINE
  5
E4
330
1E
100
AcDbEntity
  8
0
100
AcDbLine
 10
168.2249999999999
 20
71.3249999999999
 30
0.0
 11
170.3249999999999
 21
75.6749999999999
 31
0.0
  0
LINE
  5
E5
330
1E
100
AcDbEntity
  8
0
100
AcDbLine
 10
162.225
 20
116.4749999999999
 30
0.0
 11
165.4499999999999
 21
112.7999999999999
 31
0.0
  0
LINE
  5
E6
330
1E
100
AcDbEntity
  8
0
100
AcDbLine
 10
165.4499999999999
 20
112.7999999999999
 30
0.0
 11
168.2249999999999
 21
108.675
 31
0.0
  0
LINE
  5
E7
330
1E
100
AcDbEntity
  8
0
100
AcDbLine
 10
169.8749999999999
 20
172.275
 30
0.0
 11
180.15
 21
167.3249999999999
 31
0.0
  0
LINE
  5
E8
330
1E
100
AcDbEntity
  8
0
100
AcDbLine
 10
170.1
 20
172.9499999999999
 30
0.0
 11
180.525
 21
167.925
 31
0.0
  0
LINE
  5
E9
330
1E
100
AcDbEntity
  8
0
100
AcDbLine
 10
168.2249999999999
 20
108.675
 30
0.0
 11
170.3249999999999
 21
104.325
 31
0.0
  0
LINE
  5
EA
330
1E
100
AcDbEntity
  8
0
100
AcDbLine
 10
170.3249999999999
 20
104.325
 30
0.0
 11
171.9
 21
99.6749999999999
 31
0.0
  0
LINE
  5
EB
330
1E
100
AcDbEntity
  8
0
100
AcDbLine
 10
171.9
 20
99.6749999999999
 30
0.0
 11
172.8749999999999
 21
94.8749999999999
 31
0.0
  0
LINE
  5
EC
330
1E
100
AcDbEntity
  8
0
100
AcDbLine
 10
170.3249999999999
 20
75.6749999999999
 30
0.0
 11
171.9
 21
80.32499999999989
 31
0.0
  0
LINE
  5
ED
330
1E
100
AcDbEntity
  8
0
100
AcDbLine
 10
171.9
 20
80.32499999999989
 30
0.0
 11
172.8749999999999
 21
85.1249999999999
 31
0.0
  0
LINE
  5
EE
330
1E
100
AcDbEntity
  8
0
100
AcDbLine
 10
169.8749999999999
 20
7.724999999999949
 30
0.0
 11
180.15
 21
12.6749999999999
 31
0.0
  0
LINE
  5
EF
330
1E
100
AcDbEntity
  8
0
100
AcDbLine
 10
153.126
 20
323.4809999999999
 30
0.0
 11
159.33
 21
321.711
 31
0.0
  0
LINE
  5
F0
330
1E
100
AcDbEntity
  8
0
100
AcDbLine
 10
159.33
 20
321.711
 30
0.0
 11
165.8269999999999
 21
320.5729999999999
 31
0.0
  0
LINE
  5
F1
330
1E
100
AcDbEntity
  8
0
100
AcDbLine
 10
165.8269999999999
 20
320.5729999999999
 30
0.0
 11
172.25
 21
320.1309999999999
 31
0.0
  0
LINE
  5
F2
330
1E
100
AcDbEntity
  8
0
100
AcDbLine
 10
165.8269999999999
 20
331.073
 30
0.0
 11
172.25
 21
330.6309999999999
 31
0.0
  0
LINE
  5
F3
330
1E
100
AcDbEntity
  8
0
100
AcDbLine
 10
172.25
 20
320.1309999999999
 30
0.0
 11
178.673
 21
320.5729999999999
 31
0.0
  0
LINE
  5
F4
330
1E
100
AcDbEntity
  8
0
100
AcDbLine
 10
172.8749999999999
 20
94.8749999999999
 30
0.0
 11
173.2499999999999
 21
89.99999999999991
 31
0.0
  0
LINE
  5
F5
330
1E
100
AcDbEntity
  8
0
100
AcDbLine
 10
172.8749999999999
 20
85.1249999999999
 30
0.0
 11
173.2499999999999
 21
89.99999999999991
 31
0.0
  0
LINE
  5
F6
330
1E
100
AcDbEntity
  8
0
100
AcDbLine
 10
180.15
 20
167.3249999999999
 30
0.0
 11
189.975
 21
160.65
 31
0.0
  0
LINE
  5
F7
330
1E
100
AcDbEntity
  8
0
100
AcDbLine
 10
180.525
 20
167.925
 30
0.0
 11
190.425
 21
161.25
 31
0.0
  0
LINE
  5
F8
330
1E
100
AcDbEntity
  8
0
100
AcDbLine
 10
180.15
 20
12.6749999999999
 30
0.0
 11
189.975
 21
19.34999999999989
 31
0.0
  0
LINE
  5
F9
330
1E
100
AcDbEntity
  8
0
100
AcDbLine
 10
180.525
 20
12.0749999999999
 30
0.0
 11
190.425
 21
18.74999999999989
 31
0.0
  0
LINE
  5
FA
330
1E
100
AcDbEntity
  8
0
100
AcDbLine
 10
189.975
 20
160.65
 30
0.0
 11
198.75
 21
153.0
 31
0.0
  0
LINE
  5
FB
330
1E
100
AcDbEntity
  8
0
100
AcDbLine
 10
198.75
 20
26.9999999999999
 30
0.0
 11
206.4
 21
35.77499999999989
 31
0.0
  0
LINE
  5
FC
330
1E
100
AcDbEntity
  8
0
100
AcDbLine
 10
199.275
 20
26.4749999999999
 30
0.0
 11
207.0
 21
35.3249999999999
 31
0.0
  0
LINE
  5
FD
330
1E
100
AcDbEntity
  8
0
100
AcDbLine
 10
206.4
 20
35.77499999999989
 30
0.0
 11
213.0749999999999
 21
45.6
 31
0.0
  0
LINE
  5
FE
330
1E
100
AcDbEntity
  8
0
100
AcDbLine
 10
213.0749999999999
 20
45.6
 30
0.0
 11
218.025
 21
55.87499999999989
 31
0.0
  0
LINE
  5
FF
330
1E
100
AcDbEntity
  8
0
100
AcDbLine
 10
207.0
 20
35.3249999999999
 30
0.0
 11
213.675
 21
45.22499999999989
 31
0.0
  0
LINE
  5
100
330
1E
100
AcDbEntity
  8
0
100
AcDbLine
 10
213.675
 20
45.22499999999989
 30
0.0
 11
218.6999999999999
 21
55.64999999999989
 31
0.0
  0
LINE
  5
101
330
1E
100
AcDbEntity
  8
0
100
AcDbLine
 10
218.025
 20
55.87499999999989
 30
0.0
 11
221.775
 21
66.97499999999999
 31
0.0
  0
LINE
  5
102
330
1E
100
AcDbEntity
  8
0
100
AcDbLine
 10
221.775
 20
66.97499999999999
 30
0.0
 11
224.1
 21
78.2999999999999
 31
0.0
  0
LINE
  5
103
330
1E
100
AcDbEntity
  8
0
100
AcDbLine
 10
218.6999999999999
 20
55.64999999999989
 30
0.0
 11
222.5249999999999
 21
66.7499999999999
 31
0.0
  0
LINE
  5
104
330
1E
100
AcDbEntity
  8
0
100
AcDbLine
 10
224.1
 20
78.2999999999999
 30
0.0
 11
225.0
 21
89.99999999999991
 31
0.0
  0
LINE
  5
105
330
1E
100
AcDbEntity
  8
0
100
AcDbLine
 10
222.5249999999999
 20
66.7499999999999
 30
0.0
 11
224.8499999999999
 21
78.2999999999999
 31
0.0
  0
LINE
  5
106
330
1E
100
AcDbEntity
  8
0
100
AcDbLine
 10
221.775
 20
113.0249999999999
 30
0.0
 11
224.1
 21
101.7
 31
0.0
  0
LINE
  5
107
330
1E
100
AcDbEntity
  8
0
100
AcDbLine
 10
224.1
 20
101.7
 30
0.0
 11
225.0
 21
89.99999999999991
 31
0.0
  0
LINE
  5
108
330
1E
100
AcDbEntity
  8
0
100
AcDbLine
 10
213.0749999999999
 20
134.4
 30
0.0
 11
218.025
 21
124.1249999999999
 31
0.0
  0
LINE
  5
109
330
1E
100
AcDbEntity
  8
0
100
AcDbLine
 10
218.025
 20
124.1249999999999
 30
0.0
 11
221.775
 21
113.0249999999999
 31
0.0
  0
LINE
  5
10A
330
1E
100
AcDbEntity
  8
0
100
AcDbLine
 10
198.75
 20
153.0
 30
0.0
 11
206.4
 21
144.225
 31
0.0
  0
LINE
  5
10B
330
1E
100
AcDbEntity
  8
0
100
AcDbLine
 10
206.4
 20
144.225
 30
0.0
 11
213.0749999999999
 21
134.4
 31
0.0
  0
LINE
  5
10C
330
1E
100
AcDbEntity
  8
0
100
AcDbLine
 10
190.425
 20
161.25
 30
0.0
 11
199.275
 21
153.525
 31
0.0
  0
LINE
  5
10D
330
1E
100
AcDbEntity
  8
0
100
AcDbLine
 10
199.275
 20
153.525
 30
0.0
 11
207.0
 21
144.675
 31
0.0
  0
LINE
  5
10E
330
1E
100
AcDbEntity
  8
0
100
AcDbLine
 10
207.0
 20
144.675
 30
0.0
 11
213.675
 21
134.775
 31
0.0
  0
LINE
  5
10F
330
1E
100
AcDbEntity
  8
0
100
AcDbLine
 10
213.675
 20
134.775
 30
0.0
 11
218.6999999999999
 21
124.35
 31
0.0
  0
LINE
  5
110
330
1E
100
AcDbEntity
  8
0
100
AcDbLine
 10
218.6999999999999
 20
124.35
 30
0.0
 11
222.5249999999999
 21
113.25
 31
0.0
  0
LINE
  5
111
330
1E
100
AcDbEntity
  8
0
100
AcDbLine
 10
222.5249999999999
 20
113.25
 30
0.0
 11
224.8499999999999
 21
101.7
 31
0.0
  0
LINE
  5
112
330
1E
100
AcDbEntity
  8
0
100
AcDbLine
 10
224.8499999999999
 20
101.7
 30
0.0
 11
225.7499999999999
 21
89.99999999999991
 31
0.0
  0
LINE
  5
113
330
1E
100
AcDbEntity
  8
0
100
AcDbLine
 10
224.8499999999999
 20
78.2999999999999
 30
0.0
 11
225.7499999999999
 21
89.99999999999991
 31
0.0
  0
LINE
  5
114
330
1E
100
AcDbEntity
  8
0
100
AcDbLine
 10
189.975
 20
19.34999999999989
 30
0.0
 11
198.75
 21
26.9999999999999
 31
0.0
  0
LINE
  5
115
330
1E
100
AcDbEntity
  8
0
100
AcDbLine
 10
190.425
 20
18.74999999999989
 30
0.0
 11
199.275
 21
26.4749999999999
 31
0.0
  0
LINE
  5
116
330
1E
100
AcDbEntity
  8
0
100
AcDbLine
 10
202.615
 20
329.1069999999999
 30
0.0
 11
207.579
 21
332.837
 31
0.0
  0
LINE
  5
117
330
1E
100
AcDbEntity
  8
0
100
AcDbLine
 10
197.1409999999999
 20
325.9459999999999
 30
0.0
 11
202.615
 21
329.1069999999999
 31
0.0
  0
LINE
  5
118
330
1E
100
AcDbEntity
  8
0
100
AcDbLine
 10
191.374
 20
323.4809999999999
 30
0.0
 11
197.1409999999999
 21
325.9459999999999
 31
0.0
  0
LINE
  5
119
330
1E
100
AcDbEntity
  8
0
100
AcDbLine
 10
185.1699999999999
 20
321.711
 30
0.0
 11
191.374
 21
323.4809999999999
 31
0.0
  0
LINE
  5
11A
330
1E
100
AcDbEntity
  8
0
100
AcDbLine
 10
178.673
 20
320.5729999999999
 30
0.0
 11
185.1699999999999
 21
321.711
 31
0.0
  0
LINE
  5
11B
330
1E
100
AcDbEntity
  8
0
100
AcDbLine
 10
178.673
 20
331.073
 30
0.0
 11
185.1699999999999
 21
332.211
 31
0.0
  0
LINE
  5
11C
330
1E
100
AcDbEntity
  8
0
100
AcDbLine
 10
172.25
 20
330.6309999999999
 30
0.0
 11
178.673
 21
331.073
 31
0.0
  0
LINE
  5
11D
330
1E
100
AcDbEntity
  8
0
100
AcDbLine
 10
153.126
 20
333.9809999999999
 30
0.0
 11
159.33
 21
332.211
 31
0.0
  0
LINE
  5
11E
330
1E
100
AcDbEntity
  8
0
100
AcDbLine
 10
159.33
 20
332.211
 30
0.0
 11
165.8269999999999
 21
331.073
 31
0.0
  0
LINE
  5
11F
330
1E
100
AcDbEntity
  8
0
100
AcDbLine
 10
153.418
 20
335.113
 30
0.0
 11
159.841
 21
333.2799999999999
 31
0.0
  0
LINE
  5
120
330
1E
100
AcDbEntity
  8
0
100
AcDbLine
 10
159.841
 20
333.2799999999999
 30
0.0
 11
165.8999999999999
 21
332.2049999999999
 31
0.0
  0
LINE
  5
121
330
1E
100
AcDbEntity
  8
0
100
AcDbLine
 10
153.126
 20
413.8819999999999
 30
0.0
 11
159.33
 21
415.6519999999999
 31
0.0
  0
LINE
  5
122
330
1E
100
AcDbEntity
  8
0
100
AcDbLine
 10
159.33
 20
415.6519999999999
 30
0.0
 11
165.8269999999999
 21
416.79
 31
0.0
  0
LINE
  5
123
330
1E
100
AcDbEntity
  8
0
100
AcDbLine
 10
153.418
 20
413.75
 30
0.0
 11
159.841
 21
415.5829999999999
 31
0.0
  0
LINE
  5
124
330
1E
100
AcDbEntity
  8
0
100
AcDbLine
 10
163.61
 20
416.4016752347239
 30
0.0
 11
163.61
 21
423.575
 31
0.0
  0
LINE
  5
125
330
1E
100
AcDbEntity
  8
0
100
AcDbLine
 10
165.8999999999999
 20
332.2049999999999
 30
0.0
 11
172.25
 21
331.763
 31
0.0
  0
LINE
  5
126
330
1E
100
AcDbEntity
  8
0
100
AcDbLine
 10
159.841
 20
415.5829999999999
 30
0.0
 11
165.8999999999999
 21
416.658
 31
0.0
  0
LINE
  5
127
330
1E
100
AcDbEntity
  8
0
100
AcDbLine
 10
165.8269999999999
 20
416.79
 30
0.0
 11
172.25
 21
417.233
 31
0.0
  0
LINE
  5
128
330
1E
100
AcDbEntity
  8
0
100
AcDbLine
 10
165.8999999999999
 20
416.658
 30
0.0
 11
172.25
 21
417.1009999999999
 31
0.0
  0
LINE
  5
129
330
1E
100
AcDbEntity
  8
0
100
AcDbLine
 10
178.6
 20
416.658
 30
0.0
 11
184.659
 21
415.5829999999999
 31
0.0
  0
LINE
  5
12A
330
1E
100
AcDbEntity
  8
0
100
AcDbLine
 10
160.6339999999999
 20
421.931
 30
0.0
 11
161.882
 21
420.38
 31
0.0
  0
LINE
  5
12B
330
1E
100
AcDbEntity
  8
0
100
AcDbLine
 10
160.25
 20
423.575
 30
0.0
 11
160.6339999999999
 21
425.2659999999999
 31
0.0
  0
LINE
  5
12C
330
1E
100
AcDbEntity
  8
0
100
AcDbLine
 10
160.25
 20
423.575
 30
0.0
 11
160.6339999999999
 21
421.931
 31
0.0
  0
LINE
  5
12D
330
1E
100
AcDbEntity
  8
0
100
AcDbLine
 10
160.25
 20
423.575
 30
0.0
 11
160.25
 21
477.5479999999999
 31
0.0
  0
LINE
  5
12E
330
1E
100
AcDbEntity
  8
0
100
AcDbLine
 10
161.882
 20
420.38
 30
0.0
 11
163.61
 21
419.1532999999999
 31
0.0
  0
LINE
  5
12F
330
1E
100
AcDbEntity
  8
0
100
AcDbLine
 10
160.6339999999999
 20
425.2659999999999
 30
0.0
 11
161.882
 21
426.8169999999999
 31
0.0
  0
LINE
  5
130
330
1E
100
AcDbEntity
  8
0
100
AcDbLine
 10
161.882
 20
426.8169999999999
 30
0.0
 11
163.802
 21
428.1789999999999
 31
0.0
  0
LINE
  5
131
330
1E
100
AcDbEntity
  8
0
100
AcDbLine
 10
163.802
 20
428.1789999999999
 30
0.0
 11
166.298
 21
429.213
 31
0.0
  0
LINE
  5
132
330
1E
100
AcDbEntity
  8
0
100
AcDbLine
 10
170.042
 20
428.085
 30
0.0
 11
172.25
 21
428.2729999999999
 31
0.0
  0
LINE
  5
133
330
1E
100
AcDbEntity
  8
0
100
AcDbLine
 10
167.93
 20
427.615
 30
0.0
 11
170.042
 21
428.085
 31
0.0
  0
LINE
  5
134
330
1E
100
AcDbEntity
  8
0
100
AcDbLine
 10
166.1059999999999
 20
426.864
 30
0.0
 11
167.93
 21
427.615
 31
0.0
  0
LINE
  5
135
330
1E
100
AcDbEntity
  8
0
100
AcDbLine
 10
164.762
 20
425.924
 30
0.0
 11
166.1059999999999
 21
426.864
 31
0.0
  0
LINE
  5
136
330
1E
100
AcDbEntity
  8
0
100
AcDbLine
 10
163.898
 20
424.7959999999999
 30
0.0
 11
164.762
 21
425.924
 31
0.0
  0
LINE
  5
137
330
1E
100
AcDbEntity
  8
0
100
AcDbLine
 10
163.61
 20
423.575
 30
0.0
 11
163.61
 21
416.4016752347239
 31
0.0
  0
LINE
  5
138
330
1E
100
AcDbEntity
  8
0
100
AcDbLine
 10
163.61
 20
423.575
 30
0.0
 11
163.898
 21
424.7959999999999
 31
0.0
  0
LINE
  5
139
330
1E
100
AcDbEntity
  8
0
100
AcDbLine
 10
166.298
 20
429.213
 30
0.0
 11
169.178
 21
429.823
 31
0.0
  0
LINE
  5
13A
330
1E
100
AcDbEntity
  8
0
100
AcDbLine
 10
169.178
 20
429.823
 30
0.0
 11
172.25
 21
430.058
 31
0.0
  0
LINE
  5
13B
330
1E
100
AcDbEntity
  8
0
100
AcDbLine
 10
172.25
 20
430.058
 30
0.0
 11
175.3219999999999
 21
429.823
 31
0.0
  0
LINE
  5
13C
330
1E
100
AcDbEntity
  8
0
100
AcDbLine
 10
172.25
 20
428.2729999999999
 30
0.0
 11
174.458
 21
428.085
 31
0.0
  0
LINE
  5
13D
330
1E
100
AcDbEntity
  8
0
100
AcDbLine
 10
178.394
 20
426.864
 30
0.0
 11
179.7379999999999
 21
425.924
 31
0.0
  0
LINE
  5
13E
330
1E
100
AcDbEntity
  8
0
100
AcDbLine
 10
176.57
 20
427.615
 30
0.0
 11
178.394
 21
426.864
 31
0.0
  0
LINE
  5
13F
330
1E
100
AcDbEntity
  8
0
100
AcDbLine
 10
178.2019999999999
 20
429.213
 30
0.0
 11
180.6979999999999
 21
428.1789999999999
 31
0.0
  0
LINE
  5
140
330
1E
100
AcDbEntity
  8
0
100
AcDbLine
 10
175.3219999999999
 20
429.823
 30
0.0
 11
178.2019999999999
 21
429.213
 31
0.0
  0
LINE
  5
141
330
1E
100
AcDbEntity
  8
0
100
AcDbLine
 10
174.458
 20
428.085
 30
0.0
 11
176.57
 21
427.615
 31
0.0
  0
LINE
  5
142
330
1E
100
AcDbEntity
  8
0
100
AcDbLine
 10
172.25
 20
417.233
 30
0.0
 11
178.673
 21
416.79
 31
0.0
  0
LINE
  5
143
330
1E
100
AcDbEntity
  8
0
100
AcDbLine
 10
172.25
 20
417.1009999999999
 30
0.0
 11
178.6
 21
416.658
 31
0.0
  0
LINE
  5
144
330
1E
100
AcDbEntity
  8
0
100
AcDbLine
 10
207.579
 20
332.837
 30
0.0
 11
211.885
 21
337.135
 31
0.0
  0
LINE
  5
145
330
1E
100
AcDbEntity
  8
0
100
AcDbLine
 10
185.1699999999999
 20
332.211
 30
0.0
 11
191.374
 21
333.9809999999999
 31
0.0
  0
LINE
  5
146
330
1E
100
AcDbEntity
  8
0
100
AcDbLine
 10
191.082
 20
413.75
 30
0.0
 11
196.775
 21
411.411
 31
0.0
  0
LINE
  5
147
330
1E
100
AcDbEntity
  8
0
100
AcDbLine
 10
180.8899999999999
 20
419.1532999999999
 30
0.0
 11
182.6179999999999
 21
420.38
 31
0.0
  0
LINE
  5
148
330
1E
100
AcDbEntity
  8
0
100
AcDbLine
 10
182.6179999999999
 20
420.38
 30
0.0
 11
183.8659999999999
 21
421.931
 31
0.0
  0
LINE
  5
149
330
1E
100
AcDbEntity
  8
0
100
AcDbLine
 10
184.25
 20
423.575
 30
0.0
 11
184.25
 21
477.5479999999999
 31
0.0
  0
LINE
  5
14A
330
1E
100
AcDbEntity
  8
0
100
AcDbLine
 10
183.8659999999999
 20
421.931
 30
0.0
 11
184.25
 21
423.575
 31
0.0
  0
LINE
  5
14B
330
1E
100
AcDbEntity
  8
0
100
AcDbLine
 10
183.8659999999999
 20
425.2659999999999
 30
0.0
 11
184.25
 21
423.575
 31
0.0
  0
LINE
  5
14C
330
1E
100
AcDbEntity
  8
0
100
AcDbLine
 10
182.6179999999999
 20
426.8169999999999
 30
0.0
 11
183.8659999999999
 21
425.2659999999999
 31
0.0
  0
LINE
  5
14D
330
1E
100
AcDbEntity
  8
0
100
AcDbLine
 10
180.6979999999999
 20
428.1789999999999
 30
0.0
 11
182.6179999999999
 21
426.8169999999999
 31
0.0
  0
LINE
  5
14E
330
1E
100
AcDbEntity
  8
0
100
AcDbLine
 10
180.8899999999999
 20
423.575
 30
0.0
 11
180.8899999999999
 21
416.4016752347239
 31
0.0
  0
LINE
  5
14F
330
1E
100
AcDbEntity
  8
0
100
AcDbLine
 10
180.602
 20
424.7959999999999
 30
0.0
 11
180.8899999999999
 21
423.575
 31
0.0
  0
LINE
  5
150
330
1E
100
AcDbEntity
  8
0
100
AcDbLine
 10
180.8899999999999
 20
416.4016752347239
 30
0.0
 11
180.8899999999999
 21
423.575
 31
0.0
  0
LINE
  5
151
330
1E
100
AcDbEntity
  8
0
100
AcDbLine
 10
179.7379999999999
 20
425.924
 30
0.0
 11
180.602
 21
424.7959999999999
 31
0.0
  0
LINE
  5
152
330
1E
100
AcDbEntity
  8
0
100
AcDbLine
 10
185.1699999999999
 20
415.6519999999999
 30
0.0
 11
191.374
 21
413.8819999999999
 31
0.0
  0
LINE
  5
153
330
1E
100
AcDbEntity
  8
0
100
AcDbLine
 10
178.673
 20
416.79
 30
0.0
 11
185.1699999999999
 21
415.6519999999999
 31
0.0
  0
LINE
  5
154
330
1E
100
AcDbEntity
  8
0
100
AcDbLine
 10
184.659
 20
415.5829999999999
 30
0.0
 11
191.082
 21
413.75
 31
0.0
  0
LINE
  5
155
330
1E
100
AcDbEntity
  8
0
100
AcDbLine
 10
211.885
 20
337.135
 30
0.0
 11
215.5349999999999
 21
341.8759999999999
 31
0.0
  0
LINE
  5
156
330
1E
100
AcDbEntity
  8
0
100
AcDbLine
 10
197.1409999999999
 20
336.4459999999999
 30
0.0
 11
202.615
 21
339.6069999999999
 31
0.0
  0
LINE
  5
157
330
1E
100
AcDbEntity
  8
0
100
AcDbLine
 10
191.374
 20
333.9809999999999
 30
0.0
 11
197.1409999999999
 21
336.4459999999999
 31
0.0
  0
LINE
  5
158
330
1E
100
AcDbEntity
  8
0
100
AcDbLine
 10
202.177
 20
408.251
 30
0.0
 11
207.0679999999999
 21
404.584
 31
0.0
  0
LINE
  5
159
330
1E
100
AcDbEntity
  8
0
100
AcDbLine
 10
197.1409999999999
 20
411.4169999999999
 30
0.0
 11
202.615
 21
408.2559999999999
 31
0.0
  0
LINE
  5
15A
330
1E
100
AcDbEntity
  8
0
100
AcDbLine
 10
191.374
 20
413.8819999999999
 30
0.0
 11
197.1409999999999
 21
411.4169999999999
 31
0.0
  0
LINE
  5
15B
330
1E
100
AcDbEntity
  8
0
100
AcDbLine
 10
196.775
 20
411.411
 30
0.0
 11
202.177
 21
408.251
 31
0.0
  0
LINE
  5
15C
330
1E
100
AcDbEntity
  8
0
100
AcDbLine
 10
207.579
 20
343.337
 30
0.0
 11
211.885
 21
347.635
 31
0.0
  0
LINE
  5
15D
330
1E
100
AcDbEntity
  8
0
100
AcDbLine
 10
207.0679999999999
 20
344.279
 30
0.0
 11
211.301
 21
348.514
 31
0.0
  0
LINE
  5
15E
330
1E
100
AcDbEntity
  8
0
100
AcDbLine
 10
215.5349999999999
 20
341.8759999999999
 30
0.0
 11
218.3809999999999
 21
346.87
 31
0.0
  0
LINE
  5
15F
330
1E
100
AcDbEntity
  8
0
100
AcDbLine
 10
211.885
 20
347.635
 30
0.0
 11
215.5349999999999
 21
352.3759999999999
 31
0.0
  0
LINE
  5
160
330
1E
100
AcDbEntity
  8
0
100
AcDbLine
 10
215.5349999999999
 20
352.3759999999999
 30
0.0
 11
218.3809999999999
 21
357.37
 31
0.0
  0
LINE
  5
161
330
1E
100
AcDbEntity
  8
0
100
AcDbLine
 10
211.301
 20
348.514
 30
0.0
 11
214.9509999999999
 21
353.1919999999999
 31
0.0
  0
LINE
  5
162
330
1E
100
AcDbEntity
  8
0
100
AcDbLine
 10
214.9509999999999
 20
353.1919999999999
 30
0.0
 11
217.652
 21
358.123
 31
0.0
  0
LINE
  5
163
330
1E
100
AcDbEntity
  8
0
100
AcDbLine
 10
218.3809999999999
 20
346.87
 30
0.0
 11
220.425
 21
352.243
 31
0.0
  0
LINE
  5
164
330
1E
100
AcDbEntity
  8
0
100
AcDbLine
 10
220.425
 20
352.243
 30
0.0
 11
221.7389999999999
 21
357.869
 31
0.0
  0
LINE
  5
165
330
1E
100
AcDbEntity
  8
0
100
AcDbLine
 10
218.3809999999999
 20
357.37
 30
0.0
 11
220.425
 21
362.743
 31
0.0
  0
LINE
  5
166
330
1E
100
AcDbEntity
  8
0
100
AcDbLine
 10
220.425
 20
362.743
 30
0.0
 11
221.7389999999999
 21
368.369
 31
0.0
  0
LINE
  5
167
330
1E
100
AcDbEntity
  8
0
100
AcDbLine
 10
217.652
 20
358.123
 30
0.0
 11
219.768
 21
363.6859999999999
 31
0.0
  0
LINE
  5
168
330
1E
100
AcDbEntity
  8
0
100
AcDbLine
 10
220.425
 20
385.12
 30
0.0
 11
221.7389999999999
 21
379.494
 31
0.0
  0
LINE
  5
169
330
1E
100
AcDbEntity
  8
0
100
AcDbLine
 10
215.5349999999999
 20
395.4869999999999
 30
0.0
 11
218.3809999999999
 21
390.493
 31
0.0
  0
LINE
  5
16A
330
1E
100
AcDbEntity
  8
0
100
AcDbLine
 10
207.579
 20
404.527
 30
0.0
 11
211.885
 21
400.2279999999999
 31
0.0
  0
LINE
  5
16B
330
1E
100
AcDbEntity
  8
0
100
AcDbLine
 10
202.615
 20
408.2559999999999
 30
0.0
 11
207.579
 21
404.527
 31
0.0
  0
LINE
  5
16C
330
1E
100
AcDbEntity
  8
0
100
AcDbLine
 10
207.0679999999999
 20
404.584
 30
0.0
 11
211.301
 21
400.349
 31
0.0
  0
LINE
  5
16D
330
1E
100
AcDbEntity
  8
0
100
AcDbLine
 10
211.885
 20
400.2279999999999
 30
0.0
 11
215.5349999999999
 21
395.4869999999999
 31
0.0
  0
LINE
  5
16E
330
1E
100
AcDbEntity
  8
0
100
AcDbLine
 10
211.301
 20
400.349
 30
0.0
 11
214.9509999999999
 21
395.671
 31
0.0
  0
LINE
  5
16F
330
1E
100
AcDbEntity
  8
0
100
AcDbLine
 10
214.9509999999999
 20
395.671
 30
0.0
 11
217.652
 21
390.741
 31
0.0
  0
LINE
  5
170
330
1E
100
AcDbEntity
  8
0
100
AcDbLine
 10
218.3809999999999
 20
390.493
 30
0.0
 11
220.425
 21
385.12
 31
0.0
  0
LINE
  5
171
330
1E
100
AcDbEntity
  8
0
100
AcDbLine
 10
217.652
 20
390.741
 30
0.0
 11
219.768
 21
385.178
 31
0.0
  0
LINE
  5
172
330
1E
100
AcDbEntity
  8
0
100
AcDbLine
 10
219.768
 20
385.178
 30
0.0
 11
221.009
 21
379.9309999999999
 31
0.0
  0
LINE
  5
173
330
1E
100
AcDbEntity
  8
0
100
AcDbLine
 10
221.009
 20
379.9309999999999
 30
0.0
 11
221.52
 21
374.4319999999999
 31
0.0
  0
LINE
  5
174
330
1E
100
AcDbEntity
  8
0
100
AcDbLine
 10
219.768
 20
363.6859999999999
 30
0.0
 11
221.009
 21
368.9319999999999
 31
0.0
  0
LINE
  5
175
330
1E
100
AcDbEntity
  8
0
100
AcDbLine
 10
222.25
 20
363.4319999999999
 30
0.0
 11
222.25
 21
373.9319999999999
 31
0.0
  0
LINE
  5
176
330
1E
100
AcDbEntity
  8
0
100
AcDbLine
 10
221.7389999999999
 20
357.869
 30
0.0
 11
222.25
 21
363.4319999999999
 31
0.0
  0
LINE
  5
177
330
1E
100
AcDbEntity
  8
0
100
AcDbLine
 10
222.25
 20
373.9319999999999
 30
0.0
 11
222.25
 21
363.4319999999999
 31
0.0
  0
LINE
  5
178
330
1E
100
AcDbEntity
  8
0
100
AcDbLine
 10
221.7389999999999
 20
379.494
 30
0.0
 11
222.25
 21
373.9319999999999
 31
0.0
  0
LINE
  5
179
330
1E
100
AcDbEntity
  8
0
100
AcDbLine
 10
221.7389999999999
 20
368.369
 30
0.0
 11
222.25
 21
373.9319999999999
 31
0.0
  0
LINE
  5
17A
330
1E
100
AcDbEntity
  8
0
100
AcDbLine
 10
221.009
 20
368.9319999999999
 30
0.0
 11
221.52
 21
374.4319999999999
 31
0.0
  0
LINE
  5
17B
330
1E
100
AcDbEntity
  8
0
100
AcDbLine
 10
202.615
 20
339.6069999999999
 30
0.0
 11
207.579
 21
343.337
 31
0.0
  0
LINE
  5
17C
330
1E
100
AcDbEntity
  8
0
100
AcDbLine
 10
202.177
 20
340.613
 30
0.0
 11
207.0679999999999
 21
344.279
 31
0.0
  0
LINE
  5
17D
330
1E
100
AcDbEntity
  8
0
100
AcDbLine
 10
196.775
 20
337.4519999999999
 30
0.0
 11
202.177
 21
340.613
 31
0.0
  0
LINE
  5
17E
330
1E
100
AcDbEntity
  8
0
100
AcDbLine
 10
191.082
 20
335.113
 30
0.0
 11
196.775
 21
337.4519999999999
 31
0.0
  0
LINE
  5
17F
330
1E
100
AcDbEntity
  8
0
100
AcDbLine
 10
184.659
 20
333.2799999999999
 30
0.0
 11
191.082
 21
335.113
 31
0.0
  0
LINE
  5
180
330
1E
100
AcDbEntity
  8
0
100
AcDbLine
 10
178.6
 20
332.2049999999999
 30
0.0
 11
184.659
 21
333.2799999999999
 31
0.0
  0
LINE
  5
181
330
1E
100
AcDbEntity
  8
0
100
AcDbLine
 10
172.25
 20
331.763
 30
0.0
 11
178.6
 21
332.2049999999999
 31
0.0
  0
LINE
  5
182
330
1E
100
AcDbEntity
  8
0
100
AcDbLine
 10
269.75
 20
456.0
 30
0.0
 11
270.75
 21
456.5
 31
0.0
  0
LINE
  5
183
330
1E
100
AcDbEntity
  8
0
100
AcDbLine
 10
229.2499999999999
 20
456.0
 30
0.0
 11
229.2499999999999
 21
456.8
 31
0.0
  0
LINE
  5
184
330
1E
100
AcDbEntity
  8
0
100
AcDbLine
 10
229.2499999999999
 20
456.0
 30
0.0
 11
269.75
 21
456.0
 31
0.0
  0
LINE
  5
185
330
1E
100
AcDbEntity
  8
0
100
AcDbLine
 10
227.7499999999999
 20
456.0
 30
0.0
 11
228.75
 21
456.5
 31
0.0
  0
LINE
  5
186
330
1E
100
AcDbEntity
  8
0
100
AcDbLine
 10
147.75
 20
456.0
 30
0.0
 11
160.25
 21
456.0
 31
0.0
  0
LINE
  5
187
330
1E
100
AcDbEntity
  8
0
100
AcDbLine
 10
184.25
 20
456.0
 30
0.0
 11
227.7499999999999
 21
456.0
 31
0.0
  0
LINE
  5
188
330
1E
100
AcDbEntity
  8
0
100
AcDbLine
 10
43.75
 20
456.0
 30
0.0
 11
123.75
 21
456.0
 31
0.0
  0
LINE
  5
189
330
1E
100
AcDbEntity
  8
0
100
AcDbLine
 10
43.75
 20
456.0
 30
0.0
 11
123.75
 21
456.0
 31
0.0
  0
LINE
  5
18A
330
1E
100
AcDbEntity
  8
0
100
AcDbLine
 10
1.74999999999998
 20
456.0
 30
0.0
 11
42.25
 21
456.0
 31
0.0
  0
LINE
  5
18B
330
1E
100
AcDbEntity
  8
0
100
AcDbLine
 10
0.7499999999999791
 20
466.8
 30
0.0
 11
0.7499999999999791
 21
471.6999999999999
 31
0.0
  0
LINE
  5
18C
330
1E
100
AcDbEntity
  8
0
100
AcDbLine
 10
0.7499999999999791
 20
466.8
 30
0.0
 11
0.7499999999999791
 21
462.5
 31
0.0
  0
LINE
  5
18D
330
1E
100
AcDbEntity
  8
0
100
AcDbLine
 10
0.7499999999999791
 20
471.6999999999999
 30
0.0
 11
0.7499999999999791
 21
477.0
 31
0.0
  0
LINE
  5
18E
330
1E
100
AcDbEntity
  8
0
100
AcDbLine
 10
0.7499999999999791
 20
471.6999999999999
 30
0.0
 11
0.7499999999999791
 21
466.8
 31
0.0
  0
LINE
  5
18F
330
1E
100
AcDbEntity
  8
0
100
AcDbLine
 10
0.7499999999999791
 20
462.5
 30
0.0
 11
0.7499999999999791
 21
459.1999999999999
 31
0.0
  0
LINE
  5
190
330
1E
100
AcDbEntity
  8
0
100
AcDbLine
 10
0.7499999999999791
 20
462.5
 30
0.0
 11
0.7499999999999791
 21
466.8
 31
0.0
  0
LINE
  5
191
330
1E
100
AcDbEntity
  8
0
100
AcDbLine
 10
0.7499999999999791
 20
459.1999999999999
 30
0.0
 11
0.7499999999999791
 21
462.5
 31
0.0
  0
LINE
  5
192
330
1E
100
AcDbEntity
  8
0
100
AcDbLine
 10
0.7499999999999791
 20
459.1999999999999
 30
0.0
 11
0.7499999999999791
 21
457.2
 31
0.0
  0
LINE
  5
193
330
1E
100
AcDbEntity
  8
0
100
AcDbLine
 10
0.7499999999999791
 20
457.2
 30
0.0
 11
0.7499999999999791
 21
459.1999999999999
 31
0.0
  0
LINE
  5
194
330
1E
100
AcDbEntity
  8
0
100
AcDbLine
 10
0.7499999999999791
 20
457.2
 30
0.0
 11
0.7499999999999791
 21
456.5
 31
0.0
  0
LINE
  5
195
330
1E
100
AcDbEntity
  8
0
100
AcDbLine
 10
0.7499999999999791
 20
494.8
 30
0.0
 11
0.7499999999999791
 21
496.7999999999999
 31
0.0
  0
LINE
  5
196
330
1E
100
AcDbEntity
  8
0
100
AcDbLine
 10
0.7499999999999791
 20
494.8
 30
0.0
 11
0.7499999999999791
 21
491.5
 31
0.0
  0
LINE
  5
197
330
1E
100
AcDbEntity
  8
0
100
AcDbLine
 10
0.7499999999999791
 20
496.7999999999999
 30
0.0
 11
0.7499999999999791
 21
497.5
 31
0.0
  0
LINE
  5
198
330
1E
100
AcDbEntity
  8
0
100
AcDbLine
 10
0.7499999999999791
 20
496.7999999999999
 30
0.0
 11
0.7499999999999791
 21
494.8
 31
0.0
  0
LINE
  5
199
330
1E
100
AcDbEntity
  8
0
100
AcDbLine
 10
0.7499999999999791
 20
491.5
 30
0.0
 11
0.7499999999999791
 21
487.1999999999999
 31
0.0
  0
LINE
  5
19A
330
1E
100
AcDbEntity
  8
0
100
AcDbLine
 10
0.7499999999999791
 20
491.5
 30
0.0
 11
0.7499999999999791
 21
494.8
 31
0.0
  0
LINE
  5
19B
330
1E
100
AcDbEntity
  8
0
100
AcDbLine
 10
0.7499999999999791
 20
487.1999999999999
 30
0.0
 11
0.7499999999999791
 21
491.5
 31
0.0
  0
LINE
  5
19C
330
1E
100
AcDbEntity
  8
0
100
AcDbLine
 10
0.7499999999999791
 20
487.1999999999999
 30
0.0
 11
0.7499999999999791
 21
482.3
 31
0.0
  0
LINE
  5
19D
330
1E
100
AcDbEntity
  8
0
100
AcDbLine
 10
0.7499999999999791
 20
482.3
 30
0.0
 11
0.7499999999999791
 21
487.1999999999999
 31
0.0
  0
LINE
  5
19E
330
1E
100
AcDbEntity
  8
0
100
AcDbLine
 10
0.7499999999999791
 20
482.3
 30
0.0
 11
0.7499999999999791
 21
477.0
 31
0.0
  0
LINE
  5
19F
330
1E
100
AcDbEntity
  8
0
100
AcDbLine
 10
0.7499999999999791
 20
477.0
 30
0.0
 11
0.7499999999999791
 21
482.3
 31
0.0
  0
LINE
  5
1A0
330
1E
100
AcDbEntity
  8
0
100
AcDbLine
 10
0.7499999999999791
 20
477.0
 30
0.0
 11
0.7499999999999791
 21
471.6999999999999
 31
0.0
  0
LINE
  5
1A1
330
1E
100
AcDbEntity
  8
0
100
AcDbLine
 10
0.7499999999999791
 20
497.5
 30
0.0
 11
1.74999999999998
 21
498.0
 31
0.0
  0
LINE
  5
1A2
330
1E
100
AcDbEntity
  8
0
100
AcDbLine
 10
0.7499999999999791
 20
497.5
 30
0.0
 11
0.7499999999999791
 21
496.7999999999999
 31
0.0
  0
LINE
  5
1A3
330
1E
100
AcDbEntity
  8
0
100
AcDbLine
 10
42.25
 20
457.5
 30
0.0
 11
42.75
 21
456.5
 31
0.0
  0
LINE
  5
1A4
330
1E
100
AcDbEntity
  8
0
100
AcDbLine
 10
13.3489
 20
476.166
 30
0.0
 11
13.9249
 21
475.354
 31
0.0
  0
LINE
  5
1A5
330
1E
100
AcDbEntity
  8
0
100
AcDbLine
 10
13.9249
 20
475.354
 30
0.0
 11
14.8609
 21
474.64
 31
0.0
  0
LINE
  5
1A6
330
1E
100
AcDbEntity
  8
0
100
AcDbLine
 10
14.8609
 20
474.64
 30
0.0
 11
16.0849
 21
474.094
 31
0.0
  0
LINE
  5
1A7
330
1E
100
AcDbEntity
  8
0
100
AcDbLine
 10
16.0849
 20
474.094
 30
0.0
 11
17.4769
 21
473.758
 31
0.0
  0
LINE
  5
1A8
330
1E
100
AcDbEntity
  8
0
100
AcDbLine
 10
17.4769
 20
473.758
 30
0.0
 11
18.9889
 21
473.6319999999999
 31
0.0
  0
LINE
  5
1A9
330
1E
100
AcDbEntity
  8
0
100
AcDbLine
 10
24.6289
 20
476.166
 30
0.0
 11
24.8449
 21
477.048
 31
0.0
  0
LINE
  5
1AA
330
1E
100
AcDbEntity
  8
0
100
AcDbLine
 10
24.0529
 20
475.354
 30
0.0
 11
24.6289
 21
476.166
 31
0.0
  0
LINE
  5
1AB
330
1E
100
AcDbEntity
  8
0
100
AcDbLine
 10
23.1169
 20
474.64
 30
0.0
 11
24.0529
 21
475.354
 31
0.0
  0
LINE
  5
1AC
330
1E
100
AcDbEntity
  8
0
100
AcDbLine
 10
21.8929
 20
474.094
 30
0.0
 11
23.1169
 21
474.64
 31
0.0
  0
LINE
  5
1AD
330
1E
100
AcDbEntity
  8
0
100
AcDbLine
 10
20.5009
 20
473.758
 30
0.0
 11
21.8929
 21
474.094
 31
0.0
  0
LINE
  5
1AE
330
1E
100
AcDbEntity
  8
0
100
AcDbLine
 10
18.9889
 20
473.6319999999999
 30
0.0
 11
20.5009
 21
473.758
 31
0.0
  0
LINE
  5
1AF
330
1E
100
AcDbEntity
  8
0
100
AcDbLine
 10
42.25
 20
466.6
 30
0.0
 11
42.25
 21
462.1999999999999
 31
0.0
  0
LINE
  5
1B0
330
1E
100
AcDbEntity
  8
0
100
AcDbLine
 10
42.25
 20
471.6
 30
0.0
 11
42.25
 21
466.6
 31
0.0
  0
LINE
  5
1B1
330
1E
100
AcDbEntity
  8
0
100
AcDbLine
 10
13.1329
 20
477.048
 30
0.0
 11
13.3489
 21
477.93
 31
0.0
  0
LINE
  5
1B2
330
1E
100
AcDbEntity
  8
0
100
AcDbLine
 10
13.1329
 20
477.048
 30
0.0
 11
13.3489
 21
476.166
 31
0.0
  0
LINE
  5
1B4
330
1E
100
AcDbEntity
  8
0
100
AcDbLine
 10
13.3489
 20
477.93
 30
0.0
 11
13.9249
 21
478.742
 31
0.0
  0
LINE
  5
1B5
330
1E
100
AcDbEntity
  8
0
100
AcDbLine
 10
13.9249
 20
478.742
 30
0.0
 11
14.8609
 21
479.4559999999999
 31
0.0
  0
LINE
  5
1B8
330
1E
100
AcDbEntity
  8
0
100
AcDbLine
 10
14.8609
 20
479.4559999999999
 30
0.0
 11
16.0849
 21
480.0019999999999
 31
0.0
  0
LINE
  5
1B9
330
1E
100
AcDbEntity
  8
0
100
AcDbLine
 10
16.0849
 20
480.0019999999999
 30
0.0
 11
17.4769
 21
480.338
 31
0.0
  0
LINE
  5
1BC
330
1E
100
AcDbEntity
  8
0
100
AcDbLine
 10
17.4769
 20
480.338
 30
0.0
 11
18.9889
 21
480.464
 31
0.0
  0
LINE
  5
1BE
330
1E
100
AcDbEntity
  8
0
100
AcDbLine
 10
18.9889
 20
480.464
 30
0.0
 11
20.5009
 21
480.338
 31
0.0
  0
LINE
  5
1BF
330
1E
100
AcDbEntity
  8
0
100
AcDbLine
 10
21.8929
 20
480.0019999999999
 30
0.0
 11
23.1169
 21
479.4559999999999
 31
0.0
  0
LINE
  5
1C0
330
1E
100
AcDbEntity
  8
0
100
AcDbLine
 10
20.5009
 20
480.338
 30
0.0
 11
21.8929
 21
480.0019999999999
 31
0.0
  0
LINE
  5
1C1
330
1E
100
AcDbEntity
  8
0
100
AcDbLine
 10
24.0529
 20
478.742
 30
0.0
 11
24.6289
 21
477.93
 31
0.0
  0
LINE
  5
1C2
330
1E
100
AcDbEntity
  8
0
100
AcDbLine
 10
23.1169
 20
479.4559999999999
 30
0.0
 11
24.0529
 21
478.742
 31
0.0
  0
LINE
  5
1C3
330
1E
100
AcDbEntity
  8
0
100
AcDbLine
 10
24.6289
 20
477.93
 30
0.0
 11
24.8449
 21
477.048
 31
0.0
  0
LINE
  5
1CA
330
1E
100
AcDbEntity
  8
0
100
AcDbLine
 10
42.25
 20
477.0
 30
0.0
 11
42.25
 21
471.6
 31
0.0
  0
LINE
  5
1CB
330
1E
100
AcDbEntity
  8
0
100
AcDbLine
 10
42.25
 20
462.1999999999999
 30
0.0
 11
42.25
 21
458.8
 31
0.0
  0
LINE
  5
1CC
330
1E
100
AcDbEntity
  8
0
100
AcDbLine
 10
42.25
 20
458.8
 30
0.0
 11
42.25
 21
456.8
 31
0.0
  0
LINE
  5
1CD
330
1E
100
AcDbEntity
  8
0
100
AcDbLine
 10
42.25
 20
456.8
 30
0.0
 11
42.25
 21
456.0
 31
0.0
  0
LINE
  5
1CE
330
1E
100
AcDbEntity
  8
0
100
AcDbLine
 10
42.25
 20
496.4999999999999
 30
0.0
 11
42.75
 21
497.5
 31
0.0
  0
LINE
  5
1CF
330
1E
100
AcDbEntity
  8
0
100
AcDbLine
 10
42.25
 20
495.1999999999999
 30
0.0
 11
42.25
 21
491.8
 31
0.0
  0
LINE
  5
1D0
330
1E
100
AcDbEntity
  8
0
100
AcDbLine
 10
42.25
 20
497.2
 30
0.0
 11
42.25
 21
495.1999999999999
 31
0.0
  0
LINE
  5
1D1
330
1E
100
AcDbEntity
  8
0
100
AcDbLine
 10
1.74999999999998
 20
498.0
 30
0.0
 11
42.25
 21
498.0
 31
0.0
  0
LINE
  5
1D2
330
1E
100
AcDbEntity
  8
0
100
AcDbLine
 10
42.25
 20
498.0
 30
0.0
 11
42.25
 21
497.2
 31
0.0
  0
LINE
  5
1D3
330
1E
100
AcDbEntity
  8
0
100
AcDbLine
 10
42.25
 20
491.8
 30
0.0
 11
42.25
 21
487.3999999999999
 31
0.0
  0
LINE
  5
1D4
330
1E
100
AcDbEntity
  8
0
100
AcDbLine
 10
42.25
 20
487.3999999999999
 30
0.0
 11
42.25
 21
482.3999999999999
 31
0.0
  0
LINE
  5
1D5
330
1E
100
AcDbEntity
  8
0
100
AcDbLine
 10
270.75
 20
456.5
 30
0.0
 11
270.75
 21
457.2
 31
0.0
  0
LINE
  5
1D6
330
1E
100
AcDbEntity
  8
0
100
AcDbLine
 10
270.75
 20
456.5
 30
0.0
 11
271.2499999999999
 21
457.5
 31
0.0
  0
LINE
  5
1D7
330
1E
100
AcDbEntity
  8
0
100
AcDbLine
 10
228.75
 20
456.5
 30
0.0
 11
228.75
 21
457.2
 31
0.0
  0
LINE
  5
1D8
330
1E
100
AcDbEntity
  8
0
100
AcDbLine
 10
228.75
 20
456.5
 30
0.0
 11
229.2499999999999
 21
457.5
 31
0.0
  0
LINE
  5
1D9
330
1E
100
AcDbEntity
  8
0
100
AcDbLine
 10
42.75
 20
466.8
 30
0.0
 11
42.75
 21
471.6999999999999
 31
0.0
  0
LINE
  5
1DA
330
1E
100
AcDbEntity
  8
0
100
AcDbLine
 10
42.75
 20
466.8
 30
0.0
 11
42.75
 21
462.5
 31
0.0
  0
LINE
  5
1DB
330
1E
100
AcDbEntity
  8
0
100
AcDbLine
 10
42.75
 20
494.8
 30
0.0
 11
42.75
 21
496.7999999999999
 31
0.0
  0
LINE
  5
1DC
330
1E
100
AcDbEntity
  8
0
100
AcDbLine
 10
42.75
 20
494.8
 30
0.0
 11
42.75
 21
491.5
 31
0.0
  0
LINE
  5
1DD
330
1E
100
AcDbEntity
  8
0
100
AcDbLine
 10
42.75
 20
496.7999999999999
 30
0.0
 11
42.75
 21
497.5
 31
0.0
  0
LINE
  5
1DE
330
1E
100
AcDbEntity
  8
0
100
AcDbLine
 10
42.75
 20
496.7999999999999
 30
0.0
 11
42.75
 21
494.8
 31
0.0
  0
LINE
  5
1DF
330
1E
100
AcDbEntity
  8
0
100
AcDbLine
 10
42.75
 20
491.5
 30
0.0
 11
42.75
 21
487.1999999999999
 31
0.0
  0
LINE
  5
1E0
330
1E
100
AcDbEntity
  8
0
100
AcDbLine
 10
42.75
 20
491.5
 30
0.0
 11
42.75
 21
494.8
 31
0.0
  0
LINE
  5
1E1
330
1E
100
AcDbEntity
  8
0
100
AcDbLine
 10
42.75
 20
487.1999999999999
 30
0.0
 11
42.75
 21
491.5
 31
0.0
  0
LINE
  5
1E2
330
1E
100
AcDbEntity
  8
0
100
AcDbLine
 10
42.75
 20
487.1999999999999
 30
0.0
 11
42.75
 21
482.3
 31
0.0
  0
LINE
  5
1E3
330
1E
100
AcDbEntity
  8
0
100
AcDbLine
 10
42.75
 20
482.3
 30
0.0
 11
42.75
 21
487.1999999999999
 31
0.0
  0
LINE
  5
1E4
330
1E
100
AcDbEntity
  8
0
100
AcDbLine
 10
42.75
 20
482.3
 30
0.0
 11
42.75
 21
477.0
 31
0.0
  0
LINE
  5
1E5
330
1E
100
AcDbEntity
  8
0
100
AcDbLine
 10
42.75
 20
477.0
 30
0.0
 11
42.75
 21
471.6999999999999
 31
0.0
  0
LINE
  5
1E6
330
1E
100
AcDbEntity
  8
0
100
AcDbLine
 10
42.75
 20
477.0
 30
0.0
 11
42.75
 21
482.3
 31
0.0
  0
LINE
  5
1E7
330
1E
100
AcDbEntity
  8
0
100
AcDbLine
 10
42.75
 20
471.6999999999999
 30
0.0
 11
42.75
 21
477.0
 31
0.0
  0
LINE
  5
1E8
330
1E
100
AcDbEntity
  8
0
100
AcDbLine
 10
42.75
 20
471.6999999999999
 30
0.0
 11
42.75
 21
466.8
 31
0.0
  0
LINE
  5
1E9
330
1E
100
AcDbEntity
  8
0
100
AcDbLine
 10
42.75
 20
462.5
 30
0.0
 11
42.75
 21
459.1999999999999
 31
0.0
  0
LINE
  5
1EA
330
1E
100
AcDbEntity
  8
0
100
AcDbLine
 10
42.75
 20
462.5
 30
0.0
 11
42.75
 21
466.8
 31
0.0
  0
LINE
  5
1EB
330
1E
100
AcDbEntity
  8
0
100
AcDbLine
 10
42.75
 20
459.1999999999999
 30
0.0
 11
42.75
 21
462.5
 31
0.0
  0
LINE
  5
1EC
330
1E
100
AcDbEntity
  8
0
100
AcDbLine
 10
42.75
 20
459.1999999999999
 30
0.0
 11
42.75
 21
457.2
 31
0.0
  0
LINE
  5
1ED
330
1E
100
AcDbEntity
  8
0
100
AcDbLine
 10
42.75
 20
457.2
 30
0.0
 11
42.75
 21
459.1999999999999
 31
0.0
  0
LINE
  5
1EE
330
1E
100
AcDbEntity
  8
0
100
AcDbLine
 10
42.75
 20
457.2
 30
0.0
 11
42.75
 21
456.5
 31
0.0
  0
LINE
  5
1EF
330
1E
100
AcDbEntity
  8
0
100
AcDbLine
 10
43.75
 20
498.0
 30
0.0
 11
77.138
 21
498.0
 31
0.0
  0
LINE
  5
1F0
330
1E
100
AcDbEntity
  8
0
100
AcDbLine
 10
43.75
 20
498.0
 30
0.0
 11
43.75
 21
509.4
 31
0.0
  0
LINE
  5
1F1
330
1E
100
AcDbEntity
  8
0
100
AcDbLine
 10
42.75
 20
497.5
 30
0.0
 11
43.75
 21
498.0
 31
0.0
  0
LINE
  5
1F2
330
1E
100
AcDbEntity
  8
0
100
AcDbLine
 10
42.75
 20
497.5
 30
0.0
 11
42.75
 21
496.7999999999999
 31
0.0
  0
LINE
  5
1F3
330
1E
100
AcDbEntity
  8
0
100
AcDbLine
 10
147.75
 20
475.94
 30
0.0
 11
158.25
 21
475.94
 31
0.0
  0
LINE
  5
1F4
330
1E
100
AcDbEntity
  8
0
100
AcDbLine
 10
118.25
 20
475.94
 30
0.0
 11
118.25
 21
476.384
 31
0.0
  0
LINE
  5
1F5
330
1E
100
AcDbEntity
  8
0
100
AcDbLine
 10
118.25
 20
475.94
 30
0.0
 11
123.75
 21
475.94
 31
0.0
  0
LINE
  5
1F6
330
1E
100
AcDbEntity
  8
0
100
AcDbLine
 10
89.0192
 20
476.0
 30
0.0
 11
117.481
 21
476.0
 31
0.0
  0
LINE
  5
1F7
330
1E
100
AcDbEntity
  8
0
100
AcDbLine
 10
117.481
 20
476.0
 30
0.0
 11
118.25
 21
476.384
 31
0.0
  0
LINE
  5
1F8
330
1E
100
AcDbEntity
  8
0
100
AcDbLine
 10
158.25
 20
475.94
 30
0.0
 11
159.266983695652
 21
475.94
 31
0.0
  0
LINE
  5
1F9
330
1E
100
AcDbEntity
  8
0
100
AcDbLine
 10
159.75
 20
473.096
 30
0.0
 11
160.25
 21
471.97725
 31
0.0
  0
LINE
  5
1FA
330
1E
100
AcDbEntity
  8
0
100
AcDbLine
 10
118.25
 20
476.384
 30
0.0
 11
118.25
 21
476.9599999999999
 31
0.0
  0
LINE
  5
1FB
330
1E
100
AcDbEntity
  8
0
100
AcDbLine
 10
88.25000000000001
 20
476.384
 30
0.0
 11
88.25000000000001
 21
476.9599999999999
 31
0.0
  0
LINE
  5
1FC
330
1E
100
AcDbEntity
  8
0
100
AcDbLine
 10
88.25000000000001
 20
476.384
 30
0.0
 11
89.0192
 21
476.0
 31
0.0
  0
LINE
  5
1FD
330
1E
100
AcDbEntity
  8
0
100
AcDbLine
 10
118.25
 20
476.9599999999999
 30
0.0
 11
118.25
 21
478.4959999999999
 31
0.0
  0
LINE
  5
1FE
330
1E
100
AcDbEntity
  8
0
100
AcDbLine
 10
118.25
 20
476.9599999999999
 30
0.0
 11
118.25
 21
476.384
 31
0.0
  0
LINE
  5
1FF
330
1E
100
AcDbEntity
  8
0
100
AcDbLine
 10
118.25
 20
478.4959999999999
 30
0.0
 11
118.25
 21
480.9919999999999
 31
0.0
  0
LINE
  5
200
330
1E
100
AcDbEntity
  8
0
100
AcDbLine
 10
118.25
 20
478.4959999999999
 30
0.0
 11
118.25
 21
476.9599999999999
 31
0.0
  0
LINE
  5
201
330
1E
100
AcDbEntity
  8
0
100
AcDbLine
 10
88.25000000000001
 20
476.9599999999999
 30
0.0
 11
88.25000000000001
 21
478.4959999999999
 31
0.0
  0
LINE
  5
202
330
1E
100
AcDbEntity
  8
0
100
AcDbLine
 10
88.25000000000001
 20
476.9599999999999
 30
0.0
 11
88.25000000000001
 21
476.384
 31
0.0
  0
LINE
  5
203
330
1E
100
AcDbEntity
  8
0
100
AcDbLine
 10
88.25000000000001
 20
478.4959999999999
 30
0.0
 11
88.25000000000001
 21
480.9919999999999
 31
0.0
  0
LINE
  5
204
330
1E
100
AcDbEntity
  8
0
100
AcDbLine
 10
88.25000000000001
 20
478.4959999999999
 30
0.0
 11
88.25000000000001
 21
476.9599999999999
 31
0.0
  0
LINE
  5
205
330
1E
100
AcDbEntity
  8
0
100
AcDbLine
 10
118.25
 20
478.1
 30
0.0
 11
118.25
 21
476.5419999999999
 31
0.0
  0
LINE
  5
206
330
1E
100
AcDbEntity
  8
0
100
AcDbLine
 10
118.25
 20
476.5419999999999
 30
0.0
 11
118.25
 21
475.94
 31
0.0
  0
LINE
  5
207
330
1E
100
AcDbEntity
  8
0
100
AcDbLine
 10
159.75
 20
478.985
 30
0.0
 11
160.9499999999999
 21
481.669
 31
0.0
  0
LINE
  5
208
330
1E
100
AcDbEntity
  8
0
100
AcDbLine
 10
159.25
 20
476.04
 30
0.0
 11
159.75
 21
473.096
 31
0.0
  0
LINE
  5
209
330
1E
100
AcDbEntity
  8
0
100
AcDbLine
 10
159.25
 20
476.04
 30
0.0
 11
159.25
 21
490.580333333333
 31
0.0
  0
LINE
  5
20A
330
1E
100
AcDbEntity
  8
0
100
AcDbLine
 10
159.25
 20
476.04
 30
0.0
 11
159.75
 21
478.985
 31
0.0
  0
LINE
  5
20B
330
1E
100
AcDbEntity
  8
0
100
AcDbLine
 10
160.25
 20
477.5479999999999
 30
0.0
 11
160.25
 21
423.575
 31
0.0
  0
LINE
  5
20C
330
1E
100
AcDbEntity
  8
0
100
AcDbLine
 10
160.25
 20
477.5479999999999
 30
0.0
 11
160.6339999999999
 21
480.1029999999999
 31
0.0
  0
LINE
  5
20D
330
1E
100
AcDbEntity
  8
0
100
AcDbLine
 10
88.25000000000001
 20
480.9919999999999
 30
0.0
 11
88.25000000000001
 21
484.2559999999999
 31
0.0
  0
LINE
  5
20E
330
1E
100
AcDbEntity
  8
0
100
AcDbLine
 10
88.25000000000001
 20
480.9919999999999
 30
0.0
 11
88.25000000000001
 21
478.4959999999999
 31
0.0
  0
LINE
  5
20F
330
1E
100
AcDbEntity
  8
0
100
AcDbLine
 10
118.25
 20
480.9919999999999
 30
0.0
 11
118.25
 21
484.2559999999999
 31
0.0
  0
LINE
  5
210
330
1E
100
AcDbEntity
  8
0
100
AcDbLine
 10
118.25
 20
480.9919999999999
 30
0.0
 11
118.25
 21
478.4959999999999
 31
0.0
  0
LINE
  5
211
330
1E
100
AcDbEntity
  8
0
100
AcDbLine
 10
118.25
 20
484.2559999999999
 30
0.0
 11
118.25
 21
487.968
 31
0.0
  0
LINE
  5
212
330
1E
100
AcDbEntity
  8
0
100
AcDbLine
 10
118.25
 20
484.2559999999999
 30
0.0
 11
118.25
 21
480.9919999999999
 31
0.0
  0
LINE
  5
213
330
1E
100
AcDbEntity
  8
0
100
AcDbLine
 10
88.25000000000001
 20
484.2559999999999
 30
0.0
 11
88.25000000000001
 21
487.968
 31
0.0
  0
LINE
  5
214
330
1E
100
AcDbEntity
  8
0
100
AcDbLine
 10
88.25000000000001
 20
484.2559999999999
 30
0.0
 11
88.25000000000001
 21
480.9919999999999
 31
0.0
  0
LINE
  5
215
330
1E
100
AcDbEntity
  8
0
100
AcDbLine
 10
87.07829999999999
 20
489.0
 30
0.0
 11
89.0192
 21
489.0
 31
0.0
  0
LINE
  5
216
330
1E
100
AcDbEntity
  8
0
100
AcDbLine
 10
87.07829999999999
 20
489.0
 30
0.0
 11
87.8087
 21
489.108
 31
0.0
  0
LINE
  5
217
330
1E
100
AcDbEntity
  8
0
100
AcDbLine
 10
87.8087
 20
489.108
 30
0.0
 11
88.49339999999999
 21
489.3959999999999
 31
0.0
  0
LINE
  5
218
330
1E
100
AcDbEntity
  8
0
100
AcDbLine
 10
86.3479
 20
489.108
 30
0.0
 11
87.07829999999999
 21
489.0
 31
0.0
  0
LINE
  5
219
330
1E
100
AcDbEntity
  8
0
100
AcDbLine
 10
85.66309999999999
 20
489.3959999999999
 30
0.0
 11
86.3479
 21
489.108
 31
0.0
  0
LINE
  5
21A
330
1E
100
AcDbEntity
  8
0
100
AcDbLine
 10
85.05819999999999
 20
489.876
 30
0.0
 11
85.66309999999999
 21
489.3959999999999
 31
0.0
  0
LINE
  5
21B
330
1E
100
AcDbEntity
  8
0
100
AcDbLine
 10
84.60169999999999
 20
490.5119999999999
 30
0.0
 11
85.05819999999999
 21
489.876
 31
0.0
  0
LINE
  5
21C
330
1E
100
AcDbEntity
  8
0
100
AcDbLine
 10
88.25000000000001
 20
489.0
 30
0.0
 11
88.25000000000001
 21
487.968
 31
0.0
  0
LINE
  5
21D
330
1E
100
AcDbEntity
  8
0
100
AcDbLine
 10
88.49339999999999
 20
489.3959999999999
 30
0.0
 11
89.09829999999999
 21
489.876
 31
0.0
  0
LINE
  5
21E
330
1E
100
AcDbEntity
  8
0
100
AcDbLine
 10
89.09829999999999
 20
489.876
 30
0.0
 11
89.55479999999999
 21
490.5119999999999
 31
0.0
  0
LINE
  5
21F
330
1E
100
AcDbEntity
  8
0
100
AcDbLine
 10
89.55479999999999
 20
490.5119999999999
 30
0.0
 11
89.8287
 21
491.232
 31
0.0
  0
LINE
  5
220
330
1E
100
AcDbEntity
  8
0
100
AcDbLine
 10
118.25
 20
487.968
 30
0.0
 11
118.25
 21
492.0
 31
0.0
  0
LINE
  5
221
330
1E
100
AcDbEntity
  8
0
100
AcDbLine
 10
118.25
 20
487.968
 30
0.0
 11
118.25
 21
484.2559999999999
 31
0.0
  0
LINE
  5
222
330
1E
100
AcDbEntity
  8
0
100
AcDbLine
 10
88.25000000000001
 20
487.968
 30
0.0
 11
88.25000000000001
 21
489.0
 31
0.0
  0
LINE
  5
223
330
1E
100
AcDbEntity
  8
0
100
AcDbLine
 10
88.25000000000001
 20
487.968
 30
0.0
 11
88.25000000000001
 21
484.2559999999999
 31
0.0
  0
LINE
  5
224
330
1E
100
AcDbEntity
  8
0
100
AcDbLine
 10
118.25
 20
487.8289999999999
 30
0.0
 11
118.25
 21
483.978
 31
0.0
  0
LINE
  5
225
330
1E
100
AcDbEntity
  8
0
100
AcDbLine
 10
118.25
 20
483.978
 30
0.0
 11
118.25
 21
480.7269999999999
 31
0.0
  0
LINE
  5
226
330
1E
100
AcDbEntity
  8
0
100
AcDbLine
 10
118.25
 20
480.7269999999999
 30
0.0
 11
118.25
 21
478.1
 31
0.0
  0
LINE
  5
227
330
1E
100
AcDbEntity
  8
0
100
AcDbLine
 10
161.15
 20
481.028
 30
0.0
 11
162.25
 21
483.246
 31
0.0
  0
LINE
  5
228
330
1E
100
AcDbEntity
  8
0
100
AcDbLine
 10
160.9499999999999
 20
481.669
 30
0.0
 11
162.10701952132
 21
482.95769936208
 31
0.0
  0
LINE
  5
229
330
1E
100
AcDbEntity
  8
0
100
AcDbLine
 10
89.8287
 20
491.232
 30
0.0
 11
89.9314
 21
492.0
 31
0.0
  0
LINE
  5
22A
330
1E
100
AcDbEntity
  8
0
100
AcDbLine
 10
84.32779999999999
 20
491.232
 30
0.0
 11
84.60169999999999
 21
490.5119999999999
 31
0.0
  0
LINE
  5
22B
330
1E
100
AcDbEntity
  8
0
100
AcDbLine
 10
86.3479
 20
494.892
 30
0.0
 11
87.07829999999999
 21
495.0
 31
0.0
  0
LINE
  5
22C
330
1E
100
AcDbEntity
  8
0
100
AcDbLine
 10
85.66309999999999
 20
494.604
 30
0.0
 11
86.3479
 21
494.892
 31
0.0
  0
LINE
  5
22D
330
1E
100
AcDbEntity
  8
0
100
AcDbLine
 10
85.05819999999999
 20
494.124
 30
0.0
 11
85.66309999999999
 21
494.604
 31
0.0
  0
LINE
  5
22E
330
1E
100
AcDbEntity
  8
0
100
AcDbLine
 10
84.60169999999999
 20
493.488
 30
0.0
 11
85.05819999999999
 21
494.124
 31
0.0
  0
LINE
  5
22F
330
1E
100
AcDbEntity
  8
0
100
AcDbLine
 10
84.32779999999999
 20
492.768
 30
0.0
 11
84.60169999999999
 21
493.488
 31
0.0
  0
LINE
  5
230
330
1E
100
AcDbEntity
  8
0
100
AcDbLine
 10
87.07829999999999
 20
495.0
 30
0.0
 11
87.8087
 21
494.892
 31
0.0
  0
LINE
  5
231
330
1E
100
AcDbEntity
  8
0
100
AcDbLine
 10
87.07829999999999
 20
495.0
 30
0.0
 11
89.0192
 21
495.0
 31
0.0
  0
LINE
  5
232
330
1E
100
AcDbEntity
  8
0
100
AcDbLine
 10
87.8087
 20
494.892
 30
0.0
 11
88.49339999999999
 21
494.604
 31
0.0
  0
LINE
  5
233
330
1E
100
AcDbEntity
  8
0
100
AcDbLine
 10
84.2251
 20
492.0
 30
0.0
 11
84.32779999999999
 21
491.232
 31
0.0
  0
LINE
  5
234
330
1E
100
AcDbEntity
  8
0
100
AcDbLine
 10
84.2251
 20
492.0
 30
0.0
 11
84.32779999999999
 21
492.768
 31
0.0
  0
LINE
  5
235
330
1E
100
AcDbEntity
  8
0
100
AcDbLine
 10
88.25000000000001
 20
496.032
 30
0.0
 11
88.25000000000001
 21
499.744
 31
0.0
  0
LINE
  5
236
330
1E
100
AcDbEntity
  8
0
100
AcDbLine
 10
88.25000000000001
 20
496.032
 30
0.0
 11
88.25000000000001
 21
495.0
 31
0.0
  0
LINE
  5
237
330
1E
100
AcDbEntity
  8
0
100
AcDbLine
 10
88.49339999999999
 20
494.604
 30
0.0
 11
89.09829999999999
 21
494.124
 31
0.0
  0
LINE
  5
238
330
1E
100
AcDbEntity
  8
0
100
AcDbLine
 10
89.09829999999999
 20
494.124
 30
0.0
 11
89.55479999999999
 21
493.488
 31
0.0
  0
LINE
  5
239
330
1E
100
AcDbEntity
  8
0
100
AcDbLine
 10
89.55479999999999
 20
493.488
 30
0.0
 11
89.8287
 21
492.768
 31
0.0
  0
LINE
  5
23A
330
1E
100
AcDbEntity
  8
0
100
AcDbLine
 10
89.8287
 20
492.768
 30
0.0
 11
89.9314
 21
492.0
 31
0.0
  0
LINE
  5
23B
330
1E
100
AcDbEntity
  8
0
100
AcDbLine
 10
118.25
 20
496.032
 30
0.0
 11
118.25
 21
499.744
 31
0.0
  0
LINE
  5
23C
330
1E
100
AcDbEntity
  8
0
100
AcDbLine
 10
118.25
 20
496.032
 30
0.0
 11
118.25
 21
492.0
 31
0.0
  0
LINE
  5
23D
330
1E
100
AcDbEntity
  8
0
100
AcDbLine
 10
118.25
 20
492.0
 30
0.0
 11
118.25
 21
487.968
 31
0.0
  0
LINE
  5
23E
330
1E
100
AcDbEntity
  8
0
100
AcDbLine
 10
118.25
 20
492.0
 30
0.0
 11
118.25
 21
496.032
 31
0.0
  0
LINE
  5
23F
330
1E
100
AcDbEntity
  8
0
100
AcDbLine
 10
88.25000000000001
 20
495.0
 30
0.0
 11
88.25000000000001
 21
496.032
 31
0.0
  0
LINE
  5
240
330
1E
100
AcDbEntity
  8
0
100
AcDbLine
 10
118.25
 20
491.9559999999999
 30
0.0
 11
118.25
 21
487.8289999999999
 31
0.0
  0
LINE
  5
241
330
1E
100
AcDbEntity
  8
0
100
AcDbLine
 10
118.25
 20
496.114
 30
0.0
 11
118.25
 21
491.9559999999999
 31
0.0
  0
LINE
  5
242
330
1E
100
AcDbEntity
  8
0
100
AcDbLine
 10
159.25
 20
490.580333333333
 30
0.0
 11
159.25
 21
476.04
 31
0.0
  0
LINE
  5
243
330
1E
100
AcDbEntity
  8
0
100
AcDbLine
 10
180.3499999999999
 20
485.218
 30
0.0
 11
182.2499999999999
 21
483.246
 31
0.0
  0
LINE
  5
244
330
1E
100
AcDbEntity
  8
0
100
AcDbLine
 10
182.2499999999999
 20
483.246
 30
0.0
 11
183.3499999999999
 21
481.028
 31
0.0
  0
LINE
  5
245
330
1E
100
AcDbEntity
  8
0
100
AcDbLine
 10
175.2499999999999
 20
487.683
 30
0.0
 11
177.9499999999999
 21
486.779
 31
0.0
  0
LINE
  5
246
330
1E
100
AcDbEntity
  8
0
100
AcDbLine
 10
177.9499999999999
 20
486.779
 30
0.0
 11
180.3499999999999
 21
485.218
 31
0.0
  0
LINE
  5
247
330
1E
100
AcDbEntity
  8
0
100
AcDbLine
 10
172.25
 20
488.0119999999999
 30
0.0
 11
175.2499999999999
 21
487.683
 31
0.0
  0
LINE
  5
248
330
1E
100
AcDbEntity
  8
0
100
AcDbLine
 10
169.25
 20
487.683
 30
0.0
 11
172.25
 21
488.0119999999999
 31
0.0
  0
LINE
  5
249
330
1E
100
AcDbEntity
  8
0
100
AcDbLine
 10
166.55
 20
486.779
 30
0.0
 11
169.25
 21
487.683
 31
0.0
  0
LINE
  5
24A
330
1E
100
AcDbEntity
  8
0
100
AcDbLine
 10
164.15
 20
485.218
 30
0.0
 11
166.55
 21
486.779
 31
0.0
  0
LINE
  5
24B
330
1E
100
AcDbEntity
  8
0
100
AcDbLine
 10
162.25
 20
483.246
 30
0.0
 11
164.15
 21
485.218
 31
0.0
  0
LINE
  5
24C
330
1E
100
AcDbEntity
  8
0
100
AcDbLine
 10
182.39298047868
 20
482.95769936208
 30
0.0
 11
183.55
 21
481.669
 31
0.0
  0
LINE
  5
24D
330
1E
100
AcDbEntity
  8
0
100
AcDbLine
 10
160.6339999999999
 20
480.1029999999999
 30
0.0
 11
161.156187140258
 21
481.097163978569
 31
0.0
  0
LINE
  5
24E
330
1E
100
AcDbEntity
  8
0
100
AcDbLine
 10
184.25
 20
471.97725
 30
0.0
 11
184.75
 21
473.096
 31
0.0
  0
LINE
  5
24F
330
1E
100
AcDbEntity
  8
0
100
AcDbLine
 10
184.75
 20
478.985
 30
0.0
 11
185.25
 21
476.04
 31
0.0
  0
LINE
  5
250
330
1E
100
AcDbEntity
  8
0
100
AcDbLine
 10
185.25
 20
476.04
 30
0.0
 11
185.25
 21
493.54
 31
0.0
  0
LINE
  5
251
330
1E
100
AcDbEntity
  8
0
100
AcDbLine
 10
184.75
 20
473.096
 30
0.0
 11
185.25
 21
476.04
 31
0.0
  0
LINE
  5
252
330
1E
100
AcDbEntity
  8
0
100
AcDbLine
 10
184.25
 20
477.5479999999999
 30
0.0
 11
184.25
 21
423.575
 31
0.0
  0
LINE
  5
253
330
1E
100
AcDbEntity
  8
0
100
AcDbLine
 10
183.55
 20
481.669
 30
0.0
 11
184.75
 21
478.985
 31
0.0
  0
LINE
  5
254
330
1E
100
AcDbEntity
  8
0
100
AcDbLine
 10
184.75
 20
496.485
 30
0.0
 11
185.25
 21
493.54
 31
0.0
  0
LINE
  5
255
330
1E
100
AcDbEntity
  8
0
100
AcDbLine
 10
185.25
 20
493.54
 30
0.0
 11
185.25
 21
476.04
 31
0.0
  0
LINE
  5
256
330
1E
100
AcDbEntity
  8
0
100
AcDbLine
 10
183.8659999999999
 20
480.1029999999999
 30
0.0
 11
184.25
 21
477.5479999999999
 31
0.0
  0
LINE
  5
257
330
1E
100
AcDbEntity
  8
0
100
AcDbLine
 10
183.3438128597419
 20
481.097163978569
 30
0.0
 11
183.8659999999999
 21
480.1029999999999
 31
0.0
  0
LINE
  5
258
330
1E
100
AcDbEntity
  8
0
100
AcDbLine
 10
193.75
 20
498.0
 30
0.0
 11
193.75
 21
509.4
 31
0.0
  0
LINE
  5
259
330
1E
100
AcDbEntity
  8
0
100
AcDbLine
 10
77.75
 20
498.0
 30
0.0
 11
77.75
 21
509.4
 31
0.0
  0
LINE
  5
25A
330
1E
100
AcDbEntity
  8
0
100
AcDbLine
 10
184.0726527570789
 20
498.0
 30
0.0
 11
227.138
 21
498.0
 31
0.0
  0
LINE
  5
25B
330
1E
100
AcDbEntity
  8
0
100
AcDbLine
 10
228.75
 20
459.1999999999999
 30
0.0
 11
228.75
 21
457.2
 31
0.0
  0
LINE
  5
25C
330
1E
100
AcDbEntity
  8
0
100
AcDbLine
 10
228.75
 20
459.1999999999999
 30
0.0
 11
228.75
 21
462.5
 31
0.0
  0
LINE
  5
25D
330
1E
100
AcDbEntity
  8
0
100
AcDbLine
 10
228.75
 20
457.2
 30
0.0
 11
228.75
 21
456.5
 31
0.0
  0
LINE
  5
25E
330
1E
100
AcDbEntity
  8
0
100
AcDbLine
 10
228.75
 20
457.2
 30
0.0
 11
228.75
 21
459.1999999999999
 31
0.0
  0
LINE
  5
25F
330
1E
100
AcDbEntity
  8
0
100
AcDbLine
 10
228.75
 20
462.5
 30
0.0
 11
228.75
 21
466.8
 31
0.0
  0
LINE
  5
260
330
1E
100
AcDbEntity
  8
0
100
AcDbLine
 10
228.75
 20
462.5
 30
0.0
 11
228.75
 21
459.1999999999999
 31
0.0
  0
LINE
  5
261
330
1E
100
AcDbEntity
  8
0
100
AcDbLine
 10
228.75
 20
466.8
 30
0.0
 11
228.75
 21
462.5
 31
0.0
  0
LINE
  5
262
330
1E
100
AcDbEntity
  8
0
100
AcDbLine
 10
228.75
 20
466.8
 30
0.0
 11
228.75
 21
471.6999999999999
 31
0.0
  0
LINE
  5
263
330
1E
100
AcDbEntity
  8
0
100
AcDbLine
 10
228.75
 20
471.6999999999999
 30
0.0
 11
228.75
 21
466.8
 31
0.0
  0
LINE
  5
264
330
1E
100
AcDbEntity
  8
0
100
AcDbLine
 10
228.75
 20
471.6999999999999
 30
0.0
 11
228.75
 21
477.0
 31
0.0
  0
LINE
  5
265
330
1E
100
AcDbEntity
  8
0
100
AcDbLine
 10
228.75
 20
477.0
 30
0.0
 11
228.75
 21
482.3
 31
0.0
  0
LINE
  5
266
330
1E
100
AcDbEntity
  8
0
100
AcDbLine
 10
228.75
 20
477.0
 30
0.0
 11
228.75
 21
471.6999999999999
 31
0.0
  0
LINE
  5
267
330
1E
100
AcDbEntity
  8
0
100
AcDbLine
 10
228.75
 20
487.1999999999999
 30
0.0
 11
228.75
 21
482.3
 31
0.0
  0
LINE
  5
268
330
1E
100
AcDbEntity
  8
0
100
AcDbLine
 10
228.75
 20
487.1999999999999
 30
0.0
 11
228.75
 21
491.5
 31
0.0
  0
LINE
  5
269
330
1E
100
AcDbEntity
  8
0
100
AcDbLine
 10
228.75
 20
482.3
 30
0.0
 11
228.75
 21
477.0
 31
0.0
  0
LINE
  5
26A
330
1E
100
AcDbEntity
  8
0
100
AcDbLine
 10
228.75
 20
482.3
 30
0.0
 11
228.75
 21
487.1999999999999
 31
0.0
  0
LINE
  5
26B
330
1E
100
AcDbEntity
  8
0
100
AcDbLine
 10
228.75
 20
491.5
 30
0.0
 11
228.75
 21
494.8
 31
0.0
  0
LINE
  5
26C
330
1E
100
AcDbEntity
  8
0
100
AcDbLine
 10
228.75
 20
491.5
 30
0.0
 11
228.75
 21
487.1999999999999
 31
0.0
  0
LINE
  5
26D
330
1E
100
AcDbEntity
  8
0
100
AcDbLine
 10
228.75
 20
494.8
 30
0.0
 11
228.75
 21
491.5
 31
0.0
  0
LINE
  5
26E
330
1E
100
AcDbEntity
  8
0
100
AcDbLine
 10
228.75
 20
494.8
 30
0.0
 11
228.75
 21
496.7999999999999
 31
0.0
  0
LINE
  5
26F
330
1E
100
AcDbEntity
  8
0
100
AcDbLine
 10
229.2499999999999
 20
457.5
 30
0.0
 11
229.2499999999999
 21
456.8
 31
0.0
  0
LINE
  5
270
330
1E
100
AcDbEntity
  8
0
100
AcDbLine
 10
229.2499999999999
 20
458.8
 30
0.0
 11
229.2499999999999
 21
462.1999999999999
 31
0.0
  0
LINE
  5
271
330
1E
100
AcDbEntity
  8
0
100
AcDbLine
 10
229.2499999999999
 20
456.8
 30
0.0
 11
229.2499999999999
 21
458.8
 31
0.0
  0
LINE
  5
272
330
1E
100
AcDbEntity
  8
0
100
AcDbLine
 10
229.2499999999999
 20
456.8
 30
0.0
 11
229.2499999999999
 21
456.0
 31
0.0
  0
LINE
  5
273
330
1E
100
AcDbEntity
  8
0
100
AcDbLine
 10
229.2499999999999
 20
462.1999999999999
 30
0.0
 11
229.2499999999999
 21
466.6
 31
0.0
  0
LINE
  5
274
330
1E
100
AcDbEntity
  8
0
100
AcDbLine
 10
270.75
 20
459.1999999999999
 30
0.0
 11
270.75
 21
457.2
 31
0.0
  0
LINE
  5
275
330
1E
100
AcDbEntity
  8
0
100
AcDbLine
 10
270.75
 20
459.1999999999999
 30
0.0
 11
270.75
 21
462.5
 31
0.0
  0
LINE
  5
276
330
1E
100
AcDbEntity
  8
0
100
AcDbLine
 10
270.75
 20
457.2
 30
0.0
 11
270.75
 21
456.5
 31
0.0
  0
LINE
  5
277
330
1E
100
AcDbEntity
  8
0
100
AcDbLine
 10
270.75
 20
457.2
 30
0.0
 11
270.75
 21
459.1999999999999
 31
0.0
  0
LINE
  5
278
330
1E
100
AcDbEntity
  8
0
100
AcDbLine
 10
271.2499999999999
 20
457.5
 30
0.0
 11
271.2499999999999
 21
458.1999999999999
 31
0.0
  0
LINE
  5
279
330
1E
100
AcDbEntity
  8
0
100
AcDbLine
 10
271.2499999999999
 20
458.1999999999999
 30
0.0
 11
271.2499999999999
 21
457.5
 31
0.0
  0
LINE
  5
27A
330
1E
100
AcDbEntity
  8
0
100
AcDbLine
 10
271.2499999999999
 20
458.1999999999999
 30
0.0
 11
271.2499999999999
 21
467.3
 31
0.0
  0
LINE
  5
27B
330
1E
100
AcDbEntity
  8
0
100
AcDbLine
 10
270.75
 20
462.5
 30
0.0
 11
270.75
 21
466.8
 31
0.0
  0
LINE
  5
27C
330
1E
100
AcDbEntity
  8
0
100
AcDbLine
 10
270.75
 20
462.5
 30
0.0
 11
270.75
 21
459.1999999999999
 31
0.0
  0
LINE
  5
27D
330
1E
100
AcDbEntity
  8
0
100
AcDbLine
 10
271.2499999999999
 20
469.281225765306
 30
0.0
 11
274.22
 21
469.329
 31
0.0
  0
LINE
  5
27E
330
1E
100
AcDbEntity
  8
0
100
AcDbLine
 10
274.22
 20
469.329
 30
0.0
 11
287.845
 21
469.703
 31
0.0
  0
LINE
  5
27F
330
1E
100
AcDbEntity
  8
0
100
AcDbLine
 10
287.845
 20
469.703
 30
0.0
 11
300.75
 21
470.2169999999999
 31
0.0
  0
LINE
  5
280
330
1E
100
AcDbEntity
  8
0
100
AcDbLine
 10
300.75
 20
470.2169999999999
 30
0.0
 11
312.714
 21
470.863
 31
0.0
  0
LINE
  5
281
330
1E
100
AcDbEntity
  8
0
100
AcDbLine
 10
312.714
 20
470.863
 30
0.0
 11
323.5319999999999
 21
471.6289999999999
 31
0.0
  0
LINE
  5
282
330
1E
100
AcDbEntity
  8
0
100
AcDbLine
 10
271.2499999999999
 20
467.3
 30
0.0
 11
271.2499999999999
 21
458.1999999999999
 31
0.0
  0
LINE
  5
283
330
1E
100
AcDbEntity
  8
0
100
AcDbLine
 10
270.75
 20
466.8
 30
0.0
 11
270.75
 21
462.5
 31
0.0
  0
LINE
  5
284
330
1E
100
AcDbEntity
  8
0
100
AcDbLine
 10
270.75
 20
466.8
 30
0.0
 11
270.75
 21
471.6999999999999
 31
0.0
  0
LINE
  5
285
330
1E
100
AcDbEntity
  8
0
100
AcDbLine
 10
229.2499999999999
 20
466.6
 30
0.0
 11
229.2499999999999
 21
471.6
 31
0.0
  0
LINE
  5
286
330
1E
100
AcDbEntity
  8
0
100
AcDbLine
 10
229.2499999999999
 20
487.3999999999999
 30
0.0
 11
229.2499999999999
 21
491.8
 31
0.0
  0
LINE
  5
287
330
1E
100
AcDbEntity
  8
0
100
AcDbLine
 10
229.2499999999999
 20
482.3999999999999
 30
0.0
 11
229.2499999999999
 21
487.3999999999999
 31
0.0
  0
LINE
  5
288
330
1E
100
AcDbEntity
  8
0
100
AcDbLine
 10
229.2499999999999
 20
477.0
 30
0.0
 11
229.2499999999999
 21
482.3999999999999
 31
0.0
  0
LINE
  5
289
330
1E
100
AcDbEntity
  8
0
100
AcDbLine
 10
229.2499999999999
 20
491.8
 30
0.0
 11
229.2499999999999
 21
495.1999999999999
 31
0.0
  0
LINE
  5
28A
330
1E
100
AcDbEntity
  8
0
100
AcDbLine
 10
229.2499999999999
 20
495.1999999999999
 30
0.0
 11
229.2499999999999
 21
497.2
 31
0.0
  0
LINE
  5
28B
330
1E
100
AcDbEntity
  8
0
100
AcDbLine
 10
254.023
 20
473.758
 30
0.0
 11
255.4149999999999
 21
474.094
 31
0.0
  0
LINE
  5
28C
330
1E
100
AcDbEntity
  8
0
100
AcDbLine
 10
252.511
 20
473.6319999999999
 30
0.0
 11
254.023
 21
473.758
 31
0.0
  0
LINE
  5
28D
330
1E
100
AcDbEntity
  8
0
100
AcDbLine
 10
246.8709999999999
 20
477.93
 30
0.0
 11
247.447
 21
478.742
 31
0.0
  0
LINE
  5
28E
330
1E
100
AcDbEntity
  8
0
100
AcDbLine
 10
247.447
 20
478.742
 30
0.0
 11
248.3829999999999
 21
479.4559999999999
 31
0.0
  0
LINE
  5
291
330
1E
100
AcDbEntity
  8
0
100
AcDbLine
 10
246.655
 20
477.048
 30
0.0
 11
246.8709999999999
 21
476.166
 31
0.0
  0
LINE
  5
292
330
1E
100
AcDbEntity
  8
0
100
AcDbLine
 10
246.655
 20
477.048
 30
0.0
 11
246.8709999999999
 21
477.93
 31
0.0
  0
LINE
  5
293
330
1E
100
AcDbEntity
  8
0
100
AcDbLine
 10
246.8709999999999
 20
476.166
 30
0.0
 11
247.447
 21
475.354
 31
0.0
  0
LINE
  5
294
330
1E
100
AcDbEntity
  8
0
100
AcDbLine
 10
248.3829999999999
 20
479.4559999999999
 30
0.0
 11
249.607
 21
480.0019999999999
 31
0.0
  0
LINE
  5
296
330
1E
100
AcDbEntity
  8
0
100
AcDbLine
 10
247.447
 20
475.354
 30
0.0
 11
248.3829999999999
 21
474.64
 31
0.0
  0
LINE
  5
297
330
1E
100
AcDbEntity
  8
0
100
AcDbLine
 10
248.3829999999999
 20
474.64
 30
0.0
 11
249.607
 21
474.094
 31
0.0
  0
LINE
  5
298
330
1E
100
AcDbEntity
  8
0
100
AcDbLine
 10
257.5749999999999
 20
475.354
 30
0.0
 11
258.151
 21
476.166
 31
0.0
  0
LINE
  5
299
330
1E
100
AcDbEntity
  8
0
100
AcDbLine
 10
256.639
 20
474.64
 30
0.0
 11
257.5749999999999
 21
475.354
 31
0.0
  0
LINE
  5
29A
330
1E
100
AcDbEntity
  8
0
100
AcDbLine
 10
255.4149999999999
 20
474.094
 30
0.0
 11
256.639
 21
474.64
 31
0.0
  0
LINE
  5
29B
330
1E
100
AcDbEntity
  8
0
100
AcDbLine
 10
257.5749999999999
 20
478.742
 30
0.0
 11
258.151
 21
477.93
 31
0.0
  0
LINE
  5
29C
330
1E
100
AcDbEntity
  8
0
100
AcDbLine
 10
256.639
 20
479.4559999999999
 30
0.0
 11
257.5749999999999
 21
478.742
 31
0.0
  0
LINE
  5
29D
330
1E
100
AcDbEntity
  8
0
100
AcDbLine
 10
258.151
 20
476.166
 30
0.0
 11
258.367
 21
477.048
 31
0.0
  0
LINE
  5
29E
330
1E
100
AcDbEntity
  8
0
100
AcDbLine
 10
258.151
 20
477.93
 30
0.0
 11
258.367
 21
477.048
 31
0.0
  0
LINE
  5
2A2
330
1E
100
AcDbEntity
  8
0
100
AcDbLine
 10
249.607
 20
474.094
 30
0.0
 11
250.999
 21
473.758
 31
0.0
  0
LINE
  5
2A3
330
1E
100
AcDbEntity
  8
0
100
AcDbLine
 10
250.999
 20
473.758
 30
0.0
 11
252.511
 21
473.6319999999999
 31
0.0
  0
LINE
  5
2A5
330
1E
100
AcDbEntity
  8
0
100
AcDbLine
 10
249.607
 20
480.0019999999999
 30
0.0
 11
250.999
 21
480.338
 31
0.0
  0
LINE
  5
2A7
330
1E
100
AcDbEntity
  8
0
100
AcDbLine
 10
255.4149999999999
 20
480.0019999999999
 30
0.0
 11
256.639
 21
479.4559999999999
 31
0.0
  0
LINE
  5
2A8
330
1E
100
AcDbEntity
  8
0
100
AcDbLine
 10
254.023
 20
480.338
 30
0.0
 11
255.4149999999999
 21
480.0019999999999
 31
0.0
  0
LINE
  5
2AA
330
1E
100
AcDbEntity
  8
0
100
AcDbLine
 10
252.511
 20
480.464
 30
0.0
 11
254.023
 21
480.338
 31
0.0
  0
LINE
  5
2AD
330
1E
100
AcDbEntity
  8
0
100
AcDbLine
 10
250.999
 20
480.338
 30
0.0
 11
252.511
 21
480.464
 31
0.0
  0
LINE
  5
2AF
330
1E
100
AcDbEntity
  8
0
100
AcDbLine
 10
270.75
 20
487.1999999999999
 30
0.0
 11
270.75
 21
482.3
 31
0.0
  0
LINE
  5
2B0
330
1E
100
AcDbEntity
  8
0
100
AcDbLine
 10
270.75
 20
487.1999999999999
 30
0.0
 11
270.75
 21
491.5
 31
0.0
  0
LINE
  5
2B1
330
1E
100
AcDbEntity
  8
0
100
AcDbLine
 10
270.75
 20
482.3
 30
0.0
 11
270.75
 21
477.0
 31
0.0
  0
LINE
  5
2B2
330
1E
100
AcDbEntity
  8
0
100
AcDbLine
 10
270.75
 20
482.3
 30
0.0
 11
270.75
 21
487.1999999999999
 31
0.0
  0
LINE
  5
2B3
330
1E
100
AcDbEntity
  8
0
100
AcDbLine
 10
270.75
 20
491.5
 30
0.0
 11
270.75
 21
494.8
 31
0.0
  0
LINE
  5
2B4
330
1E
100
AcDbEntity
  8
0
100
AcDbLine
 10
270.75
 20
491.5
 30
0.0
 11
270.75
 21
487.1999999999999
 31
0.0
  0
LINE
  5
2B5
330
1E
100
AcDbEntity
  8
0
100
AcDbLine
 10
270.75
 20
494.8
 30
0.0
 11
270.75
 21
491.5
 31
0.0
  0
LINE
  5
2B6
330
1E
100
AcDbEntity
  8
0
100
AcDbLine
 10
270.75
 20
494.8
 30
0.0
 11
270.75
 21
496.7999999999999
 31
0.0
  0
LINE
  5
2B7
330
1E
100
AcDbEntity
  8
0
100
AcDbLine
 10
270.75
 20
496.7999999999999
 30
0.0
 11
270.75
 21
494.8
 31
0.0
  0
LINE
  5
2B8
330
1E
100
AcDbEntity
  8
0
100
AcDbLine
 10
270.75
 20
496.7999999999999
 30
0.0
 11
270.75
 21
497.5
 31
0.0
  0
LINE
  5
2B9
330
1E
100
AcDbEntity
  8
0
100
AcDbLine
 10
270.75
 20
497.5
 30
0.0
 11
270.75
 21
496.7999999999999
 31
0.0
  0
LINE
  5
2BA
330
1E
100
AcDbEntity
  8
0
100
AcDbLine
 10
270.75
 20
497.5
 30
0.0
 11
271.2499999999999
 21
496.4999999999999
 31
0.0
  0
LINE
  5
2BB
330
1E
100
AcDbEntity
  8
0
100
AcDbLine
 10
229.2499999999999
 20
497.2
 30
0.0
 11
229.2499999999999
 21
498.0
 31
0.0
  0
LINE
  5
2BC
330
1E
100
AcDbEntity
  8
0
100
AcDbLine
 10
229.2499999999999
 20
497.2
 30
0.0
 11
229.2499999999999
 21
496.4999999999999
 31
0.0
  0
LINE
  5
2BD
330
1E
100
AcDbEntity
  8
0
100
AcDbLine
 10
270.75
 20
471.6999999999999
 30
0.0
 11
270.75
 21
466.8
 31
0.0
  0
LINE
  5
2BE
330
1E
100
AcDbEntity
  8
0
100
AcDbLine
 10
270.75
 20
471.6999999999999
 30
0.0
 11
270.75
 21
477.0
 31
0.0
  0
LINE
  5
2BF
330
1E
100
AcDbEntity
  8
0
100
AcDbLine
 10
271.2499999999999
 20
485.229225765306
 30
0.0
 11
274.22
 21
485.2769999999999
 31
0.0
  0
LINE
  5
2C0
330
1E
100
AcDbEntity
  8
0
100
AcDbLine
 10
271.2499999999999
 20
467.3
 30
0.0
 11
271.2499999999999
 21
495.8
 31
0.0
  0
LINE
  5
2C1
330
1E
100
AcDbEntity
  8
0
100
AcDbLine
 10
271.2499999999999
 20
495.8
 30
0.0
 11
271.2499999999999
 21
467.3
 31
0.0
  0
LINE
  5
2C2
330
1E
100
AcDbEntity
  8
0
100
AcDbLine
 10
274.22
 20
485.2769999999999
 30
0.0
 11
287.845
 21
485.6499999999999
 31
0.0
  0
LINE
  5
2C3
330
1E
100
AcDbEntity
  8
0
100
AcDbLine
 10
312.714
 20
486.81
 30
0.0
 11
323.5319999999999
 21
487.577
 31
0.0
  0
LINE
  5
2C4
330
1E
100
AcDbEntity
  8
0
100
AcDbLine
 10
317.8679999999999
 20
493.354
 30
0.0
 11
334.74
 21
488.5119999999999
 31
0.0
  0
LINE
  5
2C5
330
1E
100
AcDbEntity
  8
0
100
AcDbLine
 10
332.6870529135526
 20
488.4204190203903
 30
0.0
 11
334.355736477003
 21
488.6222776184419
 31
0.0
  0
LINE
  5
2C6
330
1E
100
AcDbEntity
  8
0
100
AcDbLine
 10
323.5319999999999
 20
487.577
 30
0.0
 11
332.68705291356
 21
488.4204190203909
 31
0.0
  0
LINE
  5
2C7
330
1E
100
AcDbEntity
  8
0
100
AcDbLine
 10
300.75
 20
486.164
 30
0.0
 11
312.714
 21
486.81
 31
0.0
  0
LINE
  5
2C8
330
1E
100
AcDbEntity
  8
0
100
AcDbLine
 10
287.845
 20
485.6499999999999
 30
0.0
 11
300.75
 21
486.164
 31
0.0
  0
LINE
  5
2CB
330
1E
100
AcDbEntity
  8
0
100
AcDbLine
 10
342.7859999999999
 20
473.674
 30
0.0
 11
349.269
 21
474.7359999999999
 31
0.0
  0
LINE
  5
2CC
330
1E
100
AcDbEntity
  8
0
100
AcDbLine
 10
349.269
 20
474.7359999999999
 30
0.0
 11
353.98
 21
475.8569999999999
 31
0.0
  0
LINE
  5
2CD
330
1E
100
AcDbEntity
  8
0
100
AcDbLine
 10
353.98
 20
475.8569999999999
 30
0.0
 11
355.8349999999999
 21
476.5819999999999
 31
0.0
  0
LINE
  5
2CE
330
1E
100
AcDbEntity
  8
0
100
AcDbLine
 10
355.8349999999999
 20
476.5819999999999
 30
0.0
 11
358.743
 21
477.7639999999999
 31
0.0
  0
LINE
  5
2CF
330
1E
100
AcDbEntity
  8
0
100
AcDbLine
 10
358.743
 20
477.7639999999999
 30
0.0
 11
360.424
 21
479.0219999999999
 31
0.0
  0
LINE
  5
2D0
330
1E
100
AcDbEntity
  8
0
100
AcDbLine
 10
361.4139999999999
 20
480.241
 30
0.0
 11
362.694
 21
481.9319999999999
 31
0.0
  0
LINE
  5
2D1
330
1E
100
AcDbEntity
  8
0
100
AcDbLine
 10
360.424
 20
479.0219999999999
 30
0.0
 11
361.4139999999999
 21
480.241
 31
0.0
  0
LINE
  5
2D2
330
1E
100
AcDbEntity
  8
0
100
AcDbLine
 10
361.4139999999999
 20
491.532
 30
0.0
 11
362.694
 21
489.8419999999999
 31
0.0
  0
LINE
  5
2D3
330
1E
100
AcDbEntity
  8
0
100
AcDbLine
 10
362.694
 20
489.8419999999999
 30
0.0
 11
363.4619999999999
 21
487.928
 31
0.0
  0
LINE
  5
2D4
330
1E
100
AcDbEntity
  8
0
100
AcDbLine
 10
363.4619999999999
 20
487.928
 30
0.0
 11
363.75
 21
485.8869999999999
 31
0.0
  0
LINE
  5
2D5
330
1E
100
AcDbEntity
  8
0
100
AcDbLine
 10
362.694
 20
481.9319999999999
 30
0.0
 11
363.4619999999999
 21
483.845
 31
0.0
  0
LINE
  5
2D6
330
1E
100
AcDbEntity
  8
0
100
AcDbLine
 10
363.4619999999999
 20
483.845
 30
0.0
 11
363.75
 21
485.8869999999999
 31
0.0
  0
LINE
  5
2D7
330
1E
100
AcDbEntity
  8
0
100
AcDbLine
 10
334.644
 20
472.689
 30
0.0
 11
342.7859999999999
 21
473.674
 31
0.0
  0
LINE
  5
2D8
330
1E
100
AcDbEntity
  8
0
100
AcDbLine
 10
333.0189999999999
 20
472.503
 30
0.0
 11
334.644
 21
472.689
 31
0.0
  0
LINE
  5
2D9
330
1E
100
AcDbEntity
  8
0
100
AcDbLine
 10
323.5319999999999
 20
471.6289999999999
 30
0.0
 11
333.0189999999999
 21
472.503
 31
0.0
  0
LINE
  5
2DA
330
1E
100
AcDbEntity
  8
0
100
AcDbLine
 10
271.2499999999999
 20
495.8
 30
0.0
 11
271.2499999999999
 21
496.4999999999999
 31
0.0
  0
LINE
  5
2DB
330
1E
100
AcDbEntity
  8
0
100
AcDbLine
 10
355.839
 20
497.093
 30
0.0
 11
361.4139999999999
 21
491.532
 31
0.0
  0
LINE
  5
2DC
330
1E
100
AcDbEntity
  8
0
100
AcDbLine
 10
271.2499999999999
 20
496.4999999999999
 30
0.0
 11
271.2499999999999
 21
495.8
 31
0.0
  0
LINE
  5
2DD
330
1E
100
AcDbEntity
  8
0
100
AcDbLine
 10
270.75
 20
477.0
 30
0.0
 11
270.75
 21
471.6999999999999
 31
0.0
  0
LINE
  5
2DE
330
1E
100
AcDbEntity
  8
0
100
AcDbLine
 10
270.75
 20
477.0
 30
0.0
 11
270.75
 21
482.3
 31
0.0
  0
LINE
  5
2DF
330
1E
100
AcDbEntity
  8
0
100
AcDbLine
 10
229.2499999999999
 20
471.6
 30
0.0
 11
229.2499999999999
 21
477.0
 31
0.0
  0
LINE
  5
2E0
330
1E
100
AcDbEntity
  8
0
100
AcDbLine
 10
228.75
 20
496.7999999999999
 30
0.0
 11
228.75
 21
494.8
 31
0.0
  0
LINE
  5
2E1
330
1E
100
AcDbEntity
  8
0
100
AcDbLine
 10
228.75
 20
496.7999999999999
 30
0.0
 11
228.75
 21
497.5
 31
0.0
  0
LINE
  5
2E2
330
1E
100
AcDbEntity
  8
0
100
AcDbLine
 10
269.75
 20
498.0
 30
0.0
 11
270.75
 21
497.5
 31
0.0
  0
LINE
  5
2E3
330
1E
100
AcDbEntity
  8
0
100
AcDbLine
 10
229.2499999999999
 20
498.0
 30
0.0
 11
269.75
 21
498.0
 31
0.0
  0
LINE
  5
2E4
330
1E
100
AcDbEntity
  8
0
100
AcDbLine
 10
229.2499999999999
 20
498.0
 30
0.0
 11
229.2499999999999
 21
497.2
 31
0.0
  0
LINE
  5
2E5
330
1E
100
AcDbEntity
  8
0
100
AcDbLine
 10
227.7499999999999
 20
498.0
 30
0.0
 11
228.75
 21
497.5
 31
0.0
  0
LINE
  5
2E6
330
1E
100
AcDbEntity
  8
0
100
AcDbLine
 10
227.7499999999999
 20
498.0
 30
0.0
 11
227.7499999999999
 21
509.4
 31
0.0
  0
LINE
  5
2E7
330
1E
100
AcDbEntity
  8
0
100
AcDbLine
 10
228.75
 20
497.5
 30
0.0
 11
228.75
 21
496.7999999999999
 31
0.0
  0
LINE
  5
2E8
330
1E
100
AcDbEntity
  8
0
100
AcDbLine
 10
228.75
 20
497.5
 30
0.0
 11
229.2499999999999
 21
496.4999999999999
 31
0.0
  0
LINE
  5
2E9
330
1E
100
AcDbEntity
  8
0
100
AcDbLine
 10
227.138
 20
498.0
 30
0.0
 11
227.7499999999999
 21
498.0
 31
0.0
  0
LINE
  5
2EA
330
1E
100
AcDbEntity
  8
0
100
AcDbLine
 10
77.138
 20
498.0
 30
0.0
 11
88.25000000000001
 21
498.0
 31
0.0
  0
LINE
  5
2EB
330
1E
100
AcDbEntity
  8
0
100
AcDbLine
 10
43.75
 20
498.0
 30
0.0
 11
77.138
 21
498.0
 31
0.0
  0
LINE
  5
2EC
330
1E
100
AcDbEntity
  8
0
100
AcDbLine
 10
42.75
 20
456.5
 30
0.0
 11
43.75
 21
456.0
 31
0.0
  0
LINE
  5
2ED
330
1E
100
AcDbEntity
  8
0
100
AcDbLine
 10
42.75
 20
456.5
 30
0.0
 11
42.75
 21
457.2
 31
0.0
  0
LINE
  5
2EE
330
1E
100
AcDbEntity
  8
0
100
AcDbLine
 10
42.25
 20
482.3999999999999
 30
0.0
 11
42.25
 21
477.0
 31
0.0
  0
LINE
  5
2F0
330
1E
100
AcDbEntity
  8
0
100
AcDbLine
 10
44.15799999999999
 20
510.0
 30
0.0
 11
44.77
 21
510.0
 31
0.0
  0
LINE
  5
2F1
330
1E
100
AcDbEntity
  8
0
100
AcDbLine
 10
43.75
 20
509.4
 30
0.0
 11
44.15799999999999
 21
510.0
 31
0.0
  0
LINE
  5
2F2
330
1E
100
AcDbEntity
  8
0
100
AcDbLine
 10
43.75
 20
509.4
 30
0.0
 11
43.75
 21
498.0
 31
0.0
  0
LINE
  5
2F3
330
1E
100
AcDbEntity
  8
0
100
AcDbLine
 10
44.75
 20
517.0
 30
0.0
 11
44.75
 21
527.0
 31
0.0
  0
LINE
  5
2F4
330
1E
100
AcDbEntity
  8
0
100
AcDbLine
 10
44.75
 20
517.0
 30
0.0
 11
44.75
 21
516.0
 31
0.0
  0
LINE
  5
2F5
330
1E
100
AcDbEntity
  8
0
100
AcDbLine
 10
44.75
 20
527.0
 30
0.0
 11
44.75
 21
528.0
 31
0.0
  0
LINE
  5
2F6
330
1E
100
AcDbEntity
  8
0
100
AcDbLine
 10
44.75
 20
527.0
 30
0.0
 11
44.75
 21
517.0
 31
0.0
  0
LINE
  5
2F7
330
1E
100
AcDbEntity
  8
0
100
AcDbLine
 10
44.75
 20
527.0
 30
0.0
 11
45.1618
 21
527.0
 31
0.0
  0
LINE
  5
2F8
330
1E
100
AcDbEntity
  8
0
100
AcDbLine
 10
44.75
 20
527.0
 30
0.0
 11
45.0868
 21
528.0
 31
0.0
  0
LINE
  5
2F9
330
1E
100
AcDbEntity
  8
0
100
AcDbLine
 10
44.75
 20
527.0
 30
0.0
 11
46.12129999999999
 21
528.0
 31
0.0
  0
LINE
  5
2FA
330
1E
100
AcDbEntity
  8
0
100
AcDbLine
 10
44.75
 20
516.0
 30
0.0
 11
44.75
 21
517.0
 31
0.0
  0
LINE
  5
2FB
330
1E
100
AcDbEntity
  8
0
100
AcDbLine
 10
44.75
 20
516.0
 30
0.0
 11
45.0868
 21
516.0
 31
0.0
  0
LINE
  5
2FC
330
1E
100
AcDbEntity
  8
0
100
AcDbLine
 10
44.75
 20
516.0
 30
0.0
 11
44.75
 21
515.24
 31
0.0
  0
LINE
  5
2FD
330
1E
100
AcDbEntity
  8
0
100
AcDbLine
 10
44.75
 20
528.0
 30
0.0
 11
44.75
 21
528.76
 31
0.0
  0
LINE
  5
2FE
330
1E
100
AcDbEntity
  8
0
100
AcDbLine
 10
44.75
 20
528.0
 30
0.0
 11
45.0868
 21
528.0
 31
0.0
  0
LINE
  5
2FF
330
1E
100
AcDbEntity
  8
0
100
AcDbLine
 10
44.75
 20
528.0
 30
0.0
 11
44.75
 21
527.0
 31
0.0
  0
LINE
  5
300
330
1E
100
AcDbEntity
  8
0
100
AcDbLine
 10
44.75
 20
515.24
 30
0.0
 11
44.75
 21
516.0
 31
0.0
  0
LINE
  5
301
330
1E
100
AcDbEntity
  8
0
100
AcDbLine
 10
44.75
 20
515.24
 30
0.0
 11
44.75
 21
515.1
 31
0.0
  0
LINE
  5
302
330
1E
100
AcDbEntity
  8
0
100
AcDbLine
 10
37.75
 20
529.0
 30
0.0
 11
44.55
 21
529.0
 31
0.0
  0
LINE
  5
303
330
1E
100
AcDbEntity
  8
0
100
AcDbLine
 10
44.55
 20
529.0
 30
0.0
 11
45.1711
 21
529.0
 31
0.0
  0
LINE
  5
304
330
1E
100
AcDbEntity
  8
0
100
AcDbLine
 10
32.65
 20
529.0
 30
0.0
 11
37.75
 21
529.0
 31
0.0
  0
LINE
  5
305
330
1E
100
AcDbEntity
  8
0
100
AcDbLine
 10
29.45
 20
529.0
 30
0.0
 11
32.65
 21
529.0
 31
0.0
  0
LINE
  5
306
330
1E
100
AcDbEntity
  8
0
100
AcDbLine
 10
28.45
 20
529.4999999999999
 30
0.0
 11
31.75
 21
529.4999999999999
 31
0.0
  0
LINE
  5
307
330
1E
100
AcDbEntity
  8
0
100
AcDbLine
 10
31.75
 20
529.4999999999999
 30
0.0
 11
37.05
 21
529.4999999999999
 31
0.0
  0
LINE
  5
308
330
1E
100
AcDbEntity
  8
0
100
AcDbLine
 10
31.35
 20
555.0
 30
0.0
 11
36.75
 21
555.0
 31
0.0
  0
LINE
  5
309
330
1E
100
AcDbEntity
  8
0
100
AcDbLine
 10
27.94999999999999
 20
555.0
 30
0.0
 11
31.35
 21
555.0
 31
0.0
  0
LINE
  5
30A
330
1E
100
AcDbEntity
  8
0
100
AcDbLine
 10
37.05
 20
529.4999999999999
 30
0.0
 11
44.05
 21
529.4999999999999
 31
0.0
  0
LINE
  5
30B
330
1E
100
AcDbEntity
  8
0
100
AcDbLine
 10
44.05
 20
529.4999999999999
 30
0.0
 11
52.14999999999999
 21
529.4999999999999
 31
0.0
  0
LINE
  5
30C
330
1E
100
AcDbEntity
  8
0
100
AcDbLine
 10
36.75
 20
555.0
 30
0.0
 11
43.85
 21
555.0
 31
0.0
  0
LINE
  5
30D
330
1E
100
AcDbEntity
  8
0
100
AcDbLine
 10
43.85
 20
555.0
 30
0.0
 11
52.05
 21
555.0
 31
0.0
  0
LINE
  5
30E
330
1E
100
AcDbEntity
  8
0
100
AcDbLine
 10
27.25
 20
529.4999999999999
 30
0.0
 11
28.25
 21
529.0
 31
0.0
  0
LINE
  5
30F
330
1E
100
AcDbEntity
  8
0
100
AcDbLine
 10
27.25
 20
529.4999999999999
 30
0.0
 11
28.45
 21
529.4999999999999
 31
0.0
  0
LINE
  5
310
330
1E
100
AcDbEntity
  8
0
100
AcDbLine
 10
28.25
 20
529.0
 30
0.0
 11
29.45
 21
529.0
 31
0.0
  0
LINE
  5
311
330
1E
100
AcDbEntity
  8
0
100
AcDbLine
 10
26.75
 20
530.4999999999999
 30
0.0
 11
27.25
 21
529.4999999999999
 31
0.0
  0
LINE
  5
312
330
1E
100
AcDbEntity
  8
0
100
AcDbLine
 10
26.75
 20
530.4999999999999
 30
0.0
 11
26.75
 21
555.0
 31
0.0
  0
LINE
  5
313
330
1E
100
AcDbEntity
  8
0
100
AcDbLine
 10
26.75
 20
555.0
 30
0.0
 11
26.75
 21
530.4999999999999
 31
0.0
  0
LINE
  5
314
330
1E
100
AcDbEntity
  8
0
100
AcDbLine
 10
26.75
 20
555.0
 30
0.0
 11
27.94999999999999
 21
555.0
 31
0.0
  0
LINE
  5
315
330
1E
100
AcDbEntity
  8
0
100
AcDbLine
 10
44.75
 20
528.8999999999999
 30
0.0
 11
44.75
 21
528.76
 31
0.0
  0
LINE
  5
316
330
1E
100
AcDbEntity
  8
0
100
AcDbLine
 10
44.75
 20
528.8999999999999
 30
0.0
 11
45.1711
 21
529.0
 31
0.0
  0
LINE
  5
317
330
1E
100
AcDbEntity
  8
0
100
AcDbLine
 10
44.75
 20
528.76
 30
0.0
 11
44.75
 21
528.8999999999999
 31
0.0
  0
LINE
  5
318
330
1E
100
AcDbEntity
  8
0
100
AcDbLine
 10
44.75
 20
528.76
 30
0.0
 11
45.7605
 21
529.0
 31
0.0
  0
LINE
  5
319
330
1E
100
AcDbEntity
  8
0
100
AcDbLine
 10
44.75
 20
528.76
 30
0.0
 11
47.2763
 21
529.0
 31
0.0
  0
LINE
  5
31A
330
1E
100
AcDbEntity
  8
0
100
AcDbLine
 10
44.75
 20
528.76
 30
0.0
 11
46.1816
 21
528.7
 31
0.0
  0
LINE
  5
31B
330
1E
100
AcDbEntity
  8
0
100
AcDbLine
 10
44.75
 20
528.76
 30
0.0
 11
44.75
 21
528.0
 31
0.0
  0
LINE
  5
31C
330
1E
100
AcDbEntity
  8
0
100
AcDbLine
 10
44.77
 20
510.0
 30
0.0
 11
46.402
 21
510.0
 31
0.0
  0
LINE
  5
31D
330
1E
100
AcDbEntity
  8
0
100
AcDbLine
 10
45.1711
 20
515.0
 30
0.0
 11
45.7605
 21
515.0
 31
0.0
  0
LINE
  5
31F
330
1E
100
AcDbEntity
  8
0
100
AcDbLine
 10
45.7605
 20
515.0
 30
0.0
 11
46.74999999999999
 21
515.0
 31
0.0
  0
LINE
  5
321
330
1E
100
AcDbEntity
  8
0
100
AcDbLine
 10
45.0868
 20
516.0
 30
0.0
 11
46.12129999999999
 21
516.0
 31
0.0
  0
LINE
  5
322
330
1E
100
AcDbEntity
  8
0
100
AcDbLine
 10
46.402
 20
510.0
 30
0.0
 11
49.054
 21
510.0
 31
0.0
  0
LINE
  5
323
330
1E
100
AcDbEntity
  8
0
100
AcDbLine
 10
46.74999999999999
 20
515.0
 30
0.0
 11
46.74999999999999
 21
510.0
 31
0.0
  0
LINE
  5
324
330
1E
100
AcDbEntity
  8
0
100
AcDbLine
 10
46.74999999999999
 20
515.0
 30
0.0
 11
47.25399999999999
 21
515.0
 31
0.0
  0
LINE
  5
325
330
1E
100
AcDbEntity
  8
0
100
AcDbLine
 10
47.25399999999999
 20
515.0
 30
0.0
 11
48.59799999999999
 21
515.0
 31
0.0
  0
LINE
  5
327
330
1E
100
AcDbEntity
  8
0
100
AcDbLine
 10
49.054
 20
510.0
 30
0.0
 11
52.522
 21
510.0
 31
0.0
  0
LINE
  5
328
330
1E
100
AcDbEntity
  8
0
100
AcDbLine
 10
52.522
 20
510.0
 30
0.0
 11
56.466
 21
510.0
 31
0.0
  0
LINE
  5
32A
330
1E
100
AcDbEntity
  8
0
100
AcDbLine
 10
48.59799999999999
 20
515.0
 30
0.0
 11
50.838
 21
515.0
 31
0.0
  0
LINE
  5
32B
330
1E
100
AcDbEntity
  8
0
100
AcDbLine
 10
50.838
 20
515.0
 30
0.0
 11
53.80600000000001
 21
515.0
 31
0.0
  0
LINE
  5
32C
330
1E
100
AcDbEntity
  8
0
100
AcDbLine
 10
46.74999999999999
 20
510.0
 30
0.0
 11
46.74999999999999
 21
515.0
 31
0.0
  0
LINE
  5
32D
330
1E
100
AcDbEntity
  8
0
100
AcDbLine
 10
48.7921
 20
515.364
 30
0.0
 11
52.6055
 21
515.202
 31
0.0
  0
LINE
  5
32E
330
1E
100
AcDbEntity
  8
0
100
AcDbLine
 10
46.12129999999999
 20
516.0
 30
0.0
 11
48.7921
 21
515.364
 31
0.0
  0
LINE
  5
330
330
1E
100
AcDbEntity
  8
0
100
AcDbLine
 10
45.0868
 20
528.0
 30
0.0
 11
46.1816
 21
528.7
 31
0.0
  0
LINE
  5
331
330
1E
100
AcDbEntity
  8
0
100
AcDbLine
 10
45.0868
 20
528.0
 30
0.0
 11
48.7921
 21
528.636
 31
0.0
  0
LINE
  5
332
330
1E
100
AcDbEntity
  8
0
100
AcDbLine
 10
45.0868
 20
528.0
 30
0.0
 11
46.12129999999999
 21
528.0
 31
0.0
  0
LINE
  5
333
330
1E
100
AcDbEntity
  8
0
100
AcDbLine
 10
46.1816
 20
528.7
 30
0.0
 11
48.7921
 21
528.636
 31
0.0
  0
LINE
  5
334
330
1E
100
AcDbEntity
  8
0
100
AcDbLine
 10
46.1816
 20
528.7
 30
0.0
 11
47.2763
 21
529.0
 31
0.0
  0
LINE
  5
335
330
1E
100
AcDbEntity
  8
0
100
AcDbLine
 10
48.7921
 20
528.636
 30
0.0
 11
52.6055
 21
528.798
 31
0.0
  0
LINE
  5
336
330
1E
100
AcDbEntity
  8
0
100
AcDbLine
 10
48.7921
 20
528.636
 30
0.0
 11
49.7184
 21
529.0
 31
0.0
  0
LINE
  5
337
330
1E
100
AcDbEntity
  8
0
100
AcDbLine
 10
46.12129999999999
 20
528.0
 30
0.0
 11
48.7921
 21
528.636
 31
0.0
  0
LINE
  5
338
330
1E
100
AcDbEntity
  8
0
100
AcDbLine
 10
45.1618
 20
527.0
 30
0.0
 11
46.12129999999999
 21
528.0
 31
0.0
  0
LINE
  5
339
330
1E
100
AcDbEntity
  8
0
100
AcDbLine
 10
52.6055
 20
515.202
 30
0.0
 11
56.3981
 21
515.4189999999999
 31
0.0
  0
LINE
  5
33B
330
1E
100
AcDbEntity
  8
0
100
AcDbLine
 10
45.7605
 20
529.0
 30
0.0
 11
47.2763
 21
529.0
 31
0.0
  0
LINE
  5
33C
330
1E
100
AcDbEntity
  8
0
100
AcDbLine
 10
47.2763
 20
529.0
 30
0.0
 11
49.7184
 21
529.0
 31
0.0
  0
LINE
  5
33D
330
1E
100
AcDbEntity
  8
0
100
AcDbLine
 10
49.7184
 20
529.0
 30
0.0
 11
53.0026
 21
529.0
 31
0.0
  0
LINE
  5
33E
330
1E
100
AcDbEntity
  8
0
100
AcDbLine
 10
49.7184
 20
529.0
 30
0.0
 11
52.6055
 21
528.798
 31
0.0
  0
LINE
  5
33F
330
1E
100
AcDbEntity
  8
0
100
AcDbLine
 10
52.6055
 20
528.798
 30
0.0
 11
53.0026
 21
529.0
 31
0.0
  0
LINE
  5
340
330
1E
100
AcDbEntity
  8
0
100
AcDbLine
 10
52.6055
 20
528.798
 30
0.0
 11
56.3981
 21
528.581
 31
0.0
  0
LINE
  5
341
330
1E
100
AcDbEntity
  8
0
100
AcDbLine
 10
53.80600000000001
 20
515.0
 30
0.0
 11
57.166
 21
515.0
 31
0.0
  0
LINE
  5
342
330
1E
100
AcDbEntity
  8
0
100
AcDbLine
 10
56.466
 20
510.0
 30
0.0
 11
60.75
 21
510.0
 31
0.0
  0
LINE
  5
343
330
1E
100
AcDbEntity
  8
0
100
AcDbLine
 10
60.75
 20
510.0
 30
0.0
 11
65.03399999999999
 21
510.0
 31
0.0
  0
LINE
  5
344
330
1E
100
AcDbEntity
  8
0
100
AcDbLine
 10
57.166
 20
515.0
 30
0.0
 11
60.75
 21
515.0
 31
0.0
  0
LINE
  5
345
330
1E
100
AcDbEntity
  8
0
100
AcDbLine
 10
64.334
 20
515.0
 30
0.0
 11
67.694
 21
515.0
 31
0.0
  0
LINE
  5
346
330
1E
100
AcDbEntity
  8
0
100
AcDbLine
 10
65.03399999999999
 20
510.0
 30
0.0
 11
68.97800000000001
 21
510.0
 31
0.0
  0
LINE
  5
349
330
1E
100
AcDbEntity
  8
0
100
AcDbLine
 10
72.446
 20
510.0
 30
0.0
 11
75.098
 21
510.0
 31
0.0
  0
LINE
  5
34A
330
1E
100
AcDbEntity
  8
0
100
AcDbLine
 10
68.97800000000001
 20
510.0
 30
0.0
 11
72.446
 21
510.0
 31
0.0
  0
LINE
  5
34C
330
1E
100
AcDbEntity
  8
0
100
AcDbLine
 10
75.098
 20
510.0
 30
0.0
 11
76.73
 21
510.0
 31
0.0
  0
LINE
  5
34E
330
1E
100
AcDbEntity
  8
0
100
AcDbLine
 10
74.24600000000001
 20
515.0
 30
0.0
 11
74.75
 21
515.0
 31
0.0
  0
LINE
  5
34F
330
1E
100
AcDbEntity
  8
0
100
AcDbLine
 10
74.75
 20
510.0
 30
0.0
 11
74.75
 21
515.0
 31
0.0
  0
LINE
  5
350
330
1E
100
AcDbEntity
  8
0
100
AcDbLine
 10
72.902
 20
515.0
 30
0.0
 11
74.24600000000001
 21
515.0
 31
0.0
  0
LINE
  5
351
330
1E
100
AcDbEntity
  8
0
100
AcDbLine
 10
70.66199999999999
 20
515.0
 30
0.0
 11
72.902
 21
515.0
 31
0.0
  0
LINE
  5
352
330
1E
100
AcDbEntity
  8
0
100
AcDbLine
 10
67.694
 20
515.0
 30
0.0
 11
70.66199999999999
 21
515.0
 31
0.0
  0
LINE
  5
353
330
1E
100
AcDbEntity
  8
0
100
AcDbLine
 10
74.75
 20
515.0
 30
0.0
 11
75.7395
 21
515.0
 31
0.0
  0
LINE
  5
354
330
1E
100
AcDbEntity
  8
0
100
AcDbLine
 10
74.75
 20
515.0
 30
0.0
 11
74.75
 21
510.0
 31
0.0
  0
LINE
  5
355
330
1E
100
AcDbEntity
  8
0
100
AcDbLine
 10
76.73
 20
510.0
 30
0.0
 11
77.342
 21
510.0
 31
0.0
  0
LINE
  5
356
330
1E
100
AcDbEntity
  8
0
100
AcDbLine
 10
77.342
 20
510.0
 30
0.0
 11
77.75
 21
509.4
 31
0.0
  0
LINE
  5
357
330
1E
100
AcDbEntity
  8
0
100
AcDbLine
 10
118.25
 20
499.744
 30
0.0
 11
118.25
 21
503.008
 31
0.0
  0
LINE
  5
358
330
1E
100
AcDbEntity
  8
0
100
AcDbLine
 10
118.25
 20
499.744
 30
0.0
 11
118.25
 21
496.032
 31
0.0
  0
LINE
  5
359
330
1E
100
AcDbEntity
  8
0
100
AcDbLine
 10
88.25000000000001
 20
499.744
 30
0.0
 11
88.25000000000001
 21
503.008
 31
0.0
  0
LINE
  5
35A
330
1E
100
AcDbEntity
  8
0
100
AcDbLine
 10
88.25000000000001
 20
499.744
 30
0.0
 11
88.25000000000001
 21
496.032
 31
0.0
  0
LINE
  5
35B
330
1E
100
AcDbEntity
  8
0
100
AcDbLine
 10
88.25000000000001
 20
505.5039999999999
 30
0.0
 11
88.25000000000001
 21
507.04
 31
0.0
  0
LINE
  5
35C
330
1E
100
AcDbEntity
  8
0
100
AcDbLine
 10
88.25000000000001
 20
505.5039999999999
 30
0.0
 11
88.25000000000001
 21
503.008
 31
0.0
  0
LINE
  5
35D
330
1E
100
AcDbEntity
  8
0
100
AcDbLine
 10
118.25
 20
505.5039999999999
 30
0.0
 11
118.25
 21
507.04
 31
0.0
  0
LINE
  5
35E
330
1E
100
AcDbEntity
  8
0
100
AcDbLine
 10
118.25
 20
505.5039999999999
 30
0.0
 11
118.25
 21
503.008
 31
0.0
  0
LINE
  5
35F
330
1E
100
AcDbEntity
  8
0
100
AcDbLine
 10
118.25
 20
503.008
 30
0.0
 11
118.25
 21
505.5039999999999
 31
0.0
  0
LINE
  5
360
330
1E
100
AcDbEntity
  8
0
100
AcDbLine
 10
118.25
 20
503.008
 30
0.0
 11
118.25
 21
499.744
 31
0.0
  0
LINE
  5
361
330
1E
100
AcDbEntity
  8
0
100
AcDbLine
 10
88.25000000000001
 20
503.008
 30
0.0
 11
88.25000000000001
 21
505.5039999999999
 31
0.0
  0
LINE
  5
362
330
1E
100
AcDbEntity
  8
0
100
AcDbLine
 10
88.25000000000001
 20
503.008
 30
0.0
 11
88.25000000000001
 21
499.744
 31
0.0
  0
LINE
  5
363
330
1E
100
AcDbEntity
  8
0
100
AcDbLine
 10
118.25
 20
500.016
 30
0.0
 11
118.25
 21
496.114
 31
0.0
  0
LINE
  5
364
330
1E
100
AcDbEntity
  8
0
100
AcDbLine
 10
118.25
 20
503.265
 30
0.0
 11
118.25
 21
500.016
 31
0.0
  0
LINE
  5
365
330
1E
100
AcDbEntity
  8
0
100
AcDbLine
 10
88.25000000000001
 20
507.04
 30
0.0
 11
88.25000000000001
 21
507.6159999999999
 31
0.0
  0
LINE
  5
366
330
1E
100
AcDbEntity
  8
0
100
AcDbLine
 10
88.25000000000001
 20
507.04
 30
0.0
 11
88.25000000000001
 21
505.5039999999999
 31
0.0
  0
LINE
  5
367
330
1E
100
AcDbEntity
  8
0
100
AcDbLine
 10
88.25000000000001
 20
507.6159999999999
 30
0.0
 11
89.0192
 21
508.0
 31
0.0
  0
LINE
  5
368
330
1E
100
AcDbEntity
  8
0
100
AcDbLine
 10
88.25000000000001
 20
507.6159999999999
 30
0.0
 11
88.25000000000001
 21
507.04
 31
0.0
  0
LINE
  5
369
330
1E
100
AcDbEntity
  8
0
100
AcDbLine
 10
89.0192
 20
508.0
 30
0.0
 11
117.481
 21
508.0
 31
0.0
  0
LINE
  5
36A
330
1E
100
AcDbEntity
  8
0
100
AcDbLine
 10
118.25
 20
507.04
 30
0.0
 11
118.25
 21
507.6159999999999
 31
0.0
  0
LINE
  5
36B
330
1E
100
AcDbEntity
  8
0
100
AcDbLine
 10
118.25
 20
507.04
 30
0.0
 11
118.25
 21
505.5039999999999
 31
0.0
  0
LINE
  5
36C
330
1E
100
AcDbEntity
  8
0
100
AcDbLine
 10
117.481
 20
508.0
 30
0.0
 11
118.25
 21
507.6159999999999
 31
0.0
  0
LINE
  5
36D
330
1E
100
AcDbEntity
  8
0
100
AcDbLine
 10
118.25
 20
505.8349999999999
 30
0.0
 11
118.25
 21
503.265
 31
0.0
  0
LINE
  5
36E
330
1E
100
AcDbEntity
  8
0
100
AcDbLine
 10
118.25
 20
507.6159999999999
 30
0.0
 11
118.25
 21
508.0159999999999
 31
0.0
  0
LINE
  5
36F
330
1E
100
AcDbEntity
  8
0
100
AcDbLine
 10
118.25
 20
507.6159999999999
 30
0.0
 11
118.25
 21
507.04
 31
0.0
  0
LINE
  5
370
330
1E
100
AcDbEntity
  8
0
100
AcDbLine
 10
118.25
 20
508.0159999999999
 30
0.0
 11
118.25
 21
507.3649999999999
 31
0.0
  0
LINE
  5
371
330
1E
100
AcDbEntity
  8
0
100
AcDbLine
 10
118.25
 20
508.0159999999999
 30
0.0
 11
123.75
 21
508.0159999999999
 31
0.0
  0
LINE
  5
372
330
1E
100
AcDbEntity
  8
0
100
AcDbLine
 10
147.75
 20
508.0159999999999
 30
0.0
 11
158.25
 21
508.0159999999999
 31
0.0
  0
LINE
  5
373
330
1E
100
AcDbEntity
  8
0
100
AcDbLine
 10
118.25
 20
507.3649999999999
 30
0.0
 11
118.25
 21
505.8349999999999
 31
0.0
  0
LINE
  5
374
330
1E
100
AcDbEntity
  8
0
100
AcDbLine
 10
158.25
 20
508.0159999999999
 30
0.0
 11
161.25
 21
508.0159999999999
 31
0.0
  0
LINE
  5
375
330
1E
100
AcDbEntity
  8
0
100
AcDbLine
 10
161.25
 20
499.5031428571429
 30
0.0
 11
161.25
 21
500.016
 31
0.0
  0
LINE
  5
379
330
1E
100
AcDbEntity
  8
0
100
AcDbLine
 10
161.25
 20
500.016
 30
0.0
 11
161.25
 21
503.265
 31
0.0
  0
LINE
  5
37A
330
1E
100
AcDbEntity
  8
0
100
AcDbLine
 10
161.25
 20
503.265
 30
0.0
 11
161.25
 21
505.8349999999999
 31
0.0
  0
LINE
  5
37B
330
1E
100
AcDbEntity
  8
0
100
AcDbLine
 10
163.05
 20
501.508
 30
0.0
 11
165.7499999999999
 21
503.3269999999999
 31
0.0
  0
LINE
  5
383
330
1E
100
AcDbEntity
  8
0
100
AcDbLine
 10
178.75
 20
503.3269999999999
 30
0.0
 11
181.4499999999999
 21
501.508
 31
0.0
  0
LINE
  5
384
330
1E
100
AcDbEntity
  8
0
100
AcDbLine
 10
175.65
 20
504.366
 30
0.0
 11
178.75
 21
503.3269999999999
 31
0.0
  0
LINE
  5
385
330
1E
100
AcDbEntity
  8
0
100
AcDbLine
 10
181.4499999999999
 20
501.508
 30
0.0
 11
183.55
 21
499.169
 31
0.0
  0
LINE
  5
386
330
1E
100
AcDbEntity
  8
0
100
AcDbLine
 10
183.55
 20
499.169
 30
0.0
 11
184.75
 21
496.485
 31
0.0
  0
LINE
  5
387
330
1E
100
AcDbEntity
  8
0
100
AcDbLine
 10
165.7499999999999
 20
503.3269999999999
 30
0.0
 11
168.8499999999999
 21
504.366
 31
0.0
  0
LINE
  5
388
330
1E
100
AcDbEntity
  8
0
100
AcDbLine
 10
164.1159999999999
 20
506.2549999999999
 30
0.0
 11
164.246667593767
 21
502.3141993900229
 31
0.0
  0
LINE
  5
389
330
1E
100
AcDbEntity
  8
0
100
AcDbLine
 10
164.1159999999999
 20
506.2549999999999
 30
0.0
 11
164.1859999999999
 21
516.338
 31
0.0
  0
LINE
  5
38A
330
1E
100
AcDbEntity
  8
0
100
AcDbLine
 10
161.25
 20
507.3649999999999
 30
0.0
 11
161.25
 21
508.0159999999999
 31
0.0
  0
LINE
  5
38B
330
1E
100
AcDbEntity
  8
0
100
AcDbLine
 10
161.25
 20
505.8349999999999
 30
0.0
 11
161.25
 21
507.3649999999999
 31
0.0
  0
LINE
  5
38C
330
1E
100
AcDbEntity
  8
0
100
AcDbLine
 10
180.1149999999999
 20
506.12
 30
0.0
 11
180.241563356099
 21
502.3221282426869
 31
0.0
  0
LINE
  5
38D
330
1E
100
AcDbEntity
  8
0
100
AcDbLine
 10
180.1149999999999
 20
506.12
 30
0.0
 11
180.1849999999999
 21
516.201
 31
0.0
  0
LINE
  5
38E
330
1E
100
AcDbEntity
  8
0
100
AcDbLine
 10
172.25
 20
504.799
 30
0.0
 11
175.65
 21
504.366
 31
0.0
  0
LINE
  5
38F
330
1E
100
AcDbEntity
  8
0
100
AcDbLine
 10
168.8499999999999
 20
504.366
 30
0.0
 11
172.25
 21
504.799
 31
0.0
  0
LINE
  5
390
330
1E
100
AcDbEntity
  8
0
100
AcDbLine
 10
160.9499999999999
 20
499.169
 30
0.0
 11
163.05
 21
501.508
 31
0.0
  0
LINE
  5
394
330
1E
100
AcDbEntity
  8
0
100
AcDbLine
 10
251.449
 20
506.7369999999999
 30
0.0
 11
286.8179999999999
 21
499.863
 31
0.0
  0
LINE
  5
395
330
1E
100
AcDbEntity
  8
0
100
AcDbLine
 10
352.2459999999999
 20
499.101
 30
0.0
 11
354.1539999999999
 21
498.353
 31
0.0
  0
LINE
  5
396
330
1E
100
AcDbEntity
  8
0
100
AcDbLine
 10
338.7699999999999
 20
503.9439999999999
 30
0.0
 11
352.2459999999999
 21
499.101
 31
0.0
  0
LINE
  5
397
330
1E
100
AcDbEntity
  8
0
100
AcDbLine
 10
354.1539999999999
 20
498.353
 30
0.0
 11
355.839
 21
497.093
 31
0.0
  0
LINE
  5
398
330
1E
100
AcDbEntity
  8
0
100
AcDbLine
 10
321.774
 20
508.827
 30
0.0
 11
338.7699999999999
 21
503.9439999999999
 31
0.0
  0
LINE
  5
399
330
1E
100
AcDbEntity
  8
0
100
AcDbLine
 10
286.8179999999999
 20
499.863
 30
0.0
 11
317.8679999999999
 21
493.354
 31
0.0
  0
LINE
  5
39A
330
1E
100
AcDbEntity
  8
0
100
AcDbLine
 10
227.7499999999999
 20
509.4
 30
0.0
 11
227.7499999999999
 21
498.0
 31
0.0
  0
LINE
  5
3A0
330
1E
100
AcDbEntity
  8
0
100
AcDbLine
 10
194.1579999999999
 20
510.0
 30
0.0
 11
194.77
 21
510.0
 31
0.0
  0
LINE
  5
3A1
330
1E
100
AcDbEntity
  8
0
100
AcDbLine
 10
194.77
 20
510.0
 30
0.0
 11
196.402
 21
510.0
 31
0.0
  0
LINE
  5
3A2
330
1E
100
AcDbEntity
  8
0
100
AcDbLine
 10
196.75
 20
510.0
 30
0.0
 11
196.75
 21
515.0
 31
0.0
  0
LINE
  5
3A3
330
1E
100
AcDbEntity
  8
0
100
AcDbLine
 10
196.402
 20
510.0
 30
0.0
 11
199.054
 21
510.0
 31
0.0
  0
LINE
  5
3A4
330
1E
100
AcDbEntity
  8
0
100
AcDbLine
 10
199.054
 20
510.0
 30
0.0
 11
202.522
 21
510.0
 31
0.0
  0
LINE
  5
3A5
330
1E
100
AcDbEntity
  8
0
100
AcDbLine
 10
224.75
 20
510.0
 30
0.0
 11
224.75
 21
512.736509257945
 31
0.0
  0
LINE
  5
3A6
330
1E
100
AcDbEntity
  8
0
100
AcDbLine
 10
226.73
 20
510.0
 30
0.0
 11
227.342
 21
510.0
 31
0.0
  0
LINE
  5
3A7
330
1E
100
AcDbEntity
  8
0
100
AcDbLine
 10
225.0979999999999
 20
510.0
 30
0.0
 11
226.73
 21
510.0
 31
0.0
  0
LINE
  5
3A8
330
1E
100
AcDbEntity
  8
0
100
AcDbLine
 10
222.446
 20
510.0
 30
0.0
 11
225.0979999999999
 21
510.0
 31
0.0
  0
LINE
  5
3A9
330
1E
100
AcDbEntity
  8
0
100
AcDbLine
 10
218.9779999999999
 20
510.0
 30
0.0
 11
222.446
 21
510.0
 31
0.0
  0
LINE
  5
3AA
330
1E
100
AcDbEntity
  8
0
100
AcDbLine
 10
215.034
 20
510.0
 30
0.0
 11
218.9779999999999
 21
510.0
 31
0.0
  0
LINE
  5
3AB
330
1E
100
AcDbEntity
  8
0
100
AcDbLine
 10
210.7499999999999
 20
510.0
 30
0.0
 11
215.034
 21
510.0
 31
0.0
  0
LINE
  5
3AC
330
1E
100
AcDbEntity
  8
0
100
AcDbLine
 10
202.522
 20
510.0
 30
0.0
 11
206.4659999999999
 21
510.0
 31
0.0
  0
LINE
  5
3AD
330
1E
100
AcDbEntity
  8
0
100
AcDbLine
 10
195.76
 20
515.0
 30
0.0
 11
196.75
 21
515.0
 31
0.0
  0
LINE
  5
3AE
330
1E
100
AcDbEntity
  8
0
100
AcDbLine
 10
195.171
 20
515.0
 30
0.0
 11
195.76
 21
515.0
 31
0.0
  0
LINE
  5
3AF
330
1E
100
AcDbEntity
  8
0
100
AcDbLine
 10
197.254
 20
515.0
 30
0.0
 11
198.5979999999999
 21
515.0
 31
0.0
  0
LINE
  5
3B1
330
1E
100
AcDbEntity
  8
0
100
AcDbLine
 10
203.003
 20
515.0
 30
0.0
 11
206.7079999999999
 21
515.0
 31
0.0
  0
LINE
  5
3B2
330
1E
100
AcDbEntity
  8
0
100
AcDbLine
 10
198.5979999999999
 20
515.0
 30
0.0
 11
200.8379999999999
 21
515.0
 31
0.0
  0
LINE
  5
3B3
330
1E
100
AcDbEntity
  8
0
100
AcDbLine
 10
200.8379999999999
 20
515.0
 30
0.0
 11
203.8059999999999
 21
515.0
 31
0.0
  0
LINE
  5
3B4
330
1E
100
AcDbEntity
  8
0
100
AcDbLine
 10
206.7079999999999
 20
515.0
 30
0.0
 11
210.7499999999999
 21
515.0
 31
0.0
  0
LINE
  5
3B5
330
1E
100
AcDbEntity
  8
0
100
AcDbLine
 10
223.2569999999999
 20
513.072
 30
0.0
 11
251.449
 21
506.7369999999999
 31
0.0
  0
LINE
  5
3B8
330
1E
100
AcDbEntity
  8
0
100
AcDbLine
 10
224.75
 20
512.736509257945
 30
0.0
 11
224.75
 21
510.0
 31
0.0
  0
LINE
  5
3B9
330
1E
100
AcDbEntity
  8
0
100
AcDbLine
 10
214.334
 20
515.0
 30
0.0
 11
216.847241727941
 21
515.0
 31
0.0
  0
LINE
  5
3BA
330
1E
100
AcDbEntity
  8
0
100
AcDbLine
 10
210.7499999999999
 20
515.0
 30
0.0
 11
214.334
 21
515.0
 31
0.0
  0
LINE
  5
3BB
330
1E
100
AcDbEntity
  8
0
100
AcDbLine
 10
203.8059999999999
 20
515.0
 30
0.0
 11
207.166
 21
515.0
 31
0.0
  0
LINE
  5
3BC
330
1E
100
AcDbEntity
  8
0
100
AcDbLine
 10
207.166
 20
515.0
 30
0.0
 11
210.7499999999999
 21
515.0
 31
0.0
  0
LINE
  5
3BD
330
1E
100
AcDbEntity
  8
0
100
AcDbLine
 10
196.75
 20
515.0
 30
0.0
 11
196.75
 21
510.0
 31
0.0
  0
LINE
  5
3BE
330
1E
100
AcDbEntity
  8
0
100
AcDbLine
 10
196.75
 20
515.0
 30
0.0
 11
197.254
 21
515.0
 31
0.0
  0
LINE
  5
3BF
330
1E
100
AcDbEntity
  8
0
100
AcDbLine
 10
206.4659999999999
 20
510.0
 30
0.0
 11
210.7499999999999
 21
510.0
 31
0.0
  0
LINE
  5
3C0
330
1E
100
AcDbEntity
  8
0
100
AcDbLine
 10
227.342
 20
510.0
 30
0.0
 11
227.7499999999999
 21
509.4
 31
0.0
  0
LINE
  5
3C1
330
1E
100
AcDbEntity
  8
0
100
AcDbLine
 10
193.75
 20
509.4
 30
0.0
 11
193.75
 21
498.0
 31
0.0
  0
LINE
  5
3C2
330
1E
100
AcDbEntity
  8
0
100
AcDbLine
 10
193.75
 20
509.4
 30
0.0
 11
194.1579999999999
 21
510.0
 31
0.0
  0
LINE
  5
3C3
330
1E
100
AcDbEntity
  8
0
100
AcDbLine
 10
77.75
 20
509.4
 30
0.0
 11
77.75
 21
498.0
 31
0.0
  0
LINE
  5
3C4
330
1E
100
AcDbEntity
  8
0
100
AcDbLine
 10
76.32899999999999
 20
515.0
 30
0.0
 11
76.75
 21
515.1
 31
0.0
  0
LINE
  5
3C5
330
1E
100
AcDbEntity
  8
0
100
AcDbLine
 10
75.7395
 20
515.0
 30
0.0
 11
76.32899999999999
 21
515.0
 31
0.0
  0
LINE
  5
3C6
330
1E
100
AcDbEntity
  8
0
100
AcDbLine
 10
194.7499999999999
 20
515.1
 30
0.0
 11
194.7499999999999
 21
515.24
 31
0.0
  0
LINE
  5
3C7
330
1E
100
AcDbEntity
  8
0
100
AcDbLine
 10
194.7499999999999
 20
515.1
 30
0.0
 11
195.171
 21
515.0
 31
0.0
  0
LINE
  5
3C8
330
1E
100
AcDbEntity
  8
0
100
AcDbLine
 10
202.605
 20
515.202
 30
0.0
 11
206.3979999999999
 21
515.4189999999999
 31
0.0
  0
LINE
  5
3CB
330
1E
100
AcDbEntity
  8
0
100
AcDbLine
 10
76.75
 20
515.1
 30
0.0
 11
76.75
 21
515.24
 31
0.0
  0
LINE
  5
3CE
330
1E
100
AcDbEntity
  8
0
100
AcDbLine
 10
64.79210000000001
 20
515.0
 30
0.0
 11
68.4973
 21
515.0
 31
0.0
  0
LINE
  5
3D2
330
1E
100
AcDbEntity
  8
0
100
AcDbLine
 10
194.7499999999999
 20
515.24
 30
0.0
 11
194.7499999999999
 21
516.0
 31
0.0
  0
LINE
  5
3D3
330
1E
100
AcDbEntity
  8
0
100
AcDbLine
 10
194.7499999999999
 20
515.24
 30
0.0
 11
194.7499999999999
 21
515.1
 31
0.0
  0
LINE
  5
3D6
330
1E
100
AcDbEntity
  8
0
100
AcDbLine
 10
76.75
 20
515.24
 30
0.0
 11
76.75
 21
515.1
 31
0.0
  0
LINE
  5
3D7
330
1E
100
AcDbEntity
  8
0
100
AcDbLine
 10
76.75
 20
515.24
 30
0.0
 11
76.75
 21
516.0
 31
0.0
  0
LINE
  5
3D8
330
1E
100
AcDbEntity
  8
0
100
AcDbLine
 10
68.8945
 20
515.202
 30
0.0
 11
72.70789999999999
 21
515.364
 31
0.0
  0
LINE
  5
3DA
330
1E
100
AcDbEntity
  8
0
100
AcDbLine
 10
60.75
 20
515.0
 30
0.0
 11
64.79210000000001
 21
515.0
 31
0.0
  0
LINE
  5
3DB
330
1E
100
AcDbEntity
  8
0
100
AcDbLine
 10
60.75
 20
515.0
 30
0.0
 11
64.334
 21
515.0
 31
0.0
  0
LINE
  5
3DC
330
1E
100
AcDbEntity
  8
0
100
AcDbLine
 10
58.7725
 20
528.0
 30
0.0
 11
60.75
 21
528.0
 31
0.0
  0
LINE
  5
3DD
330
1E
100
AcDbEntity
  8
0
100
AcDbLine
 10
60.75
 20
516.0
 30
0.0
 11
62.7275
 21
516.0
 31
0.0
  0
LINE
  5
3DF
330
1E
100
AcDbEntity
  8
0
100
AcDbLine
 10
62.7275
 20
528.0
 30
0.0
 11
65.1019
 21
528.581
 31
0.0
  0
LINE
  5
3E0
330
1E
100
AcDbEntity
  8
0
100
AcDbLine
 10
62.7275
 20
516.0
 30
0.0
 11
65.1019
 21
515.4189999999999
 31
0.0
  0
LINE
  5
3E1
330
1E
100
AcDbEntity
  8
0
100
AcDbLine
 10
75.37869999999999
 20
516.0
 30
0.0
 11
76.4132
 21
516.0
 31
0.0
  0
LINE
  5
3E2
330
1E
100
AcDbEntity
  8
0
100
AcDbLine
 10
65.1019
 20
515.4189999999999
 30
0.0
 11
68.8945
 21
515.202
 31
0.0
  0
LINE
  5
3E3
330
1E
100
AcDbEntity
  8
0
100
AcDbLine
 10
72.70789999999999
 20
515.364
 30
0.0
 11
75.37869999999999
 21
516.0
 31
0.0
  0
LINE
  5
3E4
330
1E
100
AcDbEntity
  8
0
100
AcDbLine
 10
290.7239999999999
 20
515.336
 30
0.0
 11
321.774
 21
508.827
 31
0.0
  0
LINE
  5
3E5
330
1E
100
AcDbEntity
  8
0
100
AcDbLine
 10
206.3979999999999
 20
515.4189999999999
 30
0.0
 11
208.773
 21
516.0
 31
0.0
  0
LINE
  5
3E7
330
1E
100
AcDbEntity
  8
0
100
AcDbLine
 10
198.792
 20
515.364
 30
0.0
 11
202.605
 21
515.202
 31
0.0
  0
LINE
  5
3E9
330
1E
100
AcDbEntity
  8
0
100
AcDbLine
 10
195.087
 20
516.0
 30
0.0
 11
196.1209999999999
 21
516.0
 31
0.0
  0
LINE
  5
3EA
330
1E
100
AcDbEntity
  8
0
100
AcDbLine
 10
194.7499999999999
 20
516.0
 30
0.0
 11
194.7499999999999
 21
515.24
 31
0.0
  0
LINE
  5
3EB
330
1E
100
AcDbEntity
  8
0
100
AcDbLine
 10
194.7499999999999
 20
516.0
 30
0.0
 11
194.7499999999999
 21
517.0
 31
0.0
  0
LINE
  5
3EC
330
1E
100
AcDbEntity
  8
0
100
AcDbLine
 10
194.7499999999999
 20
516.0
 30
0.0
 11
195.087
 21
516.0
 31
0.0
  0
LINE
  5
3EE
330
1E
100
AcDbEntity
  8
0
100
AcDbLine
 10
208.773
 20
516.0
 30
0.0
 11
210.7499999999999
 21
516.0
 31
0.0
  0
LINE
  5
3EF
330
1E
100
AcDbEntity
  8
0
100
AcDbLine
 10
196.1209999999999
 20
516.0
 30
0.0
 11
198.792
 21
515.364
 31
0.0
  0
LINE
  5
3F1
330
1E
100
AcDbEntity
  8
0
100
AcDbLine
 10
210.7499999999999
 20
516.0
 30
0.0
 11
212.727
 21
516.0
 31
0.0
  0
LINE
  5
3F3
330
1E
100
AcDbEntity
  8
0
100
AcDbLine
 10
212.727
 20
516.0
 30
0.0
 11
215.1019999999999
 21
515.4189999999999
 31
0.0
  0
LINE
  5
3F4
330
1E
100
AcDbEntity
  8
0
100
AcDbLine
 10
215.1019999999999
 20
515.4189999999999
 30
0.0
 11
215.5369837563899
 21
515.394114296036
 31
0.0
  0
LINE
  5
3F5
330
1E
100
AcDbEntity
  8
0
100
AcDbLine
 10
76.4132
 20
516.0
 30
0.0
 11
76.75
 21
516.0
 31
0.0
  0
LINE
  5
3F6
330
1E
100
AcDbEntity
  8
0
100
AcDbLine
 10
76.3382
 20
527.0
 30
0.0
 11
76.75
 21
527.0
 31
0.0
  0
LINE
  5
3F7
330
1E
100
AcDbEntity
  8
0
100
AcDbLine
 10
76.4132
 20
528.0
 30
0.0
 11
76.75
 21
528.0
 31
0.0
  0
LINE
  5
3F8
330
1E
100
AcDbEntity
  8
0
100
AcDbLine
 10
76.4132
 20
528.0
 30
0.0
 11
76.75
 21
527.0
 31
0.0
  0
LINE
  5
3F9
330
1E
100
AcDbEntity
  8
0
100
AcDbLine
 10
76.75
 20
528.0
 30
0.0
 11
76.75
 21
527.0
 31
0.0
  0
LINE
  5
3FA
330
1E
100
AcDbEntity
  8
0
100
AcDbLine
 10
76.75
 20
528.0
 30
0.0
 11
76.75
 21
528.76
 31
0.0
  0
LINE
  5
3FB
330
1E
100
AcDbEntity
  8
0
100
AcDbLine
 10
76.75
 20
527.0
 30
0.0
 11
76.75
 21
517.0
 31
0.0
  0
LINE
  5
3FC
330
1E
100
AcDbEntity
  8
0
100
AcDbLine
 10
76.75
 20
527.0
 30
0.0
 11
76.75
 21
528.0
 31
0.0
  0
LINE
  5
3FD
330
1E
100
AcDbEntity
  8
0
100
AcDbLine
 10
180.1849999999999
 20
516.201
 30
0.0
 11
180.24
 21
524.654
 31
0.0
  0
LINE
  5
3FE
330
1E
100
AcDbEntity
  8
0
100
AcDbLine
 10
164.1859999999999
 20
516.338
 30
0.0
 11
164.24
 21
524.7899999999999
 31
0.0
  0
LINE
  5
3FF
330
1E
100
AcDbEntity
  8
0
100
AcDbLine
 10
194.32
 20
521.7759999999999
 30
0.0
 11
223.2569999999999
 21
513.072
 31
0.0
  0
LINE
  5
400
330
1E
100
AcDbEntity
  8
0
100
AcDbLine
 10
192.421
 20
522.518
 30
0.0
 11
194.32
 21
521.7759999999999
 31
0.0
  0
LINE
  5
401
330
1E
100
AcDbEntity
  8
0
100
AcDbLine
 10
180.24
 20
524.654
 30
0.0
 11
180.2809999999999
 21
531.587
 31
0.0
  0
LINE
  5
402
330
1E
100
AcDbEntity
  8
0
100
AcDbLine
 10
164.24
 20
524.7899999999999
 30
0.0
 11
164.282
 21
531.7230000000001
 31
0.0
  0
LINE
  5
403
330
1E
100
AcDbEntity
  8
0
100
AcDbLine
 10
255.3549999999999
 20
522.21
 30
0.0
 11
290.7239999999999
 21
515.336
 31
0.0
  0
LINE
  5
404
330
1E
100
AcDbEntity
  8
0
100
AcDbLine
 10
194.7499999999999
 20
521.646659709023
 30
0.0
 11
194.7499999999999
 21
517.0
 31
0.0
  0
LINE
  5
405
330
1E
100
AcDbEntity
  8
0
100
AcDbLine
 10
194.7499999999999
 20
517.0
 30
0.0
 11
194.7499999999999
 21
521.646659709023
 31
0.0
  0
LINE
  5
406
330
1E
100
AcDbEntity
  8
0
100
AcDbLine
 10
194.7499999999999
 20
517.0
 30
0.0
 11
194.7499999999999
 21
516.0
 31
0.0
  0
LINE
  5
407
330
1E
100
AcDbEntity
  8
0
100
AcDbLine
 10
76.75
 20
517.0
 30
0.0
 11
76.75
 21
516.0
 31
0.0
  0
LINE
  5
408
330
1E
100
AcDbEntity
  8
0
100
AcDbLine
 10
76.75
 20
517.0
 30
0.0
 11
76.75
 21
527.0
 31
0.0
  0
LINE
  5
409
330
1E
100
AcDbEntity
  8
0
100
AcDbLine
 10
76.75
 20
516.0
 30
0.0
 11
76.75
 21
515.24
 31
0.0
  0
LINE
  5
40A
330
1E
100
AcDbEntity
  8
0
100
AcDbLine
 10
76.75
 20
516.0
 30
0.0
 11
76.75
 21
517.0
 31
0.0
  0
LINE
  5
40B
330
1E
100
AcDbEntity
  8
0
100
AcDbLine
 10
75.37869999999999
 20
528.0
 30
0.0
 11
76.3382
 21
527.0
 31
0.0
  0
LINE
  5
40C
330
1E
100
AcDbEntity
  8
0
100
AcDbLine
 10
75.37869999999999
 20
528.0
 30
0.0
 11
76.4132
 21
528.0
 31
0.0
  0
LINE
  5
40D
330
1E
100
AcDbEntity
  8
0
100
AcDbLine
 10
75.37869999999999
 20
528.0
 30
0.0
 11
76.75
 21
527.0
 31
0.0
  0
LINE
  5
40E
330
1E
100
AcDbEntity
  8
0
100
AcDbLine
 10
227.2499999999999
 20
528.519
 30
0.0
 11
255.3549999999999
 21
522.21
 31
0.0
  0
LINE
  5
40F
330
1E
100
AcDbEntity
  8
0
100
AcDbLine
 10
180.262681071288
 20
528.489313835043
 30
0.0
 11
192.421
 21
522.518
 31
0.0
  0
LINE
  5
410
330
1E
100
AcDbEntity
  8
0
100
AcDbLine
 10
65.1019
 20
528.581
 30
0.0
 11
68.8945
 21
528.798
 31
0.0
  0
LINE
  5
411
330
1E
100
AcDbEntity
  8
0
100
AcDbLine
 10
65.1019
 20
528.581
 30
0.0
 11
68.4973
 21
529.0
 31
0.0
  0
LINE
  5
412
330
1E
100
AcDbEntity
  8
0
100
AcDbLine
 10
60.75
 20
528.0
 30
0.0
 11
60.75
 21
528.7
 31
0.0
  0
LINE
  5
413
330
1E
100
AcDbEntity
  8
0
100
AcDbLine
 10
60.75
 20
528.0
 30
0.0
 11
65.1019
 21
528.581
 31
0.0
  0
LINE
  5
414
330
1E
100
AcDbEntity
  8
0
100
AcDbLine
 10
60.75
 20
528.0
 30
0.0
 11
62.7275
 21
528.0
 31
0.0
  0
LINE
  5
415
330
1E
100
AcDbEntity
  8
0
100
AcDbLine
 10
58.7725
 20
516.0
 30
0.0
 11
60.75
 21
516.0
 31
0.0
  0
LINE
  5
41A
330
1E
100
AcDbEntity
  8
0
100
AcDbLine
 10
56.3981
 20
515.4189999999999
 30
0.0
 11
58.7725
 21
516.0
 31
0.0
  0
LINE
  5
41B
330
1E
100
AcDbEntity
  8
0
100
AcDbLine
 10
226.75
 20
528.6692770083099
 30
0.0
 11
226.75
 21
528.76
 31
0.0
  0
LINE
  5
41C
330
1E
100
AcDbEntity
  8
0
100
AcDbLine
 10
75.3185
 20
528.7
 30
0.0
 11
76.75
 21
528.76
 31
0.0
  0
LINE
  5
41D
330
1E
100
AcDbEntity
  8
0
100
AcDbLine
 10
75.3185
 20
528.7
 30
0.0
 11
76.4132
 21
528.0
 31
0.0
  0
LINE
  5
41E
330
1E
100
AcDbEntity
  8
0
100
AcDbLine
 10
72.70789999999999
 20
528.636
 30
0.0
 11
75.37869999999999
 21
528.0
 31
0.0
  0
LINE
  5
41F
330
1E
100
AcDbEntity
  8
0
100
AcDbLine
 10
72.70789999999999
 20
528.636
 30
0.0
 11
76.4132
 21
528.0
 31
0.0
  0
LINE
  5
420
330
1E
100
AcDbEntity
  8
0
100
AcDbLine
 10
72.70789999999999
 20
528.636
 30
0.0
 11
75.3185
 21
528.7
 31
0.0
  0
LINE
  5
421
330
1E
100
AcDbEntity
  8
0
100
AcDbLine
 10
226.485079352885
 20
528.7488999728859
 30
0.0
 11
226.75
 21
528.76
 31
0.0
  0
LINE
  5
422
330
1E
100
AcDbEntity
  8
0
100
AcDbLine
 10
226.75
 20
528.76
 30
0.0
 11
226.75
 21
528.8999999999999
 31
0.0
  0
LINE
  5
423
330
1E
100
AcDbEntity
  8
0
100
AcDbLine
 10
226.75
 20
528.76
 30
0.0
 11
226.75
 21
528.6692770083099
 31
0.0
  0
LINE
  5
424
330
1E
100
AcDbEntity
  8
0
100
AcDbLine
 10
76.75
 20
528.76
 30
0.0
 11
76.75
 21
528.0
 31
0.0
  0
LINE
  5
425
330
1E
100
AcDbEntity
  8
0
100
AcDbLine
 10
68.4973
 20
529.0
 30
0.0
 11
71.78149999999999
 21
529.0
 31
0.0
  0
LINE
  5
426
330
1E
100
AcDbEntity
  8
0
100
AcDbLine
 10
68.4973
 20
529.0
 30
0.0
 11
68.8945
 21
528.798
 31
0.0
  0
LINE
  5
427
330
1E
100
AcDbEntity
  8
0
100
AcDbLine
 10
226.3086160987239
 20
528.80193671271
 30
0.0
 11
226.75
 21
528.76
 31
0.0
  0
LINE
  5
428
330
1E
100
AcDbEntity
  8
0
100
AcDbLine
 10
226.75
 20
528.8999999999999
 30
0.0
 11
226.75
 21
528.76
 31
0.0
  0
LINE
  5
429
330
1E
100
AcDbEntity
  8
0
100
AcDbLine
 10
83.75
 20
529.0
 30
0.0
 11
88.84999999999999
 21
529.0
 31
0.0
  0
LINE
  5
42A
330
1E
100
AcDbEntity
  8
0
100
AcDbLine
 10
88.84999999999999
 20
529.0
 30
0.0
 11
92.05
 21
529.0
 31
0.0
  0
LINE
  5
42B
330
1E
100
AcDbEntity
  8
0
100
AcDbLine
 10
225.649622119816
 20
529.0
 30
0.0
 11
225.739
 21
529.0
 31
0.0
  0
LINE
  5
42C
330
1E
100
AcDbEntity
  8
0
100
AcDbLine
 10
225.739
 20
529.0
 30
0.0
 11
226.75
 21
528.76
 31
0.0
  0
LINE
  5
42D
330
1E
100
AcDbEntity
  8
0
100
AcDbLine
 10
225.739
 20
529.0
 30
0.0
 11
226.329
 21
529.0
 31
0.0
  0
LINE
  5
42E
330
1E
100
AcDbEntity
  8
0
100
AcDbLine
 10
233.7499999999999
 20
529.0
 30
0.0
 11
238.85
 21
529.0
 31
0.0
  0
LINE
  5
42F
330
1E
100
AcDbEntity
  8
0
100
AcDbLine
 10
238.85
 20
529.0
 30
0.0
 11
242.05
 21
529.0
 31
0.0
  0
LINE
  5
430
330
1E
100
AcDbEntity
  8
0
100
AcDbLine
 10
243.25
 20
529.0
 30
0.0
 11
244.2499999999999
 21
529.4999999999999
 31
0.0
  0
LINE
  5
431
330
1E
100
AcDbEntity
  8
0
100
AcDbLine
 10
242.05
 20
529.0
 30
0.0
 11
243.25
 21
529.0
 31
0.0
  0
LINE
  5
432
330
1E
100
AcDbEntity
  8
0
100
AcDbLine
 10
226.9499999999999
 20
529.0
 30
0.0
 11
233.7499999999999
 21
529.0
 31
0.0
  0
LINE
  5
433
330
1E
100
AcDbEntity
  8
0
100
AcDbLine
 10
226.329
 20
529.0
 30
0.0
 11
226.9499999999999
 21
529.0
 31
0.0
  0
LINE
  5
434
330
1E
100
AcDbEntity
  8
0
100
AcDbLine
 10
226.329
 20
529.0
 30
0.0
 11
226.75
 21
528.8999999999999
 31
0.0
  0
LINE
  5
435
330
1E
100
AcDbEntity
  8
0
100
AcDbLine
 10
92.05
 20
529.0
 30
0.0
 11
93.25000000000001
 21
529.0
 31
0.0
  0
LINE
  5
436
330
1E
100
AcDbEntity
  8
0
100
AcDbLine
 10
93.25000000000001
 20
529.0
 30
0.0
 11
94.25
 21
529.4999999999999
 31
0.0
  0
LINE
  5
437
330
1E
100
AcDbEntity
  8
0
100
AcDbLine
 10
76.95
 20
529.0
 30
0.0
 11
83.75
 21
529.0
 31
0.0
  0
LINE
  5
438
330
1E
100
AcDbEntity
  8
0
100
AcDbLine
 10
76.32899999999999
 20
529.0
 30
0.0
 11
76.75
 21
528.8999999999999
 31
0.0
  0
LINE
  5
439
330
1E
100
AcDbEntity
  8
0
100
AcDbLine
 10
76.32899999999999
 20
529.0
 30
0.0
 11
76.95
 21
529.0
 31
0.0
  0
LINE
  5
43A
330
1E
100
AcDbEntity
  8
0
100
AcDbLine
 10
75.7395
 20
529.0
 30
0.0
 11
76.75
 21
528.76
 31
0.0
  0
LINE
  5
43B
330
1E
100
AcDbEntity
  8
0
100
AcDbLine
 10
75.7395
 20
529.0
 30
0.0
 11
76.32899999999999
 21
529.0
 31
0.0
  0
LINE
  5
43C
330
1E
100
AcDbEntity
  8
0
100
AcDbLine
 10
76.75
 20
528.8999999999999
 30
0.0
 11
76.75
 21
528.76
 31
0.0
  0
LINE
  5
43D
330
1E
100
AcDbEntity
  8
0
100
AcDbLine
 10
71.78149999999999
 20
529.0
 30
0.0
 11
74.22369999999999
 21
529.0
 31
0.0
  0
LINE
  5
43E
330
1E
100
AcDbEntity
  8
0
100
AcDbLine
 10
71.78149999999999
 20
529.0
 30
0.0
 11
72.70789999999999
 21
528.636
 31
0.0
  0
LINE
  5
43F
330
1E
100
AcDbEntity
  8
0
100
AcDbLine
 10
74.22369999999999
 20
529.0
 30
0.0
 11
75.7395
 21
529.0
 31
0.0
  0
LINE
  5
440
330
1E
100
AcDbEntity
  8
0
100
AcDbLine
 10
74.22369999999999
 20
529.0
 30
0.0
 11
76.75
 21
528.76
 31
0.0
  0
LINE
  5
441
330
1E
100
AcDbEntity
  8
0
100
AcDbLine
 10
74.22369999999999
 20
529.0
 30
0.0
 11
75.3185
 21
528.7
 31
0.0
  0
LINE
  5
442
330
1E
100
AcDbEntity
  8
0
100
AcDbLine
 10
64.79210000000001
 20
529.0
 30
0.0
 11
65.1019
 21
528.581
 31
0.0
  0
LINE
  5
443
330
1E
100
AcDbEntity
  8
0
100
AcDbLine
 10
64.79210000000001
 20
529.0
 30
0.0
 11
68.4973
 21
529.0
 31
0.0
  0
LINE
  5
444
330
1E
100
AcDbEntity
  8
0
100
AcDbLine
 10
68.8945
 20
528.798
 30
0.0
 11
72.70789999999999
 21
528.636
 31
0.0
  0
LINE
  5
445
330
1E
100
AcDbEntity
  8
0
100
AcDbLine
 10
68.8945
 20
528.798
 30
0.0
 11
71.78149999999999
 21
529.0
 31
0.0
  0
LINE
  5
446
330
1E
100
AcDbEntity
  8
0
100
AcDbLine
 10
60.75
 20
529.0
 30
0.0
 11
64.79210000000001
 21
529.0
 31
0.0
  0
LINE
  5
447
330
1E
100
AcDbEntity
  8
0
100
AcDbLine
 10
60.75
 20
529.0
 30
0.0
 11
60.75
 21
528.7
 31
0.0
  0
LINE
  5
448
330
1E
100
AcDbEntity
  8
0
100
AcDbLine
 10
60.75
 20
528.7
 30
0.0
 11
60.75
 21
529.0
 31
0.0
  0
LINE
  5
449
330
1E
100
AcDbEntity
  8
0
100
AcDbLine
 10
60.75
 20
528.7
 30
0.0
 11
65.1019
 21
528.581
 31
0.0
  0
LINE
  5
44A
330
1E
100
AcDbEntity
  8
0
100
AcDbLine
 10
60.75
 20
528.7
 30
0.0
 11
60.75
 21
528.0
 31
0.0
  0
LINE
  5
44B
330
1E
100
AcDbEntity
  8
0
100
AcDbLine
 10
56.7079
 20
529.0
 30
0.0
 11
60.75
 21
529.0
 31
0.0
  0
LINE
  5
44C
330
1E
100
AcDbEntity
  8
0
100
AcDbLine
 10
56.3981
 20
528.581
 30
0.0
 11
56.7079
 21
529.0
 31
0.0
  0
LINE
  5
44D
330
1E
100
AcDbEntity
  8
0
100
AcDbLine
 10
56.3981
 20
528.581
 30
0.0
 11
58.7725
 21
528.0
 31
0.0
  0
LINE
  5
44E
330
1E
100
AcDbEntity
  8
0
100
AcDbLine
 10
56.3981
 20
528.581
 30
0.0
 11
60.75
 21
528.7
 31
0.0
  0
LINE
  5
44F
330
1E
100
AcDbEntity
  8
0
100
AcDbLine
 10
56.3981
 20
528.581
 30
0.0
 11
60.75
 21
528.0
 31
0.0
  0
LINE
  5
450
330
1E
100
AcDbEntity
  8
0
100
AcDbLine
 10
53.0026
 20
529.0
 30
0.0
 11
56.7079
 21
529.0
 31
0.0
  0
LINE
  5
451
330
1E
100
AcDbEntity
  8
0
100
AcDbLine
 10
53.0026
 20
529.0
 30
0.0
 11
56.3981
 21
528.581
 31
0.0
  0
LINE
  5
452
330
1E
100
AcDbEntity
  8
0
100
AcDbLine
 10
52.14999999999999
 20
529.4999999999999
 30
0.0
 11
60.75
 21
529.4999999999999
 31
0.0
  0
LINE
  5
453
330
1E
100
AcDbEntity
  8
0
100
AcDbLine
 10
84.45
 20
529.4999999999999
 30
0.0
 11
89.74999999999999
 21
529.4999999999999
 31
0.0
  0
LINE
  5
454
330
1E
100
AcDbEntity
  8
0
100
AcDbLine
 10
89.74999999999999
 20
529.4999999999999
 30
0.0
 11
93.04999999999999
 21
529.4999999999999
 31
0.0
  0
LINE
  5
455
330
1E
100
AcDbEntity
  8
0
100
AcDbLine
 10
93.04999999999999
 20
529.4999999999999
 30
0.0
 11
94.25
 21
529.4999999999999
 31
0.0
  0
LINE
  5
456
330
1E
100
AcDbEntity
  8
0
100
AcDbLine
 10
77.45
 20
529.4999999999999
 30
0.0
 11
84.45
 21
529.4999999999999
 31
0.0
  0
LINE
  5
457
330
1E
100
AcDbEntity
  8
0
100
AcDbLine
 10
69.34999999999999
 20
529.4999999999999
 30
0.0
 11
77.45
 21
529.4999999999999
 31
0.0
  0
LINE
  5
458
330
1E
100
AcDbEntity
  8
0
100
AcDbLine
 10
60.75
 20
529.4999999999999
 30
0.0
 11
69.34999999999999
 21
529.4999999999999
 31
0.0
  0
LINE
  5
459
330
1E
100
AcDbEntity
  8
0
100
AcDbLine
 10
52.05
 20
555.0
 30
0.0
 11
60.75
 21
555.0
 31
0.0
  0
LINE
  5
45A
330
1E
100
AcDbEntity
  8
0
100
AcDbLine
 10
84.74999999999999
 20
555.0
 30
0.0
 11
90.15
 21
555.0
 31
0.0
  0
LINE
  5
45B
330
1E
100
AcDbEntity
  8
0
100
AcDbLine
 10
94.74999999999999
 20
555.0
 30
0.0
 11
94.74999999999999
 21
530.4999999999999
 31
0.0
  0
LINE
  5
45C
330
1E
100
AcDbEntity
  8
0
100
AcDbLine
 10
90.15
 20
555.0
 30
0.0
 11
93.55
 21
555.0
 31
0.0
  0
LINE
  5
45D
330
1E
100
AcDbEntity
  8
0
100
AcDbLine
 10
93.55
 20
555.0
 30
0.0
 11
94.74999999999999
 21
555.0
 31
0.0
  0
LINE
  5
45E
330
1E
100
AcDbEntity
  8
0
100
AcDbLine
 10
77.65
 20
555.0
 30
0.0
 11
84.74999999999999
 21
555.0
 31
0.0
  0
LINE
  5
45F
330
1E
100
AcDbEntity
  8
0
100
AcDbLine
 10
69.45
 20
555.0
 30
0.0
 11
77.65
 21
555.0
 31
0.0
  0
LINE
  5
460
330
1E
100
AcDbEntity
  8
0
100
AcDbLine
 10
60.75
 20
555.0
 30
0.0
 11
69.45
 21
555.0
 31
0.0
  0
LINE
  5
461
330
1E
100
AcDbEntity
  8
0
100
AcDbLine
 10
94.25
 20
529.4999999999999
 30
0.0
 11
94.74999999999999
 21
530.4999999999999
 31
0.0
  0
LINE
  5
462
330
1E
100
AcDbEntity
  8
0
100
AcDbLine
 10
227.4499999999999
 20
529.4999999999999
 30
0.0
 11
234.45
 21
529.4999999999999
 31
0.0
  0
LINE
  5
463
330
1E
100
AcDbEntity
  8
0
100
AcDbLine
 10
223.98602764977
 20
529.4999999999999
 30
0.0
 11
227.4499999999999
 21
529.4999999999999
 31
0.0
  0
LINE
  5
464
330
1E
100
AcDbEntity
  8
0
100
AcDbLine
 10
234.45
 20
529.4999999999999
 30
0.0
 11
239.7499999999999
 21
529.4999999999999
 31
0.0
  0
LINE
  5
465
330
1E
100
AcDbEntity
  8
0
100
AcDbLine
 10
96.70999999999999
 20
547.0
 30
0.0
 11
98.15000000000001
 21
547.0
 31
0.0
  0
LINE
  5
466
330
1E
100
AcDbEntity
  8
0
100
AcDbLine
 10
98.15000000000001
 20
547.0
 30
0.0
 11
101.99
 21
547.0
 31
0.0
  0
LINE
  5
467
330
1E
100
AcDbEntity
  8
0
100
AcDbLine
 10
95.75000000000001
 20
547.48
 30
0.0
 11
97.19000000000001
 21
547.48
 31
0.0
  0
LINE
  5
468
330
1E
100
AcDbEntity
  8
0
100
AcDbLine
 10
95.75000000000001
 20
547.48
 30
0.0
 11
96.70999999999999
 21
547.0
 31
0.0
  0
LINE
  5
469
330
1E
100
AcDbEntity
  8
0
100
AcDbLine
 10
95.75000000000001
 20
547.48
 30
0.0
 11
95.75000000000001
 21
555.0
 31
0.0
  0
LINE
  5
46A
330
1E
100
AcDbEntity
  8
0
100
AcDbLine
 10
97.19000000000001
 20
547.48
 30
0.0
 11
101.0299999999999
 21
547.48
 31
0.0
  0
LINE
  5
46B
330
1E
100
AcDbEntity
  8
0
100
AcDbLine
 10
101.99
 20
547.0
 30
0.0
 11
108.23
 21
547.0
 31
0.0
  0
LINE
  5
46C
330
1E
100
AcDbEntity
  8
0
100
AcDbLine
 10
108.23
 20
547.0
 30
0.0
 11
116.3899999999999
 21
547.0
 31
0.0
  0
LINE
  5
46D
330
1E
100
AcDbEntity
  8
0
100
AcDbLine
 10
101.0299999999999
 20
547.48
 30
0.0
 11
107.43
 21
547.48
 31
0.0
  0
LINE
  5
46E
330
1E
100
AcDbEntity
  8
0
100
AcDbLine
 10
107.43
 20
547.48
 30
0.0
 11
115.91
 21
547.48
 31
0.0
  0
LINE
  5
46F
330
1E
100
AcDbEntity
  8
0
100
AcDbLine
 10
123.75
 20
547.0
 30
0.0
 11
123.75
 21
70.6352999999999
 31
0.0
  0
LINE
  5
470
330
1E
100
AcDbEntity
  8
0
100
AcDbLine
 10
123.75
 20
547.0
 30
0.0
 11
124.182
 21
547.0
 31
0.0
  0
LINE
  5
471
330
1E
100
AcDbEntity
  8
0
100
AcDbLine
 10
124.182
 20
547.0
 30
0.0
 11
125.334
 21
547.0
 31
0.0
  0
LINE
  5
472
330
1E
100
AcDbEntity
  8
0
100
AcDbLine
 10
125.334
 20
547.0
 30
0.0
 11
127.254
 21
547.0
 31
0.0
  0
LINE
  5
473
330
1E
100
AcDbEntity
  8
0
100
AcDbLine
 10
127.254
 20
547.0
 30
0.0
 11
129.798
 21
547.0
 31
0.0
  0
LINE
  5
474
330
1E
100
AcDbEntity
  8
0
100
AcDbLine
 10
129.798
 20
547.0
 30
0.0
 11
132.678
 21
547.0
 31
0.0
  0
LINE
  5
475
330
1E
100
AcDbEntity
  8
0
100
AcDbLine
 10
132.678
 20
547.0
 30
0.0
 11
135.7499999999999
 21
547.0
 31
0.0
  0
LINE
  5
476
330
1E
100
AcDbEntity
  8
0
100
AcDbLine
 10
144.246
 20
547.0
 30
0.0
 11
146.166
 21
547.0
 31
0.0
  0
LINE
  5
477
330
1E
100
AcDbEntity
  8
0
100
AcDbLine
 10
141.7019999999999
 20
547.0
 30
0.0
 11
144.246
 21
547.0
 31
0.0
  0
LINE
  5
478
330
1E
100
AcDbEntity
  8
0
100
AcDbLine
 10
138.822
 20
547.0
 30
0.0
 11
141.7019999999999
 21
547.0
 31
0.0
  0
LINE
  5
479
330
1E
100
AcDbEntity
  8
0
100
AcDbLine
 10
135.7499999999999
 20
547.0
 30
0.0
 11
138.822
 21
547.0
 31
0.0
  0
LINE
  5
47A
330
1E
100
AcDbEntity
  8
0
100
AcDbLine
 10
116.3899999999999
 20
547.0
 30
0.0
 11
123.75
 21
547.0
 31
0.0
  0
LINE
  5
47B
330
1E
100
AcDbEntity
  8
0
100
AcDbLine
 10
115.91
 20
547.48
 30
0.0
 11
125.51
 21
547.48
 31
0.0
  0
LINE
  5
47C
330
1E
100
AcDbEntity
  8
0
100
AcDbLine
 10
125.51
 20
547.48
 30
0.0
 11
135.7499999999999
 21
547.48
 31
0.0
  0
LINE
  5
47D
330
1E
100
AcDbEntity
  8
0
100
AcDbLine
 10
147.3179999999999
 20
547.0
 30
0.0
 11
147.75
 21
547.0
 31
0.0
  0
LINE
  5
47E
330
1E
100
AcDbEntity
  8
0
100
AcDbLine
 10
146.166
 20
547.0
 30
0.0
 11
147.3179999999999
 21
547.0
 31
0.0
  0
LINE
  5
47F
330
1E
100
AcDbEntity
  8
0
100
AcDbLine
 10
145.99
 20
547.48
 30
0.0
 11
155.59
 21
547.48
 31
0.0
  0
LINE
  5
480
330
1E
100
AcDbEntity
  8
0
100
AcDbLine
 10
135.7499999999999
 20
547.48
 30
0.0
 11
145.99
 21
547.48
 31
0.0
  0
LINE
  5
481
330
1E
100
AcDbEntity
  8
0
100
AcDbLine
 10
164.5379999999999
 20
539.918
 30
0.0
 11
164.5379999999999
 21
544.014
 31
0.0
  0
LINE
  5
482
330
1E
100
AcDbEntity
  8
0
100
AcDbLine
 10
164.5379999999999
 20
544.014
 30
0.0
 11
164.5379999999999
 21
539.918
 31
0.0
  0
LINE
  5
483
330
1E
100
AcDbEntity
  8
0
100
AcDbLine
 10
164.5379999999999
 20
544.014
 30
0.0
 11
166.7043517196629
 21
547.0
 31
0.0
  0
LINE
  5
484
330
1E
100
AcDbEntity
  8
0
100
AcDbLine
 10
164.31
 20
536.913
 30
0.0
 11
164.5379999999999
 21
539.918
 31
0.0
  0
LINE
  5
485
330
1E
100
AcDbEntity
  8
0
100
AcDbLine
 10
164.282
 20
531.7230000000001
 30
0.0
 11
164.31
 21
536.913
 31
0.0
  0
LINE
  5
486
330
1E
100
AcDbEntity
  8
0
100
AcDbLine
 10
199.3609629665609
 20
536.9011621000779
 30
0.0
 11
227.2499999999999
 21
528.519
 31
0.0
  0
LINE
  5
487
330
1E
100
AcDbEntity
  8
0
100
AcDbLine
 10
182.479
 20
545.168
 30
0.0
 11
199.3609629665611
 21
536.9011621000779
 31
0.0
  0
LINE
  5
488
330
1E
100
AcDbEntity
  8
0
100
AcDbLine
 10
180.31
 20
536.7769999999999
 30
0.0
 11
180.3259999999999
 21
541.3999999999999
 31
0.0
  0
LINE
  5
489
330
1E
100
AcDbEntity
  8
0
100
AcDbLine
 10
180.2809999999999
 20
531.587
 30
0.0
 11
180.31
 21
536.7769999999999
 31
0.0
  0
LINE
  5
48A
330
1E
100
AcDbEntity
  8
0
100
AcDbLine
 10
174.79
 20
547.0
 30
0.0
 11
175.75
 21
547.48
 31
0.0
  0
LINE
  5
48B
330
1E
100
AcDbEntity
  8
0
100
AcDbLine
 10
173.35
 20
547.0
 30
0.0
 11
174.79
 21
547.0
 31
0.0
  0
LINE
  5
48C
330
1E
100
AcDbEntity
  8
0
100
AcDbLine
 10
169.51
 20
547.0
 30
0.0
 11
173.35
 21
547.0
 31
0.0
  0
LINE
  5
48D
330
1E
100
AcDbEntity
  8
0
100
AcDbLine
 10
163.2699999999999
 20
547.0
 30
0.0
 11
169.51
 21
547.0
 31
0.0
  0
LINE
  5
48E
330
1E
100
AcDbEntity
  8
0
100
AcDbLine
 10
177.9729999999999
 20
547.001
 30
0.0
 11
182.479
 21
545.168
 31
0.0
  0
LINE
  5
48F
330
1E
100
AcDbEntity
  8
0
100
AcDbLine
 10
174.31
 20
547.48
 30
0.0
 11
175.75
 21
547.48
 31
0.0
  0
LINE
  5
490
330
1E
100
AcDbEntity
  8
0
100
AcDbLine
 10
175.75
 20
547.48
 30
0.0
 11
175.75
 21
555.0
 31
0.0
  0
LINE
  5
491
330
1E
100
AcDbEntity
  8
0
100
AcDbLine
 10
170.47
 20
547.48
 30
0.0
 11
174.31
 21
547.48
 31
0.0
  0
LINE
  5
492
330
1E
100
AcDbEntity
  8
0
100
AcDbLine
 10
164.07
 20
547.48
 30
0.0
 11
170.47
 21
547.48
 31
0.0
  0
LINE
  5
493
330
1E
100
AcDbEntity
  8
0
100
AcDbLine
 10
155.59
 20
547.48
 30
0.0
 11
164.07
 21
547.48
 31
0.0
  0
LINE
  5
494
330
1E
100
AcDbEntity
  8
0
100
AcDbLine
 10
155.11
 20
547.0
 30
0.0
 11
163.2699999999999
 21
547.0
 31
0.0
  0
LINE
  5
495
330
1E
100
AcDbEntity
  8
0
100
AcDbLine
 10
147.75
 20
547.0
 30
0.0
 11
155.11
 21
547.0
 31
0.0
  0
LINE
  5
496
330
1E
100
AcDbEntity
  8
0
100
AcDbLine
 10
147.75
 20
547.0
 30
0.0
 11
147.75
 21
70.6352999999999
 31
0.0
  0
LINE
  5
497
330
1E
100
AcDbEntity
  8
0
100
AcDbLine
 10
239.7499999999999
 20
529.4999999999999
 30
0.0
 11
243.05
 21
529.4999999999999
 31
0.0
  0
LINE
  5
498
330
1E
100
AcDbEntity
  8
0
100
AcDbLine
 10
243.05
 20
529.4999999999999
 30
0.0
 11
244.2499999999999
 21
529.4999999999999
 31
0.0
  0
LINE
  5
499
330
1E
100
AcDbEntity
  8
0
100
AcDbLine
 10
175.75
 20
548.624398550724
 30
0.0
 11
177.9729999999999
 21
547.001
 31
0.0
  0
LINE
  5
49A
330
1E
100
AcDbEntity
  8
0
100
AcDbLine
 10
186.7499999999999
 20
555.0
 30
0.0
 11
193.8499999999999
 21
555.0
 31
0.0
  0
LINE
  5
49B
330
1E
100
AcDbEntity
  8
0
100
AcDbLine
 10
193.8499999999999
 20
555.0
 30
0.0
 11
202.05
 21
555.0
 31
0.0
  0
LINE
  5
49C
330
1E
100
AcDbEntity
  8
0
100
AcDbLine
 10
202.05
 20
555.0
 30
0.0
 11
210.7499999999999
 21
555.0
 31
0.0
  0
LINE
  5
49D
330
1E
100
AcDbEntity
  8
0
100
AcDbLine
 10
181.3499999999999
 20
555.0
 30
0.0
 11
186.7499999999999
 21
555.0
 31
0.0
  0
LINE
  5
49E
330
1E
100
AcDbEntity
  8
0
100
AcDbLine
 10
177.9499999999999
 20
555.0
 30
0.0
 11
181.3499999999999
 21
555.0
 31
0.0
  0
LINE
  5
49F
330
1E
100
AcDbEntity
  8
0
100
AcDbLine
 10
176.75
 20
555.0
 30
0.0
 11
177.9499999999999
 21
555.0
 31
0.0
  0
LINE
  5
4A0
330
1E
100
AcDbEntity
  8
0
100
AcDbLine
 10
176.75
 20
555.0
 30
0.0
 11
176.75
 21
547.894124798712
 31
0.0
  0
LINE
  5
4A1
330
1E
100
AcDbEntity
  8
0
100
AcDbLine
 10
227.6499999999999
 20
555.0
 30
0.0
 11
234.75
 21
555.0
 31
0.0
  0
LINE
  5
4A2
330
1E
100
AcDbEntity
  8
0
100
AcDbLine
 10
219.45
 20
555.0
 30
0.0
 11
227.6499999999999
 21
555.0
 31
0.0
  0
LINE
  5
4A3
330
1E
100
AcDbEntity
  8
0
100
AcDbLine
 10
210.7499999999999
 20
555.0
 30
0.0
 11
219.45
 21
555.0
 31
0.0
  0
LINE
  5
4A4
330
1E
100
AcDbEntity
  8
0
100
AcDbLine
 10
234.75
 20
555.0
 30
0.0
 11
240.1499999999999
 21
555.0
 31
0.0
  0
LINE
  5
4A5
330
1E
100
AcDbEntity
  8
0
100
AcDbLine
 10
240.1499999999999
 20
555.0
 30
0.0
 11
243.55
 21
555.0
 31
0.0
  0
LINE
  5
4A6
330
1E
100
AcDbEntity
  8
0
100
AcDbLine
 10
243.55
 20
555.0
 30
0.0
 11
244.75
 21
555.0
 31
0.0
  0
LINE
  5
4A7
330
1E
100
AcDbEntity
  8
0
100
AcDbLine
 10
176.75
 20
547.894124798712
 30
0.0
 11
176.75
 21
555.0
 31
0.0
  0
LINE
  5
4A8
330
1E
100
AcDbEntity
  8
0
100
AcDbLine
 10
244.75
 20
530.4999999999999
 30
0.0
 11
244.75
 21
555.0
 31
0.0
  0
LINE
  5
4A9
330
1E
100
AcDbEntity
  8
0
100
AcDbLine
 10
244.2499999999999
 20
529.4999999999999
 30
0.0
 11
244.75
 21
530.4999999999999
 31
0.0
  0
LINE
  5
4AA
330
1E
100
AcDbEntity
  8
0
100
AcDbLine
 10
95.75000000000001
 20
555.0
 30
0.0
 11
97.19000000000001
 21
555.0
 31
0.0
  0
LINE
  5
4AB
330
1E
100
AcDbEntity
  8
0
100
AcDbLine
 10
95.75000000000001
 20
555.0
 30
0.0
 11
95.75000000000001
 21
547.48
 31
0.0
  0
LINE
  5
4AC
330
1E
100
AcDbEntity
  8
0
100
AcDbLine
 10
97.19000000000001
 20
555.0
 30
0.0
 11
101.0299999999999
 21
555.0
 31
0.0
  0
LINE
  5
4AD
330
1E
100
AcDbEntity
  8
0
100
AcDbLine
 10
101.0299999999999
 20
555.0
 30
0.0
 11
107.43
 21
555.0
 31
0.0
  0
LINE
  5
4AE
330
1E
100
AcDbEntity
  8
0
100
AcDbLine
 10
107.43
 20
555.0
 30
0.0
 11
115.91
 21
555.0
 31
0.0
  0
LINE
  5
4AF
330
1E
100
AcDbEntity
  8
0
100
AcDbLine
 10
115.91
 20
555.0
 30
0.0
 11
125.51
 21
555.0
 31
0.0
  0
LINE
  5
4B0
330
1E
100
AcDbEntity
  8
0
100
AcDbLine
 10
125.51
 20
555.0
 30
0.0
 11
135.7499999999999
 21
555.0
 31
0.0
  0
LINE
  5
4B1
330
1E
100
AcDbEntity
  8
0
100
AcDbLine
 10
174.31
 20
555.0
 30
0.0
 11
175.75
 21
555.0
 31
0.0
  0
LINE
  5
4B2
330
1E
100
AcDbEntity
  8
0
100
AcDbLine
 10
170.47
 20
555.0
 30
0.0
 11
174.31
 21
555.0
 31
0.0
  0
LINE
  5
4B3
330
1E
100
AcDbEntity
  8
0
100
AcDbLine
 10
164.07
 20
555.0
 30
0.0
 11
170.47
 21
555.0
 31
0.0
  0
LINE
  5
4B4
330
1E
100
AcDbEntity
  8
0
100
AcDbLine
 10
155.59
 20
555.0
 30
0.0
 11
164.07
 21
555.0
 31
0.0
  0
LINE
  5
4B5
330
1E
100
AcDbEntity
  8
0
100
AcDbLine
 10
145.99
 20
555.0
 30
0.0
 11
155.59
 21
555.0
 31
0.0
  0
LINE
  5
4B6
330
1E
100
AcDbEntity
  8
0
100
AcDbLine
 10
135.7499999999999
 20
555.0
 30
0.0
 11
145.99
 21
555.0
 31
0.0
  0
LINE
  5
4B7
330
1E
100
AcDbEntity
  8
0
100
AcDbLine
 10
175.75
 20
555.0
 30
0.0
 11
175.75
 21
547.48
 31
0.0
  0
LINE
  5
4B8
330
1E
100
AcDbEntity
  8
0
100
AcDbLine
 10
244.75
 20
555.0
 30
0.0
 11
244.75
 21
530.4999999999999
 31
0.0
  0
LINE
  5
4B9
330
1E
100
AcDbEntity
  8
0
100
AcDbLine
 10
94.74999999999999
 20
530.4999999999999
 30
0.0
 11
94.74999999999999
 21
555.0
 31
0.0
  0
LINE
  5
4BA
330
1E
100
AcDbEntity
  8
0
100
AcDbLine
 10
45.1711
 20
529.0
 30
0.0
 11
45.7605
 21
529.0
 31
0.0
  0
LINE
  5
4BB
330
1E
100
AcDbEntity
  8
0
100
AcDbLine
 10
44.75
 20
515.1
 30
0.0
 11
44.75
 21
515.24
 31
0.0
  0
LINE
  5
4BC
330
1E
100
AcDbEntity
  8
0
100
AcDbLine
 10
44.75
 20
515.1
 30
0.0
 11
45.1711
 21
515.0
 31
0.0
  0
LINE
  5
4BD
330
1E
100
AcDbEntity
  8
0
100
AcDbLine
 10
1.74999999999998
 20
498.0
 30
0.0
 11
42.25
 21
498.0
 31
0.0
  0
LINE
  5
4BE
330
1E
100
AcDbEntity
  8
0
100
AcDbLine
 10
0.7499999999999791
 20
456.5
 30
0.0
 11
1.74999999999998
 21
456.0
 31
0.0
  0
LINE
  5
4BF
330
1E
100
AcDbEntity
  8
0
100
AcDbLine
 10
0.7499999999999791
 20
456.5
 30
0.0
 11
0.7499999999999791
 21
457.2
 31
0.0
  0
LINE
  5
4C0
330
1E
100
AcDbEntity
  8
0
100
AcDbLine
 10
1.74999999999998
 20
456.0
 30
0.0
 11
42.25
 21
456.0
 31
0.0
  0
LINE
  5
4C1
330
1E
100
AcDbEntity
  8
0
100
AcDbLine
 10
0.249999999999979
 20
477.0
 30
0.0
 11
0.249999999999979
 21
472.0
 31
0.0
  0
LINE
  5
4C2
330
1E
100
AcDbEntity
  8
0
100
AcDbLine
 10
0.249999999999979
 20
477.0
 30
0.0
 11
0.249999999999979
 21
475.6
 31
0.0
  0
LINE
  5
4C3
330
1E
100
AcDbEntity
  8
0
100
AcDbLine
 10
0.249999999999979
 20
477.0
 30
0.0
 11
0.249999999999979
 21
475.8
 31
0.0
  0
LINE
  5
4C4
330
1E
100
AcDbEntity
  8
0
100
AcDbLine
 10
0.249999999999979
 20
477.0
 30
0.0
 11
0.249999999999979
 21
482.0
 31
0.0
  0
LINE
  5
4C5
330
1E
100
AcDbEntity
  8
0
100
AcDbLine
 10
0.249999999999979
 20
477.0
 30
0.0
 11
0.249999999999979
 21
478.3999999999999
 31
0.0
  0
LINE
  5
4C6
330
1E
100
AcDbEntity
  8
0
100
AcDbLine
 10
0.249999999999979
 20
477.0
 30
0.0
 11
0.249999999999979
 21
478.2
 31
0.0
  0
LINE
  5
4CB
330
1E
100
AcDbEntity
  8
0
100
AcDbLine
 10
160.9499999999999
 20
499.169
 30
0.0
 11
160.0897058628879
 21
497.8931581434089
 31
0.0
  0
LINE
  5
4CC
330
1E
100
AcDbEntity
  8
0
100
AcDbLine
 10
160.0897058628879
 20
497.8931581434089
 30
0.0
 11
159.2709957616248
 21
496.0832724808938
 31
0.0
  0
LINE
  5
4CD
330
1E
100
AcDbEntity
  8
0
100
AcDbLine
 10
159.2709957616248
 20
496.0832724808938
 30
0.0
 11
159.2709957616248
 21
496.0832724808938
 31
0.0
  0
LINE
  5
4CE
330
1E
100
AcDbEntity
  8
0
100
AcDbLine
 10
159.2709957616248
 20
496.0832724808938
 30
0.0
 11
159.25
 21
490.580333333333
 31
0.0
  0
ENDSEC
  0
SECTION
  2
OBJECTS
  0
DICTIONARY
  5
C
330
0
100
AcDbDictionary
281
     1
  3
ACAD_GROUP
350
D
  3
ACAD_LAYOUT
350
19
  3
ACAD_MLINESTYLE
350
16
  3
ACAD_PLOTSETTINGS
350
18
  3
ACAD_PLOTSTYLENAME
350
E
  3
AcDbVariableDictionary
350
4CF
  0
DICTIONARY
  5
D
102
{ACAD_REACTORS
330
C
102
}
330
C
100
AcDbDictionary
281
     1
  0
DICTIONARY
  5
19
102
{ACAD_REACTORS
330
C
102
}
330
C
100
AcDbDictionary
281
     1
  3
Layout1
350
1D
  3
Model
350
21
  0
DICTIONARY
  5
16
102
{ACAD_REACTORS
330
C
102
}
330
C
100
AcDbDictionary
281
     1
  3
Standard
350
17
  0
DICTIONARY
  5
18
102
{ACAD_REACTORS
330
C
102
}
330
C
100
AcDbDictionary
281
     1
  0
ACDBDICTIONARYWDFLT
  5
E
102
{ACAD_REACTORS
330
C
102
}
330
C
100
AcDbDictionary
281
     1
  3
Normal
350
F
100
AcDbDictionaryWithDefault
340
F
  0
DICTIONARY
  5
4CF
102
{ACAD_REACTORS
330
C
102
}
330
C
100
AcDbDictionary
281
     1
  3
DIMASSOC
350
4D0
  0
LAYOUT
  5
1D
102
{ACAD_REACTORS
330
19
102
}
330
19
100
AcDbPlotSettings
  1

  2
hp deskjet 980c series
  4

  6

 40
0.0
 41
0.0
 42
0.0
 43
0.0
 44
0.0
 45
0.0
 46
0.0
 47
0.0
 48
0.0
 49
0.0
140
0.0
141
0.0
142
1.0
143
1.0
 70
   688
 72
     0
 73
     0
 74
     5
  7

 75
    16
147
1.0
148
0.0
149
0.0
100
AcDbLayout
  1
Layout1
 70
     1
 71
     1
 10
0.0
 20
0.0
 11
12.0
 21
9.0
 12
0.0
 22
0.0
 32
0.0
 14
1.000000000000000E+20
 24
1.000000000000000E+20
 34
1.000000000000000E+20
 15
-1.000000000000000E+20
 25
-1.000000000000000E+20
 35
-1.000000000000000E+20
146
0.0
 13
0.0
 23
0.0
 33
0.0
 16
1.0
 26
0.0
 36
0.0
 17
0.0
 27
1.0
 37
0.0
 76
     0
330
1A
  0
LAYOUT
  5
21
102
{ACAD_REACTORS
330
19
102
}
330
19
100
AcDbPlotSettings
  1

  2
hp deskjet 980c series
  4

  6

 40
0.0
 41
0.0
 42
0.0
 43
0.0
 44
0.0
 45
0.0
 46
0.0
 47
0.0
 48
0.0
 49
0.0
140
0.0
141
0.0
142
1.0
143
1.0
 70
  1712
 72
     0
 73
     0
 74
     0
  7

 75
     0
147
1.0
148
0.0
149
0.0
100
AcDbLayout
  1
Model
 70
     1
 71
     0
 10
0.0
 20
0.0
 11
12.0
 21
9.0
 12
0.0
 22
0.0
 32
0.0
 14
0.0
 24
0.0
 34
0.0
 15
0.0
 25
0.0
 35
0.0
146
0.0
 13
0.0
 23
0.0
 33
0.0
 16
1.0
 26
0.0
 36
0.0
 17
0.0
 27
1.0
 37
0.0
 76
     0
330
1E
  0
MLINESTYLE
  5
17
102
{ACAD_REACTORS
330
16
102
}
330
16
100
AcDbMlineStyle
  2
STANDARD
 70
     0
  3

 62
   256
 51
90.0
 52
90.0
 71
     2
 49
0.5
 62
   256
  6
BYLAYER
 49
-0.5
 62
   256
  6
BYLAYER
  0
ACDBPLACEHOLDER
  5
F
102
{ACAD_REACTORS
330
E
102
}
330
E
  0
DICTIONARYVAR
  5
4D0
102
{ACAD_REACTORS
330
4CF
102
}
330
4CF
100
DictionaryVariables
280
     0
  1
1
  0
ENDSEC
  0
EOF
