  0
SECTION
  2
HEADER
  9
$ACADVER
  1
AC1015
  9
$ACADMAINTVER
 70
    13
  9
$DWGCODEPAGE
  3
ANSI_1252
  9
$INSBASE
 10
0.0
 20
0.0
 30
0.0
  9
$EXTMIN
 10
0.0899999999999887
 20
-0.0000000000000169
 30
0.0
  9
$EXTMAX
 10
204.91
 20
295.0
 30
0.0
  9
$LIMMIN
 10
0.0
 20
0.0
  9
$LIMMAX
 10
12.0
 20
9.0
  9
$ORTHOMODE
 70
     0
  9
$REGENMODE
 70
     1
  9
$FILLMODE
 70
     1
  9
$QTEXTMODE
 70
     0
  9
$MIRRTEXT
 70
     1
  9
$LTSCALE
 40
1.0
  9
$ATTMODE
 70
     1
  9
$TEXTSIZE
 40
0.2
  9
$TRACEWID
 40
0.05
  9
$TEXTSTYLE
  7
Standard
  9
$CLAYER
  8
0
  9
$CELTYPE
  6
Continuous
  9
$CECOLOR
 62
   256
  9
$CELTSCALE
 40
1.0
  9
$DISPSILH
 70
     0
  9
$DIMSCALE
 40
1.0
  9
$DIMASZ
 40
0.18
  9
$DIMEXO
 40
0.0625
  9
$DIMDLI
 40
0.38
  9
$DIMRND
 40
0.0
  9
$DIMDLE
 40
0.0
  9
$DIMEXE
 40
0.18
  9
$DIMTP
 40
0.0
  9
$DIMTM
 40
0.0
  9
$DIMTXT
 40
0.18
  9
$DIMCEN
 40
0.09
  9
$DIMTSZ
 40
0.0
  9
$DIMTOL
 70
     0
  9
$DIMLIM
 70
     0
  9
$DIMTIH
 70
     1
  9
$DIMTOH
 70
     1
  9
$DIMSE1
 70
     0
  9
$DIMSE2
 70
     0
  9
$DIMTAD
 70
     0
  9
$DIMZIN
 70
     0
  9
$DIMBLK
  1

  9
$DIMASO
 70
     1
  9
$DIMSHO
 70
     1
  9
$DIMPOST
  1

  9
$DIMAPOST
  1

  9
$DIMALT
 70
     0
  9
$DIMALTD
 70
     2
  9
$DIMALTF
 40
25.4
  9
$DIMLFAC
 40
1.0
  9
$DIMTOFL
 70
     0
  9
$DIMTVP
 40
0.0
  9
$DIMTIX
 70
     0
  9
$DIMSOXD
 70
     0
  9
$DIMSAH
 70
     0
  9
$DIMBLK1
  1

  9
$DIMBLK2
  1

  9
$DIMSTYLE
  2
Standard
  9
$DIMCLRD
 70
     0
  9
$DIMCLRE
 70
     0
  9
$DIMCLRT
 70
     0
  9
$DIMTFAC
 40
1.0
  9
$DIMGAP
 40
0.09
  9
$DIMJUST
 70
     0
  9
$DIMSD1
 70
     0
  9
$DIMSD2
 70
     0
  9
$DIMTOLJ
 70
     1
  9
$DIMTZIN
 70
     0
  9
$DIMALTZ
 70
     0
  9
$DIMALTTZ
 70
     0
  9
$DIMUPT
 70
     0
  9
$DIMDEC
 70
     4
  9
$DIMTDEC
 70
     4
  9
$DIMALTU
 70
     2
  9
$DIMALTTD
 70
     2
  9
$DIMTXSTY
  7
Standard
  9
$DIMAUNIT
 70
     0
  9
$DIMADEC
 70
     0
  9
$DIMALTRND
 40
0.0
  9
$DIMAZIN
 70
     0
  9
$DIMDSEP
 70
    46
  9
$DIMATFIT
 70
     3
  9
$DIMFRAC
 70
     0
  9
$DIMLDRBLK
  1

  9
$DIMLUNIT
 70
     2
  9
$DIMLWD
 70
    -2
  9
$DIMLWE
 70
    -2
  9
$DIMTMOVE
 70
     0
  9
$LUNITS
 70
     2
  9
$LUPREC
 70
     4
  9
$SKETCHINC
 40
0.1
  9
$FILLETRAD
 40
0.0
  9
$AUNITS
 70
     0
  9
$AUPREC
 70
     0
  9
$MENU
  1
.
  9
$ELEVATION
 40
0.0
  9
$PELEVATION
 40
0.0
  9
$THICKNESS
 40
0.0
  9
$LIMCHECK
 70
     0
  9
$CHAMFERA
 40
0.0
  9
$CHAMFERB
 40
0.0
  9
$CHAMFERC
 40
0.0
  9
$CHAMFERD
 40
0.0
  9
$SKPOLY
 70
     0
  9
$TDCREATE
 40
2455646.889447152
  9
$TDUCREATE
 40
2455646.847780486
  9
$TDUPDATE
 40
2455646.896043645
  9
$TDUUPDATE
 40
2455646.854376979
  9
$TDINDWG
 40
0.0065964931
  9
$TDUSRTIMER
 40
0.0065964931
  9
$USRTIMER
 70
     1
  9
$ANGBASE
 50
0.0
  9
$ANGDIR
 70
     0
  9
$PDMODE
 70
     0
  9
$PDSIZE
 40
0.0
  9
$PLINEWID
 40
0.0
  9
$SPLFRAME
 70
     0
  9
$SPLINETYPE
 70
     6
  9
$SPLINESEGS
 70
     8
  9
$HANDSEED
  5
36C
  9
$SURFTAB1
 70
     6
  9
$SURFTAB2
 70
     6
  9
$SURFTYPE
 70
     6
  9
$SURFU
 70
     6
  9
$SURFV
 70
     6
  9
$UCSBASE
  2

  9
$UCSNAME
  2

  9
$UCSORG
 10
0.0
 20
0.0
 30
0.0
  9
$UCSXDIR
 10
1.0
 20
0.0
 30
0.0
  9
$UCSYDIR
 10
0.0
 20
1.0
 30
0.0
  9
$UCSORTHOREF
  2

  9
$UCSORTHOVIEW
 70
     1
  9
$UCSORGTOP
 10
0.0
 20
0.0
 30
0.0
  9
$UCSORGBOTTOM
 10
0.0
 20
0.0
 30
0.0
  9
$UCSORGLEFT
 10
0.0
 20
0.0
 30
0.0
  9
$UCSORGRIGHT
 10
0.0
 20
0.0
 30
0.0
  9
$UCSORGFRONT
 10
0.0
 20
0.0
 30
0.0
  9
$UCSORGBACK
 10
0.0
 20
0.0
 30
0.0
  9
$PUCSBASE
  2

  9
$PUCSNAME
  2

  9
$PUCSORG
 10
0.0
 20
0.0
 30
0.0
  9
$PUCSXDIR
 10
1.0
 20
0.0
 30
0.0
  9
$PUCSYDIR
 10
0.0
 20
1.0
 30
0.0
  9
$PUCSORTHOREF
  2

  9
$PUCSORTHOVIEW
 70
     0
  9
$PUCSORGTOP
 10
0.0
 20
0.0
 30
0.0
  9
$PUCSORGBOTTOM
 10
0.0
 20
0.0
 30
0.0
  9
$PUCSORGLEFT
 10
0.0
 20
0.0
 30
0.0
  9
$PUCSORGRIGHT
 10
0.0
 20
0.0
 30
0.0
  9
$PUCSORGFRONT
 10
0.0
 20
0.0
 30
0.0
  9
$PUCSORGBACK
 10
0.0
 20
0.0
 30
0.0
  9
$USERI1
 70
     0
  9
$USERI2
 70
     0
  9
$USERI3
 70
     0
  9
$USERI4
 70
     0
  9
$USERI5
 70
     0
  9
$USERR1
 40
0.0
  9
$USERR2
 40
0.0
  9
$USERR3
 40
0.0
  9
$USERR4
 40
0.0
  9
$USERR5
 40
0.0
  9
$WORLDVIEW
 70
     1
  9
$SHADEDGE
 70
     3
  9
$SHADEDIF
 70
    70
  9
$TILEMODE
 70
     1
  9
$MAXACTVP
 70
    64
  9
$PINSBASE
 10
0.0
 20
0.0
 30
0.0
  9
$PLIMCHECK
 70
     0
  9
$PEXTMIN
 10
1.000000000000000E+20
 20
1.000000000000000E+20
 30
1.000000000000000E+20
  9
$PEXTMAX
 10
-1.000000000000000E+20
 20
-1.000000000000000E+20
 30
-1.000000000000000E+20
  9
$PLIMMIN
 10
0.0
 20
0.0
  9
$PLIMMAX
 10
12.0
 20
9.0
  9
$UNITMODE
 70
     0
  9
$VISRETAIN
 70
     1
  9
$PLINEGEN
 70
     0
  9
$PSLTSCALE
 70
     1
  9
$TREEDEPTH
 70
  3020
  9
$CMLSTYLE
  2
Standard
  9
$CMLJUST
 70
     0
  9
$CMLSCALE
 40
1.0
  9
$PROXYGRAPHICS
 70
     1
  9
$MEASUREMENT
 70
     0
  9
$CELWEIGHT
370
    -1
  9
$ENDCAPS
280
     0
  9
$JOINSTYLE
280
     0
  9
$LWDISPLAY
290
     0
  9
$INSUNITS
 70
     0
  9
$HYPERLINKBASE
  1

  9
$STYLESHEET
  1

  9
$XEDIT
290
     1
  9
$CEPSNTYPE
380
     0
  9
$PSTYLEMODE
290
     1
  9
$FINGERPRINTGUID
  2
{2E57BB74-C4C7-4C1B-AF3C-CF05547562F8}
  9
$VERSIONGUID
  2
{0340CBD8-ED66-4F5E-B261-39C2E78B2666}
  9
$EXTNAMES
290
     1
  9
$PSVPSCALE
 40
0.0
  9
$OLESTARTUP
290
     0
  0
ENDSEC
  0
SECTION
  2
CLASSES
  0
CLASS
  1
ACDBDICTIONARYWDFLT
  2
AcDbDictionaryWithDefault
  3
AutoCAD 2000
 90
        0
280
     0
281
     0
  0
CLASS
  1
ACDBPLACEHOLDER
  2
AcDbPlaceHolder
  3
AutoCAD 2000
 90
        0
280
     0
281
     0
  0
CLASS
  1
LAYOUT
  2
AcDbLayout
  3
AutoCAD 2000
 90
        0
280
     0
281
     0
  0
CLASS
  1
DICTIONARYVAR
  2
AcDbDictionaryVar
  3
AutoCAD 2000
 90
        0
280
     0
281
     0
  0
ENDSEC
  0
SECTION
  2
TABLES
  0
TABLE
  2
VPORT
  5
8
330
0
100
AcDbSymbolTable
 70
     3
  0
VPORT
  5
36B
330
8
100
AcDbSymbolTableRecord
100
AcDbViewportTableRecord
  2
*Active
 70
     0
 10
0.0
 20
0.0
 11
1.0
 21
1.0
 12
102.4999999999999
 22
147.4999999999999
 13
0.0
 23
0.0
 14
1.0
 24
1.0
 15
0.0
 25
0.0
 16
0.0
 26
0.0
 36
1.0
 17
0.0
 27
0.0
 37
0.0
 40
296.9954904171363
 41
2.073363431151241
 42
50.0
 43
0.0
 44
0.0
 50
0.0
 51
0.0
 71
     0
 72
   100
 73
     1
 74
     3
 75
     0
 76
     0
 77
     0
 78
     0
281
     0
 65
     1
110
0.0
120
0.0
130
0.0
111
1.0
121
0.0
131
0.0
112
0.0
122
1.0
132
0.0
 79
     1
146
0.0
  0
ENDTAB
  0
TABLE
  2
LTYPE
  5
5
330
0
100
AcDbSymbolTable
 70
     1
  0
LTYPE
  5
13
330
5
100
AcDbSymbolTableRecord
100
AcDbLinetypeTableRecord
  2
ByBlock
 70
     0
  3

 72
    65
 73
     0
 40
0.0
  0
LTYPE
  5
14
330
5
100
AcDbSymbolTableRecord
100
AcDbLinetypeTableRecord
  2
ByLayer
 70
     0
  3

 72
    65
 73
     0
 40
0.0
  0
LTYPE
  5
15
330
5
100
AcDbSymbolTableRecord
100
AcDbLinetypeTableRecord
  2
Continuous
 70
     0
  3
Solid line
 72
    65
 73
     0
 40
0.0
  0
ENDTAB
  0
TABLE
  2
LAYER
  5
2
330
0
100
AcDbSymbolTable
 70
     1
  0
LAYER
  5
10
330
2
100
AcDbSymbolTableRecord
100
AcDbLayerTableRecord
  2
0
 70
     0
 62
     7
  6
Continuous
370
    -3
390
F
  0
ENDTAB
  0
TABLE
  2
STYLE
  5
3
330
0
100
AcDbSymbolTable
 70
     1
  0
STYLE
  5
11
330
3
100
AcDbSymbolTableRecord
100
AcDbTextStyleTableRecord
  2
Standard
 70
     0
 40
0.0
 41
1.0
 50
0.0
 71
     0
 42
0.2
  3
txt
  4

  0
ENDTAB
  0
TABLE
  2
VIEW
  5
6
330
0
100
AcDbSymbolTable
 70
     0
  0
ENDTAB
  0
TABLE
  2
UCS
  5
7
330
0
100
AcDbSymbolTable
 70
     0
  0
ENDTAB
  0
TABLE
  2
APPID
  5
9
330
0
100
AcDbSymbolTable
 70
     1
  0
APPID
  5
12
330
9
100
AcDbSymbolTableRecord
100
AcDbRegAppTableRecord
  2
ACAD
 70
     0
  0
ENDTAB
  0
TABLE
  2
DIMSTYLE
  5
A
330
0
100
AcDbSymbolTable
 70
     1
100
AcDbDimStyleTable
 71
     0
  0
DIMSTYLE
105
361
330
A
100
AcDbSymbolTableRecord
100
AcDbDimStyleTableRecord
  2
Standard
 70
     0
340
11
  0
ENDTAB
  0
TABLE
  2
BLOCK_RECORD
  5
1
330
0
100
AcDbSymbolTable
 70
     0
  0
BLOCK_RECORD
  5
1E
330
1
100
AcDbSymbolTableRecord
100
AcDbBlockTableRecord
  2
*Model_Space
340
21
  0
BLOCK_RECORD
  5
1A
330
1
100
AcDbSymbolTableRecord
100
AcDbBlockTableRecord
  2
*Paper_Space
340
1D
  0
ENDTAB
  0
ENDSEC
  0
SECTION
  2
BLOCKS
  0
BLOCK
  5
1F
330
1E
100
AcDbEntity
  8
0
100
AcDbBlockBegin
  2
*Model_Space
 70
     0
 10
0.0
 20
0.0
 30
0.0
  3
*Model_Space
  1

  0
ENDBLK
  5
20
330
1E
100
AcDbEntity
  8
0
100
AcDbBlockEnd
  0
BLOCK
  5
1B
330
1A
100
AcDbEntity
 67
     1
  8
0
100
AcDbBlockBegin
  2
*Paper_Space
 70
     0
 10
0.0
 20
0.0
 30
0.0
  3
*Paper_Space
  1

  0
ENDBLK
  5
1C
330
1A
100
AcDbEntity
 67
     1
  8
0
100
AcDbBlockEnd
  0
ENDSEC
  0
SECTION
  2
ENTITIES
  0
LINE
  5
22
330
1E
100
AcDbEntity
  8
0
100
AcDbLine
 10
16.4375
 20
-0.0000000000000075
 30
0.0
 11
18.67709999999999
 21
-0.0000000000000076
 31
0.0
  0
LINE
  5
23
330
1E
100
AcDbEntity
  8
0
100
AcDbLine
 10
18.67709999999999
 20
-0.0000000000000076
 30
0.0
 11
20.9738
 21
-0.0000000000000076
 31
0.0
  0
LINE
  5
24
330
1E
100
AcDbEntity
  8
0
100
AcDbLine
 10
20.9738
 20
-0.0000000000000076
 30
0.0
 11
23.30839999999999
 21
-0.0000000000000076
 31
0.0
  0
LINE
  5
25
330
1E
100
AcDbEntity
  8
0
100
AcDbLine
 10
8.453219999999991
 20
-0.0000000000000072
 30
0.0
 11
10.2658
 21
-0.0000000000000073
 31
0.0
  0
LINE
  5
26
330
1E
100
AcDbEntity
  8
0
100
AcDbLine
 10
1.209189999999989
 20
-0.0000000000000065
 30
0.0
 11
1.925389999999989
 21
-0.0000000000000067
 31
0.0
  0
LINE
  5
27
330
1E
100
AcDbEntity
  8
0
100
AcDbLine
 10
0.4319659999999891
 20
-0.0000000000000062
 30
0.0
 11
0.7100439999999891
 21
-0.0000000000000064
 31
0.0
  0
LINE
  5
28
330
1E
100
AcDbEntity
  8
0
100
AcDbLine
 10
0.7100439999999891
 20
-0.0000000000000064
 30
0.0
 11
1.209189999999989
 21
-0.0000000000000065
 31
0.0
  0
LINE
  5
29
330
1E
100
AcDbEntity
  8
0
100
AcDbLine
 10
1.925389999999989
 20
-0.0000000000000067
 30
0.0
 11
2.84964999999999
 21
-0.0000000000000068
 31
0.0
  0
LINE
  5
2A
330
1E
100
AcDbEntity
  8
0
100
AcDbLine
 10
5.29332999999999
 20
-0.000000000000007
 30
0.0
 11
6.79074999999999
 21
-0.0000000000000071
 31
0.0
  0
LINE
  5
2B
330
1E
100
AcDbEntity
  8
0
100
AcDbLine
 10
3.97595999999999
 20
-0.0000000000000069
 30
0.0
 11
5.29332999999999
 21
-0.000000000000007
 31
0.0
  0
LINE
  5
2C
330
1E
100
AcDbEntity
  8
0
100
AcDbLine
 10
2.84964999999999
 20
-0.0000000000000068
 30
0.0
 11
3.97595999999999
 21
-0.0000000000000069
 31
0.0
  0
LINE
  5
2D
330
1E
100
AcDbEntity
  8
0
100
AcDbLine
 10
6.79074999999999
 20
-0.0000000000000071
 30
0.0
 11
8.453219999999991
 21
-0.0000000000000072
 31
0.0
  0
LINE
  5
2E
330
1E
100
AcDbEntity
  8
0
100
AcDbLine
 10
12.2123
 20
-0.0000000000000074
 30
0.0
 11
14.2759
 21
-0.0000000000000075
 31
0.0
  0
LINE
  5
2F
330
1E
100
AcDbEntity
  8
0
100
AcDbLine
 10
10.2658
 20
-0.0000000000000073
 30
0.0
 11
12.2123
 21
-0.0000000000000074
 31
0.0
  0
LINE
  5
30
330
1E
100
AcDbEntity
  8
0
100
AcDbLine
 10
14.2759
 20
-0.0000000000000075
 30
0.0
 11
16.4375
 21
-0.0000000000000075
 31
0.0
  0
LINE
  5
31
330
1E
100
AcDbEntity
  8
0
100
AcDbLine
 10
23.30839999999999
 20
-0.0000000000000076
 30
0.0
 11
25.083
 21
-0.0000000000000061
 31
0.0
  0
LINE
  5
32
330
1E
100
AcDbEntity
  8
0
100
AcDbLine
 10
23.30839999999999
 20
-0.0000000000000076
 30
0.0
 11
25.083
 21
-0.0000000000000076
 31
0.0
  0
LINE
  5
33
330
1E
100
AcDbEntity
  8
0
100
AcDbLine
 10
25.083
 20
-0.0000000000000076
 30
0.0
 11
26.8576
 21
-0.0000000000000076
 31
0.0
  0
LINE
  5
34
330
1E
100
AcDbEntity
  8
0
100
AcDbLine
 10
25.083
 20
-0.0000000000000061
 30
0.0
 11
26.8576
 21
-0.0000000000000046
 31
0.0
  0
LINE
  5
35
330
1E
100
AcDbEntity
  8
0
100
AcDbLine
 10
25.083
 20
-0.0000000000000061
 30
0.0
 11
26.8576
 21
-0.0000000000000076
 31
0.0
  0
LINE
  5
36
330
1E
100
AcDbEntity
  8
0
100
AcDbLine
 10
20.9738
 20
-0.0000000000000046
 30
0.0
 11
23.30839999999999
 21
-0.0000000000000046
 31
0.0
  0
LINE
  5
37
330
1E
100
AcDbEntity
  8
0
100
AcDbLine
 10
0.0899999999999887
 20
4.79214999999999
 30
0.0
 11
0.0899999999999887
 21
0.305879999999994
 31
0.0
  0
LINE
  5
38
330
1E
100
AcDbEntity
  8
0
100
AcDbLine
 10
0.0899999999999887
 20
4.79214999999999
 30
0.0
 11
0.130010999999989
 21
4.94508999999999
 31
0.0
  0
LINE
  5
39
330
1E
100
AcDbEntity
  8
0
100
AcDbLine
 10
0.130010999999989
 20
4.94508999999999
 30
0.0
 11
0.2400489999999889
 21
5.05724999999999
 31
0.0
  0
LINE
  5
3A
330
1E
100
AcDbEntity
  8
0
100
AcDbLine
 10
0.2400489999999889
 20
5.05724999999999
 30
0.0
 11
0.3900859999999891
 21
5.09803999999999
 31
0.0
  0
LINE
  5
3B
330
1E
100
AcDbEntity
  8
0
100
AcDbLine
 10
0.3900859999999891
 20
5.09803999999999
 30
0.0
 11
0.7100439999999891
 21
5.09803999999999
 31
0.0
  0
LINE
  5
3D
330
1E
100
AcDbEntity
  8
0
100
AcDbLine
 10
0.7100439999999891
 20
5.09803999999999
 30
0.0
 11
1.209189999999989
 21
5.09803999999999
 31
0.0
  0
LINE
  5
3E
330
1E
100
AcDbEntity
  8
0
100
AcDbLine
 10
1.209189999999989
 20
5.09803999999999
 30
0.0
 11
1.925389999999989
 21
5.09803999999999
 31
0.0
  0
LINE
  5
40
330
1E
100
AcDbEntity
  8
0
100
AcDbLine
 10
2.95815999999999
 20
5.09803999999999
 30
0.0
 11
3.11561999999999
 21
5.14187999999999
 31
0.0
  0
LINE
  5
43
330
1E
100
AcDbEntity
  8
0
100
AcDbLine
 10
1.925389999999989
 20
5.09803999999999
 30
0.0
 11
2.95815999999999
 21
5.09803999999999
 31
0.0
  0
LINE
  5
4A
330
1E
100
AcDbEntity
  8
0
100
AcDbLine
 10
4.10099999999999
 20
5.26116999999999
 30
0.0
 11
4.80518999999999
 21
5.26116999999999
 31
0.0
  0
LINE
  5
4B
330
1E
100
AcDbEntity
  8
0
100
AcDbLine
 10
3.59885999999999
 20
5.26116999999999
 30
0.0
 11
4.10099999999999
 21
5.26116999999999
 31
0.0
  0
LINE
  5
4C
330
1E
100
AcDbEntity
  8
0
100
AcDbLine
 10
3.30376999999999
 20
5.26116999999999
 30
0.0
 11
3.59885999999999
 21
5.26116999999999
 31
0.0
  0
LINE
  5
4D
330
1E
100
AcDbEntity
  8
0
100
AcDbLine
 10
22.7342
 20
5.26116999999999
 30
0.0
 11
24.8768
 21
5.26116999999999
 31
0.0
  0
LINE
  5
4E
330
1E
100
AcDbEntity
  8
0
100
AcDbLine
 10
20.6157
 20
5.26116999999999
 30
0.0
 11
22.7342
 21
5.26116999999999
 31
0.0
  0
LINE
  5
4F
330
1E
100
AcDbEntity
  8
0
100
AcDbLine
 10
18.54009999999999
 20
5.26116999999999
 30
0.0
 11
20.6157
 21
5.26116999999999
 31
0.0
  0
LINE
  5
50
330
1E
100
AcDbEntity
  8
0
100
AcDbLine
 10
16.52649999999999
 20
5.26116999999999
 30
0.0
 11
18.54009999999999
 21
5.26116999999999
 31
0.0
  0
LINE
  5
51
330
1E
100
AcDbEntity
  8
0
100
AcDbLine
 10
14.596
 20
5.26116999999999
 30
0.0
 11
16.52649999999999
 21
5.26116999999999
 31
0.0
  0
LINE
  5
52
330
1E
100
AcDbEntity
  8
0
100
AcDbLine
 10
12.7665
 20
5.26116999999999
 30
0.0
 11
14.596
 21
5.26116999999999
 31
0.0
  0
LINE
  5
53
330
1E
100
AcDbEntity
  8
0
100
AcDbLine
 10
11.05499999999999
 20
5.26116999999999
 30
0.0
 11
12.7665
 21
5.26116999999999
 31
0.0
  0
LINE
  5
54
330
1E
100
AcDbEntity
  8
0
100
AcDbLine
 10
9.478499999999989
 20
5.26116999999999
 30
0.0
 11
11.05499999999999
 21
5.26116999999999
 31
0.0
  0
LINE
  5
55
330
1E
100
AcDbEntity
  8
0
100
AcDbLine
 10
8.053099999999989
 20
5.26116999999999
 30
0.0
 11
9.478499999999989
 21
5.26116999999999
 31
0.0
  0
LINE
  5
56
330
1E
100
AcDbEntity
  8
0
100
AcDbLine
 10
6.79074999999999
 20
5.26116999999999
 30
0.0
 11
8.053099999999989
 21
5.26116999999999
 31
0.0
  0
LINE
  5
57
330
1E
100
AcDbEntity
  8
0
100
AcDbLine
 10
5.70444999999999
 20
5.26116999999999
 30
0.0
 11
6.79074999999999
 21
5.26116999999999
 31
0.0
  0
LINE
  5
58
330
1E
100
AcDbEntity
  8
0
100
AcDbLine
 10
4.80518999999999
 20
5.26116999999999
 30
0.0
 11
5.70444999999999
 21
5.26116999999999
 31
0.0
  0
LINE
  5
59
330
1E
100
AcDbEntity
  8
0
100
AcDbLine
 10
3.22573999999999
 20
5.26116999999999
 30
0.0
 11
3.30376999999999
 21
5.26116999999999
 31
0.0
  0
LINE
  5
5A
330
1E
100
AcDbEntity
  8
0
100
AcDbLine
 10
3.22573999999999
 20
5.26116999999999
 30
0.0
 11
3.23678999999999
 21
5.35408999999999
 31
0.0
  0
LINE
  5
5B
330
1E
100
AcDbEntity
  8
0
100
AcDbLine
 10
3.11561999999999
 20
5.14187999999999
 30
0.0
 11
3.22573999999999
 21
5.26116999999999
 31
0.0
  0
LINE
  5
5C
330
1E
100
AcDbEntity
  8
0
100
AcDbLine
 10
0.130004999999989
 20
0.152939999999994
 30
0.0
 11
0.2400489999999889
 21
0.0407799999999939
 31
0.0
  0
LINE
  5
5D
330
1E
100
AcDbEntity
  8
0
100
AcDbLine
 10
0.0899999999999887
 20
0.305879999999994
 30
0.0
 11
0.130004999999989
 21
0.152939999999994
 31
0.0
  0
LINE
  5
5E
330
1E
100
AcDbEntity
  8
0
100
AcDbLine
 10
0.0899999999999887
 20
0.305879999999994
 30
0.0
 11
0.0899999999999887
 21
4.79214999999999
 31
0.0
  0
LINE
  5
5F
330
1E
100
AcDbEntity
  8
0
100
AcDbLine
 10
0.2400489999999889
 20
0.0407799999999939
 30
0.0
 11
0.3900859999999891
 21
-0.0000000000000061
 31
0.0
  0
LINE
  5
60
330
1E
100
AcDbEntity
  8
0
100
AcDbLine
 10
0.2400489999999889
 20
0.0407799999999939
 30
0.0
 11
0.3900859999999891
 21
-0.0000000000000061
 31
0.0
  0
LINE
  5
61
330
1E
100
AcDbEntity
  8
0
100
AcDbLine
 10
25.083
 20
5.26116999999999
 30
0.0
 11
25.2892
 21
5.26116999999999
 31
0.0
  0
LINE
  5
64
330
1E
100
AcDbEntity
  8
0
100
AcDbLine
 10
24.8768
 20
5.26116999999999
 30
0.0
 11
25.083
 21
5.26116999999999
 31
0.0
  0
LINE
  5
65
330
1E
100
AcDbEntity
  8
0
100
AcDbLine
 10
23.30839999999999
 20
-0.0000000000000046
 30
0.0
 11
25.083
 21
-0.0000000000000046
 31
0.0
  0
LINE
  5
66
330
1E
100
AcDbEntity
  8
0
100
AcDbLine
 10
23.30839999999999
 20
-0.0000000000000046
 30
0.0
 11
25.083
 21
-0.0000000000000061
 31
0.0
  0
LINE
  5
67
330
1E
100
AcDbEntity
  8
0
100
AcDbLine
 10
26.8576
 20
-0.0000000000000076
 30
0.0
 11
29.1922
 21
-0.0000000000000076
 31
0.0
  0
LINE
  5
68
330
1E
100
AcDbEntity
  8
0
100
AcDbLine
 10
29.1922
 20
-0.0000000000000076
 30
0.0
 11
31.4889
 21
-0.0000000000000076
 31
0.0
  0
LINE
  5
69
330
1E
100
AcDbEntity
  8
0
100
AcDbLine
 10
31.4889
 20
-0.0000000000000076
 30
0.0
 11
33.72849999999999
 21
-0.0000000000000075
 31
0.0
  0
LINE
  5
6A
330
1E
100
AcDbEntity
  8
0
100
AcDbLine
 10
26.8576
 20
-0.0000000000000046
 30
0.0
 11
29.1922
 21
-0.0000000000000046
 31
0.0
  0
LINE
  5
6B
330
1E
100
AcDbEntity
  8
0
100
AcDbLine
 10
33.72849999999999
 20
-0.0000000000000075
 30
0.0
 11
35.8901
 21
-0.0000000000000075
 31
0.0
  0
LINE
  5
6C
330
1E
100
AcDbEntity
  8
0
100
AcDbLine
 10
37.9537
 20
-0.0000000000000074
 30
0.0
 11
39.90019999999999
 21
-0.0000000000000073
 31
0.0
  0
LINE
  5
6D
330
1E
100
AcDbEntity
  8
0
100
AcDbLine
 10
41.71269999999999
 20
-0.0000000000000072
 30
0.0
 11
43.3752
 21
-0.0000000000000071
 31
0.0
  0
LINE
  5
6E
330
1E
100
AcDbEntity
  8
0
100
AcDbLine
 10
46.18999999999999
 20
-0.0000000000000069
 30
0.0
 11
47.3163
 21
-0.0000000000000068
 31
0.0
  0
LINE
  5
6F
330
1E
100
AcDbEntity
  8
0
100
AcDbLine
 10
44.8726
 20
-0.000000000000007
 30
0.0
 11
46.18999999999999
 21
-0.0000000000000069
 31
0.0
  0
LINE
  5
70
330
1E
100
AcDbEntity
  8
0
100
AcDbLine
 10
47.3163
 20
-0.0000000000000068
 30
0.0
 11
48.24049999999999
 21
-0.0000000000000067
 31
0.0
  0
LINE
  5
71
330
1E
100
AcDbEntity
  8
0
100
AcDbLine
 10
48.24049999999999
 20
-0.0000000000000067
 30
0.0
 11
48.95669999999999
 21
-0.0000000000000065
 31
0.0
  0
LINE
  5
72
330
1E
100
AcDbEntity
  8
0
100
AcDbLine
 10
43.3752
 20
-0.0000000000000071
 30
0.0
 11
44.8726
 21
-0.000000000000007
 31
0.0
  0
LINE
  5
73
330
1E
100
AcDbEntity
  8
0
100
AcDbLine
 10
39.90019999999999
 20
-0.0000000000000073
 30
0.0
 11
41.71269999999999
 21
-0.0000000000000072
 31
0.0
  0
LINE
  5
74
330
1E
100
AcDbEntity
  8
0
100
AcDbLine
 10
35.8901
 20
-0.0000000000000075
 30
0.0
 11
37.9537
 21
-0.0000000000000074
 31
0.0
  0
LINE
  5
75
330
1E
100
AcDbEntity
  8
0
100
AcDbLine
 10
49.4559
 20
-0.0000000000000064
 30
0.0
 11
49.73399999999999
 21
-0.0000000000000062
 31
0.0
  0
LINE
  5
76
330
1E
100
AcDbEntity
  8
0
100
AcDbLine
 10
48.95669999999999
 20
-0.0000000000000065
 30
0.0
 11
49.4559
 21
-0.0000000000000064
 31
0.0
  0
LINE
  5
77
330
1E
100
AcDbEntity
  8
0
100
AcDbLine
 10
49.4559
 20
5.09803999999999
 30
0.0
 11
49.77579999999999
 21
5.09803999999999
 31
0.0
  0
LINE
  5
78
330
1E
100
AcDbEntity
  8
0
100
AcDbLine
 10
49.77579999999999
 20
-0.0000000000000061
 30
0.0
 11
49.92589999999999
 21
0.0407799999999939
 31
0.0
  0
LINE
  5
79
330
1E
100
AcDbEntity
  8
0
100
AcDbLine
 10
50.03589999999999
 20
0.152939999999994
 30
0.0
 11
50.0759
 21
0.305879999999994
 31
0.0
  0
LINE
  5
7A
330
1E
100
AcDbEntity
  8
0
100
AcDbLine
 10
49.92589999999999
 20
0.0407799999999939
 30
0.0
 11
50.03589999999999
 21
0.152939999999994
 31
0.0
  0
LINE
  5
7B
330
1E
100
AcDbEntity
  8
0
100
AcDbLine
 10
49.77579999999999
 20
-0.0000000000000061
 30
0.0
 11
49.92589999999999
 21
0.0407799999999939
 31
0.0
  0
LINE
  5
7C
330
1E
100
AcDbEntity
  8
0
100
AcDbLine
 10
49.92589999999999
 20
5.05724999999999
 30
0.0
 11
50.03589999999999
 21
4.94508999999999
 31
0.0
  0
LINE
  5
7D
330
1E
100
AcDbEntity
  8
0
100
AcDbLine
 10
49.77579999999999
 20
5.09803999999999
 30
0.0
 11
49.92589999999999
 21
5.05724999999999
 31
0.0
  0
LINE
  5
7E
330
1E
100
AcDbEntity
  8
0
100
AcDbLine
 10
50.0759
 20
4.79214999999999
 30
0.0
 11
50.0759
 21
0.305879999999994
 31
0.0
  0
LINE
  5
7F
330
1E
100
AcDbEntity
  8
0
100
AcDbLine
 10
50.03589999999999
 20
4.94508999999999
 30
0.0
 11
50.0759
 21
4.79214999999999
 31
0.0
  0
LINE
  5
80
330
1E
100
AcDbEntity
  8
0
100
AcDbLine
 10
50.0759
 20
0.305879999999994
 30
0.0
 11
50.0759
 21
4.79214999999999
 31
0.0
  0
LINE
  5
88
330
1E
100
AcDbEntity
  8
0
100
AcDbLine
 10
48.24049999999999
 20
5.09803999999999
 30
0.0
 11
48.95669999999999
 21
5.09803999999999
 31
0.0
  0
LINE
  5
89
330
1E
100
AcDbEntity
  8
0
100
AcDbLine
 10
47.3153
 20
5.09803999999999
 30
0.0
 11
48.24049999999999
 21
5.09803999999999
 31
0.0
  0
LINE
  5
8A
330
1E
100
AcDbEntity
  8
0
100
AcDbLine
 10
48.95669999999999
 20
5.09803999999999
 30
0.0
 11
49.4559
 21
5.09803999999999
 31
0.0
  0
LINE
  5
8C
330
1E
100
AcDbEntity
  8
0
100
AcDbLine
 10
25.2892
 20
5.26116999999999
 30
0.0
 11
27.4318
 21
5.26116999999999
 31
0.0
  0
LINE
  5
8D
330
1E
100
AcDbEntity
  8
0
100
AcDbLine
 10
31.6259
 20
5.26116999999999
 30
0.0
 11
33.63949999999999
 21
5.26116999999999
 31
0.0
  0
LINE
  5
8E
330
1E
100
AcDbEntity
  8
0
100
AcDbLine
 10
29.5503
 20
5.26116999999999
 30
0.0
 11
31.6259
 21
5.26116999999999
 31
0.0
  0
LINE
  5
8F
330
1E
100
AcDbEntity
  8
0
100
AcDbLine
 10
27.4318
 20
5.26116999999999
 30
0.0
 11
29.5503
 21
5.26116999999999
 31
0.0
  0
LINE
  5
90
330
1E
100
AcDbEntity
  8
0
100
AcDbLine
 10
46.9402
 20
5.26116999999999
 30
0.0
 11
47.05029999999999
 21
5.14187999999999
 31
0.0
  0
LINE
  5
91
330
1E
100
AcDbEntity
  8
0
100
AcDbLine
 10
47.05029999999999
 20
5.14187999999999
 30
0.0
 11
47.3153
 21
5.09803999999999
 31
0.0
  0
LINE
  5
93
330
1E
100
AcDbEntity
  8
0
100
AcDbLine
 10
46.8622
 20
5.26116999999999
 30
0.0
 11
46.9402
 21
5.26116999999999
 31
0.0
  0
LINE
  5
94
330
1E
100
AcDbEntity
  8
0
100
AcDbLine
 10
46.5671
 20
5.26116999999999
 30
0.0
 11
46.8622
 21
5.26116999999999
 31
0.0
  0
LINE
  5
95
330
1E
100
AcDbEntity
  8
0
100
AcDbLine
 10
35.57
 20
5.26116999999999
 30
0.0
 11
37.3995
 21
5.26116999999999
 31
0.0
  0
LINE
  5
96
330
1E
100
AcDbEntity
  8
0
100
AcDbLine
 10
39.11099999999999
 20
5.26116999999999
 30
0.0
 11
40.6874
 21
5.26116999999999
 31
0.0
  0
LINE
  5
97
330
1E
100
AcDbEntity
  8
0
100
AcDbLine
 10
37.3995
 20
5.26116999999999
 30
0.0
 11
39.11099999999999
 21
5.26116999999999
 31
0.0
  0
LINE
  5
98
330
1E
100
AcDbEntity
  8
0
100
AcDbLine
 10
43.3752
 20
5.26116999999999
 30
0.0
 11
44.4615
 21
5.26116999999999
 31
0.0
  0
LINE
  5
99
330
1E
100
AcDbEntity
  8
0
100
AcDbLine
 10
45.3607
 20
5.26116999999999
 30
0.0
 11
46.06489999999999
 21
5.26116999999999
 31
0.0
  0
LINE
  5
9A
330
1E
100
AcDbEntity
  8
0
100
AcDbLine
 10
44.4615
 20
5.26116999999999
 30
0.0
 11
45.3607
 21
5.26116999999999
 31
0.0
  0
LINE
  5
9B
330
1E
100
AcDbEntity
  8
0
100
AcDbLine
 10
42.1128
 20
5.26116999999999
 30
0.0
 11
43.3752
 21
5.26116999999999
 31
0.0
  0
LINE
  5
9C
330
1E
100
AcDbEntity
  8
0
100
AcDbLine
 10
40.6874
 20
5.26116999999999
 30
0.0
 11
42.1128
 21
5.26116999999999
 31
0.0
  0
LINE
  5
9D
330
1E
100
AcDbEntity
  8
0
100
AcDbLine
 10
46.06489999999999
 20
5.26116999999999
 30
0.0
 11
46.5671
 21
5.26116999999999
 31
0.0
  0
LINE
  5
9E
330
1E
100
AcDbEntity
  8
0
100
AcDbLine
 10
33.63949999999999
 20
5.26116999999999
 30
0.0
 11
35.57
 21
5.26116999999999
 31
0.0
  0
LINE
  5
A0
330
1E
100
AcDbEntity
  8
0
100
AcDbLine
 10
25.083
 20
-0.0000000000000046
 30
0.0
 11
26.8576
 21
-0.0000000000000046
 31
0.0
  0
LINE
  5
A4
330
1E
100
AcDbEntity
  8
0
100
AcDbLine
 10
3.02368999999999
 20
10.033
 30
0.0
 11
3.13372999999999
 21
10.1523
 31
0.0
  0
LINE
  5
A5
330
1E
100
AcDbEntity
  8
0
100
AcDbLine
 10
2.98968999999999
 20
9.87187999999999
 30
0.0
 11
3.02368999999999
 21
10.033
 31
0.0
  0
LINE
  5
A6
330
1E
100
AcDbEntity
  8
0
100
AcDbLine
 10
2.98968999999999
 20
9.87187999999999
 30
0.0
 11
3.25075999999999
 21
5.42226999999999
 31
0.0
  0
LINE
  5
A8
330
1E
100
AcDbEntity
  8
0
100
AcDbLine
 10
3.23678999999999
 20
5.35408999999999
 30
0.0
 11
3.25075999999999
 21
5.42226999999999
 31
0.0
  0
LINE
  5
AB
330
1E
100
AcDbEntity
  8
0
100
AcDbLine
 10
3.28876999999999
 20
10.19609999999999
 30
0.0
 11
3.41479999999999
 21
10.19609999999999
 31
0.0
  0
LINE
  5
AC
330
1E
100
AcDbEntity
  8
0
100
AcDbLine
 10
3.28876999999999
 20
10.19609999999999
 30
0.0
 11
3.45271999999999
 21
13.2549
 31
0.0
  0
LINE
  5
AD
330
1E
100
AcDbEntity
  8
0
100
AcDbLine
 10
3.13372999999999
 20
10.1523
 30
0.0
 11
3.28876999999999
 21
10.19609999999999
 31
0.0
  0
LINE
  5
AE
330
1E
100
AcDbEntity
  8
0
100
AcDbLine
 10
3.41479999999999
 20
10.19609999999999
 30
0.0
 11
3.76389999999999
 21
10.19609999999999
 31
0.0
  0
LINE
  5
AF
330
1E
100
AcDbEntity
  8
0
100
AcDbLine
 10
3.45271999999999
 20
13.2549
 30
0.0
 11
3.63886999999999
 21
13.2549
 31
0.0
  0
LINE
  5
B0
330
1E
100
AcDbEntity
  8
0
100
AcDbLine
 10
3.10671999999999
 20
13.3915
 30
0.0
 11
3.45271999999999
 21
13.2549
 31
0.0
  0
LINE
  5
B2
330
1E
100
AcDbEntity
  8
0
100
AcDbLine
 10
3.63886999999999
 20
13.2549
 30
0.0
 11
4.15200999999999
 21
13.2549
 31
0.0
  0
LINE
  5
B3
330
1E
100
AcDbEntity
  8
0
100
AcDbLine
 10
3.76389999999999
 20
10.19609999999999
 30
0.0
 11
4.33205999999999
 21
10.19609999999999
 31
0.0
  0
LINE
  5
B6
330
1E
100
AcDbEntity
  8
0
100
AcDbLine
 10
2.28348999999999
 20
22.8841
 30
0.0
 11
2.94866999999999
 21
13.727
 31
0.0
  0
LINE
  5
B7
330
1E
100
AcDbEntity
  8
0
100
AcDbLine
 10
2.33349999999999
 20
23.1482
 30
0.0
 11
2.507549999999989
 21
23.349
 31
0.0
  0
LINE
  5
B8
330
1E
100
AcDbEntity
  8
0
100
AcDbLine
 10
2.758620000000099
 20
23.4316
 30
0.0
 11
13.9148
 21
23.82829999999999
 31
0.0
  0
LINE
  5
B9
330
1E
100
AcDbEntity
  8
0
100
AcDbLine
 10
2.758620000000099
 20
23.4316
 30
0.0
 11
13.9148
 21
23.82829999999999
 31
0.0
  0
LINE
  5
BA
330
1E
100
AcDbEntity
  8
0
100
AcDbLine
 10
2.75861999999999
 20
23.4316
 30
0.0
 11
13.9148
 21
23.82829999999999
 31
0.0
  0
LINE
  5
BB
330
1E
100
AcDbEntity
  8
0
100
AcDbLine
 10
2.75861999999999
 20
23.4316
 30
0.0
 11
13.9148
 21
23.82829999999999
 31
0.0
  0
LINE
  5
BC
330
1E
100
AcDbEntity
  8
0
100
AcDbLine
 10
2.52597999999999
 20
23.349
 30
0.0
 11
2.77676999999999
 21
23.4316
 31
0.0
  0
LINE
  5
BD
330
1E
100
AcDbEntity
  8
0
100
AcDbLine
 10
2.507549999999989
 20
23.349
 30
0.0
 11
2.75861999999999
 21
23.4316
 31
0.0
  0
LINE
  5
BE
330
1E
100
AcDbEntity
  8
0
100
AcDbLine
 10
2.28348999999999
 20
22.8841
 30
0.0
 11
2.94866999999999
 21
13.727
 31
0.0
  0
LINE
  5
BF
330
1E
100
AcDbEntity
  8
0
100
AcDbLine
 10
2.28348999999999
 20
22.8841
 30
0.0
 11
2.33349999999999
 21
23.1482
 31
0.0
  0
LINE
  5
C0
330
1E
100
AcDbEntity
  8
0
100
AcDbLine
 10
2.94866999999999
 20
13.727
 30
0.0
 11
3.10671999999999
 21
13.3915
 31
0.0
  0
LINE
  5
C2
330
1E
100
AcDbEntity
  8
0
100
AcDbLine
 10
4.33205999999999
 20
10.19609999999999
 30
0.0
 11
5.11227999999999
 21
10.19609999999999
 31
0.0
  0
LINE
  5
C3
330
1E
100
AcDbEntity
  8
0
100
AcDbLine
 10
5.11227999999999
 20
10.19609999999999
 30
0.0
 11
6.09755999999999
 21
10.19609999999999
 31
0.0
  0
LINE
  5
C4
330
1E
100
AcDbEntity
  8
0
100
AcDbLine
 10
6.09755999999999
 20
10.19609999999999
 30
0.0
 11
7.27788999999999
 21
10.19609999999999
 31
0.0
  0
LINE
  5
C5
330
1E
100
AcDbEntity
  8
0
100
AcDbLine
 10
4.15200999999999
 20
13.2549
 30
0.0
 11
4.97123999999999
 21
13.2549
 31
0.0
  0
LINE
  5
C6
330
1E
100
AcDbEntity
  8
0
100
AcDbLine
 10
6.08354999999999
 20
13.2549
 30
0.0
 11
7.47293999999999
 21
13.2549
 31
0.0
  0
LINE
  5
C7
330
1E
100
AcDbEntity
  8
0
100
AcDbLine
 10
7.47293999999999
 20
13.2549
 30
0.0
 11
9.11839999999999
 21
13.2549
 31
0.0
  0
LINE
  5
C8
330
1E
100
AcDbEntity
  8
0
100
AcDbLine
 10
4.97123999999999
 20
13.2549
 30
0.0
 11
6.08354999999999
 21
13.2549
 31
0.0
  0
LINE
  5
C9
330
1E
100
AcDbEntity
  8
0
100
AcDbLine
 10
7.27788999999999
 20
10.19609999999999
 30
0.0
 11
8.64026999999999
 21
10.19609999999999
 31
0.0
  0
LINE
  5
CA
330
1E
100
AcDbEntity
  8
0
100
AcDbLine
 10
8.64026999999999
 20
10.19609999999999
 30
0.0
 11
10.17169999999999
 21
10.19609999999999
 31
0.0
  0
LINE
  5
CC
330
1E
100
AcDbEntity
  8
0
100
AcDbLine
 10
10.17169999999999
 20
10.19609999999999
 30
0.0
 11
11.8552
 21
10.19609999999999
 31
0.0
  0
LINE
  5
CD
330
1E
100
AcDbEntity
  8
0
100
AcDbLine
 10
9.11839999999999
 20
13.2549
 30
0.0
 11
10.997
 21
13.2549
 31
0.0
  0
LINE
  5
CE
330
1E
100
AcDbEntity
  8
0
100
AcDbLine
 10
10.997
 20
13.2549
 30
0.0
 11
13.0805
 21
13.2549
 31
0.0
  0
LINE
  5
CF
330
1E
100
AcDbEntity
  8
0
100
AcDbLine
 10
11.8552
 20
10.19609999999999
 30
0.0
 11
13.67469999999999
 21
10.19609999999999
 31
0.0
  0
LINE
  5
D2
330
1E
100
AcDbEntity
  8
0
100
AcDbLine
 10
13.67469999999999
 20
10.19609999999999
 30
0.0
 11
15.6123
 21
10.19609999999999
 31
0.0
  0
LINE
  5
D3
330
1E
100
AcDbEntity
  8
0
100
AcDbLine
 10
13.0805
 20
13.2549
 30
0.0
 11
15.3392
 21
13.2549
 31
0.0
  0
LINE
  5
D4
330
1E
100
AcDbEntity
  8
0
100
AcDbLine
 10
15.3392
 20
13.2549
 30
0.0
 11
17.7408
 21
13.2549
 31
0.0
  0
LINE
  5
D5
330
1E
100
AcDbEntity
  8
0
100
AcDbLine
 10
15.6123
 20
10.19609999999999
 30
0.0
 11
17.6458
 21
10.19609999999999
 31
0.0
  0
LINE
  5
D8
330
1E
100
AcDbEntity
  8
0
100
AcDbLine
 10
17.6458
 20
10.19609999999999
 30
0.0
 11
19.7564
 21
10.19609999999999
 31
0.0
  0
LINE
  5
D9
330
1E
100
AcDbEntity
  8
0
100
AcDbLine
 10
19.7564
 20
10.19609999999999
 30
0.0
 11
21.92099999999999
 21
10.19609999999999
 31
0.0
  0
LINE
  5
DA
330
1E
100
AcDbEntity
  8
0
100
AcDbLine
 10
17.7408
 20
13.2549
 30
0.0
 11
20.2475
 21
13.2549
 31
0.0
  0
LINE
  5
DB
330
1E
100
AcDbEntity
  8
0
100
AcDbLine
 10
20.2475
 20
13.2549
 30
0.0
 11
22.82529999999999
 21
13.2549
 31
0.0
  0
LINE
  5
DC
330
1E
100
AcDbEntity
  8
0
100
AcDbLine
 10
21.92099999999999
 20
10.19609999999999
 30
0.0
 11
24.1176
 21
10.19609999999999
 31
0.0
  0
LINE
  5
DF
330
1E
100
AcDbEntity
  8
0
100
AcDbLine
 10
25.083
 20
10.19609999999999
 30
0.0
 11
26.0484
 21
10.19609999999999
 31
0.0
  0
LINE
  5
E0
330
1E
100
AcDbEntity
  8
0
100
AcDbLine
 10
26.0484
 20
10.19609999999999
 30
0.0
 11
28.245
 21
10.19609999999999
 31
0.0
  0
LINE
  5
E1
330
1E
100
AcDbEntity
  8
0
100
AcDbLine
 10
28.245
 20
10.19609999999999
 30
0.0
 11
30.4096
 21
10.19609999999999
 31
0.0
  0
LINE
  5
E2
330
1E
100
AcDbEntity
  8
0
100
AcDbLine
 10
30.4096
 20
10.19609999999999
 30
0.0
 11
32.5202
 21
10.19609999999999
 31
0.0
  0
LINE
  5
E3
330
1E
100
AcDbEntity
  8
0
100
AcDbLine
 10
32.5202
 20
10.19609999999999
 30
0.0
 11
34.5537
 21
10.19609999999999
 31
0.0
  0
LINE
  5
E4
330
1E
100
AcDbEntity
  8
0
100
AcDbLine
 10
39.9943
 20
10.19609999999999
 30
0.0
 11
41.52569999999999
 21
10.19609999999999
 31
0.0
  0
LINE
  5
E5
330
1E
100
AcDbEntity
  8
0
100
AcDbLine
 10
41.52569999999999
 20
10.19609999999999
 30
0.0
 11
42.88800000000001
 21
10.19609999999999
 31
0.0
  0
LINE
  5
E6
330
1E
100
AcDbEntity
  8
0
100
AcDbLine
 10
42.88800000000001
 20
10.19609999999999
 30
0.0
 11
44.06839999999999
 21
10.19609999999999
 31
0.0
  0
LINE
  5
E7
330
1E
100
AcDbEntity
  8
0
100
AcDbLine
 10
44.06839999999999
 20
10.19609999999999
 30
0.0
 11
45.0537
 21
10.19609999999999
 31
0.0
  0
LINE
  5
E8
330
1E
100
AcDbEntity
  8
0
100
AcDbLine
 10
45.0537
 20
10.19609999999999
 30
0.0
 11
45.8339
 21
10.19609999999999
 31
0.0
  0
LINE
  5
E9
330
1E
100
AcDbEntity
  8
0
100
AcDbLine
 10
45.8339
 20
10.19609999999999
 30
0.0
 11
46.402
 21
10.19609999999999
 31
0.0
  0
LINE
  5
EA
330
1E
100
AcDbEntity
  8
0
100
AcDbLine
 10
46.402
 20
10.19609999999999
 30
0.0
 11
46.7511
 21
10.19609999999999
 31
0.0
  0
LINE
  5
EB
330
1E
100
AcDbEntity
  8
0
100
AcDbLine
 10
46.9291
 20
5.35408999999999
 30
0.0
 11
46.9402
 21
5.26116999999999
 31
0.0
  0
LINE
  5
EC
330
1E
100
AcDbEntity
  8
0
100
AcDbLine
 10
46.91519999999999
 20
5.42226999999999
 30
0.0
 11
47.1762
 21
9.87187999999999
 31
0.0
  0
LINE
  5
ED
330
1E
100
AcDbEntity
  8
0
100
AcDbLine
 10
46.91519999999999
 20
5.42226999999999
 30
0.0
 11
46.9291
 21
5.35408999999999
 31
0.0
  0
LINE
  5
EE
330
1E
100
AcDbEntity
  8
0
100
AcDbLine
 10
47.0258
 20
10.1523
 30
0.0
 11
47.13569999999999
 21
10.033
 31
0.0
  0
LINE
  5
EF
330
1E
100
AcDbEntity
  8
0
100
AcDbLine
 10
46.8772
 20
10.19609999999999
 30
0.0
 11
47.0322
 21
10.1523
 31
0.0
  0
LINE
  5
F0
330
1E
100
AcDbEntity
  8
0
100
AcDbLine
 10
47.13569999999999
 20
10.033
 30
0.0
 11
47.1698
 21
9.87187999999999
 31
0.0
  0
LINE
  5
F1
330
1E
100
AcDbEntity
  8
0
100
AcDbLine
 10
47.1422
 20
10.033
 30
0.0
 11
47.1762
 21
9.87187999999999
 31
0.0
  0
LINE
  5
F2
330
1E
100
AcDbEntity
  8
0
100
AcDbLine
 10
47.0322
 20
10.1523
 30
0.0
 11
47.1422
 21
10.033
 31
0.0
  0
LINE
  5
F5
330
1E
100
AcDbEntity
  8
0
100
AcDbLine
 10
46.7511
 20
10.19609999999999
 30
0.0
 11
46.8772
 21
10.19609999999999
 31
0.0
  0
LINE
  5
F6
330
1E
100
AcDbEntity
  8
0
100
AcDbLine
 10
36.4913
 20
10.19609999999999
 30
0.0
 11
38.3108
 21
10.19609999999999
 31
0.0
  0
LINE
  5
F7
330
1E
100
AcDbEntity
  8
0
100
AcDbLine
 10
38.3108
 20
10.19609999999999
 30
0.0
 11
39.9943
 21
10.19609999999999
 31
0.0
  0
LINE
  5
F8
330
1E
100
AcDbEntity
  8
0
100
AcDbLine
 10
46.8707
 20
10.19609999999999
 30
0.0
 11
47.0258
 21
10.1523
 31
0.0
  0
LINE
  5
F9
330
1E
100
AcDbEntity
  8
0
100
AcDbLine
 10
34.5537
 20
10.19609999999999
 30
0.0
 11
36.4913
 21
10.19609999999999
 31
0.0
  0
LINE
  5
FA
330
1E
100
AcDbEntity
  8
0
100
AcDbLine
 10
25.083
 20
13.2549
 30
0.0
 11
27.3407
 21
13.2549
 31
0.0
  0
LINE
  5
FB
330
1E
100
AcDbEntity
  8
0
100
AcDbLine
 10
27.3407
 20
13.2549
 30
0.0
 11
29.9185
 21
13.2549
 31
0.0
  0
LINE
  5
100
330
1E
100
AcDbEntity
  8
0
100
AcDbLine
 10
29.9185
 20
13.2549
 30
0.0
 11
32.42519999999999
 21
13.2549
 31
0.0
  0
LINE
  5
101
330
1E
100
AcDbEntity
  8
0
100
AcDbLine
 10
41.0475
 20
13.2549
 30
0.0
 11
42.693
 21
13.2549
 31
0.0
  0
LINE
  5
102
330
1E
100
AcDbEntity
  8
0
100
AcDbLine
 10
42.693
 20
13.2549
 30
0.0
 11
44.0824
 21
13.2549
 31
0.0
  0
LINE
  5
103
330
1E
100
AcDbEntity
  8
0
100
AcDbLine
 10
44.0824
 20
13.2549
 30
0.0
 11
45.1947
 21
13.2549
 31
0.0
  0
LINE
  5
104
330
1E
100
AcDbEntity
  8
0
100
AcDbLine
 10
45.1947
 20
13.2549
 30
0.0
 11
46.0139
 21
13.2549
 31
0.0
  0
LINE
  5
105
330
1E
100
AcDbEntity
  8
0
100
AcDbLine
 10
46.0139
 20
13.2549
 30
0.0
 11
46.52709999999999
 21
13.2549
 31
0.0
  0
LINE
  5
106
330
1E
100
AcDbEntity
  8
0
100
AcDbLine
 10
46.52709999999999
 20
13.2549
 30
0.0
 11
46.7132
 21
13.2549
 31
0.0
  0
LINE
  5
109
330
1E
100
AcDbEntity
  8
0
100
AcDbLine
 10
34.8268
 20
13.2549
 30
0.0
 11
37.0855
 21
13.2549
 31
0.0
  0
LINE
  5
10C
330
1E
100
AcDbEntity
  8
0
100
AcDbLine
 10
37.0855
 20
13.2549
 30
0.0
 11
39.169
 21
13.2549
 31
0.0
  0
LINE
  5
10F
330
1E
100
AcDbEntity
  8
0
100
AcDbLine
 10
47.05919999999999
 20
13.3915
 30
0.0
 11
47.21729999999999
 21
13.727
 31
0.0
  0
LINE
  5
113
330
1E
100
AcDbEntity
  8
0
100
AcDbLine
 10
39.169
 20
13.2549
 30
0.0
 11
41.0475
 21
13.2549
 31
0.0
  0
LINE
  5
115
330
1E
100
AcDbEntity
  8
0
100
AcDbLine
 10
46.7132
 20
13.2549
 30
0.0
 11
46.8772
 21
10.19609999999999
 31
0.0
  0
LINE
  5
116
330
1E
100
AcDbEntity
  8
0
100
AcDbLine
 10
46.7132
 20
13.2549
 30
0.0
 11
47.05919999999999
 21
13.3915
 31
0.0
  0
LINE
  5
117
330
1E
100
AcDbEntity
  8
0
100
AcDbLine
 10
32.42519999999999
 20
13.2549
 30
0.0
 11
34.8268
 21
13.2549
 31
0.0
  0
LINE
  5
119
330
1E
100
AcDbEntity
  8
0
100
AcDbLine
 10
22.82529999999999
 20
13.2549
 30
0.0
 11
25.083
 21
13.2549
 31
0.0
  0
LINE
  5
11A
330
1E
100
AcDbEntity
  8
0
100
AcDbLine
 10
24.1176
 20
10.19609999999999
 30
0.0
 11
25.083
 21
10.19609999999999
 31
0.0
  0
LINE
  5
11C
330
1E
100
AcDbEntity
  8
0
100
AcDbLine
 10
36.25119999999999
 20
23.82829999999999
 30
0.0
 11
47.40729999999989
 21
23.4316
 31
0.0
  0
LINE
  5
11D
330
1E
100
AcDbEntity
  8
0
100
AcDbLine
 10
47.8324
 20
23.1482
 30
0.0
 11
47.8824
 21
22.8841
 31
0.0
  0
LINE
  5
11E
330
1E
100
AcDbEntity
  8
0
100
AcDbLine
 10
47.3892
 20
23.4316
 30
0.0
 11
47.64
 21
23.349
 31
0.0
  0
LINE
  5
11F
330
1E
100
AcDbEntity
  8
0
100
AcDbLine
 10
47.4073
 20
23.4316
 30
0.0
 11
47.65839999999999
 21
23.349
 31
0.0
  0
LINE
  5
120
330
1E
100
AcDbEntity
  8
0
100
AcDbLine
 10
47.65839999999999
 20
23.349
 30
0.0
 11
47.8324
 21
23.1482
 31
0.0
  0
LINE
  5
121
330
1E
100
AcDbEntity
  8
0
100
AcDbLine
 10
47.21729999999999
 20
13.727
 30
0.0
 11
47.8824
 21
22.8841
 31
0.0
  0
LINE
  5
122
330
1E
100
AcDbEntity
  8
0
100
AcDbLine
 10
47.21729999999999
 20
13.727
 30
0.0
 11
47.8824
 21
22.8841
 31
0.0
  0
LINE
  5
123
330
1E
100
AcDbEntity
  8
0
100
AcDbLine
 10
36.25119999999999
 20
23.82829999999999
 30
0.0
 11
47.4073
 21
23.4316
 31
0.0
  0
LINE
  5
126
330
1E
100
AcDbEntity
  8
0
100
AcDbLine
 10
148.91
 20
5.30768999999998
 30
0.0
 11
149.2919999999999
 21
5.76922999999998
 31
0.0
  0
LINE
  5
127
330
1E
100
AcDbEntity
  8
0
100
AcDbLine
 10
148.91
 20
5.30768999999998
 30
0.0
 11
148.91
 21
-0.0000000000000154
 31
0.0
  0
LINE
  5
128
330
1E
100
AcDbEntity
  8
0
100
AcDbLine
 10
148.91
 20
5.30768999999998
 30
0.0
 11
149.828
 21
5.30768999999998
 31
0.0
  0
LINE
  5
129
330
1E
100
AcDbEntity
  8
0
100
AcDbLine
 10
150.9749999999999
 20
5.999999999999981
 30
0.0
 11
153.4219999999999
 21
5.999999999999981
 31
0.0
  0
LINE
  5
12A
330
1E
100
AcDbEntity
  8
0
100
AcDbLine
 10
150.057
 20
5.999999999999981
 30
0.0
 11
150.9749999999999
 21
5.999999999999981
 31
0.0
  0
LINE
  5
12C
330
1E
100
AcDbEntity
  8
0
100
AcDbLine
 10
149.828
 20
5.30768999999998
 30
0.0
 11
152.428
 21
5.30768999999999
 31
0.0
  0
LINE
  5
12D
330
1E
100
AcDbEntity
  8
0
100
AcDbLine
 10
149.828
 20
-0.0000000000000149
 30
0.0
 11
152.428
 21
-0.0000000000000145
 31
0.0
  0
LINE
  5
12E
330
1E
100
AcDbEntity
  8
0
100
AcDbLine
 10
149.2919999999999
 20
5.76922999999998
 30
0.0
 11
150.057
 21
5.999999999999981
 31
0.0
  0
LINE
  5
12F
330
1E
100
AcDbEntity
  8
0
100
AcDbLine
 10
149.828
 20
-0.0000000000000157
 30
0.0
 11
152.428
 21
-0.0000000000000161
 31
0.0
  0
LINE
  5
130
330
1E
100
AcDbEntity
  8
0
100
AcDbLine
 10
148.91
 20
-0.0000000000000153
 30
0.0
 11
149.828
 21
-0.0000000000000157
 31
0.0
  0
LINE
  5
131
330
1E
100
AcDbEntity
  8
0
100
AcDbLine
 10
148.91
 20
-0.0000000000000153
 30
0.0
 11
148.91
 21
5.30768999999998
 31
0.0
  0
LINE
  5
132
330
1E
100
AcDbEntity
  8
0
100
AcDbLine
 10
148.91
 20
-0.0000000000000153
 30
0.0
 11
149.828
 21
-0.0000000000000149
 31
0.0
  0
LINE
  5
133
330
1E
100
AcDbEntity
  8
0
100
AcDbLine
 10
151.027
 20
222.255
 30
0.0
 11
151.5
 21
192.1429999999999
 31
0.0
  0
LINE
  5
134
330
1E
100
AcDbEntity
  8
0
100
AcDbLine
 10
151.702
 20
162.1439999999999
 30
0.0
 11
151.777
 21
106.067
 31
0.0
  0
LINE
  5
135
330
1E
100
AcDbEntity
  8
0
100
AcDbLine
 10
151.522
 20
189.9259999999999
 30
0.0
 11
151.702
 21
162.1439999999999
 31
0.0
  0
LINE
  5
136
330
1E
100
AcDbEntity
  8
0
100
AcDbLine
 10
151.5
 20
192.1429999999999
 30
0.0
 11
151.522
 21
189.9259999999999
 31
0.0
  0
LINE
  5
137
330
1E
100
AcDbEntity
  8
0
100
AcDbLine
 10
151.777
 20
106.067
 30
0.0
 11
151.777
 21
5.99999999999999
 31
0.0
  0
LINE
  5
138
330
1E
100
AcDbEntity
  8
0
100
AcDbLine
 10
152.428
 20
-0.0000000000000145
 30
0.0
 11
156.557
 21
-0.0000000000000142
 31
0.0
  0
LINE
  5
139
330
1E
100
AcDbEntity
  8
0
100
AcDbLine
 10
152.428
 20
-0.0000000000000161
 30
0.0
 11
156.557
 21
-0.0000000000000164
 31
0.0
  0
LINE
  5
13A
330
1E
100
AcDbEntity
  8
0
100
AcDbLine
 10
153.4219999999999
 20
5.999999999999981
 30
0.0
 11
157.322
 21
5.999999999999981
 31
0.0
  0
LINE
  5
13C
330
1E
100
AcDbEntity
  8
0
100
AcDbLine
 10
152.428
 20
5.30768999999999
 30
0.0
 11
156.557
 21
5.30768999999999
 31
0.0
  0
LINE
  5
13D
330
1E
100
AcDbEntity
  8
0
100
AcDbLine
 10
151.777
 20
5.999999999999981
 30
0.0
 11
151.777
 21
106.067
 31
0.0
  0
LINE
  5
13E
330
1E
100
AcDbEntity
  8
0
100
AcDbLine
 10
148.8039999999999
 20
270.358
 30
0.0
 11
149.804
 21
255.94
 31
0.0
  0
LINE
  5
13F
330
1E
100
AcDbEntity
  8
0
100
AcDbLine
 10
149.804
 20
255.94
 30
0.0
 11
150.642
 21
236.363
 31
0.0
  0
LINE
  5
140
330
1E
100
AcDbEntity
  8
0
100
AcDbLine
 10
150.642
 20
236.363
 30
0.0
 11
151.027
 21
222.255
 31
0.0
  0
LINE
  5
141
330
1E
100
AcDbEntity
  8
0
100
AcDbLine
 10
156.557
 20
5.30768999999999
 30
0.0
 11
161.9859999999999
 21
5.30768999999999
 31
0.0
  0
LINE
  5
142
330
1E
100
AcDbEntity
  8
0
100
AcDbLine
 10
156.557
 20
-0.0000000000000142
 30
0.0
 11
161.9859999999999
 21
-0.0000000000000139
 31
0.0
  0
LINE
  5
143
330
1E
100
AcDbEntity
  8
0
100
AcDbLine
 10
157.322
 20
5.999999999999981
 30
0.0
 11
162.522
 21
5.999999999999981
 31
0.0
  0
LINE
  5
145
330
1E
100
AcDbEntity
  8
0
100
AcDbLine
 10
156.557
 20
-0.0000000000000164
 30
0.0
 11
161.9859999999999
 21
-0.0000000000000167
 31
0.0
  0
LINE
  5
146
330
1E
100
AcDbEntity
  8
0
100
AcDbLine
 10
156.0299999999999
 20
271.2839999999999
 30
0.0
 11
159.588
 21
268.843
 31
0.0
  0
LINE
  5
147
330
1E
100
AcDbEntity
  8
0
100
AcDbLine
 10
145.432
 20
287.69
 30
0.0
 11
146.84
 21
283.434
 31
0.0
  0
LINE
  5
148
330
1E
100
AcDbEntity
  8
0
100
AcDbLine
 10
145.19
 20
288.184
 30
0.0
 11
145.432
 21
287.69
 31
0.0
  0
LINE
  5
149
330
1E
100
AcDbEntity
  8
0
100
AcDbLine
 10
144.995
 20
289.0059999999999
 30
0.0
 11
145.19
 21
288.184
 31
0.0
  0
LINE
  5
14A
330
1E
100
AcDbEntity
  8
0
100
AcDbLine
 10
144.927
 20
290.5079999999999
 30
0.0
 11
144.995
 21
289.0059999999999
 31
0.0
  0
LINE
  5
14B
330
1E
100
AcDbEntity
  8
0
100
AcDbLine
 10
144.9139999999999
 20
291.3929999999999
 30
0.0
 11
144.9139999999999
 21
290.9739999999999
 31
0.0
  0
LINE
  5
14C
330
1E
100
AcDbEntity
  8
0
100
AcDbLine
 10
144.9139999999999
 20
290.9739999999999
 30
0.0
 11
144.9139999999999
 21
291.3929999999999
 31
0.0
  0
LINE
  5
14D
330
1E
100
AcDbEntity
  8
0
100
AcDbLine
 10
144.9139999999999
 20
290.9739999999999
 30
0.0
 11
144.927
 21
290.5079999999999
 31
0.0
  0
LINE
  5
14F
330
1E
100
AcDbEntity
  8
0
100
AcDbLine
 10
144.91
 20
291.697
 30
0.0
 11
144.9139999999999
 21
291.3929999999999
 31
0.0
  0
LINE
  5
150
330
1E
100
AcDbEntity
  8
0
100
AcDbLine
 10
144.91
 20
291.697
 30
0.0
 11
145.053
 21
292.4449999999999
 31
0.0
  0
LINE
  5
151
330
1E
100
AcDbEntity
  8
0
100
AcDbLine
 10
145.053
 20
292.4449999999999
 30
0.0
 11
145.2199999999999
 21
293.103
 31
0.0
  0
LINE
  5
155
330
1E
100
AcDbEntity
  8
0
100
AcDbLine
 10
145.2199999999999
 20
293.103
 30
0.0
 11
145.394
 21
293.339
 31
0.0
  0
LINE
  5
156
330
1E
100
AcDbEntity
  8
0
100
AcDbLine
 10
145.394
 20
293.339
 30
0.0
 11
145.805
 21
293.8379999999999
 31
0.0
  0
LINE
  5
158
330
1E
100
AcDbEntity
  8
0
100
AcDbLine
 10
145.167
 20
289.5529999999999
 30
0.0
 11
145.61
 21
288.227
 31
0.0
  0
LINE
  5
15C
330
1E
100
AcDbEntity
  8
0
100
AcDbLine
 10
145.805
 20
293.839
 30
0.0
 11
146.0779999999999
 21
293.934
 31
0.0
  0
LINE
  5
15D
330
1E
100
AcDbEntity
  8
0
100
AcDbLine
 10
145.805
 20
293.839
 30
0.0
 11
146.28
 21
294.111
 31
0.0
  0
LINE
  5
15E
330
1E
100
AcDbEntity
  8
0
100
AcDbLine
 10
146.84
 20
283.434
 30
0.0
 11
147.7669999999999
 21
281.2689999999999
 31
0.0
  0
LINE
  5
15F
330
1E
100
AcDbEntity
  8
0
100
AcDbLine
 10
147.414315344293
 20
282.0926917795089
 30
0.0
 11
148.4139999999999
 21
274.7189999999999
 31
0.0
  0
LINE
  5
161
330
1E
100
AcDbEntity
  8
0
100
AcDbLine
 10
147.5159999999999
 20
287.263
 30
0.0
 11
148.656
 21
287.1179999999999
 31
0.0
  0
LINE
  5
162
330
1E
100
AcDbEntity
  8
0
100
AcDbLine
 10
146.7859999999999
 20
287.422
 30
0.0
 11
147.5159999999999
 21
287.263
 31
0.0
  0
LINE
  5
165
330
1E
100
AcDbEntity
  8
0
100
AcDbLine
 10
146.28
 20
294.111
 30
0.0
 11
146.8909999999999
 21
294.299
 31
0.0
  0
LINE
  5
166
330
1E
100
AcDbEntity
  8
0
100
AcDbLine
 10
147.7649999999999
 20
294.439
 30
0.0
 11
149.275
 21
294.5759999999999
 31
0.0
  0
LINE
  5
167
330
1E
100
AcDbEntity
  8
0
100
AcDbLine
 10
146.8909999999999
 20
294.299
 30
0.0
 11
147.7649999999999
 21
294.439
 31
0.0
  0
LINE
  5
168
330
1E
100
AcDbEntity
  8
0
100
AcDbLine
 10
146.0779999999999
 20
293.934
 30
0.0
 11
146.3209999999999
 21
294.11
 31
0.0
  0
LINE
  5
16B
330
1E
100
AcDbEntity
  8
0
100
AcDbLine
 10
146.262
 20
287.62
 30
0.0
 11
146.7859999999999
 21
287.422
 31
0.0
  0
LINE
  5
16C
330
1E
100
AcDbEntity
  8
0
100
AcDbLine
 10
148.4139999999999
 20
274.7189999999999
 30
0.0
 11
148.8039999999999
 21
270.358
 31
0.0
  0
LINE
  5
16E
330
1E
100
AcDbEntity
  8
0
100
AcDbLine
 10
148.8239999999999
 20
279.2839999999999
 30
0.0
 11
150.0239999999999
 21
277.485
 31
0.0
  0
LINE
  5
16F
330
1E
100
AcDbEntity
  8
0
100
AcDbLine
 10
150.0239999999999
 20
277.485
 30
0.0
 11
152.062
 21
275.167
 31
0.0
  0
LINE
  5
170
330
1E
100
AcDbEntity
  8
0
100
AcDbLine
 10
150.176
 20
287.0049999999999
 30
0.0
 11
152.65
 21
286.906
 31
0.0
  0
LINE
  5
171
330
1E
100
AcDbEntity
  8
0
100
AcDbLine
 10
152.65
 20
286.906
 30
0.0
 11
155.6999999999999
 21
286.85
 31
0.0
  0
LINE
  5
172
330
1E
100
AcDbEntity
  8
0
100
AcDbLine
 10
148.656
 20
287.1179999999999
 30
0.0
 11
150.176
 21
287.0049999999999
 31
0.0
  0
LINE
  5
175
330
1E
100
AcDbEntity
  8
0
100
AcDbLine
 10
159.352
 20
286.824
 30
0.0
 11
161.974
 21
286.819
 31
0.0
  0
LINE
  5
177
330
1E
100
AcDbEntity
  8
0
100
AcDbLine
 10
155.6999999999999
 20
286.85
 30
0.0
 11
159.352
 21
286.824
 31
0.0
  0
LINE
  5
178
330
1E
100
AcDbEntity
  8
0
100
AcDbLine
 10
147.7669999999999
 20
281.2689999999999
 30
0.0
 11
148.8239999999999
 21
279.2839999999999
 31
0.0
  0
LINE
  5
179
330
1E
100
AcDbEntity
  8
0
100
AcDbLine
 10
156.7669999999999
 20
294.8479999999999
 30
0.0
 11
160.9989999999999
 21
294.912
 31
0.0
  0
LINE
  5
17A
330
1E
100
AcDbEntity
  8
0
100
AcDbLine
 10
153.712
 20
294.7749999999999
 30
0.0
 11
156.7669999999999
 21
294.8479999999999
 31
0.0
  0
LINE
  5
17B
330
1E
100
AcDbEntity
  8
0
100
AcDbLine
 10
150.9339999999999
 20
294.672
 30
0.0
 11
153.712
 21
294.7749999999999
 31
0.0
  0
LINE
  5
17C
330
1E
100
AcDbEntity
  8
0
100
AcDbLine
 10
149.275
 20
294.5759999999999
 30
0.0
 11
150.9339999999999
 21
294.672
 31
0.0
  0
LINE
  5
17E
330
1E
100
AcDbEntity
  8
0
100
AcDbLine
 10
152.062
 20
275.167
 30
0.0
 11
156.0299999999999
 21
271.2839999999999
 31
0.0
  0
LINE
  5
17F
330
1E
100
AcDbEntity
  8
0
100
AcDbLine
 10
161.9859999999999
 20
5.30768999999999
 30
0.0
 11
168.257
 21
5.30768999999999
 31
0.0
  0
LINE
  5
181
330
1E
100
AcDbEntity
  8
0
100
AcDbLine
 10
161.9859999999999
 20
-0.0000000000000139
 30
0.0
 11
168.257
 21
-0.0000000000000138
 31
0.0
  0
LINE
  5
182
330
1E
100
AcDbEntity
  8
0
100
AcDbLine
 10
161.9859999999999
 20
-0.0000000000000167
 30
0.0
 11
168.257
 21
-0.0000000000000168
 31
0.0
  0
LINE
  5
184
330
1E
100
AcDbEntity
  8
0
100
AcDbLine
 10
162.999
 20
267.369
 30
0.0
 11
163.053
 21
267.174
 31
0.0
  0
LINE
  5
185
330
1E
100
AcDbEntity
  8
0
100
AcDbLine
 10
163.053
 20
267.174
 30
0.0
 11
163.241
 21
266.877
 31
0.0
  0
LINE
  5
187
330
1E
100
AcDbEntity
  8
0
100
AcDbLine
 10
163.241
 20
266.877
 30
0.0
 11
163.535
 21
266.5879999999999
 31
0.0
  0
LINE
  5
18F
330
1E
100
AcDbEntity
  8
0
100
AcDbLine
 10
162.924
 20
267.7961111111109
 30
0.0
 11
162.924
 21
267.743
 31
0.0
  0
LINE
  5
190
330
1E
100
AcDbEntity
  8
0
100
AcDbLine
 10
162.918
 20
267.8179999999999
 30
0.0
 11
162.924
 21
267.743
 31
0.0
  0
LINE
  5
191
330
1E
100
AcDbEntity
  8
0
100
AcDbLine
 10
162.918
 20
267.8179999999999
 30
0.0
 11
162.918
 21
272.4146205923839
 31
0.0
  0
LINE
  5
193
330
1E
100
AcDbEntity
  8
0
100
AcDbLine
 10
162.924
 20
267.743
 30
0.0
 11
162.924
 21
267.7961111111109
 31
0.0
  0
LINE
  5
194
330
1E
100
AcDbEntity
  8
0
100
AcDbLine
 10
162.918
 20
267.669
 30
0.0
 11
162.999
 21
267.369
 31
0.0
  0
LINE
  5
195
330
1E
100
AcDbEntity
  8
0
100
AcDbLine
 10
162.918
 20
267.669
 30
0.0
 11
162.918
 21
272.4146205923839
 31
0.0
  0
LINE
  5
196
330
1E
100
AcDbEntity
  8
0
100
AcDbLine
 10
162.522
 20
5.999999999999981
 30
0.0
 11
168.486
 21
5.999999999999981
 31
0.0
  0
LINE
  5
197
330
1E
100
AcDbEntity
  8
0
100
AcDbLine
 10
162.6179999999999
 20
271.2679999999999
 30
0.0
 11
162.918
 21
271.0819194139189
 31
0.0
  0
LINE
  5
198
330
1E
100
AcDbEntity
  8
0
100
AcDbLine
 10
162.367
 20
271.909
 30
0.0
 11
162.704
 21
272.296
 31
0.0
  0
LINE
  5
199
330
1E
100
AcDbEntity
  8
0
100
AcDbLine
 10
162.367
 20
271.909
 30
0.0
 11
162.6179999999999
 21
271.2679999999999
 31
0.0
  0
LINE
  5
19A
330
1E
100
AcDbEntity
  8
0
100
AcDbLine
 10
162.918
 20
272.4146205923839
 30
0.0
 11
162.918
 21
267.669
 31
0.0
  0
LINE
  5
19B
330
1E
100
AcDbEntity
  8
0
100
AcDbLine
 10
162.918
 20
272.4146205923839
 30
0.0
 11
162.918
 21
267.8179999999999
 31
0.0
  0
LINE
  5
19C
330
1E
100
AcDbEntity
  8
0
100
AcDbLine
 10
163.4129999999999
 20
272.689
 30
0.0
 11
164.7209999999999
 21
273.185
 31
0.0
  0
LINE
  5
19D
330
1E
100
AcDbEntity
  8
0
100
AcDbLine
 10
161.974
 20
286.819
 30
0.0
 11
167.6849999999999
 21
286.8219999999999
 31
0.0
  0
LINE
  5
1A0
330
1E
100
AcDbEntity
  8
0
100
AcDbLine
 10
162.704
 20
272.296
 30
0.0
 11
163.4129999999999
 21
272.689
 31
0.0
  0
LINE
  5
1A1
330
1E
100
AcDbEntity
  8
0
100
AcDbLine
 10
168.257
 20
5.30768999999999
 30
0.0
 11
174.91
 21
5.30768999999999
 31
0.0
  0
LINE
  5
1A2
330
1E
100
AcDbEntity
  8
0
100
AcDbLine
 10
168.257
 20
-0.0000000000000138
 30
0.0
 11
174.91
 21
-0.0000000000000137
 31
0.0
  0
LINE
  5
1A3
330
1E
100
AcDbEntity
  8
0
100
AcDbLine
 10
168.486
 20
5.999999999999981
 30
0.0
 11
174.91
 21
5.99999999999999
 31
0.0
  0
LINE
  5
1A4
330
1E
100
AcDbEntity
  8
0
100
AcDbLine
 10
168.257
 20
-0.0000000000000168
 30
0.0
 11
174.91
 21
-0.0000000000000169
 31
0.0
  0
LINE
  5
1A5
330
1E
100
AcDbEntity
  8
0
100
AcDbLine
 10
163.535
 20
266.5879999999999
 30
0.0
 11
163.676
 21
266.4559999999999
 31
0.0
  0
LINE
  5
1A6
330
1E
100
AcDbEntity
  8
0
100
AcDbLine
 10
163.676
 20
266.4559999999999
 30
0.0
 11
164.069
 21
266.179
 31
0.0
  0
LINE
  5
1A7
330
1E
100
AcDbEntity
  8
0
100
AcDbLine
 10
164.697
 20
267.5059999999999
 30
0.0
 11
164.809
 21
267.7769999999999
 31
0.0
  0
LINE
  5
1A8
330
1E
100
AcDbEntity
  8
0
100
AcDbLine
 10
164.6929999999999
 20
267.35
 30
0.0
 11
164.697
 21
267.1969999999999
 31
0.0
  0
LINE
  5
1A9
330
1E
100
AcDbEntity
  8
0
100
AcDbLine
 10
164.6929999999999
 20
267.35
 30
0.0
 11
164.697
 21
267.5059999999999
 31
0.0
  0
LINE
  5
1AB
330
1E
100
AcDbEntity
  8
0
100
AcDbLine
 10
164.069
 20
266.179
 30
0.0
 11
164.559
 21
265.913
 31
0.0
  0
LINE
  5
1AC
330
1E
100
AcDbEntity
  8
0
100
AcDbLine
 10
164.559
 20
265.913
 30
0.0
 11
165.1429999999999
 21
265.66
 31
0.0
  0
LINE
  5
1AD
330
1E
100
AcDbEntity
  8
0
100
AcDbLine
 10
165.1429999999999
 20
265.66
 30
0.0
 11
165.8159999999999
 21
265.422
 31
0.0
  0
LINE
  5
1AE
330
1E
100
AcDbEntity
  8
0
100
AcDbLine
 10
166.132
 20
266.014
 30
0.0
 11
166.739
 21
265.776
 31
0.0
  0
LINE
  5
1AF
330
1E
100
AcDbEntity
  8
0
100
AcDbLine
 10
165.8159999999999
 20
265.422
 30
0.0
 11
166.572
 21
265.2039999999999
 31
0.0
  0
LINE
  5
1B0
330
1E
100
AcDbEntity
  8
0
100
AcDbLine
 10
165.22
 20
266.534
 30
0.0
 11
165.624
 21
266.2679999999999
 31
0.0
  0
LINE
  5
1B1
330
1E
100
AcDbEntity
  8
0
100
AcDbLine
 10
164.7796568265679
 20
267.7059999999999
 30
0.0
 11
166.169
 21
267.7059999999999
 31
0.0
  0
LINE
  5
1B2
330
1E
100
AcDbEntity
  8
0
100
AcDbLine
 10
164.809
 20
267.7769999999999
 30
0.0
 11
165.024
 21
268.044
 31
0.0
  0
LINE
  5
1B3
330
1E
100
AcDbEntity
  8
0
100
AcDbLine
 10
164.7459999999999
 20
267.6245625
 30
0.0
 11
164.7459999999999
 21
267.0939999999999
 31
0.0
  0
LINE
  5
1B4
330
1E
100
AcDbEntity
  8
0
100
AcDbLine
 10
164.7459999999999
 20
267.0939999999999
 30
0.0
 11
166.169
 21
267.0939999999999
 31
0.0
  0
LINE
  5
1B5
330
1E
100
AcDbEntity
  8
0
100
AcDbLine
 10
164.7459999999999
 20
267.0939999999999
 30
0.0
 11
164.927
 21
266.8109999999999
 31
0.0
  0
LINE
  5
1B6
330
1E
100
AcDbEntity
  8
0
100
AcDbLine
 10
164.7459999999999
 20
267.0939999999999
 30
0.0
 11
164.7459999999999
 21
267.6245625
 31
0.0
  0
LINE
  5
1B7
330
1E
100
AcDbEntity
  8
0
100
AcDbLine
 10
165.024
 20
268.044
 30
0.0
 11
165.342
 21
268.3059999999999
 31
0.0
  0
LINE
  5
1B8
330
1E
100
AcDbEntity
  8
0
100
AcDbLine
 10
165.342
 20
268.3059999999999
 30
0.0
 11
165.7569999999999
 21
268.5559999999999
 31
0.0
  0
LINE
  5
1B9
330
1E
100
AcDbEntity
  8
0
100
AcDbLine
 10
164.927
 20
266.8109999999999
 30
0.0
 11
165.22
 21
266.534
 31
0.0
  0
LINE
  5
1BC
330
1E
100
AcDbEntity
  8
0
100
AcDbLine
 10
165.624
 20
266.2679999999999
 30
0.0
 11
166.132
 21
266.014
 31
0.0
  0
LINE
  5
1BD
330
1E
100
AcDbEntity
  8
0
100
AcDbLine
 10
165.7569999999999
 20
268.5559999999999
 30
0.0
 11
166.2659999999999
 21
268.794
 31
0.0
  0
LINE
  5
1BE
330
1E
100
AcDbEntity
  8
0
100
AcDbLine
 10
166.2659999999999
 20
268.794
 30
0.0
 11
166.8659999999999
 21
269.017
 31
0.0
  0
LINE
  5
1BF
330
1E
100
AcDbEntity
  8
0
100
AcDbLine
 10
166.169
 20
267.7059999999999
 30
0.0
 11
166.169
 21
267.0939999999999
 31
0.0
  0
LINE
  5
1C0
330
1E
100
AcDbEntity
  8
0
100
AcDbLine
 10
166.169
 20
267.7059999999999
 30
0.0
 11
166.338
 21
267.944
 31
0.0
  0
LINE
  5
1C1
330
1E
100
AcDbEntity
  8
0
100
AcDbLine
 10
166.169
 20
267.0939999999999
 30
0.0
 11
166.169
 21
267.7059999999999
 31
0.0
  0
LINE
  5
1C2
330
1E
100
AcDbEntity
  8
0
100
AcDbLine
 10
166.169
 20
267.0939999999999
 30
0.0
 11
166.338
 21
266.855
 31
0.0
  0
LINE
  5
1C5
330
1E
100
AcDbEntity
  8
0
100
AcDbLine
 10
166.338
 20
267.944
 30
0.0
 11
166.599
 21
268.177
 31
0.0
  0
LINE
  5
1C6
330
1E
100
AcDbEntity
  8
0
100
AcDbLine
 10
166.338
 20
266.855
 30
0.0
 11
166.599
 21
266.623
 31
0.0
  0
LINE
  5
1C7
330
1E
100
AcDbEntity
  8
0
100
AcDbLine
 10
166.599
 20
268.177
 30
0.0
 11
166.951
 21
268.401
 31
0.0
  0
LINE
  5
1C8
330
1E
100
AcDbEntity
  8
0
100
AcDbLine
 10
166.8659999999999
 20
269.017
 30
0.0
 11
167.5459999999999
 21
269.223
 31
0.0
  0
LINE
  5
1C9
330
1E
100
AcDbEntity
  8
0
100
AcDbLine
 10
166.599
 20
266.623
 30
0.0
 11
166.951
 21
266.3979999999999
 31
0.0
  0
LINE
  5
1CA
330
1E
100
AcDbEntity
  8
0
100
AcDbLine
 10
166.739
 20
265.776
 30
0.0
 11
167.44
 21
265.5559999999999
 31
0.0
  0
LINE
  5
1CB
330
1E
100
AcDbEntity
  8
0
100
AcDbLine
 10
166.951
 20
268.401
 30
0.0
 11
167.391
 21
268.614
 31
0.0
  0
LINE
  5
1CC
330
1E
100
AcDbEntity
  8
0
100
AcDbLine
 10
167.391
 20
268.614
 30
0.0
 11
167.912
 21
268.814
 31
0.0
  0
LINE
  5
1CD
330
1E
100
AcDbEntity
  8
0
100
AcDbLine
 10
167.912
 20
268.814
 30
0.0
 11
168.5079999999999
 21
269.0
 31
0.0
  0
LINE
  5
1CE
330
1E
100
AcDbEntity
  8
0
100
AcDbLine
 10
167.5459999999999
 20
269.223
 30
0.0
 11
168.302
 21
269.41
 31
0.0
  0
LINE
  5
1CF
330
1E
100
AcDbEntity
  8
0
100
AcDbLine
 10
167.391
 20
266.185
 30
0.0
 11
167.912
 21
265.985
 31
0.0
  0
LINE
  5
1D0
330
1E
100
AcDbEntity
  8
0
100
AcDbLine
 10
166.951
 20
266.3979999999999
 30
0.0
 11
167.391
 21
266.185
 31
0.0
  0
LINE
  5
1D1
330
1E
100
AcDbEntity
  8
0
100
AcDbLine
 10
167.912
 20
265.985
 30
0.0
 11
168.5079999999999
 21
265.8009999999999
 31
0.0
  0
LINE
  5
1D2
330
1E
100
AcDbEntity
  8
0
100
AcDbLine
 10
167.9554070378109
 20
268.827546491666
 30
0.0
 11
168.367
 21
268.6929999999999
 31
0.0
  0
LINE
  5
1D3
330
1E
100
AcDbEntity
  8
0
100
AcDbLine
 10
167.44
 20
265.5559999999999
 30
0.0
 11
168.2249999999999
 21
265.357
 31
0.0
  0
LINE
  5
1D6
330
1E
100
AcDbEntity
  8
0
100
AcDbLine
 10
166.572
 20
265.2039999999999
 30
0.0
 11
167.4029999999999
 21
265.004
 31
0.0
  0
LINE
  5
1D7
330
1E
100
AcDbEntity
  8
0
100
AcDbLine
 10
167.4029999999999
 20
265.004
 30
0.0
 11
168.302
 21
264.827
 31
0.0
  0
LINE
  5
1D9
330
1E
100
AcDbEntity
  8
0
100
AcDbLine
 10
166.814
 20
273.79
 30
0.0
 11
170.334
 21
274.507
 31
0.0
  0
LINE
  5
1DA
330
1E
100
AcDbEntity
  8
0
100
AcDbLine
 10
164.7209999999999
 20
273.185
 30
0.0
 11
166.814
 21
273.79
 31
0.0
  0
LINE
  5
1DC
330
1E
100
AcDbEntity
  8
0
100
AcDbLine
 10
169.2619999999999
 20
264.673
 30
0.0
 11
170.272
 21
264.543
 31
0.0
  0
LINE
  5
1DD
330
1E
100
AcDbEntity
  8
0
100
AcDbLine
 10
169.085
 20
265.182
 30
0.0
 11
170.011
 21
265.031
 31
0.0
  0
LINE
  5
1DE
330
1E
100
AcDbEntity
  8
0
100
AcDbLine
 10
169.0699999999999
 20
268.509
 30
0.0
 11
169.8479999999999
 21
268.3469999999999
 31
0.0
  0
LINE
  5
1DF
330
1E
100
AcDbEntity
  8
0
100
AcDbLine
 10
168.5079999999999
 20
265.8009999999999
 30
0.0
 11
169.175
 21
265.633
 31
0.0
  0
LINE
  5
1E0
330
1E
100
AcDbEntity
  8
0
100
AcDbLine
 10
168.5079999999999
 20
269.0
 30
0.0
 11
169.175
 21
269.166
 31
0.0
  0
LINE
  5
1E1
330
1E
100
AcDbEntity
  8
0
100
AcDbLine
 10
168.302
 20
269.41
 30
0.0
 11
169.1279999999999
 21
269.5759999999999
 31
0.0
  0
LINE
  5
1E2
330
1E
100
AcDbEntity
  8
0
100
AcDbLine
 10
169.1279999999999
 20
269.5759999999999
 30
0.0
 11
170.011
 21
269.72
 31
0.0
  0
LINE
  5
1E3
330
1E
100
AcDbEntity
  8
0
100
AcDbLine
 10
168.367
 20
268.6929999999999
 30
0.0
 11
169.0699999999999
 21
268.509
 31
0.0
  0
LINE
  5
1E4
330
1E
100
AcDbEntity
  8
0
100
AcDbLine
 10
168.2249999999999
 20
265.357
 30
0.0
 11
169.085
 21
265.182
 31
0.0
  0
LINE
  5
1E6
330
1E
100
AcDbEntity
  8
0
100
AcDbLine
 10
169.175
 20
269.166
 30
0.0
 11
169.904
 21
269.315
 31
0.0
  0
LINE
  5
1E7
330
1E
100
AcDbEntity
  8
0
100
AcDbLine
 10
169.175
 20
265.633
 30
0.0
 11
169.904
 21
265.485
 31
0.0
  0
LINE
  5
1E9
330
1E
100
AcDbEntity
  8
0
100
AcDbLine
 10
168.302
 20
264.827
 30
0.0
 11
169.2619999999999
 21
264.673
 31
0.0
  0
LINE
  5
1EF
330
1E
100
AcDbEntity
  8
0
100
AcDbLine
 10
169.904
 20
269.315
 30
0.0
 11
170.6879999999999
 21
269.442
 31
0.0
  0
LINE
  5
1F0
330
1E
100
AcDbEntity
  8
0
100
AcDbLine
 10
170.011
 20
269.72
 30
0.0
 11
170.9459999999999
 21
269.8379999999999
 31
0.0
  0
LINE
  5
1F1
330
1E
100
AcDbEntity
  8
0
100
AcDbLine
 10
169.904
 20
265.485
 30
0.0
 11
170.6879999999999
 21
265.357
 31
0.0
  0
LINE
  5
1F2
330
1E
100
AcDbEntity
  8
0
100
AcDbLine
 10
169.8479999999999
 20
268.3469999999999
 30
0.0
 11
170.6879999999999
 21
268.209
 31
0.0
  0
LINE
  5
1F3
330
1E
100
AcDbEntity
  8
0
100
AcDbLine
 10
170.011
 20
265.031
 30
0.0
 11
170.962
 21
264.9109999999999
 31
0.0
  0
LINE
  5
1F5
330
1E
100
AcDbEntity
  8
0
100
AcDbLine
 10
170.272
 20
264.543
 30
0.0
 11
171.324
 21
264.44
 31
0.0
  0
LINE
  5
1F6
330
1E
100
AcDbEntity
  8
0
100
AcDbLine
 10
170.6879999999999
 20
269.442
 30
0.0
 11
171.597
 21
269.5559999999999
 31
0.0
  0
LINE
  5
1F7
330
1E
100
AcDbEntity
  8
0
100
AcDbLine
 10
170.9459999999999
 20
269.8379999999999
 30
0.0
 11
171.9209999999999
 21
269.931
 31
0.0
  0
LINE
  5
1F8
330
1E
100
AcDbEntity
  8
0
100
AcDbLine
 10
170.6879999999999
 20
268.209
 30
0.0
 11
171.5819999999999
 21
268.0969999999999
 31
0.0
  0
LINE
  5
1F9
330
1E
100
AcDbEntity
  8
0
100
AcDbLine
 10
170.6879999999999
 20
265.357
 30
0.0
 11
171.597
 21
265.244
 31
0.0
  0
LINE
  5
1FA
330
1E
100
AcDbEntity
  8
0
100
AcDbLine
 10
170.962
 20
264.9109999999999
 30
0.0
 11
171.954
 21
264.8159999999999
 31
0.0
  0
LINE
  5
1FC
330
1E
100
AcDbEntity
  8
0
100
AcDbLine
 10
171.324
 20
264.44
 30
0.0
 11
172.4099999999999
 21
264.3629999999999
 31
0.0
  0
LINE
  5
1FD
330
1E
100
AcDbEntity
  8
0
100
AcDbLine
 10
170.334
 20
274.507
 30
0.0
 11
171.882
 21
274.702
 31
0.0
  0
LINE
  5
205
330
1E
100
AcDbEntity
  8
0
100
AcDbLine
 10
187.833
 20
-0.0000000000000167
 30
0.0
 11
193.2629999999999
 21
-0.0000000000000164
 31
0.0
  0
LINE
  5
206
330
1E
100
AcDbEntity
  8
0
100
AcDbLine
 10
181.5629999999999
 20
-0.0000000000000168
 30
0.0
 11
187.833
 21
-0.0000000000000167
 31
0.0
  0
LINE
  5
207
330
1E
100
AcDbEntity
  8
0
100
AcDbLine
 10
174.91
 20
-0.0000000000000169
 30
0.0
 11
181.5629999999999
 21
-0.0000000000000168
 31
0.0
  0
LINE
  5
208
330
1E
100
AcDbEntity
  8
0
100
AcDbLine
 10
193.2629999999999
 20
-0.0000000000000164
 30
0.0
 11
197.3919999999999
 21
-0.0000000000000161
 31
0.0
  0
LINE
  5
209
330
1E
100
AcDbEntity
  8
0
100
AcDbLine
 10
197.3919999999999
 20
-0.0000000000000161
 30
0.0
 11
199.992
 21
-0.0000000000000157
 31
0.0
  0
LINE
  5
20A
330
1E
100
AcDbEntity
  8
0
100
AcDbLine
 10
187.833
 20
-0.0000000000000139
 30
0.0
 11
193.2629999999999
 21
-0.0000000000000142
 31
0.0
  0
LINE
  5
20B
330
1E
100
AcDbEntity
  8
0
100
AcDbLine
 10
187.833
 20
5.30768999999999
 30
0.0
 11
193.2629999999999
 21
5.30768999999999
 31
0.0
  0
LINE
  5
20C
330
1E
100
AcDbEntity
  8
0
100
AcDbLine
 10
181.5629999999999
 20
-0.0000000000000138
 30
0.0
 11
187.833
 21
-0.0000000000000139
 31
0.0
  0
LINE
  5
20D
330
1E
100
AcDbEntity
  8
0
100
AcDbLine
 10
174.91
 20
-0.0000000000000137
 30
0.0
 11
181.5629999999999
 21
-0.0000000000000138
 31
0.0
  0
LINE
  5
20E
330
1E
100
AcDbEntity
  8
0
100
AcDbLine
 10
181.333
 20
5.999999999999981
 30
0.0
 11
187.298
 21
5.999999999999981
 31
0.0
  0
LINE
  5
20F
330
1E
100
AcDbEntity
  8
0
100
AcDbLine
 10
187.298
 20
5.999999999999981
 30
0.0
 11
192.4979999999999
 21
5.999999999999981
 31
0.0
  0
LINE
  5
212
330
1E
100
AcDbEntity
  8
0
100
AcDbLine
 10
181.5629999999999
 20
5.30768999999999
 30
0.0
 11
187.833
 21
5.30768999999999
 31
0.0
  0
LINE
  5
213
330
1E
100
AcDbEntity
  8
0
100
AcDbLine
 10
174.91
 20
5.30768999999999
 30
0.0
 11
181.5629999999999
 21
5.30768999999999
 31
0.0
  0
LINE
  5
214
330
1E
100
AcDbEntity
  8
0
100
AcDbLine
 10
192.4979999999999
 20
5.999999999999981
 30
0.0
 11
196.398
 21
5.999999999999981
 31
0.0
  0
LINE
  5
216
330
1E
100
AcDbEntity
  8
0
100
AcDbLine
 10
193.2629999999999
 20
5.30768999999999
 30
0.0
 11
197.3919999999999
 21
5.30768999999999
 31
0.0
  0
LINE
  5
217
330
1E
100
AcDbEntity
  8
0
100
AcDbLine
 10
196.398
 20
5.999999999999981
 30
0.0
 11
198.845
 21
5.999999999999981
 31
0.0
  0
LINE
  5
219
330
1E
100
AcDbEntity
  8
0
100
AcDbLine
 10
197.3919999999999
 20
5.30768999999999
 30
0.0
 11
199.992
 21
5.30768999999998
 31
0.0
  0
LINE
  5
21A
330
1E
100
AcDbEntity
  8
0
100
AcDbLine
 10
193.2629999999999
 20
-0.0000000000000142
 30
0.0
 11
197.3919999999999
 21
-0.0000000000000145
 31
0.0
  0
LINE
  5
21B
330
1E
100
AcDbEntity
  8
0
100
AcDbLine
 10
197.3919999999999
 20
-0.0000000000000145
 30
0.0
 11
199.992
 21
-0.0000000000000149
 31
0.0
  0
LINE
  5
21C
330
1E
100
AcDbEntity
  8
0
100
AcDbLine
 10
199.992
 20
-0.0000000000000157
 30
0.0
 11
200.91
 21
-0.0000000000000153
 31
0.0
  0
LINE
  5
21D
330
1E
100
AcDbEntity
  8
0
100
AcDbLine
 10
200.91
 20
-0.0000000000000153
 30
0.0
 11
200.91
 21
5.30768999999998
 31
0.0
  0
LINE
  5
21E
330
1E
100
AcDbEntity
  8
0
100
AcDbLine
 10
199.763
 20
5.999999999999981
 30
0.0
 11
200.5279999999999
 21
5.76922999999998
 31
0.0
  0
LINE
  5
21F
330
1E
100
AcDbEntity
  8
0
100
AcDbLine
 10
198.845
 20
5.999999999999981
 30
0.0
 11
199.763
 21
5.999999999999981
 31
0.0
  0
LINE
  5
220
330
1E
100
AcDbEntity
  8
0
100
AcDbLine
 10
200.91
 20
5.30768999999998
 30
0.0
 11
200.91
 21
-0.0000000000000154
 31
0.0
  0
LINE
  5
221
330
1E
100
AcDbEntity
  8
0
100
AcDbLine
 10
200.5279999999999
 20
5.76922999999998
 30
0.0
 11
200.91
 21
5.30768999999998
 31
0.0
  0
LINE
  5
222
330
1E
100
AcDbEntity
  8
0
100
AcDbLine
 10
199.992
 20
5.30768999999998
 30
0.0
 11
200.91
 21
5.30768999999998
 31
0.0
  0
LINE
  5
223
330
1E
100
AcDbEntity
  8
0
100
AcDbLine
 10
199.992
 20
-0.0000000000000149
 30
0.0
 11
200.91
 21
-0.0000000000000153
 31
0.0
  0
LINE
  5
224
330
1E
100
AcDbEntity
  8
0
100
AcDbLine
 10
198.043
 20
5.999999999999981
 30
0.0
 11
198.043
 21
106.067
 31
0.0
  0
LINE
  5
225
330
1E
100
AcDbEntity
  8
0
100
AcDbLine
 10
171.597
 20
265.244
 30
0.0
 11
172.55
 21
265.158
 31
0.0
  0
LINE
  5
226
330
1E
100
AcDbEntity
  8
0
100
AcDbLine
 10
171.597
 20
269.5559999999999
 30
0.0
 11
172.55
 21
269.6419999999999
 31
0.0
  0
LINE
  5
227
330
1E
100
AcDbEntity
  8
0
100
AcDbLine
 10
171.9209999999999
 20
269.931
 30
0.0
 11
172.926
 21
269.999
 31
0.0
  0
LINE
  5
228
330
1E
100
AcDbEntity
  8
0
100
AcDbLine
 10
171.5819999999999
 20
268.0969999999999
 30
0.0
 11
172.519
 21
268.012
 31
0.0
  0
LINE
  5
229
330
1E
100
AcDbEntity
  8
0
100
AcDbLine
 10
171.954
 20
264.8159999999999
 30
0.0
 11
172.977
 21
264.7499999999999
 31
0.0
  0
LINE
  5
22B
330
1E
100
AcDbEntity
  8
0
100
AcDbLine
 10
172.55
 20
265.158
 30
0.0
 11
173.534
 21
265.102
 31
0.0
  0
LINE
  5
22C
330
1E
100
AcDbEntity
  8
0
100
AcDbLine
 10
172.55
 20
269.6419999999999
 30
0.0
 11
173.534
 21
269.6979999999999
 31
0.0
  0
LINE
  5
22D
330
1E
100
AcDbEntity
  8
0
100
AcDbLine
 10
172.519
 20
268.012
 30
0.0
 11
173.485
 21
267.9549999999999
 31
0.0
  0
LINE
  5
22E
330
1E
100
AcDbEntity
  8
0
100
AcDbLine
 10
172.4099999999999
 20
264.3629999999999
 30
0.0
 11
173.517
 21
264.314
 31
0.0
  0
LINE
  5
22F
330
1E
100
AcDbEntity
  8
0
100
AcDbLine
 10
171.882
 20
274.702
 30
0.0
 11
174.91
 21
274.858
 31
0.0
  0
LINE
  5
230
330
1E
100
AcDbEntity
  8
0
100
AcDbLine
 10
172.926
 20
269.999
 30
0.0
 11
173.953
 21
270.038
 31
0.0
  0
LINE
  5
231
330
1E
100
AcDbEntity
  8
0
100
AcDbLine
 10
173.534
 20
265.102
 30
0.0
 11
174.535
 21
265.0749999999999
 31
0.0
  0
LINE
  5
233
330
1E
100
AcDbEntity
  8
0
100
AcDbLine
 10
173.534
 20
269.6979999999999
 30
0.0
 11
174.535
 21
269.725
 31
0.0
  0
LINE
  5
235
330
1E
100
AcDbEntity
  8
0
100
AcDbLine
 10
173.953
 20
270.038
 30
0.0
 11
174.918
 21
270.049
 31
0.0
  0
LINE
  5
237
330
1E
100
AcDbEntity
  8
0
100
AcDbLine
 10
173.485
 20
267.9549999999999
 30
0.0
 11
174.469
 21
267.927
 31
0.0
  0
LINE
  5
238
330
1E
100
AcDbEntity
  8
0
100
AcDbLine
 10
172.977
 20
264.7499999999999
 30
0.0
 11
174.022
 21
264.711
 31
0.0
  0
LINE
  5
23A
330
1E
100
AcDbEntity
  8
0
100
AcDbLine
 10
174.535
 20
269.725
 30
0.0
 11
174.918
 21
269.723
 31
0.0
  0
LINE
  5
23C
330
1E
100
AcDbEntity
  8
0
100
AcDbLine
 10
174.535
 20
265.0749999999999
 30
0.0
 11
174.918
 21
265.0759999999999
 31
0.0
  0
LINE
  5
23E
330
1E
100
AcDbEntity
  8
0
100
AcDbLine
 10
174.469
 20
267.927
 30
0.0
 11
174.918
 21
267.9279999999999
 31
0.0
  0
LINE
  5
23F
330
1E
100
AcDbEntity
  8
0
100
AcDbLine
 10
174.022
 20
264.711
 30
0.0
 11
174.918
 21
264.7019999999999
 31
0.0
  0
LINE
  5
242
330
1E
100
AcDbEntity
  8
0
100
AcDbLine
 10
173.517
 20
264.314
 30
0.0
 11
174.6369999999999
 21
264.292
 31
0.0
  0
LINE
  5
243
330
1E
100
AcDbEntity
  8
0
100
AcDbLine
 10
174.6369999999999
 20
264.292
 30
0.0
 11
174.918
 21
264.294
 31
0.0
  0
LINE
  5
244
330
1E
100
AcDbEntity
  8
0
100
AcDbLine
 10
174.91
 20
274.858
 30
0.0
 11
177.9379999999999
 21
274.702
 31
0.0
  0
LINE
  5
246
330
1E
100
AcDbEntity
  8
0
100
AcDbLine
 10
175.1979999999999
 20
264.292
 30
0.0
 11
176.318
 21
264.314
 31
0.0
  0
LINE
  5
249
330
1E
100
AcDbEntity
  8
0
100
AcDbLine
 10
174.918
 20
264.7019999999999
 30
0.0
 11
175.8129999999999
 21
264.711
 31
0.0
  0
LINE
  5
24C
330
1E
100
AcDbEntity
  8
0
100
AcDbLine
 10
175.3009999999999
 20
265.0749999999999
 30
0.0
 11
176.3009999999999
 21
265.102
 31
0.0
  0
LINE
  5
24D
330
1E
100
AcDbEntity
  8
0
100
AcDbLine
 10
174.918
 20
265.0759999999999
 30
0.0
 11
175.3009999999999
 21
265.0749999999999
 31
0.0
  0
LINE
  5
24E
330
1E
100
AcDbEntity
  8
0
100
AcDbLine
 10
175.8129999999999
 20
264.711
 30
0.0
 11
176.858
 21
264.7499999999999
 31
0.0
  0
LINE
  5
24F
330
1E
100
AcDbEntity
  8
0
100
AcDbLine
 10
176.3009999999999
 20
265.102
 30
0.0
 11
177.285
 21
265.158
 31
0.0
  0
LINE
  5
253
330
1E
100
AcDbEntity
  8
0
100
AcDbLine
 10
176.858
 20
264.7499999999999
 30
0.0
 11
177.8809999999999
 21
264.8159999999999
 31
0.0
  0
LINE
  5
254
330
1E
100
AcDbEntity
  8
0
100
AcDbLine
 10
177.285
 20
265.158
 30
0.0
 11
178.238
 21
265.244
 31
0.0
  0
LINE
  5
255
330
1E
100
AcDbEntity
  8
0
100
AcDbLine
 10
177.8809999999999
 20
264.8159999999999
 30
0.0
 11
178.8729999999999
 21
264.9109999999999
 31
0.0
  0
LINE
  5
256
330
1E
100
AcDbEntity
  8
0
100
AcDbLine
 10
178.238
 20
265.244
 30
0.0
 11
179.147
 21
265.357
 31
0.0
  0
LINE
  5
259
330
1E
100
AcDbEntity
  8
0
100
AcDbLine
 10
179.147
 20
265.357
 30
0.0
 11
179.931
 21
265.485
 31
0.0
  0
LINE
  5
25A
330
1E
100
AcDbEntity
  8
0
100
AcDbLine
 10
178.8729999999999
 20
264.9109999999999
 30
0.0
 11
179.824
 21
265.031
 31
0.0
  0
LINE
  5
25C
330
1E
100
AcDbEntity
  8
0
100
AcDbLine
 10
178.5109999999999
 20
264.44
 30
0.0
 11
179.5629999999999
 21
264.543
 31
0.0
  0
LINE
  5
25D
330
1E
100
AcDbEntity
  8
0
100
AcDbLine
 10
177.425
 20
264.3629999999999
 30
0.0
 11
178.5109999999999
 21
264.44
 31
0.0
  0
LINE
  5
25E
330
1E
100
AcDbEntity
  8
0
100
AcDbLine
 10
176.318
 20
264.314
 30
0.0
 11
177.425
 21
264.3629999999999
 31
0.0
  0
LINE
  5
25F
330
1E
100
AcDbEntity
  8
0
100
AcDbLine
 10
174.918
 20
264.294
 30
0.0
 11
175.1979999999999
 21
264.292
 31
0.0
  0
LINE
  5
260
330
1E
100
AcDbEntity
  8
0
100
AcDbLine
 10
179.5629999999999
 20
264.543
 30
0.0
 11
180.5729999999999
 21
264.673
 31
0.0
  0
LINE
  5
261
330
1E
100
AcDbEntity
  8
0
100
AcDbLine
 10
179.824
 20
265.031
 30
0.0
 11
180.75
 21
265.182
 31
0.0
  0
LINE
  5
262
330
1E
100
AcDbEntity
  8
0
100
AcDbLine
 10
179.931
 20
265.485
 30
0.0
 11
180.6599999999999
 21
265.633
 31
0.0
  0
LINE
  5
263
330
1E
100
AcDbEntity
  8
0
100
AcDbLine
 10
180.6599999999999
 20
265.633
 30
0.0
 11
181.3269999999999
 21
265.8009999999999
 31
0.0
  0
LINE
  5
264
330
1E
100
AcDbEntity
  8
0
100
AcDbLine
 10
180.75
 20
265.182
 30
0.0
 11
181.6109999999999
 21
265.357
 31
0.0
  0
LINE
  5
268
330
1E
100
AcDbEntity
  8
0
100
AcDbLine
 10
180.5729999999999
 20
264.673
 30
0.0
 11
181.5329999999999
 21
264.827
 31
0.0
  0
LINE
  5
269
330
1E
100
AcDbEntity
  8
0
100
AcDbLine
 10
181.6109999999999
 20
265.357
 30
0.0
 11
182.395
 21
265.5559999999999
 31
0.0
  0
LINE
  5
26A
330
1E
100
AcDbEntity
  8
0
100
AcDbLine
 10
182.395
 20
265.5559999999999
 30
0.0
 11
183.0959999999999
 21
265.776
 31
0.0
  0
LINE
  5
26C
330
1E
100
AcDbEntity
  8
0
100
AcDbLine
 10
184.692
 20
265.66
 30
0.0
 11
185.2759999999999
 21
265.913
 31
0.0
  0
LINE
  5
26D
330
1E
100
AcDbEntity
  8
0
100
AcDbLine
 10
184.0189999999999
 20
265.422
 30
0.0
 11
184.692
 21
265.66
 31
0.0
  0
LINE
  5
26E
330
1E
100
AcDbEntity
  8
0
100
AcDbLine
 10
183.2629999999999
 20
265.2039999999999
 30
0.0
 11
184.0189999999999
 21
265.422
 31
0.0
  0
LINE
  5
26F
330
1E
100
AcDbEntity
  8
0
100
AcDbLine
 10
182.432
 20
265.004
 30
0.0
 11
183.2629999999999
 21
265.2039999999999
 31
0.0
  0
LINE
  5
270
330
1E
100
AcDbEntity
  8
0
100
AcDbLine
 10
181.5329999999999
 20
264.827
 30
0.0
 11
182.432
 21
265.004
 31
0.0
  0
LINE
  5
271
330
1E
100
AcDbEntity
  8
0
100
AcDbLine
 10
181.923
 20
265.985
 30
0.0
 11
182.444
 21
266.185
 31
0.0
  0
LINE
  5
272
330
1E
100
AcDbEntity
  8
0
100
AcDbLine
 10
182.444
 20
266.185
 30
0.0
 11
182.884
 21
266.3979999999999
 31
0.0
  0
LINE
  5
273
330
1E
100
AcDbEntity
  8
0
100
AcDbLine
 10
182.884
 20
266.3979999999999
 30
0.0
 11
183.2359999999999
 21
266.623
 31
0.0
  0
LINE
  5
274
330
1E
100
AcDbEntity
  8
0
100
AcDbLine
 10
183.2359999999999
 20
266.623
 30
0.0
 11
183.497
 21
266.855
 31
0.0
  0
LINE
  5
275
330
1E
100
AcDbEntity
  8
0
100
AcDbLine
 10
183.497
 20
266.855
 30
0.0
 11
183.666
 21
267.0939999999999
 31
0.0
  0
LINE
  5
276
330
1E
100
AcDbEntity
  8
0
100
AcDbLine
 10
181.3269999999999
 20
265.8009999999999
 30
0.0
 11
181.923
 21
265.985
 31
0.0
  0
LINE
  5
277
330
1E
100
AcDbEntity
  8
0
100
AcDbLine
 10
183.0959999999999
 20
265.776
 30
0.0
 11
183.703
 21
266.014
 31
0.0
  0
LINE
  5
278
330
1E
100
AcDbEntity
  8
0
100
AcDbLine
 10
183.703
 20
266.014
 30
0.0
 11
184.212
 21
266.2679999999999
 31
0.0
  0
LINE
  5
279
330
1E
100
AcDbEntity
  8
0
100
AcDbLine
 10
184.212
 20
266.2679999999999
 30
0.0
 11
184.615
 21
266.534
 31
0.0
  0
LINE
  5
27A
330
1E
100
AcDbEntity
  8
0
100
AcDbLine
 10
183.666
 20
267.0939999999999
 30
0.0
 11
185.089
 21
267.0939999999999
 31
0.0
  0
LINE
  5
27B
330
1E
100
AcDbEntity
  8
0
100
AcDbLine
 10
183.666
 20
267.0939999999999
 30
0.0
 11
183.666
 21
267.7059999999999
 31
0.0
  0
LINE
  5
27C
330
1E
100
AcDbEntity
  8
0
100
AcDbLine
 10
184.615
 20
266.534
 30
0.0
 11
184.9079999999999
 21
266.8109999999999
 31
0.0
  0
LINE
  5
27D
330
1E
100
AcDbEntity
  8
0
100
AcDbLine
 10
184.9079999999999
 20
266.8109999999999
 30
0.0
 11
185.089
 21
267.0939999999999
 31
0.0
  0
LINE
  5
27E
330
1E
100
AcDbEntity
  8
0
100
AcDbLine
 10
185.089
 20
267.0939999999999
 30
0.0
 11
185.089
 21
267.6245625
 31
0.0
  0
LINE
  5
27F
330
1E
100
AcDbEntity
  8
0
100
AcDbLine
 10
185.1379999999999
 20
267.1969999999999
 30
0.0
 11
185.142
 21
267.35
 31
0.0
  0
LINE
  5
284
330
1E
100
AcDbEntity
  8
0
100
AcDbLine
 10
186.594
 20
266.877
 30
0.0
 11
186.782
 21
267.174
 31
0.0
  0
LINE
  5
285
330
1E
100
AcDbEntity
  8
0
100
AcDbLine
 10
186.3
 20
266.5879999999999
 30
0.0
 11
186.594
 21
266.877
 31
0.0
  0
LINE
  5
286
330
1E
100
AcDbEntity
  8
0
100
AcDbLine
 10
186.159
 20
266.4559999999999
 30
0.0
 11
186.3
 21
266.5879999999999
 31
0.0
  0
LINE
  5
287
330
1E
100
AcDbEntity
  8
0
100
AcDbLine
 10
186.782
 20
267.174
 30
0.0
 11
186.8359999999999
 21
267.369
 31
0.0
  0
LINE
  5
289
330
1E
100
AcDbEntity
  8
0
100
AcDbLine
 10
185.7659999999999
 20
266.179
 30
0.0
 11
186.159
 21
266.4559999999999
 31
0.0
  0
LINE
  5
28A
330
1E
100
AcDbEntity
  8
0
100
AcDbLine
 10
185.2759999999999
 20
265.913
 30
0.0
 11
185.7659999999999
 21
266.179
 31
0.0
  0
LINE
  5
28F
330
1E
100
AcDbEntity
  8
0
100
AcDbLine
 10
198.043
 20
106.067
 30
0.0
 11
198.1179999999999
 21
162.1439999999999
 31
0.0
  0
LINE
  5
290
330
1E
100
AcDbEntity
  8
0
100
AcDbLine
 10
198.043
 20
106.067
 30
0.0
 11
198.043
 21
5.99999999999999
 31
0.0
  0
LINE
  5
291
330
1E
100
AcDbEntity
  8
0
100
AcDbLine
 10
198.2979999999999
 20
189.9259999999999
 30
0.0
 11
198.32
 21
192.1429999999999
 31
0.0
  0
LINE
  5
292
330
1E
100
AcDbEntity
  8
0
100
AcDbLine
 10
198.793
 20
222.255
 30
0.0
 11
199.178
 21
236.363
 31
0.0
  0
LINE
  5
293
330
1E
100
AcDbEntity
  8
0
100
AcDbLine
 10
198.32
 20
192.1429999999999
 30
0.0
 11
198.793
 21
222.255
 31
0.0
  0
LINE
  5
294
330
1E
100
AcDbEntity
  8
0
100
AcDbLine
 10
200.016
 20
255.94
 30
0.0
 11
201.0159999999999
 21
270.358
 31
0.0
  0
LINE
  5
295
330
1E
100
AcDbEntity
  8
0
100
AcDbLine
 10
199.178
 20
236.363
 30
0.0
 11
200.016
 21
255.94
 31
0.0
  0
LINE
  5
296
330
1E
100
AcDbEntity
  8
0
100
AcDbLine
 10
198.1179999999999
 20
162.1439999999999
 30
0.0
 11
198.2979999999999
 21
189.9259999999999
 31
0.0
  0
LINE
  5
299
330
1E
100
AcDbEntity
  8
0
100
AcDbLine
 10
174.918
 20
269.723
 30
0.0
 11
175.3009999999999
 21
269.725
 31
0.0
  0
LINE
  5
29C
330
1E
100
AcDbEntity
  8
0
100
AcDbLine
 10
174.918
 20
270.049
 30
0.0
 11
175.882
 21
270.038
 31
0.0
  0
LINE
  5
29E
330
1E
100
AcDbEntity
  8
0
100
AcDbLine
 10
185.0259999999999
 20
267.7769999999999
 30
0.0
 11
185.1379999999999
 21
267.5059999999999
 31
0.0
  0
LINE
  5
29F
330
1E
100
AcDbEntity
  8
0
100
AcDbLine
 10
185.089
 20
267.6245625
 30
0.0
 11
185.089
 21
267.0939999999999
 31
0.0
  0
LINE
  5
2A0
330
1E
100
AcDbEntity
  8
0
100
AcDbLine
 10
183.666
 20
267.7059999999999
 30
0.0
 11
183.666
 21
267.0939999999999
 31
0.0
  0
LINE
  5
2A1
330
1E
100
AcDbEntity
  8
0
100
AcDbLine
 10
183.666
 20
267.7059999999999
 30
0.0
 11
185.0553431734319
 21
267.7059999999999
 31
0.0
  0
LINE
  5
2A2
330
1E
100
AcDbEntity
  8
0
100
AcDbLine
 10
176.3009999999999
 20
269.6979999999999
 30
0.0
 11
177.285
 21
269.6419999999999
 31
0.0
  0
LINE
  5
2A3
330
1E
100
AcDbEntity
  8
0
100
AcDbLine
 10
175.3009999999999
 20
269.725
 30
0.0
 11
176.3009999999999
 21
269.6979999999999
 31
0.0
  0
LINE
  5
2A4
330
1E
100
AcDbEntity
  8
0
100
AcDbLine
 10
175.882
 20
270.038
 30
0.0
 11
176.909
 21
269.999
 31
0.0
  0
LINE
  5
2A5
330
1E
100
AcDbEntity
  8
0
100
AcDbLine
 10
183.497
 20
267.944
 30
0.0
 11
183.666
 21
267.7059999999999
 31
0.0
  0
LINE
  5
2A6
330
1E
100
AcDbEntity
  8
0
100
AcDbLine
 10
177.285
 20
269.6419999999999
 30
0.0
 11
178.238
 21
269.5559999999999
 31
0.0
  0
LINE
  5
2A7
330
1E
100
AcDbEntity
  8
0
100
AcDbLine
 10
178.238
 20
269.5559999999999
 30
0.0
 11
179.147
 21
269.442
 31
0.0
  0
LINE
  5
2A8
330
1E
100
AcDbEntity
  8
0
100
AcDbLine
 10
177.914
 20
269.931
 30
0.0
 11
178.889
 21
269.8379999999999
 31
0.0
  0
LINE
  5
2A9
330
1E
100
AcDbEntity
  8
0
100
AcDbLine
 10
176.909
 20
269.999
 30
0.0
 11
177.914
 21
269.931
 31
0.0
  0
LINE
  5
2AA
330
1E
100
AcDbEntity
  8
0
100
AcDbLine
 10
183.2359999999999
 20
268.177
 30
0.0
 11
183.497
 21
267.944
 31
0.0
  0
LINE
  5
2AB
330
1E
100
AcDbEntity
  8
0
100
AcDbLine
 10
184.8109999999999
 20
268.044
 30
0.0
 11
185.0259999999999
 21
267.7769999999999
 31
0.0
  0
LINE
  5
2AC
330
1E
100
AcDbEntity
  8
0
100
AcDbLine
 10
179.147
 20
269.442
 30
0.0
 11
179.931
 21
269.315
 31
0.0
  0
LINE
  5
2AD
330
1E
100
AcDbEntity
  8
0
100
AcDbLine
 10
178.889
 20
269.8379999999999
 30
0.0
 11
179.824
 21
269.72
 31
0.0
  0
LINE
  5
2AE
330
1E
100
AcDbEntity
  8
0
100
AcDbLine
 10
179.931
 20
269.315
 30
0.0
 11
180.6599999999999
 21
269.166
 31
0.0
  0
LINE
  5
2AF
330
1E
100
AcDbEntity
  8
0
100
AcDbLine
 10
180.6599999999999
 20
269.166
 30
0.0
 11
181.3269999999999
 21
269.0
 31
0.0
  0
LINE
  5
2B0
330
1E
100
AcDbEntity
  8
0
100
AcDbLine
 10
180.708
 20
269.5759999999999
 30
0.0
 11
181.5329999999999
 21
269.41
 31
0.0
  0
LINE
  5
2B1
330
1E
100
AcDbEntity
  8
0
100
AcDbLine
 10
179.824
 20
269.72
 30
0.0
 11
180.708
 21
269.5759999999999
 31
0.0
  0
LINE
  5
2B2
330
1E
100
AcDbEntity
  8
0
100
AcDbLine
 10
179.987
 20
268.3469999999999
 30
0.0
 11
180.7649999999999
 21
268.509
 31
0.0
  0
LINE
  5
2B3
330
1E
100
AcDbEntity
  8
0
100
AcDbLine
 10
182.444
 20
268.614
 30
0.0
 11
182.884
 21
268.401
 31
0.0
  0
LINE
  5
2B4
330
1E
100
AcDbEntity
  8
0
100
AcDbLine
 10
182.884
 20
268.401
 30
0.0
 11
183.2359999999999
 21
268.177
 31
0.0
  0
LINE
  5
2B5
330
1E
100
AcDbEntity
  8
0
100
AcDbLine
 10
184.4929999999999
 20
268.3059999999999
 30
0.0
 11
184.8109999999999
 21
268.044
 31
0.0
  0
LINE
  5
2B6
330
1E
100
AcDbEntity
  8
0
100
AcDbLine
 10
184.078
 20
268.5559999999999
 30
0.0
 11
184.4929999999999
 21
268.3059999999999
 31
0.0
  0
LINE
  5
2B7
330
1E
100
AcDbEntity
  8
0
100
AcDbLine
 10
181.923
 20
268.814
 30
0.0
 11
182.444
 21
268.614
 31
0.0
  0
LINE
  5
2B8
330
1E
100
AcDbEntity
  8
0
100
AcDbLine
 10
181.3269999999999
 20
269.0
 30
0.0
 11
181.923
 21
268.814
 31
0.0
  0
LINE
  5
2B9
330
1E
100
AcDbEntity
  8
0
100
AcDbLine
 10
182.2899999999999
 20
269.223
 30
0.0
 11
182.97
 21
269.017
 31
0.0
  0
LINE
  5
2BA
330
1E
100
AcDbEntity
  8
0
100
AcDbLine
 10
181.5329999999999
 20
269.41
 30
0.0
 11
182.2899999999999
 21
269.223
 31
0.0
  0
LINE
  5
2BB
330
1E
100
AcDbEntity
  8
0
100
AcDbLine
 10
183.569
 20
268.794
 30
0.0
 11
184.078
 21
268.5559999999999
 31
0.0
  0
LINE
  5
2BC
330
1E
100
AcDbEntity
  8
0
100
AcDbLine
 10
182.97
 20
269.017
 30
0.0
 11
183.569
 21
268.794
 31
0.0
  0
LINE
  5
2BD
330
1E
100
AcDbEntity
  8
0
100
AcDbLine
 10
181.4679999999999
 20
268.6929999999999
 30
0.0
 11
181.8795929621889
 21
268.827546491666
 31
0.0
  0
LINE
  5
2BE
330
1E
100
AcDbEntity
  8
0
100
AcDbLine
 10
180.7649999999999
 20
268.509
 30
0.0
 11
181.4679999999999
 21
268.6929999999999
 31
0.0
  0
LINE
  5
2BF
330
1E
100
AcDbEntity
  8
0
100
AcDbLine
 10
179.147
 20
268.209
 30
0.0
 11
179.987
 21
268.3469999999999
 31
0.0
  0
LINE
  5
2C0
330
1E
100
AcDbEntity
  8
0
100
AcDbLine
 10
178.2529999999999
 20
268.0969999999999
 30
0.0
 11
179.147
 21
268.209
 31
0.0
  0
LINE
  5
2C1
330
1E
100
AcDbEntity
  8
0
100
AcDbLine
 10
177.3159999999999
 20
268.012
 30
0.0
 11
178.2529999999999
 21
268.0969999999999
 31
0.0
  0
LINE
  5
2C2
330
1E
100
AcDbEntity
  8
0
100
AcDbLine
 10
176.35
 20
267.9549999999999
 30
0.0
 11
177.3159999999999
 21
268.012
 31
0.0
  0
LINE
  5
2C3
330
1E
100
AcDbEntity
  8
0
100
AcDbLine
 10
175.3659999999999
 20
267.927
 30
0.0
 11
176.35
 21
267.9549999999999
 31
0.0
  0
LINE
  5
2C4
330
1E
100
AcDbEntity
  8
0
100
AcDbLine
 10
174.918
 20
267.9279999999999
 30
0.0
 11
175.3659999999999
 21
267.927
 31
0.0
  0
LINE
  5
2C5
330
1E
100
AcDbEntity
  8
0
100
AcDbLine
 10
183.0059999999999
 20
273.79
 30
0.0
 11
185.099
 21
273.185
 31
0.0
  0
LINE
  5
2C6
330
1E
100
AcDbEntity
  8
0
100
AcDbLine
 10
185.1379999999999
 20
267.5059999999999
 30
0.0
 11
185.142
 21
267.35
 31
0.0
  0
LINE
  5
2D0
330
1E
100
AcDbEntity
  8
0
100
AcDbLine
 10
186.9109999999999
 20
267.743
 30
0.0
 11
186.918
 21
267.8179999999999
 31
0.0
  0
LINE
  5
2D1
330
1E
100
AcDbEntity
  8
0
100
AcDbLine
 10
186.918
 20
267.669
 30
0.0
 11
186.918
 21
267.8179999999999
 31
0.0
  0
LINE
  5
2D2
330
1E
100
AcDbEntity
  8
0
100
AcDbLine
 10
186.918
 20
267.8179999999999
 30
0.0
 11
186.918
 21
267.669
 31
0.0
  0
LINE
  5
2D3
330
1E
100
AcDbEntity
  8
0
100
AcDbLine
 10
186.918
 20
267.8179999999999
 30
0.0
 11
186.918
 21
272.405751763046
 31
0.0
  0
LINE
  5
2D4
330
1E
100
AcDbEntity
  8
0
100
AcDbLine
 10
186.8359999999999
 20
267.369
 30
0.0
 11
186.918
 21
267.669
 31
0.0
  0
LINE
  5
2D5
330
1E
100
AcDbEntity
  8
0
100
AcDbLine
 10
186.918
 20
272.405751763046
 30
0.0
 11
186.918
 21
267.8179999999999
 31
0.0
  0
LINE
  5
2D6
330
1E
100
AcDbEntity
  8
0
100
AcDbLine
 10
186.407
 20
272.689
 30
0.0
 11
187.1159999999999
 21
272.296
 31
0.0
  0
LINE
  5
2D7
330
1E
100
AcDbEntity
  8
0
100
AcDbLine
 10
187.1159999999999
 20
272.296
 30
0.0
 11
187.453
 21
271.909
 31
0.0
  0
LINE
  5
2D8
330
1E
100
AcDbEntity
  8
0
100
AcDbLine
 10
187.202
 20
271.2679999999999
 30
0.0
 11
187.453
 21
271.909
 31
0.0
  0
LINE
  5
2D9
330
1E
100
AcDbEntity
  8
0
100
AcDbLine
 10
186.918
 20
271.091843711844
 30
0.0
 11
187.202
 21
271.2679999999999
 31
0.0
  0
LINE
  5
2DA
330
1E
100
AcDbEntity
  8
0
100
AcDbLine
 10
185.099
 20
273.185
 30
0.0
 11
186.407
 21
272.689
 31
0.0
  0
LINE
  5
2DC
330
1E
100
AcDbEntity
  8
0
100
AcDbLine
 10
177.9379999999999
 20
274.702
 30
0.0
 11
179.4859999999999
 21
274.507
 31
0.0
  0
LINE
  5
2DD
330
1E
100
AcDbEntity
  8
0
100
AcDbLine
 10
179.4859999999999
 20
274.507
 30
0.0
 11
183.0059999999999
 21
273.79
 31
0.0
  0
LINE
  5
2DE
330
1E
100
AcDbEntity
  8
0
100
AcDbLine
 10
201.0159999999999
 20
270.358
 30
0.0
 11
201.4059999999999
 21
274.7189999999999
 31
0.0
  0
LINE
  5
2DF
330
1E
100
AcDbEntity
  8
0
100
AcDbLine
 10
197.7579999999999
 20
275.167
 30
0.0
 11
199.7959999999999
 21
277.485
 31
0.0
  0
LINE
  5
2E0
330
1E
100
AcDbEntity
  8
0
100
AcDbLine
 10
200.9959999999999
 20
279.2839999999999
 30
0.0
 11
202.0529999999999
 21
281.2689999999999
 31
0.0
  0
LINE
  5
2E1
330
1E
100
AcDbEntity
  8
0
100
AcDbLine
 10
199.7959999999999
 20
277.485
 30
0.0
 11
200.9959999999999
 21
279.2839999999999
 31
0.0
  0
LINE
  5
2E3
330
1E
100
AcDbEntity
  8
0
100
AcDbLine
 10
202.9799999999999
 20
283.434
 30
0.0
 11
204.388
 21
287.69
 31
0.0
  0
LINE
  5
2E4
330
1E
100
AcDbEntity
  8
0
100
AcDbLine
 10
202.0529999999999
 20
281.2689999999999
 30
0.0
 11
202.9799999999999
 21
283.434
 31
0.0
  0
LINE
  5
2E5
330
1E
100
AcDbEntity
  8
0
100
AcDbLine
 10
201.4059999999999
 20
274.7189999999999
 30
0.0
 11
202.405684655707
 21
282.0926917795089
 31
0.0
  0
LINE
  5
2E6
330
1E
100
AcDbEntity
  8
0
100
AcDbLine
 10
193.7899999999999
 20
271.2839999999999
 30
0.0
 11
197.7579999999999
 21
275.167
 31
0.0
  0
LINE
  5
2E7
330
1E
100
AcDbEntity
  8
0
100
AcDbLine
 10
190.2319999999999
 20
268.843
 30
0.0
 11
193.7899999999999
 21
271.2839999999999
 31
0.0
  0
LINE
  5
2E8
330
1E
100
AcDbEntity
  8
0
100
AcDbLine
 10
186.866
 20
267.2449999999999
 30
0.0
 11
190.2319999999999
 21
268.843
 31
0.0
  0
LINE
  5
2F6
330
1E
100
AcDbEntity
  8
0
100
AcDbLine
 10
174.91
 20
5.99999999999999
 30
0.0
 11
181.333
 21
5.999999999999981
 31
0.0
  0
LINE
  5
303
330
1E
100
AcDbEntity
  8
0
100
AcDbLine
 10
174.91
 20
286.824
 30
0.0
 11
182.1349999999999
 21
286.8219999999999
 31
0.0
  0
LINE
  5
30E
330
1E
100
AcDbEntity
  8
0
100
AcDbLine
 10
182.1349999999999
 20
286.8219999999999
 30
0.0
 11
187.8459999999999
 21
286.819
 31
0.0
  0
LINE
  5
310
330
1E
100
AcDbEntity
  8
0
100
AcDbLine
 10
190.4679999999999
 20
286.824
 30
0.0
 11
194.12
 21
286.85
 31
0.0
  0
LINE
  5
311
330
1E
100
AcDbEntity
  8
0
100
AcDbLine
 10
194.12
 20
286.85
 30
0.0
 11
197.17
 21
286.906
 31
0.0
  0
LINE
  5
313
330
1E
100
AcDbEntity
  8
0
100
AcDbLine
 10
197.17
 20
286.906
 30
0.0
 11
199.6439999999999
 21
287.0049999999999
 31
0.0
  0
LINE
  5
317
330
1E
100
AcDbEntity
  8
0
100
AcDbLine
 10
187.8459999999999
 20
286.819
 30
0.0
 11
190.4679999999999
 21
286.824
 31
0.0
  0
LINE
  5
31C
330
1E
100
AcDbEntity
  8
0
100
AcDbLine
 10
202.3039999999999
 20
287.263
 30
0.0
 11
203.034
 21
287.422
 31
0.0
  0
LINE
  5
31D
330
1E
100
AcDbEntity
  8
0
100
AcDbLine
 10
203.034
 20
287.422
 30
0.0
 11
203.5579999999999
 21
287.62
 31
0.0
  0
LINE
  5
31F
330
1E
100
AcDbEntity
  8
0
100
AcDbLine
 10
201.164
 20
287.1179999999999
 30
0.0
 11
202.3039999999999
 21
287.263
 31
0.0
  0
LINE
  5
320
330
1E
100
AcDbEntity
  8
0
100
AcDbLine
 10
199.6439999999999
 20
287.0049999999999
 30
0.0
 11
201.164
 21
287.1179999999999
 31
0.0
  0
LINE
  5
322
330
1E
100
AcDbEntity
  8
0
100
AcDbLine
 10
204.388
 20
287.69
 30
0.0
 11
204.63
 21
288.184
 31
0.0
  0
LINE
  5
327
330
1E
100
AcDbEntity
  8
0
100
AcDbLine
 10
167.6849999999999
 20
286.8219999999999
 30
0.0
 11
174.91
 21
286.824
 31
0.0
  0
LINE
  5
330
330
1E
100
AcDbEntity
  8
0
100
AcDbLine
 10
160.9989999999999
 20
294.912
 30
0.0
 11
166.929
 21
294.9669999999999
 31
0.0
  0
LINE
  5
332
330
1E
100
AcDbEntity
  8
0
100
AcDbLine
 10
204.21
 20
288.227
 30
0.0
 11
204.6529999999999
 21
289.5529999999999
 31
0.0
  0
LINE
  5
335
330
1E
100
AcDbEntity
  8
0
100
AcDbLine
 10
204.8249999999999
 20
289.0059999999999
 30
0.0
 11
204.8929999999999
 21
290.5079999999999
 31
0.0
  0
LINE
  5
336
330
1E
100
AcDbEntity
  8
0
100
AcDbLine
 10
204.63
 20
288.184
 30
0.0
 11
204.8249999999999
 21
289.0059999999999
 31
0.0
  0
LINE
  5
339
330
1E
100
AcDbEntity
  8
0
100
AcDbLine
 10
182.891
 20
294.9669999999999
 30
0.0
 11
188.8209999999999
 21
294.912
 31
0.0
  0
LINE
  5
33A
330
1E
100
AcDbEntity
  8
0
100
AcDbLine
 10
204.4259999999999
 20
293.339
 30
0.0
 11
204.5999999999999
 21
293.103
 31
0.0
  0
LINE
  5
33B
330
1E
100
AcDbEntity
  8
0
100
AcDbLine
 10
204.767
 20
292.4449999999999
 30
0.0
 11
204.91
 21
291.697
 31
0.0
  0
LINE
  5
33C
330
1E
100
AcDbEntity
  8
0
100
AcDbLine
 10
204.5999999999999
 20
293.103
 30
0.0
 11
204.767
 21
292.4449999999999
 31
0.0
  0
LINE
  5
33D
330
1E
100
AcDbEntity
  8
0
100
AcDbLine
 10
204.0149999999999
 20
293.8379999999999
 30
0.0
 11
204.4259999999999
 21
293.339
 31
0.0
  0
LINE
  5
341
330
1E
100
AcDbEntity
  8
0
100
AcDbLine
 10
202.929
 20
294.299
 30
0.0
 11
203.54
 21
294.111
 31
0.0
  0
LINE
  5
342
330
1E
100
AcDbEntity
  8
0
100
AcDbLine
 10
203.54
 20
294.111
 30
0.0
 11
204.0149999999999
 21
293.839
 31
0.0
  0
LINE
  5
344
330
1E
100
AcDbEntity
  8
0
100
AcDbLine
 10
196.108
 20
294.7749999999999
 30
0.0
 11
198.886
 21
294.672
 31
0.0
  0
LINE
  5
345
330
1E
100
AcDbEntity
  8
0
100
AcDbLine
 10
193.053
 20
294.8479999999999
 30
0.0
 11
196.108
 21
294.7749999999999
 31
0.0
  0
LINE
  5
346
330
1E
100
AcDbEntity
  8
0
100
AcDbLine
 10
198.886
 20
294.672
 30
0.0
 11
200.5449999999999
 21
294.5759999999999
 31
0.0
  0
LINE
  5
347
330
1E
100
AcDbEntity
  8
0
100
AcDbLine
 10
200.5449999999999
 20
294.5759999999999
 30
0.0
 11
202.055
 21
294.439
 31
0.0
  0
LINE
  5
348
330
1E
100
AcDbEntity
  8
0
100
AcDbLine
 10
202.055
 20
294.439
 30
0.0
 11
202.929
 21
294.299
 31
0.0
  0
LINE
  5
34E
330
1E
100
AcDbEntity
  8
0
100
AcDbLine
 10
188.8209999999999
 20
294.912
 30
0.0
 11
193.053
 21
294.8479999999999
 31
0.0
  0
LINE
  5
350
330
1E
100
AcDbEntity
  8
0
100
AcDbLine
 10
204.9059999999999
 20
290.9739999999999
 30
0.0
 11
204.9059999999999
 21
291.3929999999999
 31
0.0
  0
LINE
  5
351
330
1E
100
AcDbEntity
  8
0
100
AcDbLine
 10
204.9059999999999
 20
291.3929999999999
 30
0.0
 11
204.91
 21
291.697
 31
0.0
  0
LINE
  5
352
330
1E
100
AcDbEntity
  8
0
100
AcDbLine
 10
204.9059999999999
 20
291.3929999999999
 30
0.0
 11
204.9059999999999
 21
290.9739999999999
 31
0.0
  0
LINE
  5
354
330
1E
100
AcDbEntity
  8
0
100
AcDbLine
 10
204.8929999999999
 20
290.5079999999999
 30
0.0
 11
204.9059999999999
 21
290.9739999999999
 31
0.0
  0
LINE
  5
357
330
1E
100
AcDbEntity
  8
0
100
AcDbLine
 10
166.929
 20
294.9669999999999
 30
0.0
 11
174.91
 21
295.0
 31
0.0
  0
LINE
  5
359
330
1E
100
AcDbEntity
  8
0
100
AcDbLine
 10
174.91
 20
295.0
 30
0.0
 11
182.891
 21
294.9669999999999
 31
0.0
  0
LINE
  5
360
330
1E
100
AcDbEntity
  8
0
100
AcDbLine
 10
159.588
 20
268.843
 30
0.0
 11
162.954
 21
267.2449999999999
 31
0.0
  0
LINE
  5
365
330
1E
100
AcDbEntity
  8
0
100
AcDbLine
 10
13.9148
 20
23.82829999999999
 30
0.0
 11
36.25119999999999
 21
23.82829999999999
 31
0.0
  0
LINE
  5
366
330
1E
100
AcDbEntity
  8
0
100
AcDbLine
 10
145.61
 20
288.227
 30
0.0
 11
146.262
 21
287.62
 31
0.0
  0
LINE
  5
367
330
1E
100
AcDbEntity
  8
0
100
AcDbLine
 10
203.5579999999999
 20
287.62
 30
0.0
 11
204.21
 21
288.227
 31
0.0
  0
ENDSEC
  0
SECTION
  2
OBJECTS
  0
DICTIONARY
  5
C
330
0
100
AcDbDictionary
281
     1
  3
ACAD_GROUP
350
D
  3
ACAD_LAYOUT
350
19
  3
ACAD_MLINESTYLE
350
16
  3
ACAD_PLOTSETTINGS
350
18
  3
ACAD_PLOTSTYLENAME
350
E
  3
AcDbVariableDictionary
350
369
  0
DICTIONARY
  5
D
102
{ACAD_REACTORS
330
C
102
}
330
C
100
AcDbDictionary
281
     1
  0
DICTIONARY
  5
19
102
{ACAD_REACTORS
330
C
102
}
330
C
100
AcDbDictionary
281
     1
  3
Layout1
350
1D
  3
Model
350
21
  0
DICTIONARY
  5
16
102
{ACAD_REACTORS
330
C
102
}
330
C
100
AcDbDictionary
281
     1
  3
Standard
350
17
  0
DICTIONARY
  5
18
102
{ACAD_REACTORS
330
C
102
}
330
C
100
AcDbDictionary
281
     1
  0
ACDBDICTIONARYWDFLT
  5
E
102
{ACAD_REACTORS
330
C
102
}
330
C
100
AcDbDictionary
281
     1
  3
Normal
350
F
100
AcDbDictionaryWithDefault
340
F
  0
DICTIONARY
  5
369
102
{ACAD_REACTORS
330
C
102
}
330
C
100
AcDbDictionary
281
     1
  3
DIMASSOC
350
36A
  0
LAYOUT
  5
1D
102
{ACAD_REACTORS
330
19
102
}
330
19
100
AcDbPlotSettings
  1

  2
C:\Programme\AutoCAD LT 2002 Deu\plotters\DWF ePlot (optimized for plotting).pc3
  4

  6

 40
0.0
 41
0.0
 42
0.0
 43
0.0
 44
0.0
 45
0.0
 46
0.0
 47
0.0
 48
0.0
 49
0.0
140
0.0
141
0.0
142
1.0
143
1.0
 70
   688
 72
     0
 73
     0
 74
     5
  7

 75
    16
147
1.0
148
0.0
149
0.0
100
AcDbLayout
  1
Layout1
 70
     1
 71
     1
 10
0.0
 20
0.0
 11
12.0
 21
9.0
 12
0.0
 22
0.0
 32
0.0
 14
1.000000000000000E+20
 24
1.000000000000000E+20
 34
1.000000000000000E+20
 15
-1.000000000000000E+20
 25
-1.000000000000000E+20
 35
-1.000000000000000E+20
146
0.0
 13
0.0
 23
0.0
 33
0.0
 16
1.0
 26
0.0
 36
0.0
 17
0.0
 27
1.0
 37
0.0
 76
     0
330
1A
  0
LAYOUT
  5
21
102
{ACAD_REACTORS
330
19
102
}
330
19
100
AcDbPlotSettings
  1

  2
C:\Programme\AutoCAD LT 2002 Deu\plotters\DWF ePlot (optimized for plotting).pc3
  4

  6

 40
0.0
 41
0.0
 42
0.0
 43
0.0
 44
0.0
 45
0.0
 46
0.0
 47
0.0
 48
0.0
 49
0.0
140
0.0
141
0.0
142
1.0
143
1.0
 70
  1712
 72
     0
 73
     0
 74
     0
  7

 75
     0
147
1.0
148
0.0
149
0.0
100
AcDbLayout
  1
Model
 70
     1
 71
     0
 10
0.0
 20
0.0
 11
12.0
 21
9.0
 12
0.0
 22
0.0
 32
0.0
 14
0.0
 24
0.0
 34
0.0
 15
0.0
 25
0.0
 35
0.0
146
0.0
 13
0.0
 23
0.0
 33
0.0
 16
1.0
 26
0.0
 36
0.0
 17
0.0
 27
1.0
 37
0.0
 76
     0
330
1E
  0
MLINESTYLE
  5
17
102
{ACAD_REACTORS
330
16
102
}
330
16
100
AcDbMlineStyle
  2
STANDARD
 70
     0
  3

 62
   256
 51
90.0
 52
90.0
 71
     2
 49
0.5
 62
   256
  6
BYLAYER
 49
-0.5
 62
   256
  6
BYLAYER
  0
ACDBPLACEHOLDER
  5
F
102
{ACAD_REACTORS
330
E
102
}
330
E
  0
DICTIONARYVAR
  5
36A
102
{ACAD_REACTORS
330
369
102
}
330
369
100
DictionaryVariables
280
     0
  1
1
  0
ENDSEC
  0
EOF
