  0
SECTION
  2
HEADER
  9
$ACADVER
  1
AC1015
  9
$ACADMAINTVER
 70
    13
  9
$DWGCODEPAGE
  3
ANSI_1252
  9
$INSBASE
 10
0.0
 20
0.0
 30
0.0
  9
$EXTMIN
 10
-0.220299999999985
 20
0.0324549999999845
 30
0.0
  9
$EXTMAX
 10
194.2203
 20
149.9675449999999
 30
0.0
  9
$LIMMIN
 10
0.0
 20
0.0
  9
$LIMMAX
 10
12.0
 20
9.0
  9
$ORTHOMODE
 70
     0
  9
$REGENMODE
 70
     1
  9
$FILLMODE
 70
     1
  9
$QTEXTMODE
 70
     0
  9
$MIRRTEXT
 70
     1
  9
$LTSCALE
 40
1.0
  9
$ATTMODE
 70
     1
  9
$TEXTSIZE
 40
0.2
  9
$TRACEWID
 40
0.05
  9
$TEXTSTYLE
  7
Standard
  9
$CLAYER
  8
0
  9
$CELTYPE
  6
Continuous
  9
$CECOLOR
 62
   256
  9
$CELTSCALE
 40
1.0
  9
$DISPSILH
 70
     0
  9
$DIMSCALE
 40
1.0
  9
$DIMASZ
 40
0.18
  9
$DIMEXO
 40
0.0625
  9
$DIMDLI
 40
0.38
  9
$DIMRND
 40
0.0
  9
$DIMDLE
 40
0.0
  9
$DIMEXE
 40
0.18
  9
$DIMTP
 40
0.0
  9
$DIMTM
 40
0.0
  9
$DIMTXT
 40
0.18
  9
$DIMCEN
 40
0.09
  9
$DIMTSZ
 40
0.0
  9
$DIMTOL
 70
     0
  9
$DIMLIM
 70
     0
  9
$DIMTIH
 70
     1
  9
$DIMTOH
 70
     1
  9
$DIMSE1
 70
     0
  9
$DIMSE2
 70
     0
  9
$DIMTAD
 70
     0
  9
$DIMZIN
 70
     0
  9
$DIMBLK
  1

  9
$DIMASO
 70
     1
  9
$DIMSHO
 70
     1
  9
$DIMPOST
  1

  9
$DIMAPOST
  1

  9
$DIMALT
 70
     0
  9
$DIMALTD
 70
     2
  9
$DIMALTF
 40
25.4
  9
$DIMLFAC
 40
1.0
  9
$DIMTOFL
 70
     0
  9
$DIMTVP
 40
0.0
  9
$DIMTIX
 70
     0
  9
$DIMSOXD
 70
     0
  9
$DIMSAH
 70
     0
  9
$DIMBLK1
  1

  9
$DIMBLK2
  1

  9
$DIMSTYLE
  2
Standard
  9
$DIMCLRD
 70
     0
  9
$DIMCLRE
 70
     0
  9
$DIMCLRT
 70
     0
  9
$DIMTFAC
 40
1.0
  9
$DIMGAP
 40
0.09
  9
$DIMJUST
 70
     0
  9
$DIMSD1
 70
     0
  9
$DIMSD2
 70
     0
  9
$DIMTOLJ
 70
     1
  9
$DIMTZIN
 70
     0
  9
$DIMALTZ
 70
     0
  9
$DIMALTTZ
 70
     0
  9
$DIMUPT
 70
     0
  9
$DIMDEC
 70
     4
  9
$DIMTDEC
 70
     4
  9
$DIMALTU
 70
     2
  9
$DIMALTTD
 70
     2
  9
$DIMTXSTY
  7
Standard
  9
$DIMAUNIT
 70
     0
  9
$DIMADEC
 70
     0
  9
$DIMALTRND
 40
0.0
  9
$DIMAZIN
 70
     0
  9
$DIMDSEP
 70
    46
  9
$DIMATFIT
 70
     3
  9
$DIMFRAC
 70
     0
  9
$DIMLDRBLK
  1

  9
$DIMLUNIT
 70
     2
  9
$DIMLWD
 70
    -2
  9
$DIMLWE
 70
    -2
  9
$DIMTMOVE
 70
     0
  9
$LUNITS
 70
     2
  9
$LUPREC
 70
     4
  9
$SKETCHINC
 40
0.1
  9
$FILLETRAD
 40
0.0
  9
$AUNITS
 70
     0
  9
$AUPREC
 70
     0
  9
$MENU
  1
.
  9
$ELEVATION
 40
0.0
  9
$PELEVATION
 40
0.0
  9
$THICKNESS
 40
0.0
  9
$LIMCHECK
 70
     0
  9
$CHAMFERA
 40
0.0
  9
$CHAMFERB
 40
0.0
  9
$CHAMFERC
 40
0.0
  9
$CHAMFERD
 40
0.0
  9
$SKPOLY
 70
     0
  9
$TDCREATE
 40
2454738.439105532
  9
$TDUCREATE
 40
2454738.355772199
  9
$TDUPDATE
 40
2454738.439659467
  9
$TDUUPDATE
 40
2454738.356326134
  9
$TDINDWG
 40
0.0005539352
  9
$TDUSRTIMER
 40
0.0005539352
  9
$USRTIMER
 70
     1
  9
$ANGBASE
 50
0.0
  9
$ANGDIR
 70
     0
  9
$PDMODE
 70
     0
  9
$PDSIZE
 40
0.0
  9
$PLINEWID
 40
0.0
  9
$SPLFRAME
 70
     0
  9
$SPLINETYPE
 70
     6
  9
$SPLINESEGS
 70
     8
  9
$HANDSEED
  5
272
  9
$SURFTAB1
 70
     6
  9
$SURFTAB2
 70
     6
  9
$SURFTYPE
 70
     6
  9
$SURFU
 70
     6
  9
$SURFV
 70
     6
  9
$UCSBASE
  2

  9
$UCSNAME
  2

  9
$UCSORG
 10
0.0
 20
0.0
 30
0.0
  9
$UCSXDIR
 10
1.0
 20
0.0
 30
0.0
  9
$UCSYDIR
 10
0.0
 20
1.0
 30
0.0
  9
$UCSORTHOREF
  2

  9
$UCSORTHOVIEW
 70
     1
  9
$UCSORGTOP
 10
0.0
 20
0.0
 30
0.0
  9
$UCSORGBOTTOM
 10
0.0
 20
0.0
 30
0.0
  9
$UCSORGLEFT
 10
0.0
 20
0.0
 30
0.0
  9
$UCSORGRIGHT
 10
0.0
 20
0.0
 30
0.0
  9
$UCSORGFRONT
 10
0.0
 20
0.0
 30
0.0
  9
$UCSORGBACK
 10
0.0
 20
0.0
 30
0.0
  9
$PUCSBASE
  2

  9
$PUCSNAME
  2

  9
$PUCSORG
 10
0.0
 20
0.0
 30
0.0
  9
$PUCSXDIR
 10
1.0
 20
0.0
 30
0.0
  9
$PUCSYDIR
 10
0.0
 20
1.0
 30
0.0
  9
$PUCSORTHOREF
  2

  9
$PUCSORTHOVIEW
 70
     0
  9
$PUCSORGTOP
 10
0.0
 20
0.0
 30
0.0
  9
$PUCSORGBOTTOM
 10
0.0
 20
0.0
 30
0.0
  9
$PUCSORGLEFT
 10
0.0
 20
0.0
 30
0.0
  9
$PUCSORGRIGHT
 10
0.0
 20
0.0
 30
0.0
  9
$PUCSORGFRONT
 10
0.0
 20
0.0
 30
0.0
  9
$PUCSORGBACK
 10
0.0
 20
0.0
 30
0.0
  9
$USERI1
 70
     0
  9
$USERI2
 70
     0
  9
$USERI3
 70
     0
  9
$USERI4
 70
     0
  9
$USERI5
 70
     0
  9
$USERR1
 40
0.0
  9
$USERR2
 40
0.0
  9
$USERR3
 40
0.0
  9
$USERR4
 40
0.0
  9
$USERR5
 40
0.0
  9
$WORLDVIEW
 70
     1
  9
$SHADEDGE
 70
     3
  9
$SHADEDIF
 70
    70
  9
$TILEMODE
 70
     1
  9
$MAXACTVP
 70
    64
  9
$PINSBASE
 10
0.0
 20
0.0
 30
0.0
  9
$PLIMCHECK
 70
     0
  9
$PEXTMIN
 10
1.000000000000000E+20
 20
1.000000000000000E+20
 30
1.000000000000000E+20
  9
$PEXTMAX
 10
-1.000000000000000E+20
 20
-1.000000000000000E+20
 30
-1.000000000000000E+20
  9
$PLIMMIN
 10
0.0
 20
0.0
  9
$PLIMMAX
 10
12.0
 20
9.0
  9
$UNITMODE
 70
     0
  9
$VISRETAIN
 70
     1
  9
$PLINEGEN
 70
     0
  9
$PSLTSCALE
 70
     1
  9
$TREEDEPTH
 70
  3020
  9
$CMLSTYLE
  2
Standard
  9
$CMLJUST
 70
     0
  9
$CMLSCALE
 40
1.0
  9
$PROXYGRAPHICS
 70
     1
  9
$MEASUREMENT
 70
     0
  9
$CELWEIGHT
370
    -1
  9
$ENDCAPS
280
     0
  9
$JOINSTYLE
280
     0
  9
$LWDISPLAY
290
     0
  9
$INSUNITS
 70
     0
  9
$HYPERLINKBASE
  1

  9
$STYLESHEET
  1

  9
$XEDIT
290
     1
  9
$CEPSNTYPE
380
     0
  9
$PSTYLEMODE
290
     1
  9
$FINGERPRINTGUID
  2
{F2A75BC7-E5E2-4EE5-9B7A-4032EC2421AC}
  9
$VERSIONGUID
  2
{7F8A1211-5DFA-4E2F-BE9F-7D85B11456DC}
  9
$EXTNAMES
290
     1
  9
$PSVPSCALE
 40
0.0
  9
$OLESTARTUP
290
     0
  0
ENDSEC
  0
SECTION
  2
CLASSES
  0
CLASS
  1
ACDBDICTIONARYWDFLT
  2
AcDbDictionaryWithDefault
  3
AutoCAD 2000
 90
        0
280
     0
281
     0
  0
CLASS
  1
ACDBPLACEHOLDER
  2
AcDbPlaceHolder
  3
AutoCAD 2000
 90
        0
280
     0
281
     0
  0
CLASS
  1
LAYOUT
  2
AcDbLayout
  3
AutoCAD 2000
 90
        0
280
     0
281
     0
  0
CLASS
  1
DICTIONARYVAR
  2
AcDbDictionaryVar
  3
AutoCAD 2000
 90
        0
280
     0
281
     0
  0
ENDSEC
  0
SECTION
  2
TABLES
  0
TABLE
  2
VPORT
  5
8
330
0
100
AcDbSymbolTable
 70
     2
  0
VPORT
  5
271
330
8
100
AcDbSymbolTableRecord
100
AcDbViewportTableRecord
  2
*Active
 70
     0
 10
0.0
 20
0.0
 11
1.0
 21
1.0
 12
97.00000000000002
 22
75.0
 13
0.0
 23
0.0
 14
1.0
 24
1.0
 15
0.0
 25
0.0
 16
0.0
 26
0.0
 36
1.0
 17
0.0
 27
0.0
 37
0.0
 40
151.0854871099744
 41
2.078104993597951
 42
50.0
 43
0.0
 44
0.0
 50
0.0
 51
0.0
 71
     0
 72
   100
 73
     1
 74
     3
 75
     0
 76
     0
 77
     0
 78
     0
281
     0
 65
     1
110
0.0
120
0.0
130
0.0
111
1.0
121
0.0
131
0.0
112
0.0
122
1.0
132
0.0
 79
     1
146
0.0
  0
ENDTAB
  0
TABLE
  2
LTYPE
  5
5
330
0
100
AcDbSymbolTable
 70
     1
  0
LTYPE
  5
13
330
5
100
AcDbSymbolTableRecord
100
AcDbLinetypeTableRecord
  2
ByBlock
 70
     0
  3

 72
    65
 73
     0
 40
0.0
  0
LTYPE
  5
14
330
5
100
AcDbSymbolTableRecord
100
AcDbLinetypeTableRecord
  2
ByLayer
 70
     0
  3

 72
    65
 73
     0
 40
0.0
  0
LTYPE
  5
15
330
5
100
AcDbSymbolTableRecord
100
AcDbLinetypeTableRecord
  2
Continuous
 70
     0
  3
Solid line
 72
    65
 73
     0
 40
0.0
  0
ENDTAB
  0
TABLE
  2
LAYER
  5
2
330
0
100
AcDbSymbolTable
 70
     1
  0
LAYER
  5
10
330
2
100
AcDbSymbolTableRecord
100
AcDbLayerTableRecord
  2
0
 70
     0
 62
     7
  6
Continuous
370
    -3
390
F
  0
ENDTAB
  0
TABLE
  2
STYLE
  5
3
330
0
100
AcDbSymbolTable
 70
     1
  0
STYLE
  5
11
330
3
100
AcDbSymbolTableRecord
100
AcDbTextStyleTableRecord
  2
Standard
 70
     0
 40
0.0
 41
1.0
 50
0.0
 71
     0
 42
0.2
  3
txt
  4

  0
ENDTAB
  0
TABLE
  2
VIEW
  5
6
330
0
100
AcDbSymbolTable
 70
     0
  0
ENDTAB
  0
TABLE
  2
UCS
  5
7
330
0
100
AcDbSymbolTable
 70
     0
  0
ENDTAB
  0
TABLE
  2
APPID
  5
9
330
0
100
AcDbSymbolTable
 70
     1
  0
APPID
  5
12
330
9
100
AcDbSymbolTableRecord
100
AcDbRegAppTableRecord
  2
ACAD
 70
     0
  0
ENDTAB
  0
TABLE
  2
DIMSTYLE
  5
A
330
0
100
AcDbSymbolTable
 70
     1
100
AcDbDimStyleTable
 71
     0
  0
DIMSTYLE
105
26B
330
A
100
AcDbSymbolTableRecord
100
AcDbDimStyleTableRecord
  2
Standard
 70
     0
340
11
  0
ENDTAB
  0
TABLE
  2
BLOCK_RECORD
  5
1
330
0
100
AcDbSymbolTable
 70
     0
  0
BLOCK_RECORD
  5
1E
330
1
100
AcDbSymbolTableRecord
100
AcDbBlockTableRecord
  2
*Model_Space
340
21
  0
BLOCK_RECORD
  5
1A
330
1
100
AcDbSymbolTableRecord
100
AcDbBlockTableRecord
  2
*Paper_Space
340
1D
  0
ENDTAB
  0
ENDSEC
  0
SECTION
  2
BLOCKS
  0
BLOCK
  5
1F
330
1E
100
AcDbEntity
  8
0
100
AcDbBlockBegin
  2
*Model_Space
 70
     0
 10
0.0
 20
0.0
 30
0.0
  3
*Model_Space
  1

  0
ENDBLK
  5
20
330
1E
100
AcDbEntity
  8
0
100
AcDbBlockEnd
  0
BLOCK
  5
1B
330
1A
100
AcDbEntity
 67
     1
  8
0
100
AcDbBlockBegin
  2
*Paper_Space
 70
     0
 10
0.0
 20
0.0
 30
0.0
  3
*Paper_Space
  1

  0
ENDBLK
  5
1C
330
1A
100
AcDbEntity
 67
     1
  8
0
100
AcDbBlockEnd
  0
ENDSEC
  0
SECTION
  2
ENTITIES
  0
LINE
  5
22
330
1E
100
AcDbEntity
  8
0
100
AcDbLine
 10
18.8521
 20
116.5735449999999
 30
0.0
 11
19.5146
 21
116.1915449999999
 31
0.0
  0
LINE
  5
23
330
1E
100
AcDbEntity
  8
0
100
AcDbLine
 10
18.8521
 20
116.5735449999999
 30
0.0
 11
19.65079864965839
 21
117.492747774135
 31
0.0
  0
LINE
  5
24
330
1E
100
AcDbEntity
  8
0
100
AcDbLine
 10
18.8521
 20
116.5735449999999
 30
0.0
 11
20.2122
 21
115.3135449999999
 31
0.0
  0
LINE
  5
25
330
1E
100
AcDbEntity
  8
0
100
AcDbLine
 10
18.8521
 20
116.5735449999999
 30
0.0
 11
19.1432938498731
 21
116.908672891763
 31
0.0
  0
LINE
  5
26
330
1E
100
AcDbEntity
  8
0
100
AcDbLine
 10
20.8747
 20
114.931545
 30
0.0
 11
21.62888085426819
 21
115.799513330407
 31
0.0
  0
LINE
  5
27
330
1E
100
AcDbEntity
  8
0
100
AcDbLine
 10
20.2122
 20
115.3135449999999
 30
0.0
 11
20.8747
 21
114.931545
 31
0.0
  0
LINE
  5
28
330
1E
100
AcDbEntity
  8
0
100
AcDbLine
 10
19.5146
 20
116.1915449999999
 30
0.0
 11
20.3344027943768
 21
117.1350360189929
 31
0.0
  0
LINE
  5
29
330
1E
100
AcDbEntity
  8
0
100
AcDbLine
 10
19.5146
 20
116.1915449999999
 30
0.0
 11
20.8747
 21
114.931545
 31
0.0
  0
LINE
  5
2A
330
1E
100
AcDbEntity
  8
0
100
AcDbLine
 10
17.9995
 20
116.5915449999999
 30
0.0
 11
18.7677033960656
 21
117.4514483510009
 31
0.0
  0
LINE
  5
2B
330
1E
100
AcDbEntity
  8
0
100
AcDbLine
 10
17.7735
 20
116.721545
 30
0.0
 11
17.9995
 21
116.5915449999999
 31
0.0
  0
LINE
  5
2C
330
1E
100
AcDbEntity
  8
0
100
AcDbLine
 10
15.6887
 20
120.8965449999999
 30
0.0
 11
16.383283554944
 21
121.592122236711
 31
0.0
  0
LINE
  5
2D
330
1E
100
AcDbEntity
  8
0
100
AcDbLine
 10
14.82269999999999
 20
121.3965449999999
 30
0.0
 11
15.6887
 21
120.8965449999999
 31
0.0
  0
LINE
  5
2E
330
1E
100
AcDbEntity
  8
0
100
AcDbLine
 10
14.55049999999999
 20
122.235545
 30
0.0
 11
15.25688019032799
 21
122.942430469434
 31
0.0
  0
LINE
  5
2F
330
1E
100
AcDbEntity
  8
0
100
AcDbLine
 10
14.55049999999999
 20
122.235545
 30
0.0
 11
15.6887
 21
120.8965449999999
 31
0.0
  0
LINE
  5
30
330
1E
100
AcDbEntity
  8
0
100
AcDbLine
 10
16.299
 20
118.047545
 30
0.0
 11
16.52509999999999
 21
117.917545
 31
0.0
  0
LINE
  5
31
330
1E
100
AcDbEntity
  8
0
100
AcDbLine
 10
16.299
 20
118.047545
 30
0.0
 11
17.065239281047
 21
118.9064053465719
 31
0.0
  0
LINE
  5
32
330
1E
100
AcDbEntity
  8
0
100
AcDbLine
 10
16.299
 20
118.047545
 30
0.0
 11
17.7735
 21
116.721545
 31
0.0
  0
LINE
  5
33
330
1E
100
AcDbEntity
  8
0
100
AcDbLine
 10
16.52509999999999
 20
117.917545
 30
0.0
 11
17.30530409690219
 21
118.7915377186179
 31
0.0
  0
LINE
  5
34
330
1E
100
AcDbEntity
  8
0
100
AcDbLine
 10
16.52509999999999
 20
117.917545
 30
0.0
 11
17.9995
 21
116.5915449999999
 31
0.0
  0
LINE
  5
35
330
1E
100
AcDbEntity
  8
0
100
AcDbLine
 10
20.088
 20
122.2305449999999
 30
0.0
 11
25.6306
 21
119.0305449999999
 31
0.0
  0
LINE
  5
36
330
1E
100
AcDbEntity
  8
0
100
AcDbLine
 10
18.6542121173838
 20
117.3244096899539
 30
0.0
 11
19.1432938498731
 21
116.908672891763
 31
0.0
  0
LINE
  5
37
330
1E
100
AcDbEntity
  8
0
100
AcDbLine
 10
31.0925
 20
106.8910449999999
 30
0.0
 11
31.71508023489749
 21
107.744922262641
 31
0.0
  0
LINE
  5
38
330
1E
100
AcDbEntity
  8
0
100
AcDbLine
 10
37.1635
 20
101.926245
 30
0.0
 11
37.1930735118727
 21
101.972680698557
 31
0.0
  0
LINE
  5
39
330
1E
100
AcDbEntity
  8
0
100
AcDbLine
 10
37.1635
 20
101.926245
 30
0.0
 11
37.38949999999999
 21
101.7957449999999
 31
0.0
  0
LINE
  5
3A
330
1E
100
AcDbEntity
  8
0
100
AcDbLine
 10
38.17499999999999
 20
101.3422449999999
 30
0.0
 11
38.8375
 21
100.959745
 31
0.0
  0
LINE
  5
3B
330
1E
100
AcDbEntity
  8
0
100
AcDbLine
 10
35.49139999999999
 20
102.9922449999999
 30
0.0
 11
36.0300205314857
 21
103.8379253560709
 31
0.0
  0
LINE
  5
3C
330
1E
100
AcDbEntity
  8
0
100
AcDbLine
 10
35.49139999999999
 20
102.9922449999999
 30
0.0
 11
37.1635
 21
101.926245
 31
0.0
  0
LINE
  5
3D
330
1E
100
AcDbEntity
  8
0
100
AcDbLine
 10
35.9119
 20
104.1085449999999
 30
0.0
 11
36.5295713629195
 21
104.990392313695
 31
0.0
  0
LINE
  5
3E
330
1E
100
AcDbEntity
  8
0
100
AcDbLine
 10
34.6873
 20
104.815545
 30
0.0
 11
35.9119
 21
104.1085449999999
 31
0.0
  0
LINE
  5
3F
330
1E
100
AcDbEntity
  8
0
100
AcDbLine
 10
33.59429999999999
 20
105.7302449999999
 30
0.0
 11
34.8197
 21
105.0227449999999
 31
0.0
  0
LINE
  5
40
330
1E
100
AcDbEntity
  8
0
100
AcDbLine
 10
33.59429999999999
 20
105.7302449999999
 30
0.0
 11
34.25112525165249
 21
106.667934728083
 31
0.0
  0
LINE
  5
41
330
1E
100
AcDbEntity
  8
0
100
AcDbLine
 10
33.59429999999999
 20
105.7302449999999
 30
0.0
 11
34.6873
 21
104.815545
 31
0.0
  0
LINE
  5
42
330
1E
100
AcDbEntity
  8
0
100
AcDbLine
 10
34.8197
 20
105.0227449999999
 30
0.0
 11
35.3947938772887
 21
105.844580984668
 31
0.0
  0
LINE
  5
43
330
1E
100
AcDbEntity
  8
0
100
AcDbLine
 10
34.8197
 20
105.0227449999999
 30
0.0
 11
35.9119
 21
104.1085449999999
 31
0.0
  0
LINE
  5
44
330
1E
100
AcDbEntity
  8
0
100
AcDbLine
 10
36.61979999999999
 20
102.340745
 30
0.0
 11
37.2824
 21
101.9582449999999
 31
0.0
  0
LINE
  5
45
330
1E
100
AcDbEntity
  8
0
100
AcDbLine
 10
36.61979999999999
 20
102.340745
 30
0.0
 11
37.1817509470271
 21
103.2298519644839
 31
0.0
  0
LINE
  5
46
330
1E
100
AcDbEntity
  8
0
100
AcDbLine
 10
36.61979999999999
 20
102.340745
 30
0.0
 11
38.17499999999999
 21
101.3422449999999
 31
0.0
  0
LINE
  5
47
330
1E
100
AcDbEntity
  8
0
100
AcDbLine
 10
37.2824
 20
101.9582449999999
 30
0.0
 11
37.8371213051172
 21
102.8359955327809
 31
0.0
  0
LINE
  5
48
330
1E
100
AcDbEntity
  8
0
100
AcDbLine
 10
37.2824
 20
101.9582449999999
 30
0.0
 11
38.8375
 21
100.959745
 31
0.0
  0
LINE
  5
49
330
1E
100
AcDbEntity
  8
0
100
AcDbLine
 10
31.3705
 20
107.1726449999999
 30
0.0
 11
37.0876652473162
 21
103.08099155004
 31
0.0
  0
LINE
  5
4A
330
1E
100
AcDbEntity
  8
0
100
AcDbLine
 10
23.7418
 20
116.247545
 30
0.0
 11
24.58977735916029
 21
117.178793774471
 31
0.0
  0
LINE
  5
4B
330
1E
100
AcDbEntity
  8
0
100
AcDbLine
 10
22.5164
 20
116.9545449999999
 30
0.0
 11
23.7418
 21
116.247545
 31
0.0
  0
LINE
  5
4C
330
1E
100
AcDbEntity
  8
0
100
AcDbLine
 10
22.86599999999999
 20
117.434545
 30
0.0
 11
23.53155730590299
 21
118.1650162442779
 31
0.0
  0
LINE
  5
4D
330
1E
100
AcDbEntity
  8
0
100
AcDbLine
 10
22.86599999999999
 20
117.434545
 30
0.0
 11
23.7418
 21
116.247545
 31
0.0
  0
LINE
  5
4E
330
1E
100
AcDbEntity
  8
0
100
AcDbLine
 10
21.6415
 20
118.141545
 30
0.0
 11
22.86599999999999
 21
117.434545
 31
0.0
  0
LINE
  5
4F
330
1E
100
AcDbEntity
  8
0
100
AcDbLine
 10
21.6415
 20
118.141545
 30
0.0
 11
22.306742314279
 21
118.872169628929
 31
0.0
  0
LINE
  5
50
330
1E
100
AcDbEntity
  8
0
100
AcDbLine
 10
21.6415
 20
118.141545
 30
0.0
 11
22.5164
 21
116.9545449999999
 31
0.0
  0
LINE
  5
51
330
1E
100
AcDbEntity
  8
0
100
AcDbLine
 10
24.0101
 20
113.5955449999999
 30
0.0
 11
25.0649
 21
112.986545
 31
0.0
  0
LINE
  5
52
330
1E
100
AcDbEntity
  8
0
100
AcDbLine
 10
24.0101
 20
113.5955449999999
 30
0.0
 11
24.826661924575
 21
114.587671947775
 31
0.0
  0
LINE
  5
53
330
1E
100
AcDbEntity
  8
0
100
AcDbLine
 10
24.0101
 20
113.5955449999999
 30
0.0
 11
25.1494
 21
112.4635449999999
 31
0.0
  0
LINE
  5
54
330
1E
100
AcDbEntity
  8
0
100
AcDbLine
 10
27.9661
 20
108.696045
 30
0.0
 11
28.5931769779151
 21
109.534015028516
 31
0.0
  0
LINE
  5
55
330
1E
100
AcDbEntity
  8
0
100
AcDbLine
 10
27.9661
 20
108.696045
 30
0.0
 11
28.469539553253
 21
109.3687969453799
 31
0.0
  0
LINE
  5
56
330
1E
100
AcDbEntity
  8
0
100
AcDbLine
 10
27.51749999999999
 20
108.9550449999999
 30
0.0
 11
27.9661
 21
108.696045
 31
0.0
  0
LINE
  5
57
330
1E
100
AcDbEntity
  8
0
100
AcDbLine
 10
28.8606
 20
108.4632449999999
 30
0.0
 11
29.7266
 21
107.963245
 31
0.0
  0
LINE
  5
58
330
1E
100
AcDbEntity
  8
0
100
AcDbLine
 10
28.8606
 20
108.4632449999999
 30
0.0
 11
29.4997311082141
 21
109.34003940211
 31
0.0
  0
LINE
  5
59
330
1E
100
AcDbEntity
  8
0
100
AcDbLine
 10
28.8606
 20
108.4632449999999
 30
0.0
 11
29.4997311082141
 21
109.34003940211
 31
0.0
  0
LINE
  5
5A
330
1E
100
AcDbEntity
  8
0
100
AcDbLine
 10
28.8606
 20
108.4632449999999
 30
0.0
 11
30.2265
 21
107.3910449999999
 31
0.0
  0
LINE
  5
5B
330
1E
100
AcDbEntity
  8
0
100
AcDbLine
 10
33.6226
 20
107.571345
 30
0.0
 11
34.31195535474599
 21
108.476949474062
 31
0.0
  0
LINE
  5
5C
330
1E
100
AcDbEntity
  8
0
100
AcDbLine
 10
32.24819999999999
 20
108.3648449999999
 30
0.0
 11
33.6226
 21
107.571345
 31
0.0
  0
LINE
  5
5D
330
1E
100
AcDbEntity
  8
0
100
AcDbLine
 10
32.7959
 20
108.523545
 30
0.0
 11
33.2893516861223
 21
109.170890899269
 31
0.0
  0
LINE
  5
5E
330
1E
100
AcDbEntity
  8
0
100
AcDbLine
 10
32.7959
 20
108.523545
 30
0.0
 11
33.6226
 21
107.571345
 31
0.0
  0
LINE
  5
5F
330
1E
100
AcDbEntity
  8
0
100
AcDbLine
 10
31.4224
 20
109.3165449999999
 30
0.0
 11
32.7959
 21
108.523545
 31
0.0
  0
LINE
  5
60
330
1E
100
AcDbEntity
  8
0
100
AcDbLine
 10
31.4224
 20
109.3165449999999
 30
0.0
 11
32.2644548045614
 21
110.422750374581
 31
0.0
  0
LINE
  5
61
330
1E
100
AcDbEntity
  8
0
100
AcDbLine
 10
31.4224
 20
109.3165449999999
 30
0.0
 11
32.24819999999999
 21
108.3648449999999
 31
0.0
  0
LINE
  5
62
330
1E
100
AcDbEntity
  8
0
100
AcDbLine
 10
30.2265
 20
107.3910449999999
 30
0.0
 11
31.0925
 21
106.8910449999999
 31
0.0
  0
LINE
  5
63
330
1E
100
AcDbEntity
  8
0
100
AcDbLine
 10
29.7266
 20
107.963245
 30
0.0
 11
30.3195532199376
 21
108.7764884085349
 31
0.0
  0
LINE
  5
64
330
1E
100
AcDbEntity
  8
0
100
AcDbLine
 10
29.7266
 20
107.963245
 30
0.0
 11
31.0925
 21
106.8910449999999
 31
0.0
  0
LINE
  5
65
330
1E
100
AcDbEntity
  8
0
100
AcDbLine
 10
25.1494
 20
112.4635449999999
 30
0.0
 11
26.2034
 21
111.854545
 31
0.0
  0
LINE
  5
66
330
1E
100
AcDbEntity
  8
0
100
AcDbLine
 10
25.0649
 20
112.986545
 30
0.0
 11
25.6622442359148
 21
113.712263770358
 31
0.0
  0
LINE
  5
67
330
1E
100
AcDbEntity
  8
0
100
AcDbLine
 10
25.0649
 20
112.986545
 30
0.0
 11
26.2034
 21
111.854545
 31
0.0
  0
LINE
  5
68
330
1E
100
AcDbEntity
  8
0
100
AcDbLine
 10
26.2034
 20
111.854545
 30
0.0
 11
26.9312259545714
 21
112.738226536221
 31
0.0
  0
LINE
  5
69
330
1E
100
AcDbEntity
  8
0
100
AcDbLine
 10
25.98019999999999
 20
110.1265449999999
 30
0.0
 11
26.42879999999999
 21
109.8675449999999
 31
0.0
  0
LINE
  5
6A
330
1E
100
AcDbEntity
  8
0
100
AcDbLine
 10
25.98019999999999
 20
110.1265449999999
 30
0.0
 11
26.61134862000269
 21
110.969692526095
 31
0.0
  0
LINE
  5
6B
330
1E
100
AcDbEntity
  8
0
100
AcDbLine
 10
25.98019999999999
 20
110.1265449999999
 30
0.0
 11
27.51749999999999
 21
108.9550449999999
 31
0.0
  0
LINE
  5
6C
330
1E
100
AcDbEntity
  8
0
100
AcDbLine
 10
26.81503667853739
 20
109.4903574185869
 30
0.0
 11
27.51749999999999
 21
108.9550449999999
 31
0.0
  0
LINE
  5
6D
330
1E
100
AcDbEntity
  8
0
100
AcDbLine
 10
26.42879999999999
 20
109.8675449999999
 30
0.0
 11
27.0390708348068
 21
110.6828020223689
 31
0.0
  0
LINE
  5
6E
330
1E
100
AcDbEntity
  8
0
100
AcDbLine
 10
26.42879999999999
 20
109.8675449999999
 30
0.0
 11
27.9661
 21
108.696045
 31
0.0
  0
LINE
  5
6F
330
1E
100
AcDbEntity
  8
0
100
AcDbLine
 10
26.7468
 20
109.400045
 30
0.0
 11
26.81503667853739
 21
109.4903574185869
 31
0.0
  0
LINE
  5
70
330
1E
100
AcDbEntity
  8
0
100
AcDbLine
 10
25.1505
 20
110.6055449999999
 30
0.0
 11
25.76812317091439
 21
111.423236066594
 31
0.0
  0
LINE
  5
71
330
1E
100
AcDbEntity
  8
0
100
AcDbLine
 10
25.1505
 20
110.6055449999999
 30
0.0
 11
26.7468
 21
109.400045
 31
0.0
  0
LINE
  5
72
330
1E
100
AcDbEntity
  8
0
100
AcDbLine
 10
25.6306
 20
119.0305449999999
 30
0.0
 11
31.77939999999999
 21
115.480545
 31
0.0
  0
LINE
  5
73
330
1E
100
AcDbEntity
  8
0
100
AcDbLine
 10
32.10739999999999
 20
112.098545
 30
0.0
 11
32.71927333866059
 21
112.8604814118089
 31
0.0
  0
LINE
  5
74
330
1E
100
AcDbEntity
  8
0
100
AcDbLine
 10
32.10739999999999
 20
112.098545
 30
0.0
 11
33.6073
 21
111.2325449999999
 31
0.0
  0
LINE
  5
75
330
1E
100
AcDbEntity
  8
0
100
AcDbLine
 10
32.10739999999999
 20
112.098545
 30
0.0
 11
32.6394
 21
111.1105449999999
 31
0.0
  0
LINE
  5
76
330
1E
100
AcDbEntity
  8
0
100
AcDbLine
 10
31.77939999999999
 20
115.480545
 30
0.0
 11
38.3616
 21
111.681545
 31
0.0
  0
LINE
  5
77
330
1E
100
AcDbEntity
  8
0
100
AcDbLine
 10
26.131
 20
119.897545
 30
0.0
 11
32.2798
 21
116.3475449999999
 31
0.0
  0
LINE
  5
78
330
1E
100
AcDbEntity
  8
0
100
AcDbLine
 10
32.6394
 20
111.1105449999999
 30
0.0
 11
34.1393
 21
110.244545
 31
0.0
  0
LINE
  5
79
330
1E
100
AcDbEntity
  8
0
100
AcDbLine
 10
34.1393
 20
110.244545
 30
0.0
 11
34.9447655980423
 21
111.2468874081339
 31
0.0
  0
LINE
  5
7A
330
1E
100
AcDbEntity
  8
0
100
AcDbLine
 10
33.6073
 20
111.2325449999999
 30
0.0
 11
34.2191934246643
 21
111.9945064239419
 31
0.0
  0
LINE
  5
7B
330
1E
100
AcDbEntity
  8
0
100
AcDbLine
 10
33.6073
 20
111.2325449999999
 30
0.0
 11
34.1393
 21
110.244545
 31
0.0
  0
LINE
  5
7C
330
1E
100
AcDbEntity
  8
0
100
AcDbLine
 10
38.3616
 20
111.681545
 30
0.0
 11
45.28979999999999
 21
107.681545
 31
0.0
  0
LINE
  5
7D
330
1E
100
AcDbEntity
  8
0
100
AcDbLine
 10
32.2798
 20
116.3475449999999
 30
0.0
 11
38.8616
 21
112.5475449999999
 31
0.0
  0
LINE
  5
7E
330
1E
100
AcDbEntity
  8
0
100
AcDbLine
 10
28.469539553253
 20
109.3687969453799
 30
0.0
 11
29.146899624424
 21
108.856006210955
 31
0.0
  0
LINE
  5
7F
330
1E
100
AcDbEntity
  8
0
100
AcDbLine
 10
24.2997
 20
112.525545
 30
0.0
 11
25.7636297854135
 21
111.417287129838
 31
0.0
  0
LINE
  5
80
330
1E
100
AcDbEntity
  8
0
100
AcDbLine
 10
31.3236697772552
 20
107.2080974946729
 30
0.0
 11
31.3705
 21
107.1726449999999
 31
0.0
  0
LINE
  5
81
330
1E
100
AcDbEntity
  8
0
100
AcDbLine
 10
21.1272706179037
 20
115.22222235715
 30
0.0
 11
24.2997
 21
112.525545
 31
0.0
  0
LINE
  5
82
330
1E
100
AcDbEntity
  8
0
100
AcDbLine
 10
10.5306
 20
123.8745449999999
 30
0.0
 11
11.30279979958469
 21
124.604543430466
 31
0.0
  0
LINE
  5
83
330
1E
100
AcDbEntity
  8
0
100
AcDbLine
 10
10.5306
 20
123.8745449999999
 30
0.0
 11
11.30279979958469
 21
124.604543430466
 31
0.0
  0
LINE
  5
84
330
1E
100
AcDbEntity
  8
0
100
AcDbLine
 10
10.5306
 20
123.8745449999999
 30
0.0
 11
11.01404468811359
 21
124.3315690289229
 31
0.0
  0
LINE
  5
85
330
1E
100
AcDbEntity
  8
0
100
AcDbLine
 10
10.082
 20
124.133545
 30
0.0
 11
10.5306
 21
123.8745449999999
 31
0.0
  0
LINE
  5
86
330
1E
100
AcDbEntity
  8
0
100
AcDbLine
 10
13.6844
 20
122.735545
 30
0.0
 11
14.55049999999999
 21
122.235545
 31
0.0
  0
LINE
  5
87
330
1E
100
AcDbEntity
  8
0
100
AcDbLine
 10
13.6844
 20
122.735545
 30
0.0
 11
14.3908404062314
 21
123.442440163663
 31
0.0
  0
LINE
  5
88
330
1E
100
AcDbEntity
  8
0
100
AcDbLine
 10
13.6844
 20
122.735545
 30
0.0
 11
14.82269999999999
 21
121.3965449999999
 31
0.0
  0
LINE
  5
89
330
1E
100
AcDbEntity
  8
0
100
AcDbLine
 10
20.5884
 20
123.097545
 30
0.0
 11
26.131
 21
119.897545
 31
0.0
  0
LINE
  5
8A
330
1E
100
AcDbEntity
  8
0
100
AcDbLine
 10
12.4762
 20
123.046545
 30
0.0
 11
16.98970115019119
 21
118.821736357588
 31
0.0
  0
LINE
  5
8B
330
1E
100
AcDbEntity
  8
0
100
AcDbLine
 10
8.61840000000001
 20
124.978545
 30
0.0
 11
8.995731355775008
 21
125.3284738399959
 31
0.0
  0
LINE
  5
8C
330
1E
100
AcDbEntity
  8
0
100
AcDbLine
 10
8.995731355775008
 20
125.3284738399959
 30
0.0
 11
10.082
 21
124.133545
 31
0.0
  0
LINE
  5
8D
330
1E
100
AcDbEntity
  8
0
100
AcDbLine
 10
8.778400000000019
 20
125.567545
 30
0.0
 11
9.227000000000019
 21
125.3085449999999
 31
0.0
  0
LINE
  5
8E
330
1E
100
AcDbEntity
  8
0
100
AcDbLine
 10
8.778400000000019
 20
125.567545
 30
0.0
 11
9.468764692329999
 21
126.220225718026
 31
0.0
  0
LINE
  5
8F
330
1E
100
AcDbEntity
  8
0
100
AcDbLine
 10
8.778400000000019
 20
125.567545
 30
0.0
 11
10.082
 21
124.133545
 31
0.0
  0
LINE
  5
90
330
1E
100
AcDbEntity
  8
0
100
AcDbLine
 10
9.227000000000019
 20
125.3085449999999
 30
0.0
 11
9.95936348219867
 21
126.000931978547
 31
0.0
  0
LINE
  5
91
330
1E
100
AcDbEntity
  8
0
100
AcDbLine
 10
9.227000000000019
 20
125.3085449999999
 30
0.0
 11
10.5306
 21
123.8745449999999
 31
0.0
  0
LINE
  5
92
330
1E
100
AcDbEntity
  8
0
100
AcDbLine
 10
15.2383
 20
125.0305449999999
 30
0.0
 11
20.088
 21
122.2305449999999
 31
0.0
  0
LINE
  5
93
330
1E
100
AcDbEntity
  8
0
100
AcDbLine
 10
15.7387
 20
125.8975449999999
 30
0.0
 11
20.5884
 21
123.097545
 31
0.0
  0
LINE
  5
94
330
1E
100
AcDbEntity
  8
0
100
AcDbLine
 10
11.01404468811359
 20
124.3315690289229
 30
0.0
 11
12.4762
 21
123.046545
 31
0.0
  0
LINE
  5
95
330
1E
100
AcDbEntity
  8
0
100
AcDbLine
 10
31.56169999999999
 20
122.303545
 30
0.0
 11
38.8363
 21
118.1035449999999
 31
0.0
  0
LINE
  5
96
330
1E
100
AcDbEntity
  8
0
100
AcDbLine
 10
31.6483
 20
122.2535449999999
 30
0.0
 11
38.9229
 21
118.053545
 31
0.0
  0
LINE
  5
97
330
1E
100
AcDbEntity
  8
0
100
AcDbLine
 10
57.0095000000014
 20
89.3086449999992
 30
0.0
 11
57.0863
 21
89.26424499999999
 31
0.0
  0
LINE
  5
98
330
1E
100
AcDbEntity
  8
0
100
AcDbLine
 10
57.0863
 20
89.26424499999999
 30
0.0
 11
57.2623000000069
 21
89.162604999996
 31
0.0
  0
LINE
  5
99
330
1E
100
AcDbEntity
  8
0
100
AcDbLine
 10
57.0503
 20
89.28524499999999
 30
0.0
 11
57.2793
 21
89.153245
 31
0.0
  0
LINE
  5
9A
330
1E
100
AcDbEntity
  8
0
100
AcDbLine
 10
56.8313
 20
90.570745
 30
0.0
 11
56.8724545573011
 21
90.6430047459589
 31
0.0
  0
LINE
  5
9B
330
1E
100
AcDbEntity
  8
0
100
AcDbLine
 10
56.8313
 20
90.570745
 30
0.0
 11
57.07299217940509
 21
90.43125850647248
 31
0.0
  0
LINE
  5
9C
330
1E
100
AcDbEntity
  8
0
100
AcDbLine
 10
56.9823
 20
89.32424499999999
 30
0.0
 11
57.0953191650087
 21
90.70378778941808
 31
0.0
  0
LINE
  5
9D
330
1E
100
AcDbEntity
  8
0
100
AcDbLine
 10
56.9823
 20
89.32424499999999
 30
0.0
 11
57.0503
 21
89.28524499999999
 31
0.0
  0
LINE
  5
9E
330
1E
100
AcDbEntity
  8
0
100
AcDbLine
 10
57.2793
 20
89.153245
 30
0.0
 11
57.6393
 21
88.94524500000001
 31
0.0
  0
LINE
  5
9F
330
1E
100
AcDbEntity
  8
0
100
AcDbLine
 10
57.13966585366129
 20
89.2337328048765
 30
0.0
 11
57.2793
 21
89.152745
 31
0.0
  0
LINE
  5
A0
330
1E
100
AcDbEntity
  8
0
100
AcDbLine
 10
57.2793
 20
89.152745
 30
0.0
 11
57.61829999999999
 21
88.957245
 31
0.0
  0
LINE
  5
A1
330
1E
100
AcDbEntity
  8
0
100
AcDbLine
 10
60.3063
 20
87.40524499999999
 30
0.0
 11
60.75829999999999
 21
87.14424499999999
 31
0.0
  0
LINE
  5
A2
330
1E
100
AcDbEntity
  8
0
100
AcDbLine
 10
59.7743
 20
87.712245
 30
0.0
 11
60.19901910112221
 21
87.4672450000008
 31
0.0
  0
LINE
  5
A3
330
1E
100
AcDbEntity
  8
0
100
AcDbLine
 10
60.0951709677419
 20
87.52726112903228
 30
0.0
 11
60.3063
 21
87.40524499999999
 31
0.0
  0
LINE
  5
A4
330
1E
100
AcDbEntity
  8
0
100
AcDbLine
 10
60.9978906040051
 20
87.00590942954278
 30
0.0
 11
61.1253
 21
86.93224499999999
 31
0.0
  0
LINE
  5
A5
330
1E
100
AcDbEntity
  8
0
100
AcDbLine
 10
60.7893000000105
 20
87.12638350414909
 30
0.0
 11
61.1263
 21
86.93174499999999
 31
0.0
  0
LINE
  5
A6
330
1E
100
AcDbEntity
  8
0
100
AcDbLine
 10
61.4233
 20
86.760745
 30
0.0
 11
62.33661436986809
 21
87.39256845140118
 31
0.0
  0
LINE
  5
A7
330
1E
100
AcDbEntity
  8
0
100
AcDbLine
 10
61.1263
 20
86.93174499999999
 30
0.0
 11
61.3302999999986
 21
86.81408710526399
 31
0.0
  0
LINE
  5
A8
330
1E
100
AcDbEntity
  8
0
100
AcDbLine
 10
61.1253
 20
86.93224499999999
 30
0.0
 11
61.3263
 21
86.81624499999999
 31
0.0
  0
LINE
  5
A9
330
1E
100
AcDbEntity
  8
0
100
AcDbLine
 10
61.3473
 20
86.80424499999999
 30
0.0
 11
61.4153
 21
86.76524499999999
 31
0.0
  0
LINE
  5
AA
330
1E
100
AcDbEntity
  8
0
100
AcDbLine
 10
61.3193
 20
86.820745
 30
0.0
 11
61.4153
 21
86.76524499999999
 31
0.0
  0
LINE
  5
AB
330
1E
100
AcDbEntity
  8
0
100
AcDbLine
 10
61.4153
 20
86.76524499999999
 30
0.0
 11
62.3287089107718
 21
87.39713385402929
 31
0.0
  0
LINE
  5
AC
330
1E
100
AcDbEntity
  8
0
100
AcDbLine
 10
61.1193
 20
86.936245
 30
0.0
 11
61.3193
 21
86.820745
 31
0.0
  0
LINE
  5
AD
330
1E
100
AcDbEntity
  8
0
100
AcDbLine
 10
61.1193
 20
86.936245
 30
0.0
 11
61.3473
 21
86.80424499999999
 31
0.0
  0
LINE
  5
AE
330
1E
100
AcDbEntity
  8
0
100
AcDbLine
 10
62.1843
 20
87.58124499999999
 30
0.0
 11
63.7833
 21
86.65774499999999
 31
0.0
  0
LINE
  5
AF
330
1E
100
AcDbEntity
  8
0
100
AcDbLine
 10
62.1843
 20
87.58124499999999
 30
0.0
 11
62.7160757570997
 21
88.54019748499078
 31
0.0
  0
LINE
  5
B0
330
1E
100
AcDbEntity
  8
0
100
AcDbLine
 10
60.75829999999999
 20
87.14424499999999
 30
0.0
 11
61.1193
 21
86.936245
 31
0.0
  0
LINE
  5
B1
330
1E
100
AcDbEntity
  8
0
100
AcDbLine
 10
60.7793
 20
87.132245
 30
0.0
 11
61.1193
 21
86.936245
 31
0.0
  0
LINE
  5
B2
330
1E
100
AcDbEntity
  8
0
100
AcDbLine
 10
60.3073
 20
87.40474499999999
 30
0.0
 11
60.7793
 21
87.132245
 31
0.0
  0
LINE
  5
B3
330
1E
100
AcDbEntity
  8
0
100
AcDbLine
 10
58.7352165544986
 20
88.31226586137871
 30
0.0
 11
59.2053
 21
88.040745
 31
0.0
  0
LINE
  5
B4
330
1E
100
AcDbEntity
  8
0
100
AcDbLine
 10
59.1993
 20
88.04424499999999
 30
0.0
 11
59.6563114942387
 21
87.7807392528817
 31
0.0
  0
LINE
  5
B5
330
1E
100
AcDbEntity
  8
0
100
AcDbLine
 10
58.7406663792954
 20
88.30912431035342
 30
0.0
 11
59.1993
 21
88.04424499999999
 31
0.0
  0
LINE
  5
B6
330
1E
100
AcDbEntity
  8
0
100
AcDbLine
 10
58.09029999999999
 20
88.68474499999999
 30
0.0
 11
58.3024290322723
 21
88.56222887095958
 31
0.0
  0
LINE
  5
B7
330
1E
100
AcDbEntity
  8
0
100
AcDbLine
 10
57.6393
 20
88.94524500000001
 30
0.0
 11
58.09129999999999
 21
88.68424499999999
 31
0.0
  0
LINE
  5
B8
330
1E
100
AcDbEntity
  8
0
100
AcDbLine
 10
58.09129999999999
 20
88.68424499999999
 30
0.0
 11
58.6303
 21
88.37274499999999
 31
0.0
  0
LINE
  5
B9
330
1E
100
AcDbEntity
  8
0
100
AcDbLine
 10
58.6303
 20
88.37274499999999
 30
0.0
 11
59.1993
 21
88.04474499999999
 31
0.0
  0
LINE
  5
BA
330
1E
100
AcDbEntity
  8
0
100
AcDbLine
 10
61.47829999999999
 20
87.888245
 30
0.0
 11
62.1843
 21
87.58124499999999
 31
0.0
  0
LINE
  5
BB
330
1E
100
AcDbEntity
  8
0
100
AcDbLine
 10
61.47829999999999
 20
87.888245
 30
0.0
 11
61.99633618917659
 21
88.8212441984448
 31
0.0
  0
LINE
  5
BC
330
1E
100
AcDbEntity
  8
0
100
AcDbLine
 10
61.47829999999999
 20
87.888245
 30
0.0
 11
63.0783
 21
86.96424499999999
 31
0.0
  0
LINE
  5
BD
330
1E
100
AcDbEntity
  8
0
100
AcDbLine
 10
62.6683
 20
88.660545
 30
0.0
 11
63.2363
 21
88.61624499999999
 31
0.0
  0
LINE
  5
BE
330
1E
100
AcDbEntity
  8
0
100
AcDbLine
 10
62.6683
 20
88.660545
 30
0.0
 11
63.20323760727429
 21
89.66014185867299
 31
0.0
  0
LINE
  5
BF
330
1E
100
AcDbEntity
  8
0
100
AcDbLine
 10
62.6683
 20
88.660545
 30
0.0
 11
64.3413
 21
87.694545
 31
0.0
  0
LINE
  5
C0
330
1E
100
AcDbEntity
  8
0
100
AcDbLine
 10
59.2053
 20
88.040745
 30
0.0
 11
59.2866421052532
 21
87.9938502631637
 31
0.0
  0
LINE
  5
C1
330
1E
100
AcDbEntity
  8
0
100
AcDbLine
 10
59.2473000000178
 20
88.01656894365169
 30
0.0
 11
59.7743
 21
87.712245
 31
0.0
  0
LINE
  5
C2
330
1E
100
AcDbEntity
  8
0
100
AcDbLine
 10
59.1993
 20
88.04474499999999
 30
0.0
 11
59.7593
 21
87.721245
 31
0.0
  0
LINE
  5
C3
330
1E
100
AcDbEntity
  8
0
100
AcDbLine
 10
59.7593
 20
87.721245
 30
0.0
 11
60.3073
 21
87.40474499999999
 31
0.0
  0
LINE
  5
C4
330
1E
100
AcDbEntity
  8
0
100
AcDbLine
 10
57.61829999999999
 20
88.957245
 30
0.0
 11
58.09029999999999
 21
88.68474499999999
 31
0.0
  0
LINE
  5
C5
330
1E
100
AcDbEntity
  8
0
100
AcDbLine
 10
39.0248
 20
100.9522449999999
 30
0.0
 11
39.3587291077832
 21
101.4871055722419
 31
0.0
  0
LINE
  5
C6
330
1E
100
AcDbEntity
  8
0
100
AcDbLine
 10
39.0248
 20
100.9522449999999
 30
0.0
 11
40.3539
 21
100.0842449999999
 31
0.0
  0
LINE
  5
C7
330
1E
100
AcDbEntity
  8
0
100
AcDbLine
 10
38.8375
 20
100.959745
 30
0.0
 11
39.34643014436529
 21
101.7650112009069
 31
0.0
  0
LINE
  5
C8
330
1E
100
AcDbEntity
  8
0
100
AcDbLine
 10
61.1483
 20
91.67934499999999
 30
0.0
 11
61.5753
 21
91.907545
 31
0.0
  0
LINE
  5
C9
330
1E
100
AcDbEntity
  8
0
100
AcDbLine
 10
61.1483
 20
91.67934499999999
 30
0.0
 11
61.6862806747932
 21
92.67198565558029
 31
0.0
  0
LINE
  5
CA
330
1E
100
AcDbEntity
  8
0
100
AcDbLine
 10
61.1483
 20
91.67934499999999
 30
0.0
 11
62.86529999999999
 21
90.68784499999999
 31
0.0
  0
LINE
  5
CB
330
1E
100
AcDbEntity
  8
0
100
AcDbLine
 10
61.5753
 20
91.907545
 30
0.0
 11
63.2933
 21
90.916045
 31
0.0
  0
LINE
  5
CC
330
1E
100
AcDbEntity
  8
0
100
AcDbLine
 10
61.5753
 20
91.907545
 30
0.0
 11
61.9169664755944
 21
92.5387848115084
 31
0.0
  0
LINE
  5
CD
330
1E
100
AcDbEntity
  8
0
100
AcDbLine
 10
56.81329999999999
 20
92.04104499999999
 30
0.0
 11
56.9363
 21
92.25374499999999
 31
0.0
  0
LINE
  5
CE
330
1E
100
AcDbEntity
  8
0
100
AcDbLine
 10
56.9363
 20
92.25374499999999
 30
0.0
 11
57.55476892779739
 21
93.32540451611981
 31
0.0
  0
LINE
  5
CF
330
1E
100
AcDbEntity
  8
0
100
AcDbLine
 10
53.7989
 20
92.32174499999999
 30
0.0
 11
54.1762777089891
 21
92.96647242139059
 31
0.0
  0
LINE
  5
D0
330
1E
100
AcDbEntity
  8
0
100
AcDbLine
 10
44.92589999999999
 20
96.28524499999999
 30
0.0
 11
45.4464
 21
95.984745
 31
0.0
  0
LINE
  5
D1
330
1E
100
AcDbEntity
  8
0
100
AcDbLine
 10
44.11529999999999
 20
96.753245
 30
0.0
 11
44.4825
 21
96.54124499999999
 31
0.0
  0
LINE
  5
D2
330
1E
100
AcDbEntity
  8
0
100
AcDbLine
 10
44.4825
 20
96.54124499999999
 30
0.0
 11
44.92589999999999
 21
96.28524499999999
 31
0.0
  0
LINE
  5
D3
330
1E
100
AcDbEntity
  8
0
100
AcDbLine
 10
43.89359999999999
 20
96.881245
 30
0.0
 11
44.11529999999999
 21
96.753245
 31
0.0
  0
LINE
  5
D4
330
1E
100
AcDbEntity
  8
0
100
AcDbLine
 10
41.40789999999999
 20
99.47574499999999
 30
0.0
 11
41.71078632715111
 21
99.9609123695204
 31
0.0
  0
LINE
  5
D5
330
1E
100
AcDbEntity
  8
0
100
AcDbLine
 10
40.3539
 20
100.0842449999999
 30
0.0
 11
40.6903165311323
 21
100.623070608462
 31
0.0
  0
LINE
  5
D6
330
1E
100
AcDbEntity
  8
0
100
AcDbLine
 10
40.3539
 20
100.0842449999999
 30
0.0
 11
41.40789999999999
 21
99.47574499999999
 31
0.0
  0
LINE
  5
D7
330
1E
100
AcDbEntity
  8
0
100
AcDbLine
 10
42.0971
 20
100.537545
 30
0.0
 11
42.7065921305694
 21
101.456802673315
 31
0.0
  0
LINE
  5
D8
330
1E
100
AcDbEntity
  8
0
100
AcDbLine
 10
40.59709999999999
 20
101.4035449999999
 30
0.0
 11
42.0971
 21
100.537545
 31
0.0
  0
LINE
  5
D9
330
1E
100
AcDbEntity
  8
0
100
AcDbLine
 10
41.36079999999999
 20
101.246245
 30
0.0
 11
41.9129343246935
 21
102.0798516814579
 31
0.0
  0
LINE
  5
DA
330
1E
100
AcDbEntity
  8
0
100
AcDbLine
 10
41.36079999999999
 20
101.246245
 30
0.0
 11
42.0971
 21
100.537545
 31
0.0
  0
LINE
  5
DB
330
1E
100
AcDbEntity
  8
0
100
AcDbLine
 10
39.86079999999999
 20
102.112245
 30
0.0
 11
40.5454929373411
 21
103.1459873010819
 31
0.0
  0
LINE
  5
DC
330
1E
100
AcDbEntity
  8
0
100
AcDbLine
 10
39.86079999999999
 20
102.112245
 30
0.0
 11
41.36079999999999
 21
101.246245
 31
0.0
  0
LINE
  5
DD
330
1E
100
AcDbEntity
  8
0
100
AcDbLine
 10
39.86079999999999
 20
102.112245
 30
0.0
 11
40.59709999999999
 21
101.4035449999999
 31
0.0
  0
LINE
  5
DE
330
1E
100
AcDbEntity
  8
0
100
AcDbLine
 10
41.0254
 20
103.2973449999999
 30
0.0
 11
42.62579999999999
 21
102.3733449999999
 31
0.0
  0
LINE
  5
DF
330
1E
100
AcDbEntity
  8
0
100
AcDbLine
 10
42.1828
 20
103.104045
 30
0.0
 11
42.59151575091579
 21
103.696767178163
 31
0.0
  0
LINE
  5
E0
330
1E
100
AcDbEntity
  8
0
100
AcDbLine
 10
42.1828
 20
103.104045
 30
0.0
 11
42.62579999999999
 21
102.3733449999999
 31
0.0
  0
LINE
  5
E1
330
1E
100
AcDbEntity
  8
0
100
AcDbLine
 10
40.5824
 20
104.028045
 30
0.0
 11
41.1620669543874
 21
104.8678189211
 31
0.0
  0
LINE
  5
E2
330
1E
100
AcDbEntity
  8
0
100
AcDbLine
 10
40.5824
 20
104.028045
 30
0.0
 11
42.1828
 21
103.104045
 31
0.0
  0
LINE
  5
E3
330
1E
100
AcDbEntity
  8
0
100
AcDbLine
 10
40.5824
 20
104.028045
 30
0.0
 11
41.0254
 21
103.2973449999999
 31
0.0
  0
LINE
  5
E4
330
1E
100
AcDbEntity
  8
0
100
AcDbLine
 10
44.9265
 20
97.444245
 30
0.0
 11
45.4558645669587
 21
98.30743851396901
 31
0.0
  0
LINE
  5
E5
330
1E
100
AcDbEntity
  8
0
100
AcDbLine
 10
42.62579999999999
 20
102.3733449999999
 30
0.0
 11
43.2687251123222
 21
103.3057767639229
 31
0.0
  0
LINE
  5
E6
330
1E
100
AcDbEntity
  8
0
100
AcDbLine
 10
44.5022
 20
104.2613449999999
 30
0.0
 11
46.1754
 21
103.2953449999999
 31
0.0
  0
LINE
  5
E7
330
1E
100
AcDbEntity
  8
0
100
AcDbLine
 10
44.3686
 20
105.0198449999999
 30
0.0
 11
44.9183137234282
 21
105.817384625396
 31
0.0
  0
LINE
  5
E8
330
1E
100
AcDbEntity
  8
0
100
AcDbLine
 10
44.3686
 20
105.0198449999999
 30
0.0
 11
46.04169999999999
 21
104.0538449999999
 31
0.0
  0
LINE
  5
E9
330
1E
100
AcDbEntity
  8
0
100
AcDbLine
 10
44.3686
 20
105.0198449999999
 30
0.0
 11
44.5022
 21
104.2613449999999
 31
0.0
  0
LINE
  5
EA
330
1E
100
AcDbEntity
  8
0
100
AcDbLine
 10
43.5521
 20
98.23774499999998
 30
0.0
 11
44.9265
 21
97.444245
 31
0.0
  0
LINE
  5
EB
330
1E
100
AcDbEntity
  8
0
100
AcDbLine
 10
43.917
 20
98.12774499999999
 30
0.0
 11
44.475004564649
 21
99.03767320145981
 31
0.0
  0
LINE
  5
EC
330
1E
100
AcDbEntity
  8
0
100
AcDbLine
 10
43.917
 20
98.12774499999999
 30
0.0
 11
44.9265
 21
97.444245
 31
0.0
  0
LINE
  5
ED
330
1E
100
AcDbEntity
  8
0
100
AcDbLine
 10
42.5426
 20
98.92124500000001
 30
0.0
 11
43.917
 21
98.12774499999999
 31
0.0
  0
LINE
  5
EE
330
1E
100
AcDbEntity
  8
0
100
AcDbLine
 10
42.5426
 20
98.92124500000001
 30
0.0
 11
43.0542372486095
 21
99.7555628370233
 31
0.0
  0
LINE
  5
EF
330
1E
100
AcDbEntity
  8
0
100
AcDbLine
 10
42.5426
 20
98.92124500000001
 30
0.0
 11
43.5521
 21
98.23774499999998
 31
0.0
  0
LINE
  5
F0
330
1E
100
AcDbEntity
  8
0
100
AcDbLine
 10
43.81739999999999
 20
96.92524499999999
 30
0.0
 11
43.90201067040269
 21
98.03572657962419
 31
0.0
  0
LINE
  5
F1
330
1E
100
AcDbEntity
  8
0
100
AcDbLine
 10
43.81739999999999
 20
96.92524499999999
 30
0.0
 11
43.89359999999999
 21
96.881245
 31
0.0
  0
LINE
  5
F2
330
1E
100
AcDbEntity
  8
0
100
AcDbLine
 10
46.1754
 20
103.2953449999999
 30
0.0
 11
46.9225833547149
 21
104.3806200594189
 31
0.0
  0
LINE
  5
F3
330
1E
100
AcDbEntity
  8
0
100
AcDbLine
 10
46.04169999999999
 20
104.0538449999999
 30
0.0
 11
46.59143179246359
 21
104.851410840445
 31
0.0
  0
LINE
  5
F4
330
1E
100
AcDbEntity
  8
0
100
AcDbLine
 10
46.04169999999999
 20
104.0538449999999
 30
0.0
 11
46.1754
 21
103.2953449999999
 31
0.0
  0
LINE
  5
F5
330
1E
100
AcDbEntity
  8
0
100
AcDbLine
 10
45.4464
 20
95.984745
 30
0.0
 11
46.0353
 21
95.64474500000001
 31
0.0
  0
LINE
  5
F6
330
1E
100
AcDbEntity
  8
0
100
AcDbLine
 10
46.0353
 20
95.64474500000001
 30
0.0
 11
46.62329999999999
 21
95.305245
 31
0.0
  0
LINE
  5
F7
330
1E
100
AcDbEntity
  8
0
100
AcDbLine
 10
47.553
 20
97.38754499999998
 30
0.0
 11
49.2262
 21
96.421545
 31
0.0
  0
LINE
  5
F8
330
1E
100
AcDbEntity
  8
0
100
AcDbLine
 10
47.2316
 20
97.85674499999998
 30
0.0
 11
47.88422546271629
 21
98.9085503541427
 31
0.0
  0
LINE
  5
F9
330
1E
100
AcDbEntity
  8
0
100
AcDbLine
 10
47.2316
 20
97.85674499999998
 30
0.0
 11
48.9038
 21
96.891245
 31
0.0
  0
LINE
  5
FA
330
1E
100
AcDbEntity
  8
0
100
AcDbLine
 10
47.2316
 20
97.85674499999998
 30
0.0
 11
47.553
 21
97.38754499999998
 31
0.0
  0
LINE
  5
FB
330
1E
100
AcDbEntity
  8
0
100
AcDbLine
 10
47.1429
 20
95.005245
 30
0.0
 11
47.5863
 21
94.749245
 31
0.0
  0
LINE
  5
FC
330
1E
100
AcDbEntity
  8
0
100
AcDbLine
 10
47.5863
 20
94.749245
 30
0.0
 11
47.9535
 21
94.53724499999999
 31
0.0
  0
LINE
  5
FD
330
1E
100
AcDbEntity
  8
0
100
AcDbLine
 10
49.2262
 20
96.421545
 30
0.0
 11
49.8244170966524
 21
97.38454950457381
 31
0.0
  0
LINE
  5
FE
330
1E
100
AcDbEntity
  8
0
100
AcDbLine
 10
48.9038
 20
96.891245
 30
0.0
 11
49.4234399600182
 21
97.72775673638191
 31
0.0
  0
LINE
  5
FF
330
1E
100
AcDbEntity
  8
0
100
AcDbLine
 10
48.9038
 20
96.891245
 30
0.0
 11
49.2262
 21
96.421545
 31
0.0
  0
LINE
  5
100
330
1E
100
AcDbEntity
  8
0
100
AcDbLine
 10
47.9535
 20
94.53724499999999
 30
0.0
 11
48.1752
 21
94.40924499999999
 31
0.0
  0
LINE
  5
101
330
1E
100
AcDbEntity
  8
0
100
AcDbLine
 10
48.1752
 20
94.40924499999999
 30
0.0
 11
48.2514
 21
94.365245
 31
0.0
  0
LINE
  5
102
330
1E
100
AcDbEntity
  8
0
100
AcDbLine
 10
46.62329999999999
 20
95.305245
 30
0.0
 11
47.1429
 21
95.005245
 31
0.0
  0
LINE
  5
103
330
1E
100
AcDbEntity
  8
0
100
AcDbLine
 10
48.2514
 20
94.365245
 30
0.0
 11
49.3563275689019
 21
95.12056642318841
 31
0.0
  0
LINE
  5
104
330
1E
100
AcDbEntity
  8
0
100
AcDbLine
 10
45.28979999999999
 20
107.681545
 30
0.0
 11
52.4774
 21
103.5307449999999
 31
0.0
  0
LINE
  5
105
330
1E
100
AcDbEntity
  8
0
100
AcDbLine
 10
45.7898
 20
108.547545
 30
0.0
 11
52.9778
 21
104.3974449999999
 31
0.0
  0
LINE
  5
106
330
1E
100
AcDbEntity
  8
0
100
AcDbLine
 10
52.0816
 20
93.31324499999999
 30
0.0
 11
53.7989
 21
92.32174499999999
 31
0.0
  0
LINE
  5
107
330
1E
100
AcDbEntity
  8
0
100
AcDbLine
 10
50.8833
 20
97.605845
 30
0.0
 11
52.6007
 21
96.614345
 31
0.0
  0
LINE
  5
108
330
1E
100
AcDbEntity
  8
0
100
AcDbLine
 10
50.8673
 20
98.090045
 30
0.0
 11
51.38922046409891
 21
98.93899286626741
 31
0.0
  0
LINE
  5
109
330
1E
100
AcDbEntity
  8
0
100
AcDbLine
 10
50.8673
 20
98.090045
 30
0.0
 11
52.5846
 21
97.098545
 31
0.0
  0
LINE
  5
10A
330
1E
100
AcDbEntity
  8
0
100
AcDbLine
 10
50.8673
 20
98.090045
 30
0.0
 11
50.8833
 21
97.605845
 31
0.0
  0
LINE
  5
10B
330
1E
100
AcDbEntity
  8
0
100
AcDbLine
 10
51.9
 20
93.51874499999999
 30
0.0
 11
52.3710745366075
 21
94.32437306681949
 31
0.0
  0
LINE
  5
10C
330
1E
100
AcDbEntity
  8
0
100
AcDbLine
 10
51.9
 20
93.51874499999999
 30
0.0
 11
53.6165
 21
92.52774499999999
 31
0.0
  0
LINE
  5
10D
330
1E
100
AcDbEntity
  8
0
100
AcDbLine
 10
51.9
 20
93.51874499999999
 30
0.0
 11
52.0816
 21
93.31324499999999
 31
0.0
  0
LINE
  5
10E
330
1E
100
AcDbEntity
  8
0
100
AcDbLine
 10
55.0813
 20
93.04104499999999
 30
0.0
 11
56.81329999999999
 21
92.04104499999999
 31
0.0
  0
LINE
  5
10F
330
1E
100
AcDbEntity
  8
0
100
AcDbLine
 10
55.0813
 20
93.04104499999999
 30
0.0
 11
55.3426545100746
 21
93.49348045097499
 31
0.0
  0
LINE
  5
110
330
1E
100
AcDbEntity
  8
0
100
AcDbLine
 10
55.0813
 20
93.04104499999999
 30
0.0
 11
55.20430000000001
 21
93.253745
 31
0.0
  0
LINE
  5
111
330
1E
100
AcDbEntity
  8
0
100
AcDbLine
 10
57.07465451009301
 20
92.49348045100679
 30
0.0
 11
57.1171528776923
 21
92.5670501326817
 31
0.0
  0
LINE
  5
112
330
1E
100
AcDbEntity
  8
0
100
AcDbLine
 10
55.20430000000001
 20
93.253745
 30
0.0
 11
55.8227587012441
 21
94.32538679593589
 31
0.0
  0
LINE
  5
113
330
1E
100
AcDbEntity
  8
0
100
AcDbLine
 10
55.20430000000001
 20
93.253745
 30
0.0
 11
56.9363
 21
92.25374499999999
 31
0.0
  0
LINE
  5
114
330
1E
100
AcDbEntity
  8
0
100
AcDbLine
 10
53.6165
 20
92.52774499999999
 30
0.0
 11
54.1964253594935
 21
93.5180631718266
 31
0.0
  0
LINE
  5
115
330
1E
100
AcDbEntity
  8
0
100
AcDbLine
 10
53.6165
 20
92.52774499999999
 30
0.0
 11
53.7989
 21
92.32174499999999
 31
0.0
  0
LINE
  5
116
330
1E
100
AcDbEntity
  8
0
100
AcDbLine
 10
52.6007
 20
96.614345
 30
0.0
 11
53.19148910641469
 21
97.57650373504429
 31
0.0
  0
LINE
  5
117
330
1E
100
AcDbEntity
  8
0
100
AcDbLine
 10
52.5846
 20
97.098545
 30
0.0
 11
52.96044346527449
 21
97.70988624803131
 31
0.0
  0
LINE
  5
118
330
1E
100
AcDbEntity
  8
0
100
AcDbLine
 10
52.5846
 20
97.098545
 30
0.0
 11
52.6007
 21
96.614345
 31
0.0
  0
LINE
  5
119
330
1E
100
AcDbEntity
  8
0
100
AcDbLine
 10
57.2953
 20
96.87534499999999
 30
0.0
 11
59.0273
 21
95.875345
 31
0.0
  0
LINE
  5
11A
330
1E
100
AcDbEntity
  8
0
100
AcDbLine
 10
57.2953
 20
96.87534499999999
 30
0.0
 11
58.0727112109978
 21
98.2225864180118
 31
0.0
  0
LINE
  5
11B
330
1E
100
AcDbEntity
  8
0
100
AcDbLine
 10
57.2953
 20
96.87534499999999
 30
0.0
 11
57.5903
 21
97.38634499999999
 31
0.0
  0
LINE
  5
11C
330
1E
100
AcDbEntity
  8
0
100
AcDbLine
 10
59.0273
 20
95.875345
 30
0.0
 11
59.3223
 21
96.386345
 31
0.0
  0
LINE
  5
11D
330
1E
100
AcDbEntity
  8
0
100
AcDbLine
 10
59.3223
 20
96.386345
 30
0.0
 11
59.8048037975733
 21
97.22251650260091
 31
0.0
  0
LINE
  5
11E
330
1E
100
AcDbEntity
  8
0
100
AcDbLine
 10
57.5903
 20
97.38634499999999
 30
0.0
 11
58.07281092150639
 21
98.2225288482649
 31
0.0
  0
LINE
  5
11F
330
1E
100
AcDbEntity
  8
0
100
AcDbLine
 10
57.5903
 20
97.38634499999999
 30
0.0
 11
59.3223
 21
96.386345
 31
0.0
  0
LINE
  5
120
330
1E
100
AcDbEntity
  8
0
100
AcDbLine
 10
59.8383
 20
99.28074500000001
 30
0.0
 11
67.2003
 21
95.031145
 31
0.0
  0
LINE
  5
121
330
1E
100
AcDbEntity
  8
0
100
AcDbLine
 10
60.3393
 20
100.1474449999999
 30
0.0
 11
67.7003
 21
95.89714499999999
 31
0.0
  0
LINE
  5
122
330
1E
100
AcDbEntity
  8
0
100
AcDbLine
 10
52.4774
 20
103.5307449999999
 30
0.0
 11
59.8383
 21
99.28074500000001
 31
0.0
  0
LINE
  5
123
330
1E
100
AcDbEntity
  8
0
100
AcDbLine
 10
52.9778
 20
104.3974449999999
 30
0.0
 11
60.3393
 21
100.1474449999999
 31
0.0
  0
LINE
  5
124
330
1E
100
AcDbEntity
  8
0
100
AcDbLine
 10
49.3448363343111
 20
95.1127110886763
 30
0.0
 11
51.92093655474559
 21
93.55455053567391
 31
0.0
  0
LINE
  5
125
330
1E
100
AcDbEntity
  8
0
100
AcDbLine
 10
53.84079470290799
 20
92.39331961379519
 30
0.0
 11
55.3393
 21
91.48694499999999
 31
0.0
  0
LINE
  5
126
330
1E
100
AcDbEntity
  8
0
100
AcDbLine
 10
39.225449790391
 20
101.573587306866
 30
0.0
 11
42.76190720139429
 21
99.27886538516192
 31
0.0
  0
LINE
  5
127
330
1E
100
AcDbEntity
  8
0
100
AcDbLine
 10
55.3393
 20
91.48694499999999
 30
0.0
 11
57.0809376541603
 21
90.5282431409474
 31
0.0
  0
LINE
  5
128
330
1E
100
AcDbEntity
  8
0
100
AcDbLine
 10
78.5463
 20
79.77724499999999
 30
0.0
 11
79.02997205010999
 21
80.8146124053368
 31
0.0
  0
LINE
  5
129
330
1E
100
AcDbEntity
  8
0
100
AcDbLine
 10
77.2073
 20
80.26654499999999
 30
0.0
 11
78.5463
 21
79.77724499999999
 31
0.0
  0
LINE
  5
12A
330
1E
100
AcDbEntity
  8
0
100
AcDbLine
 10
77.3203
 20
80.48474499999999
 30
0.0
 11
78.5463
 21
79.77724499999999
 31
0.0
  0
LINE
  5
12B
330
1E
100
AcDbEntity
  8
0
100
AcDbLine
 10
77.3203
 20
80.48474499999999
 30
0.0
 11
77.74465602359551
 21
81.3935615658355
 31
0.0
  0
LINE
  5
12C
330
1E
100
AcDbEntity
  8
0
100
AcDbLine
 10
75.22629999999999
 20
80.05124499999999
 30
0.0
 11
75.70043414381629
 21
80.96149019233299
 31
0.0
  0
LINE
  5
12D
330
1E
100
AcDbEntity
  8
0
100
AcDbLine
 10
75.00029999999999
 20
80.18174499999998
 30
0.0
 11
75.22629999999999
 21
80.05124499999999
 31
0.0
  0
LINE
  5
12E
330
1E
100
AcDbEntity
  8
0
100
AcDbLine
 10
75.00029999999999
 20
80.18174499999998
 30
0.0
 11
75.47597914750541
 21
81.09495629844129
 31
0.0
  0
LINE
  5
12F
330
1E
100
AcDbEntity
  8
0
100
AcDbLine
 10
71.7933
 20
81.93274499999999
 30
0.0
 11
72.45529999999999
 21
81.55024499999999
 31
0.0
  0
LINE
  5
130
330
1E
100
AcDbEntity
  8
0
100
AcDbLine
 10
71.7933
 20
81.93274499999999
 30
0.0
 11
72.1310938981334
 21
82.5758246738119
 31
0.0
  0
LINE
  5
131
330
1E
100
AcDbEntity
  8
0
100
AcDbLine
 10
72.45529999999999
 20
81.55024499999999
 30
0.0
 11
73.26103191478551
 21
81.13462856799721
 31
0.0
  0
LINE
  5
132
330
1E
100
AcDbEntity
  8
0
100
AcDbLine
 10
72.45529999999999
 20
81.55024499999999
 30
0.0
 11
72.81936619033292
 21
82.2433409032091
 31
0.0
  0
LINE
  5
133
330
1E
100
AcDbEntity
  8
0
100
AcDbLine
 10
71.69329999999999
 20
82.09124499999999
 30
0.0
 11
72.1574986041404
 21
82.9637307470152
 31
0.0
  0
LINE
  5
134
330
1E
100
AcDbEntity
  8
0
100
AcDbLine
 10
63.7833
 20
86.65774499999999
 30
0.0
 11
64.2526336491704
 21
87.50211055276599
 31
0.0
  0
LINE
  5
135
330
1E
100
AcDbEntity
  8
0
100
AcDbLine
 10
62.86529999999999
 20
90.68784499999999
 30
0.0
 11
63.2933
 21
90.916045
 31
0.0
  0
LINE
  5
136
330
1E
100
AcDbEntity
  8
0
100
AcDbLine
 10
63.2933
 20
90.916045
 30
0.0
 11
63.767606808066
 21
91.7923420952885
 31
0.0
  0
LINE
  5
137
330
1E
100
AcDbEntity
  8
0
100
AcDbLine
 10
63.2363
 20
88.61624499999999
 30
0.0
 11
64.9093
 21
87.650745
 31
0.0
  0
LINE
  5
138
330
1E
100
AcDbEntity
  8
0
100
AcDbLine
 10
63.2363
 20
88.61624499999999
 30
0.0
 11
63.7009358427077
 21
89.4844743457812
 31
0.0
  0
LINE
  5
139
330
1E
100
AcDbEntity
  8
0
100
AcDbLine
 10
63.0783
 20
86.96424499999999
 30
0.0
 11
63.7833
 21
86.65774499999999
 31
0.0
  0
LINE
  5
13A
330
1E
100
AcDbEntity
  8
0
100
AcDbLine
 10
63.86038585942739
 20
86.7964280976661
 30
0.0
 11
63.9263
 21
86.76014499999999
 31
0.0
  0
LINE
  5
13B
330
1E
100
AcDbEntity
  8
0
100
AcDbLine
 10
65.7043
 20
85.448245
 30
0.0
 11
67.0783
 21
84.65474499999999
 31
0.0
  0
LINE
  5
13C
330
1E
100
AcDbEntity
  8
0
100
AcDbLine
 10
65.7043
 20
85.448245
 30
0.0
 11
65.8764366074881
 21
85.7656049363657
 31
0.0
  0
LINE
  5
13D
330
1E
100
AcDbEntity
  8
0
100
AcDbLine
 10
67.0783
 20
84.65474499999999
 30
0.0
 11
68.17529999999999
 21
84.12224499999998
 31
0.0
  0
LINE
  5
13E
330
1E
100
AcDbEntity
  8
0
100
AcDbLine
 10
67.0783
 20
84.65474499999999
 30
0.0
 11
67.28985682453771
 21
85.044782083644
 31
0.0
  0
LINE
  5
13F
330
1E
100
AcDbEntity
  8
0
100
AcDbLine
 10
64.3413
 20
87.694545
 30
0.0
 11
64.9093
 21
87.650745
 31
0.0
  0
LINE
  5
140
330
1E
100
AcDbEntity
  8
0
100
AcDbLine
 10
64.9093
 20
87.650745
 30
0.0
 11
65.49330165882129
 21
88.7417124531491
 31
0.0
  0
LINE
  5
141
330
1E
100
AcDbEntity
  8
0
100
AcDbLine
 10
68.17529999999999
 20
84.12224499999998
 30
0.0
 11
68.37541395810339
 21
84.4911644260145
 31
0.0
  0
LINE
  5
142
330
1E
100
AcDbEntity
  8
0
100
AcDbLine
 10
70.1473
 20
89.45534499999999
 30
0.0
 11
70.8703
 21
89.71884499999999
 31
0.0
  0
LINE
  5
143
330
1E
100
AcDbEntity
  8
0
100
AcDbLine
 10
70.1473
 20
89.45534499999999
 30
0.0
 11
70.71351170998629
 21
90.64480188105129
 31
0.0
  0
LINE
  5
144
330
1E
100
AcDbEntity
  8
0
100
AcDbLine
 10
70.1473
 20
89.45534499999999
 30
0.0
 11
71.82030000000001
 21
88.489345
 31
0.0
  0
LINE
  5
145
330
1E
100
AcDbEntity
  8
0
100
AcDbLine
 10
69.7973
 20
84.544545
 30
0.0
 11
70.77930000000001
 21
84.261245
 31
0.0
  0
LINE
  5
146
330
1E
100
AcDbEntity
  8
0
100
AcDbLine
 10
69.7973
 20
84.544545
 30
0.0
 11
70.28869445225121
 21
85.53199272323691
 31
0.0
  0
LINE
  5
147
330
1E
100
AcDbEntity
  8
0
100
AcDbLine
 10
69.7973
 20
84.544545
 30
0.0
 11
71.29730000000001
 21
83.67854499999999
 31
0.0
  0
LINE
  5
148
330
1E
100
AcDbEntity
  8
0
100
AcDbLine
 10
69.22329999999999
 20
83.41674499999999
 30
0.0
 11
70.2773
 21
82.80824499999999
 31
0.0
  0
LINE
  5
149
330
1E
100
AcDbEntity
  8
0
100
AcDbLine
 10
69.22329999999999
 20
83.41674499999999
 30
0.0
 11
69.6835000753545
 21
84.28176431096991
 31
0.0
  0
LINE
  5
14A
330
1E
100
AcDbEntity
  8
0
100
AcDbLine
 10
69.22329999999999
 20
83.41674499999999
 30
0.0
 11
70.6393
 21
82.699745
 31
0.0
  0
LINE
  5
14B
330
1E
100
AcDbEntity
  8
0
100
AcDbLine
 10
71.29730000000001
 20
83.67854499999999
 30
0.0
 11
72.2793
 21
83.39524499999999
 31
0.0
  0
LINE
  5
14C
330
1E
100
AcDbEntity
  8
0
100
AcDbLine
 10
72.2793
 20
83.39524499999999
 30
0.0
 11
72.8323040162247
 21
84.504931413166
 31
0.0
  0
LINE
  5
14D
330
1E
100
AcDbEntity
  8
0
100
AcDbLine
 10
71.82030000000001
 20
88.489345
 30
0.0
 11
72.54430000000001
 21
88.75284499999999
 31
0.0
  0
LINE
  5
14E
330
1E
100
AcDbEntity
  8
0
100
AcDbLine
 10
70.8703
 20
89.71884499999999
 30
0.0
 11
72.54430000000001
 21
88.75284499999999
 31
0.0
  0
LINE
  5
14F
330
1E
100
AcDbEntity
  8
0
100
AcDbLine
 10
70.8703
 20
89.71884499999999
 30
0.0
 11
71.2861506963419
 21
90.59374837875571
 31
0.0
  0
LINE
  5
150
330
1E
100
AcDbEntity
  8
0
100
AcDbLine
 10
71.1233
 20
85.920345
 30
0.0
 11
71.97729999999999
 21
85.902045
 31
0.0
  0
LINE
  5
151
330
1E
100
AcDbEntity
  8
0
100
AcDbLine
 10
71.1233
 20
85.920345
 30
0.0
 11
71.60929815953349
 21
86.94278596789159
 31
0.0
  0
LINE
  5
152
330
1E
100
AcDbEntity
  8
0
100
AcDbLine
 10
71.1233
 20
85.920345
 30
0.0
 11
72.7233
 21
84.99634499999999
 31
0.0
  0
LINE
  5
153
330
1E
100
AcDbEntity
  8
0
100
AcDbLine
 10
71.97729999999999
 20
85.902045
 30
0.0
 11
73.57829999999999
 21
84.97804499999999
 31
0.0
  0
LINE
  5
154
330
1E
100
AcDbEntity
  8
0
100
AcDbLine
 10
71.97729999999999
 20
85.902045
 30
0.0
 11
72.28621706516449
 21
86.55190683079791
 31
0.0
  0
LINE
  5
155
330
1E
100
AcDbEntity
  8
0
100
AcDbLine
 10
70.77930000000001
 20
84.261245
 30
0.0
 11
72.2793
 21
83.39524499999999
 31
0.0
  0
LINE
  5
156
330
1E
100
AcDbEntity
  8
0
100
AcDbLine
 10
70.77930000000001
 20
84.261245
 30
0.0
 11
71.2252449362968
 21
85.15610113541679
 31
0.0
  0
LINE
  5
157
330
1E
100
AcDbEntity
  8
0
100
AcDbLine
 10
70.2773
 20
82.80824499999999
 30
0.0
 11
71.69329999999999
 21
82.09124499999999
 31
0.0
  0
LINE
  5
158
330
1E
100
AcDbEntity
  8
0
100
AcDbLine
 10
70.6393
 20
82.699745
 30
0.0
 11
71.69329999999999
 21
82.09124499999999
 31
0.0
  0
LINE
  5
159
330
1E
100
AcDbEntity
  8
0
100
AcDbLine
 10
70.6393
 20
82.699745
 30
0.0
 11
71.13296149964759
 21
83.6276078122769
 31
0.0
  0
LINE
  5
15A
330
1E
100
AcDbEntity
  8
0
100
AcDbLine
 10
67.2003
 20
95.031145
 30
0.0
 11
74.3883
 21
90.88114499999999
 31
0.0
  0
LINE
  5
15B
330
1E
100
AcDbEntity
  8
0
100
AcDbLine
 10
67.7003
 20
95.89714499999999
 30
0.0
 11
74.8883
 21
91.74714499999998
 31
0.0
  0
LINE
  5
15C
330
1E
100
AcDbEntity
  8
0
100
AcDbLine
 10
63.9263
 20
86.76014499999999
 30
0.0
 11
69.49196362050611
 21
83.92174104919419
 31
0.0
  0
LINE
  5
15D
330
1E
100
AcDbEntity
  8
0
100
AcDbLine
 10
71.9895279961544
 20
82.64802113462499
 30
0.0
 11
72.4893
 21
82.39314499999998
 31
0.0
  0
LINE
  5
15E
330
1E
100
AcDbEntity
  8
0
100
AcDbLine
 10
72.54430000000001
 20
88.75284499999999
 30
0.0
 11
72.95996157124228
 21
89.6273504806877
 31
0.0
  0
LINE
  5
15F
330
1E
100
AcDbEntity
  8
0
100
AcDbLine
 10
72.7233
 20
84.99634499999999
 30
0.0
 11
73.57829999999999
 21
84.97804499999999
 31
0.0
  0
LINE
  5
160
330
1E
100
AcDbEntity
  8
0
100
AcDbLine
 10
73.57829999999999
 20
84.97804499999999
 30
0.0
 11
74.0151903774907
 21
85.899566808122
 31
0.0
  0
LINE
  5
161
330
1E
100
AcDbEntity
  8
0
100
AcDbLine
 10
73.2413
 20
81.096745
 30
0.0
 11
73.46729999999999
 21
80.966245
 31
0.0
  0
LINE
  5
162
330
1E
100
AcDbEntity
  8
0
100
AcDbLine
 10
73.2413
 20
81.096745
 30
0.0
 11
73.67153911092479
 21
81.9227668428361
 31
0.0
  0
LINE
  5
163
330
1E
100
AcDbEntity
  8
0
100
AcDbLine
 10
73.2413
 20
81.096745
 30
0.0
 11
75.00029999999999
 21
80.18174499999998
 31
0.0
  0
LINE
  5
164
330
1E
100
AcDbEntity
  8
0
100
AcDbLine
 10
73.46729999999999
 20
80.966245
 30
0.0
 11
75.22629999999999
 21
80.05124499999999
 31
0.0
  0
LINE
  5
165
330
1E
100
AcDbEntity
  8
0
100
AcDbLine
 10
75.9833
 20
80.97354499999999
 30
0.0
 11
77.2073
 21
80.26654499999999
 31
0.0
  0
LINE
  5
166
330
1E
100
AcDbEntity
  8
0
100
AcDbLine
 10
75.9833
 20
80.97354499999999
 30
0.0
 11
76.43762066877271
 21
81.94917297598509
 31
0.0
  0
LINE
  5
167
330
1E
100
AcDbEntity
  8
0
100
AcDbLine
 10
75.9833
 20
80.97354499999999
 30
0.0
 11
77.3203
 21
80.48474499999999
 31
0.0
  0
LINE
  5
168
330
1E
100
AcDbEntity
  8
0
100
AcDbLine
 10
74.3883
 20
90.88114499999999
 30
0.0
 11
81.31629999999999
 21
86.88114499999999
 31
0.0
  0
LINE
  5
169
330
1E
100
AcDbEntity
  8
0
100
AcDbLine
 10
74.8883
 20
91.74714499999998
 30
0.0
 11
81.8163
 21
87.74714499999999
 31
0.0
  0
LINE
  5
16A
330
1E
100
AcDbEntity
  8
0
100
AcDbLine
 10
72.4893
 20
82.39314499999998
 30
0.0
 11
73.6436536441622
 21
81.8692291609781
 31
0.0
  0
LINE
  5
16B
330
1E
100
AcDbEntity
  8
0
100
AcDbLine
 10
75.68958467202858
 20
80.94066132003419
 30
0.0
 11
80.9073
 21
78.57254499999999
 31
0.0
  0
LINE
  5
16C
330
1E
100
AcDbEntity
  8
0
100
AcDbLine
 10
83.2803
 20
77.04424499999999
 30
0.0
 11
83.7193835303945
 21
78.0359325428428
 31
0.0
  0
LINE
  5
16D
330
1E
100
AcDbEntity
  8
0
100
AcDbLine
 10
80.12629999999999
 20
80.72234499999998
 30
0.0
 11
81.5013
 21
79.92884499999999
 31
0.0
  0
LINE
  5
16E
330
1E
100
AcDbEntity
  8
0
100
AcDbLine
 10
80.12629999999999
 20
80.72234499999998
 30
0.0
 11
80.56565752268641
 21
81.7717291093035
 31
0.0
  0
LINE
  5
16F
330
1E
100
AcDbEntity
  8
0
100
AcDbLine
 10
80.12629999999999
 20
80.72234499999998
 30
0.0
 11
81.3643
 21
80.482545
 31
0.0
  0
LINE
  5
170
330
1E
100
AcDbEntity
  8
0
100
AcDbLine
 10
80.8023
 20
78.19104499999999
 30
0.0
 11
81.6683
 21
77.69104499999999
 31
0.0
  0
LINE
  5
171
330
1E
100
AcDbEntity
  8
0
100
AcDbLine
 10
80.8023
 20
78.19104499999999
 30
0.0
 11
81.23045979244629
 21
79.1568655256307
 31
0.0
  0
LINE
  5
172
330
1E
100
AcDbEntity
  8
0
100
AcDbLine
 10
80.8023
 20
78.19104499999999
 30
0.0
 11
82.41429999999999
 21
77.54424499999998
 31
0.0
  0
LINE
  5
173
330
1E
100
AcDbEntity
  8
0
100
AcDbLine
 10
81.5013
 20
79.92884499999999
 30
0.0
 11
82.7383
 21
79.68954499999999
 31
0.0
  0
LINE
  5
174
330
1E
100
AcDbEntity
  8
0
100
AcDbLine
 10
81.3643
 20
80.482545
 30
0.0
 11
82.7383
 21
79.68954499999999
 31
0.0
  0
LINE
  5
175
330
1E
100
AcDbEntity
  8
0
100
AcDbLine
 10
81.3643
 20
80.482545
 30
0.0
 11
81.67808786118058
 21
81.23316184953109
 31
0.0
  0
LINE
  5
176
330
1E
100
AcDbEntity
  8
0
100
AcDbLine
 10
82.18329999999999
 20
82.506345
 30
0.0
 11
83.30530000000001
 21
82.53984499999999
 31
0.0
  0
LINE
  5
177
330
1E
100
AcDbEntity
  8
0
100
AcDbLine
 10
82.18329999999999
 20
82.506345
 30
0.0
 11
82.6487225289645
 21
83.70480801208371
 31
0.0
  0
LINE
  5
178
330
1E
100
AcDbEntity
  8
0
100
AcDbLine
 10
82.18329999999999
 20
82.506345
 30
0.0
 11
83.6833
 21
81.64034499999999
 31
0.0
  0
LINE
  5
179
330
1E
100
AcDbEntity
  8
0
100
AcDbLine
 10
83.6833
 20
81.64034499999999
 30
0.0
 11
84.80529999999999
 21
81.673845
 31
0.0
  0
LINE
  5
17A
330
1E
100
AcDbEntity
  8
0
100
AcDbLine
 10
83.30530000000001
 20
82.53984499999999
 30
0.0
 11
84.80529999999999
 21
81.673845
 31
0.0
  0
LINE
  5
17B
330
1E
100
AcDbEntity
  8
0
100
AcDbLine
 10
83.30530000000001
 20
82.53984499999999
 30
0.0
 11
83.65885440304491
 21
83.4502475878406
 31
0.0
  0
LINE
  5
17C
330
1E
100
AcDbEntity
  8
0
100
AcDbLine
 10
82.7383
 20
79.68954499999999
 30
0.0
 11
83.1399843413128
 21
80.64889583038739
 31
0.0
  0
LINE
  5
17D
330
1E
100
AcDbEntity
  8
0
100
AcDbLine
 10
81.6683
 20
77.69104499999999
 30
0.0
 11
83.2803
 21
77.04424499999999
 31
0.0
  0
LINE
  5
17E
330
1E
100
AcDbEntity
  8
0
100
AcDbLine
 10
82.41429999999999
 20
77.54424499999998
 30
0.0
 11
83.2803
 21
77.04424499999999
 31
0.0
  0
LINE
  5
17F
330
1E
100
AcDbEntity
  8
0
100
AcDbLine
 10
82.41429999999999
 20
77.54424499999998
 30
0.0
 11
82.8215669526417
 21
78.4640735419254
 31
0.0
  0
LINE
  5
180
330
1E
100
AcDbEntity
  8
0
100
AcDbLine
 10
81.31629999999999
 20
86.88114499999999
 30
0.0
 11
87.8983
 21
83.081145
 31
0.0
  0
LINE
  5
181
330
1E
100
AcDbEntity
  8
0
100
AcDbLine
 10
81.8163
 20
87.74714499999999
 30
0.0
 11
88.3983
 21
83.94714499999999
 31
0.0
  0
LINE
  5
182
330
1E
100
AcDbEntity
  8
0
100
AcDbLine
 10
80.9073
 20
78.57254499999999
 30
0.0
 11
80.96131984191769
 21
78.54975366441969
 31
0.0
  0
LINE
  5
183
330
1E
100
AcDbEntity
  8
0
100
AcDbLine
 10
83.47695206077791
 20
77.48839146746721
 30
0.0
 11
84.2594544514465
 21
77.15824843214829
 31
0.0
  0
LINE
  5
184
330
1E
100
AcDbEntity
  8
0
100
AcDbLine
 10
78.84730000000001
 20
95.004045
 30
0.0
 11
86.6413
 21
90.50404499999999
 31
0.0
  0
LINE
  5
185
330
1E
100
AcDbEntity
  8
0
100
AcDbLine
 10
78.84730000000001
 20
95.004045
 30
0.0
 11
86.5543
 21
90.55404499999999
 31
0.0
  0
LINE
  5
186
330
1E
100
AcDbEntity
  8
0
100
AcDbLine
 10
70.8793
 20
99.603745
 30
0.0
 11
78.84730000000001
 21
95.004045
 31
0.0
  0
LINE
  5
187
330
1E
100
AcDbEntity
  8
0
100
AcDbLine
 10
62.7383
 20
104.3037449999999
 30
0.0
 11
70.8793
 21
99.603745
 31
0.0
  0
LINE
  5
188
330
1E
100
AcDbEntity
  8
0
100
AcDbLine
 10
38.8616
 20
112.5475449999999
 30
0.0
 11
45.7898
 21
108.547545
 31
0.0
  0
LINE
  5
189
330
1E
100
AcDbEntity
  8
0
100
AcDbLine
 10
38.9229
 20
118.053545
 30
0.0
 11
46.6306
 21
113.603545
 31
0.0
  0
LINE
  5
18A
330
1E
100
AcDbEntity
  8
0
100
AcDbLine
 10
46.6306
 20
113.603545
 30
0.0
 11
54.5983
 21
109.003745
 31
0.0
  0
LINE
  5
18B
330
1E
100
AcDbEntity
  8
0
100
AcDbLine
 10
54.5983
 20
109.003745
 30
0.0
 11
62.7383
 21
104.3037449999999
 31
0.0
  0
LINE
  5
18C
330
1E
100
AcDbEntity
  8
0
100
AcDbLine
 10
38.8363
 20
118.1035449999999
 30
0.0
 11
46.6306
 21
113.603545
 31
0.0
  0
LINE
  5
18D
330
1E
100
AcDbEntity
  8
0
100
AcDbLine
 10
7.258500000000009
 20
126.445545
 30
0.0
 11
7.91545090767267
 21
127.0547868918749
 31
0.0
  0
LINE
  5
18E
330
1E
100
AcDbEntity
  8
0
100
AcDbLine
 10
7.258500000000009
 20
126.445545
 30
0.0
 11
8.61840000000001
 21
124.978545
 31
0.0
  0
LINE
  5
18F
330
1E
100
AcDbEntity
  8
0
100
AcDbLine
 10
11.0814
 20
127.4305449999999
 30
0.0
 11
15.2383
 21
125.0305449999999
 31
0.0
  0
LINE
  5
190
330
1E
100
AcDbEntity
  8
0
100
AcDbLine
 10
7.963700000000009
 20
129.230545
 30
0.0
 11
11.0814
 21
127.4305449999999
 31
0.0
  0
LINE
  5
191
330
1E
100
AcDbEntity
  8
0
100
AcDbLine
 10
11.58179999999999
 20
128.2975449999999
 30
0.0
 11
15.7387
 21
125.8975449999999
 31
0.0
  0
LINE
  5
192
330
1E
100
AcDbEntity
  8
0
100
AcDbLine
 10
7.497000000000019
 20
127.422545
 30
0.0
 11
7.91545090767267
 21
127.0547868918749
 31
0.0
  0
LINE
  5
193
330
1E
100
AcDbEntity
  8
0
100
AcDbLine
 10
-0.220299999999985
 20
143.655545
 30
0.0
 11
0.387000000000018
 21
146.307545
 31
0.0
  0
LINE
  5
194
330
1E
100
AcDbEntity
  8
0
100
AcDbLine
 10
0.298200000000018
 20
140.3535449999999
 30
0.0
 11
1.696500000000019
 21
136.7755449999999
 31
0.0
  0
LINE
  5
195
330
1E
100
AcDbEntity
  8
0
100
AcDbLine
 10
0.298200000000018
 20
140.3535449999999
 30
0.0
 11
0.904400000000019
 21
140.003545
 31
0.0
  0
LINE
  5
196
330
1E
100
AcDbEntity
  8
0
100
AcDbLine
 10
0.298200000000018
 20
140.3535449999999
 30
0.0
 11
0.904400000000019
 21
140.003545
 31
0.0
  0
LINE
  5
197
330
1E
100
AcDbEntity
  8
0
100
AcDbLine
 10
0.298200000000018
 20
140.3535449999999
 30
0.0
 11
1.696500000000019
 21
136.7755449999999
 31
0.0
  0
LINE
  5
198
330
1E
100
AcDbEntity
  8
0
100
AcDbLine
 10
0.125000000000017
 20
140.453545
 30
0.0
 11
0.7312000000000179
 21
140.103545
 31
0.0
  0
LINE
  5
199
330
1E
100
AcDbEntity
  8
0
100
AcDbLine
 10
0.125000000000017
 20
140.453545
 30
0.0
 11
0.7312000000000179
 21
140.103545
 31
0.0
  0
LINE
  5
19A
330
1E
100
AcDbEntity
  8
0
100
AcDbLine
 10
-0.220299999999985
 20
143.655545
 30
0.0
 11
0.125000000000017
 21
140.453545
 31
0.0
  0
LINE
  5
19B
330
1E
100
AcDbEntity
  8
0
100
AcDbLine
 10
0.3870000000000171
 20
146.307545
 30
0.0
 11
2.37950000000002
 21
148.158545
 31
0.0
  0
LINE
  5
19C
330
1E
100
AcDbEntity
  8
0
100
AcDbLine
 10
-0.220299999999985
 20
143.655545
 30
0.0
 11
0.387000000000018
 21
146.307545
 31
0.0
  0
LINE
  5
19D
330
1E
100
AcDbEntity
  8
0
100
AcDbLine
 10
-0.220299999999985
 20
143.655545
 30
0.0
 11
0.125000000000017
 21
140.453545
 31
0.0
  0
LINE
  5
19E
330
1E
100
AcDbEntity
  8
0
100
AcDbLine
 10
1.696500000000019
 20
136.7755449999999
 30
0.0
 11
4.047400000000009
 21
132.647545
 31
0.0
  0
LINE
  5
19F
330
1E
100
AcDbEntity
  8
0
100
AcDbLine
 10
2.376600000260979
 20
139.153544999849
 30
0.0
 11
2.549800000000009
 21
139.0535449999999
 31
0.0
  0
LINE
  5
1A0
330
1E
100
AcDbEntity
  8
0
100
AcDbLine
 10
0.904400000000019
 20
140.003545
 30
0.0
 11
2.37660000000003
 21
139.153545
 31
0.0
  0
LINE
  5
1A1
330
1E
100
AcDbEntity
  8
0
100
AcDbLine
 10
0.904400000000019
 20
140.003545
 30
0.0
 11
2.37660000000003
 21
139.153545
 31
0.0
  0
LINE
  5
1A2
330
1E
100
AcDbEntity
  8
0
100
AcDbLine
 10
2.376600000000019
 20
139.153545
 30
0.0
 11
4.974700000000009
 21
137.653545
 31
0.0
  0
LINE
  5
1A3
330
1E
100
AcDbEntity
  8
0
100
AcDbLine
 10
0.7312000000000179
 20
140.103545
 30
0.0
 11
2.376600000000019
 21
139.153545
 31
0.0
  0
LINE
  5
1A4
330
1E
100
AcDbEntity
  8
0
100
AcDbLine
 10
2.37660000026144
 20
139.153544999849
 30
0.0
 11
4.974700000000009
 21
137.653545
 31
0.0
  0
LINE
  5
1A5
330
1E
100
AcDbEntity
  8
0
100
AcDbLine
 10
5.538800000000009
 20
130.6305449999999
 30
0.0
 11
7.963700000000009
 21
129.230545
 31
0.0
  0
LINE
  5
1A6
330
1E
100
AcDbEntity
  8
0
100
AcDbLine
 10
4.15320000000002
 20
131.4305449999999
 30
0.0
 11
5.538800000000009
 21
130.6305449999999
 31
0.0
  0
LINE
  5
1A7
330
1E
100
AcDbEntity
  8
0
100
AcDbLine
 10
8.464100000000009
 20
130.0975449999999
 30
0.0
 11
11.58179999999999
 21
128.2975449999999
 31
0.0
  0
LINE
  5
1A8
330
1E
100
AcDbEntity
  8
0
100
AcDbLine
 10
6.039200000000009
 20
131.497545
 30
0.0
 11
8.464100000000009
 21
130.0975449999999
 31
0.0
  0
LINE
  5
1A9
330
1E
100
AcDbEntity
  8
0
100
AcDbLine
 10
4.653600000000009
 20
132.2975449999999
 30
0.0
 11
6.039200000000009
 21
131.497545
 31
0.0
  0
LINE
  5
1AA
330
1E
100
AcDbEntity
  8
0
100
AcDbLine
 10
4.047400000000009
 20
132.647545
 30
0.0
 11
4.653600000000009
 21
132.2975449999999
 31
0.0
  0
LINE
  5
1AB
330
1E
100
AcDbEntity
  8
0
100
AcDbLine
 10
3.547000000000009
 20
131.7805449999999
 30
0.0
 11
4.047400000000009
 21
132.647545
 31
0.0
  0
LINE
  5
1AC
330
1E
100
AcDbEntity
  8
0
100
AcDbLine
 10
3.547000000000009
 20
131.7805449999999
 30
0.0
 11
7.497000000000019
 21
127.422545
 31
0.0
  0
LINE
  5
1AD
330
1E
100
AcDbEntity
  8
0
100
AcDbLine
 10
3.547000000000009
 20
131.7805449999999
 30
0.0
 11
4.15320000000002
 21
131.4305449999999
 31
0.0
  0
LINE
  5
1AE
330
1E
100
AcDbEntity
  8
0
100
AcDbLine
 10
8.698600000000018
 20
135.503545
 30
0.0
 11
13.2886
 21
132.8535449999999
 31
0.0
  0
LINE
  5
1AF
330
1E
100
AcDbEntity
  8
0
100
AcDbLine
 10
8.525400000000018
 20
135.603545
 30
0.0
 11
13.11539999999999
 21
132.9535449999999
 31
0.0
  0
LINE
  5
1B0
330
1E
100
AcDbEntity
  8
0
100
AcDbLine
 10
5.147900000000009
 20
137.5535449999999
 30
0.0
 11
8.698600000000018
 21
135.503545
 31
0.0
  0
LINE
  5
1B1
330
1E
100
AcDbEntity
  8
0
100
AcDbLine
 10
13.2886
 20
132.8535449999999
 30
0.0
 11
18.6579
 21
129.753545
 31
0.0
  0
LINE
  5
1B2
330
1E
100
AcDbEntity
  8
0
100
AcDbLine
 10
18.5713
 20
129.8035449999999
 30
0.0
 11
24.6335
 21
126.303545
 31
0.0
  0
LINE
  5
1B4
330
1E
100
AcDbEntity
  8
0
100
AcDbLine
 10
13.11539999999999
 20
132.9535449999999
 30
0.0
 11
18.5713
 21
129.8035449999999
 31
0.0
  0
LINE
  5
1B5
330
1E
100
AcDbEntity
  8
0
100
AcDbLine
 10
2.549800000000009
 20
139.0535449999999
 30
0.0
 11
5.147900000000009
 21
137.5535449999999
 31
0.0
  0
LINE
  5
1B6
330
1E
100
AcDbEntity
  8
0
100
AcDbLine
 10
2.37660000026535
 20
139.1535449998469
 30
0.0
 11
2.549800000000009
 21
139.0535449999999
 31
0.0
  0
LINE
  5
1B8
330
1E
100
AcDbEntity
  8
0
100
AcDbLine
 10
4.974700000000009
 20
137.653545
 30
0.0
 11
8.525400000000018
 21
135.603545
 31
0.0
  0
LINE
  5
1B9
330
1E
100
AcDbEntity
  8
0
100
AcDbLine
 10
2.37660000026145
 20
139.153544999849
 30
0.0
 11
4.974700000000009
 21
137.653545
 31
0.0
  0
LINE
  5
1BA
330
1E
100
AcDbEntity
  8
0
100
AcDbLine
 10
19.9968
 20
149.072545
 30
0.0
 11
26.5762
 21
147.468545
 31
0.0
  0
LINE
  5
1BB
330
1E
100
AcDbEntity
  8
0
100
AcDbLine
 10
14.0472
 20
149.9675449999999
 30
0.0
 11
19.9968
 21
149.072545
 31
0.0
  0
LINE
  5
1BC
330
1E
100
AcDbEntity
  8
0
100
AcDbLine
 10
9.296700000000019
 20
149.9395449999999
 30
0.0
 11
14.0472
 21
149.9675449999999
 31
0.0
  0
LINE
  5
1BD
330
1E
100
AcDbEntity
  8
0
100
AcDbLine
 10
5.325100000000019
 20
149.4605449999999
 30
0.0
 11
9.296700000000019
 21
149.9395449999999
 31
0.0
  0
LINE
  5
1BE
330
1E
100
AcDbEntity
  8
0
100
AcDbLine
 10
2.37950000000002
 20
148.158545
 30
0.0
 11
5.325100000000019
 21
149.4605449999999
 31
0.0
  0
LINE
  5
1BF
330
1E
100
AcDbEntity
  8
0
100
AcDbLine
 10
0.387000000000018
 20
146.307545
 30
0.0
 11
2.37950000000002
 21
148.158545
 31
0.0
  0
LINE
  5
1C0
330
1E
100
AcDbEntity
  8
0
100
AcDbLine
 10
18.6579
 20
129.753545
 30
0.0
 11
24.80669999999999
 21
126.2035449999999
 31
0.0
  0
LINE
  5
1C1
330
1E
100
AcDbEntity
  8
0
100
AcDbLine
 10
24.80669999999999
 20
126.2035449999999
 30
0.0
 11
31.6483
 21
122.2535449999999
 31
0.0
  0
LINE
  5
1C2
330
1E
100
AcDbEntity
  8
0
100
AcDbLine
 10
66.7513
 20
130.8545449999999
 30
0.0
 11
75.3383
 21
126.127545
 31
0.0
  0
LINE
  5
1C3
330
1E
100
AcDbEntity
  8
0
100
AcDbLine
 10
58.1883
 20
135.2215449999999
 30
0.0
 11
66.7513
 21
130.8545449999999
 31
0.0
  0
LINE
  5
1C4
330
1E
100
AcDbEntity
  8
0
100
AcDbLine
 10
49.7706
 20
139.0425449999999
 30
0.0
 11
58.1883
 21
135.2215449999999
 31
0.0
  0
LINE
  5
1C5
330
1E
100
AcDbEntity
  8
0
100
AcDbLine
 10
41.5995
 20
142.4895449999999
 30
0.0
 11
49.7706
 21
139.0425449999999
 31
0.0
  0
LINE
  5
1C6
330
1E
100
AcDbEntity
  8
0
100
AcDbLine
 10
33.7481
 20
145.290545
 30
0.0
 11
41.5995
 21
142.4895449999999
 31
0.0
  0
LINE
  5
1C7
330
1E
100
AcDbEntity
  8
0
100
AcDbLine
 10
26.5762
 20
147.468545
 30
0.0
 11
33.7481
 21
145.290545
 31
0.0
  0
LINE
  5
1C8
330
1E
100
AcDbEntity
  8
0
100
AcDbLine
 10
24.6335
 20
126.303545
 30
0.0
 11
31.56169999999999
 21
122.303545
 31
0.0
  0
LINE
  5
1C9
330
1E
100
AcDbEntity
  8
0
100
AcDbLine
 10
75.3383
 20
126.127545
 30
0.0
 11
83.72629999999999
 21
121.0545449999999
 31
0.0
  0
LINE
  5
1CA
330
1E
100
AcDbEntity
  8
0
100
AcDbLine
 10
115.9522999999999
 20
61.62374499999999
 30
0.0
 11
116.4483
 21
62.40114499999999
 31
0.0
  0
LINE
  5
1CB
330
1E
100
AcDbEntity
  8
0
100
AcDbLine
 10
115.3113
 20
61.32494499999999
 30
0.0
 11
115.9522999999999
 21
61.62374499999999
 31
0.0
  0
LINE
  5
1CC
330
1E
100
AcDbEntity
  8
0
100
AcDbLine
 10
114.3372999999999
 20
61.57294499999999
 30
0.0
 11
115.3113
 21
61.32494499999999
 31
0.0
  0
LINE
  5
1CD
330
1E
100
AcDbEntity
  8
0
100
AcDbLine
 10
112.1202999999999
 20
63.96674499999999
 30
0.0
 11
113.5943
 21
62.162645
 31
0.0
  0
LINE
  5
1CE
330
1E
100
AcDbEntity
  8
0
100
AcDbLine
 10
116.4483
 20
62.40114499999999
 30
0.0
 11
116.6023
 21
63.409145
 31
0.0
  0
LINE
  5
1CF
330
1E
100
AcDbEntity
  8
0
100
AcDbLine
 10
113.5943
 20
62.162645
 30
0.0
 11
114.3372999999999
 21
61.57294499999999
 31
0.0
  0
LINE
  5
1D0
330
1E
100
AcDbEntity
  8
0
100
AcDbLine
 10
112.0793
 20
64.01784499999999
 30
0.0
 11
113.5943
 21
62.162645
 31
0.0
  0
LINE
  5
1D1
330
1E
100
AcDbEntity
  8
0
100
AcDbLine
 10
116.0378109725289
 20
66.83456275513989
 30
0.0
 11
116.6023
 21
63.409145
 31
0.0
  0
LINE
  5
1D2
330
1E
100
AcDbEntity
  8
0
100
AcDbLine
 10
109.6543
 20
67.32734499999999
 30
0.0
 11
109.8548616008989
 21
68.20818986881199
 31
0.0
  0
LINE
  5
1D3
330
1E
100
AcDbEntity
  8
0
100
AcDbLine
 10
109.314924461345
 20
67.40470521893951
 30
0.0
 11
112.1202999999999
 21
63.96674499999999
 31
0.0
  0
LINE
  5
1D4
330
1E
100
AcDbEntity
  8
0
100
AcDbLine
 10
115.5243
 20
67.13114499999999
 30
0.0
 11
116.1302999999999
 21
66.78114499999999
 31
0.0
  0
LINE
  5
1D5
330
1E
100
AcDbEntity
  8
0
100
AcDbLine
 10
116.043527172488
 20
66.7998758580013
 30
0.0
 11
116.1302999999999
 21
66.78114499999999
 31
0.0
  0
LINE
  5
1D6
330
1E
100
AcDbEntity
  8
0
100
AcDbLine
 10
116.1302999999999
 20
66.78114499999999
 30
0.0
 11
116.6303
 21
67.647145
 31
0.0
  0
LINE
  5
1D7
330
1E
100
AcDbEntity
  8
0
100
AcDbLine
 10
116.6303
 20
67.647145
 30
0.0
 11
121.3813
 21
67.67574499999999
 31
0.0
  0
LINE
  5
1D8
330
1E
100
AcDbEntity
  8
0
100
AcDbLine
 10
107.7042999999999
 20
67.771845
 30
0.0
 11
107.818558437365
 21
68.2736299707604
 31
0.0
  0
LINE
  5
1D9
330
1E
100
AcDbEntity
  8
0
100
AcDbLine
 10
107.7042999999999
 20
67.771845
 30
0.0
 11
109.6543
 21
67.32734499999999
 31
0.0
  0
LINE
  5
1DA
330
1E
100
AcDbEntity
  8
0
100
AcDbLine
 10
108.1333
 20
68.205145
 30
0.0
 11
108.3561298225699
 21
69.14078909697621
 31
0.0
  0
LINE
  5
1DB
330
1E
100
AcDbEntity
  8
0
100
AcDbLine
 10
114.1383
 20
67.931145
 30
0.0
 11
115.5243
 21
67.13114499999999
 31
0.0
  0
LINE
  5
1DC
330
1E
100
AcDbEntity
  8
0
100
AcDbLine
 10
116.0242999999999
 20
67.99714499999999
 30
0.0
 11
116.6303
 21
67.647145
 31
0.0
  0
LINE
  5
1DD
330
1E
100
AcDbEntity
  8
0
100
AcDbLine
 10
121.3813
 20
67.67574499999999
 30
0.0
 11
125.179186947449
 21
68.2540277861268
 31
0.0
  0
LINE
  5
1DF
330
1E
100
AcDbEntity
  8
0
100
AcDbLine
 10
175.7423
 20
0.0324549999999845
 30
0.0
 11
192.7292999999999
 21
9.85486999999998
 31
0.0
  0
LINE
  5
1E0
330
1E
100
AcDbEntity
  8
0
100
AcDbLine
 10
175.7423
 20
0.0324549999999845
 30
0.0
 11
192.7292999999999
 21
9.85486999999998
 31
0.0
  0
LINE
  5
1E3
330
1E
100
AcDbEntity
  8
0
100
AcDbLine
 10
172.6442999999999
 20
0.666434999999984
 30
0.0
 11
175.7423
 21
0.0324549999999845
 31
0.0
  0
LINE
  5
1E4
330
1E
100
AcDbEntity
  8
0
100
AcDbLine
 10
172.6442999999999
 20
0.666434999999984
 30
0.0
 11
175.7423
 21
0.0324549999999845
 31
0.0
  0
LINE
  5
1F1
330
1E
100
AcDbEntity
  8
0
100
AcDbLine
 10
193.1033
 20
10.10126799999999
 30
0.0
 11
194.2203
 21
13.03594499999999
 31
0.0
  0
LINE
  5
1F2
330
1E
100
AcDbEntity
  8
0
100
AcDbLine
 10
192.7292999999999
 20
9.85486999999998
 30
0.0
 11
193.1033
 21
10.10126799999999
 31
0.0
  0
LINE
  5
1F3
330
1E
100
AcDbEntity
  8
0
100
AcDbLine
 10
169.8363
 20
2.40303499999998
 30
0.0
 11
172.6442999999999
 21
0.666434999999984
 31
0.0
  0
LINE
  5
1F4
330
1E
100
AcDbEntity
  8
0
100
AcDbLine
 10
194.0612999999999
 20
16.360895
 30
0.0
 11
194.2203
 21
13.03594499999999
 31
0.0
  0
LINE
  5
1F5
330
1E
100
AcDbEntity
  8
0
100
AcDbLine
 10
163.9563
 20
10.417175
 30
0.0
 11
169.8363
 21
2.40303499999998
 31
0.0
  0
LINE
  5
1F6
330
1E
100
AcDbEntity
  8
0
100
AcDbLine
 10
163.9563
 20
10.417175
 30
0.0
 11
169.8363
 21
2.40303499999998
 31
0.0
  0
LINE
  5
1F7
330
1E
100
AcDbEntity
  8
0
100
AcDbLine
 10
189.8963
 20
25.347145
 30
0.0
 11
194.0612999999999
 21
16.360895
 31
0.0
  0
LINE
  5
1F8
330
1E
100
AcDbEntity
  8
0
100
AcDbLine
 10
159.1872999999999
 20
17.55807499999999
 30
0.0
 11
163.9563
 21
10.417175
 31
0.0
  0
LINE
  5
1F9
330
1E
100
AcDbEntity
  8
0
100
AcDbLine
 10
185.1283
 20
32.488045
 30
0.0
 11
189.8963
 21
25.347145
 31
0.0
  0
LINE
  5
1FA
330
1E
100
AcDbEntity
  8
0
100
AcDbLine
 10
153.2772999999999
 20
27.321145
 30
0.0
 11
159.1872999999999
 21
17.55807499999999
 31
0.0
  0
LINE
  5
1FB
330
1E
100
AcDbEntity
  8
0
100
AcDbLine
 10
178.3843
 20
41.808445
 30
0.0
 11
185.1283
 21
32.488045
 31
0.0
  0
LINE
  5
1FC
330
1E
100
AcDbEntity
  8
0
100
AcDbLine
 10
148.4163
 20
35.901245
 30
0.0
 11
153.2772999999999
 21
27.321145
 31
0.0
  0
LINE
  5
1FD
330
1E
100
AcDbEntity
  8
0
100
AcDbLine
 10
172.1802999999999
 20
49.662645
 30
0.0
 11
178.3843
 21
41.808445
 31
0.0
  0
LINE
  5
1FE
330
1E
100
AcDbEntity
  8
0
100
AcDbLine
 10
144.3672999999999
 20
43.088545
 30
0.0
 11
148.4163
 21
35.901245
 31
0.0
  0
LINE
  5
1FF
330
1E
100
AcDbEntity
  8
0
100
AcDbLine
 10
165.1833
 20
57.743745
 30
0.0
 11
172.1802999999999
 21
49.662645
 31
0.0
  0
LINE
  5
200
330
1E
100
AcDbEntity
  8
0
100
AcDbLine
 10
141.3112999999999
 20
50.395545
 30
0.0
 11
144.3672999999999
 21
43.088545
 31
0.0
  0
LINE
  5
201
330
1E
100
AcDbEntity
  8
0
100
AcDbLine
 10
137.5823
 20
56.936545
 30
0.0
 11
141.3112999999999
 21
50.395545
 31
0.0
  0
LINE
  5
202
330
1E
100
AcDbEntity
  8
0
100
AcDbLine
 10
158.1562999999999
 20
64.572345
 30
0.0
 11
165.1833
 21
57.743745
 31
0.0
  0
LINE
  5
203
330
1E
100
AcDbEntity
  8
0
100
AcDbLine
 10
131.1512999999999
 20
63.99784499999999
 30
0.0
 11
137.5823
 21
56.936545
 31
0.0
  0
LINE
  5
204
330
1E
100
AcDbEntity
  8
0
100
AcDbLine
 10
125.3522999999999
 20
68.15404499999999
 30
0.0
 11
125.717537223836
 21
68.3154262947276
 31
0.0
  0
LINE
  5
205
330
1E
100
AcDbEntity
  8
0
100
AcDbLine
 10
86.9903
 20
74.902245
 30
0.0
 11
87.3893582306016
 21
75.84579487797821
 31
0.0
  0
LINE
  5
206
330
1E
100
AcDbEntity
  8
0
100
AcDbLine
 10
92.8743
 20
73.36234499999999
 30
0.0
 11
93.5373
 21
72.979845
 31
0.0
  0
LINE
  5
207
330
1E
100
AcDbEntity
  8
0
100
AcDbLine
 10
92.8743
 20
73.36234499999999
 30
0.0
 11
93.24914405924159
 21
74.44939277180051
 31
0.0
  0
LINE
  5
208
330
1E
100
AcDbEntity
  8
0
100
AcDbLine
 10
92.8743
 20
73.36234499999999
 30
0.0
 11
94.64530000000001
 21
72.81454499999999
 31
0.0
  0
LINE
  5
209
330
1E
100
AcDbEntity
  8
0
100
AcDbLine
 10
93.5373
 20
72.979845
 30
0.0
 11
95.30829999999999
 21
72.432045
 31
0.0
  0
LINE
  5
20A
330
1E
100
AcDbEntity
  8
0
100
AcDbLine
 10
86.1603
 20
75.38124499999999
 30
0.0
 11
86.5749199760358
 21
76.34925356920991
 31
0.0
  0
LINE
  5
20B
330
1E
100
AcDbEntity
  8
0
100
AcDbLine
 10
83.9283
 20
76.38604499999999
 30
0.0
 11
84.3773
 21
76.12704499999999
 31
0.0
  0
LINE
  5
20C
330
1E
100
AcDbEntity
  8
0
100
AcDbLine
 10
83.9283
 20
76.38604499999999
 30
0.0
 11
84.34075946596449
 21
77.34783975724579
 31
0.0
  0
LINE
  5
20D
330
1E
100
AcDbEntity
  8
0
100
AcDbLine
 10
83.9283
 20
76.38604499999999
 30
0.0
 11
85.7113
 21
75.64024499999999
 31
0.0
  0
LINE
  5
20E
330
1E
100
AcDbEntity
  8
0
100
AcDbLine
 10
83.9283
 20
76.38604499999999
 30
0.0
 11
84.2594544514465
 21
77.15824843214829
 31
0.0
  0
LINE
  5
20F
330
1E
100
AcDbEntity
  8
0
100
AcDbLine
 10
84.80529999999999
 20
81.673845
 30
0.0
 11
85.15885665540979
 21
82.58425338768029
 31
0.0
  0
LINE
  5
210
330
1E
100
AcDbEntity
  8
0
100
AcDbLine
 10
85.14830000000001
 20
75.682045
 30
0.0
 11
85.1923207095805
 21
75.78613504755741
 31
0.0
  0
LINE
  5
211
330
1E
100
AcDbEntity
  8
0
100
AcDbLine
 10
85.14830000000001
 20
75.682045
 30
0.0
 11
86.9903
 21
74.902245
 31
0.0
  0
LINE
  5
212
330
1E
100
AcDbEntity
  8
0
100
AcDbLine
 10
84.3773
 20
76.12704499999999
 30
0.0
 11
86.1603
 21
75.38124499999999
 31
0.0
  0
LINE
  5
213
330
1E
100
AcDbEntity
  8
0
100
AcDbLine
 10
84.3773
 20
76.12704499999999
 30
0.0
 11
85.1923207095805
 21
75.78613504755741
 31
0.0
  0
LINE
  5
214
330
1E
100
AcDbEntity
  8
0
100
AcDbLine
 10
85.7113
 20
75.64024499999999
 30
0.0
 11
86.1603
 21
75.38124499999999
 31
0.0
  0
LINE
  5
215
330
1E
100
AcDbEntity
  8
0
100
AcDbLine
 10
85.7113
 20
75.64024499999999
 30
0.0
 11
86.112708755204
 21
76.5762201863093
 31
0.0
  0
LINE
  5
216
330
1E
100
AcDbEntity
  8
0
100
AcDbLine
 10
87.5453
 20
76.438845
 30
0.0
 11
88.5993
 21
75.830345
 31
0.0
  0
LINE
  5
217
330
1E
100
AcDbEntity
  8
0
100
AcDbLine
 10
87.5453
 20
76.438845
 30
0.0
 11
87.94665951720828
 21
77.51057871082129
 31
0.0
  0
LINE
  5
218
330
1E
100
AcDbEntity
  8
0
100
AcDbLine
 10
87.5453
 20
76.438845
 30
0.0
 11
89.0953
 21
76.01904499999999
 31
0.0
  0
LINE
  5
219
330
1E
100
AcDbEntity
  8
0
100
AcDbLine
 10
88.5993
 20
75.830345
 30
0.0
 11
90.15030000000001
 21
75.41004499999999
 31
0.0
  0
LINE
  5
21A
330
1E
100
AcDbEntity
  8
0
100
AcDbLine
 10
93.8063
 20
75.795845
 30
0.0
 11
95.27129999999999
 21
75.631345
 31
0.0
  0
LINE
  5
21B
330
1E
100
AcDbEntity
  8
0
100
AcDbLine
 10
90.15030000000001
 20
75.41004499999999
 30
0.0
 11
90.52446818940941
 21
76.40884827457441
 31
0.0
  0
LINE
  5
21C
330
1E
100
AcDbEntity
  8
0
100
AcDbLine
 10
92.58029999999999
 20
76.50334499999999
 30
0.0
 11
93.8063
 21
75.795845
 31
0.0
  0
LINE
  5
21D
330
1E
100
AcDbEntity
  8
0
100
AcDbLine
 10
92.58029999999999
 20
76.50334499999999
 30
0.0
 11
92.96336039063609
 21
77.70306439151309
 31
0.0
  0
LINE
  5
21E
330
1E
100
AcDbEntity
  8
0
100
AcDbLine
 10
92.58029999999999
 20
76.50334499999999
 30
0.0
 11
94.0463
 21
76.33834499999998
 31
0.0
  0
LINE
  5
21F
330
1E
100
AcDbEntity
  8
0
100
AcDbLine
 10
89.0953
 20
76.01904499999999
 30
0.0
 11
90.15030000000001
 21
75.41004499999999
 31
0.0
  0
LINE
  5
220
330
1E
100
AcDbEntity
  8
0
100
AcDbLine
 10
89.0953
 20
76.01904499999999
 30
0.0
 11
89.4247948565272
 21
76.89859743382431
 31
0.0
  0
LINE
  5
221
330
1E
100
AcDbEntity
  8
0
100
AcDbLine
 10
87.8983
 20
83.081145
 30
0.0
 11
94.0473
 21
79.53114499999999
 31
0.0
  0
LINE
  5
222
330
1E
100
AcDbEntity
  8
0
100
AcDbLine
 10
88.3983
 20
83.94714499999999
 30
0.0
 11
94.54730000000001
 21
80.397145
 31
0.0
  0
LINE
  5
223
330
1E
100
AcDbEntity
  8
0
100
AcDbLine
 10
87.38646054683979
 20
75.8389434739719
 30
0.0
 11
89.0783
 21
75.12514499999999
 31
0.0
  0
LINE
  5
224
330
1E
100
AcDbEntity
  8
0
100
AcDbLine
 10
89.0783
 20
75.12514499999999
 30
0.0
 11
92.99974688839519
 21
73.7261409763462
 31
0.0
  0
LINE
  5
225
330
1E
100
AcDbEntity
  8
0
100
AcDbLine
 10
95.7493
 20
71.70234499999999
 30
0.0
 11
95.9753
 21
71.57184499999999
 31
0.0
  0
LINE
  5
226
330
1E
100
AcDbEntity
  8
0
100
AcDbLine
 10
95.7493
 20
71.70234499999999
 30
0.0
 11
96.11024295039191
 21
72.7972821610131
 31
0.0
  0
LINE
  5
227
330
1E
100
AcDbEntity
  8
0
100
AcDbLine
 10
95.7493
 20
71.70234499999999
 30
0.0
 11
97.63530000000001
 21
71.08854499999999
 31
0.0
  0
LINE
  5
228
330
1E
100
AcDbEntity
  8
0
100
AcDbLine
 10
95.7493
 20
71.70234499999999
 30
0.0
 11
96.05690473263759
 21
72.6354782065158
 31
0.0
  0
LINE
  5
229
330
1E
100
AcDbEntity
  8
0
100
AcDbLine
 10
95.9753
 20
71.57184499999999
 30
0.0
 11
97.86129999999999
 21
70.95804499999999
 31
0.0
  0
LINE
  5
22A
330
1E
100
AcDbEntity
  8
0
100
AcDbLine
 10
97.86129999999999
 20
70.95804499999999
 30
0.0
 11
98.22149264991541
 21
72.05036085718759
 31
0.0
  0
LINE
  5
22B
330
1E
100
AcDbEntity
  8
0
100
AcDbLine
 10
97.63530000000001
 20
71.08854499999999
 30
0.0
 11
97.86129999999999
 21
70.95804499999999
 31
0.0
  0
LINE
  5
22C
330
1E
100
AcDbEntity
  8
0
100
AcDbLine
 10
97.63530000000001
 20
71.08854499999999
 30
0.0
 11
97.9769475293548
 21
72.12462114972371
 31
0.0
  0
LINE
  5
22D
330
1E
100
AcDbEntity
  8
0
100
AcDbLine
 10
95.30829999999999
 20
72.432045
 30
0.0
 11
95.66724087602301
 21
73.47452212976229
 31
0.0
  0
LINE
  5
22E
330
1E
100
AcDbEntity
  8
0
100
AcDbLine
 10
95.30829999999999
 20
72.432045
 30
0.0
 11
95.4525787349873
 21
72.8510757975002
 31
0.0
  0
LINE
  5
22F
330
1E
100
AcDbEntity
  8
0
100
AcDbLine
 10
94.64530000000001
 20
72.81454499999999
 30
0.0
 11
95.30829999999999
 21
72.432045
 31
0.0
  0
LINE
  5
230
330
1E
100
AcDbEntity
  8
0
100
AcDbLine
 10
94.64530000000001
 20
72.81454499999999
 30
0.0
 11
94.9816060436669
 21
73.78978078724259
 31
0.0
  0
LINE
  5
231
330
1E
100
AcDbEntity
  8
0
100
AcDbLine
 10
94.0463
 20
76.33834499999998
 30
0.0
 11
95.27129999999999
 21
75.631345
 31
0.0
  0
LINE
  5
232
330
1E
100
AcDbEntity
  8
0
100
AcDbLine
 10
94.0463
 20
76.33834499999998
 30
0.0
 11
94.3462923090149
 21
77.27973500674041
 31
0.0
  0
LINE
  5
233
330
1E
100
AcDbEntity
  8
0
100
AcDbLine
 10
95.27129999999999
 20
75.631345
 30
0.0
 11
95.57130083144699
 21
76.5725092245815
 31
0.0
  0
LINE
  5
234
330
1E
100
AcDbEntity
  8
0
100
AcDbLine
 10
94.0473
 20
79.53114499999999
 30
0.0
 11
99.5893
 21
76.33114499999999
 31
0.0
  0
LINE
  5
235
330
1E
100
AcDbEntity
  8
0
100
AcDbLine
 10
94.54730000000001
 20
80.397145
 30
0.0
 11
100.0893
 21
77.19714499999999
 31
0.0
  0
LINE
  5
236
330
1E
100
AcDbEntity
  8
0
100
AcDbLine
 10
96.04686581830421
 20
85.07358794125371
 30
0.0
 11
100.6702999999999
 21
82.40394499999998
 31
0.0
  0
LINE
  5
237
330
1E
100
AcDbEntity
  8
0
100
AcDbLine
 10
95.4525787349873
 20
72.8510757975002
 30
0.0
 11
96.05690473263759
 21
72.6354782065158
 31
0.0
  0
LINE
  5
238
330
1E
100
AcDbEntity
  8
0
100
AcDbLine
 10
100.6333
 20
71.85384499999999
 30
0.0
 11
101.4993
 21
71.35384499999999
 31
0.0
  0
LINE
  5
239
330
1E
100
AcDbEntity
  8
0
100
AcDbLine
 10
100.6333
 20
71.85384499999999
 30
0.0
 11
100.9525392864009
 21
73.04274686485259
 31
0.0
  0
LINE
  5
23A
330
1E
100
AcDbEntity
  8
0
100
AcDbLine
 10
100.6333
 20
71.85384499999999
 30
0.0
 11
102.3623
 21
71.537345
 31
0.0
  0
LINE
  5
23B
330
1E
100
AcDbEntity
  8
0
100
AcDbLine
 10
99.5893
 20
76.33114499999999
 30
0.0
 11
104.4393
 21
73.53124499999999
 31
0.0
  0
LINE
  5
23C
330
1E
100
AcDbEntity
  8
0
100
AcDbLine
 10
100.0893
 20
77.19714499999999
 30
0.0
 11
104.9393
 21
74.397245
 31
0.0
  0
LINE
  5
23D
330
1E
100
AcDbEntity
  8
0
100
AcDbLine
 10
98.1859701326128
 20
71.9426357024794
 30
0.0
 11
104.1012999999999
 21
70.14634499999999
 31
0.0
  0
LINE
  5
23E
330
1E
100
AcDbEntity
  8
0
100
AcDbLine
 10
96.04686581830421
 20
85.07358794125371
 30
0.0
 11
100.6702999999999
 21
82.40394499999998
 31
0.0
  0
LINE
  5
23F
330
1E
100
AcDbEntity
  8
0
100
AcDbLine
 10
93.91530000000001
 20
86.304045
 30
0.0
 11
100.8442999999999
 21
82.30424499999999
 31
0.0
  0
LINE
  5
240
330
1E
100
AcDbEntity
  8
0
100
AcDbLine
 10
89.8113
 20
117.1945449999999
 30
0.0
 11
107.2973
 21
105.482845
 31
0.0
  0
LINE
  5
241
330
1E
100
AcDbEntity
  8
0
100
AcDbLine
 10
89.7692476901388
 20
117.1216543295739
 30
0.0
 11
89.8113
 21
117.1945449999999
 31
0.0
  0
LINE
  5
242
330
1E
100
AcDbEntity
  8
0
100
AcDbLine
 10
86.5543
 20
90.55404499999999
 30
0.0
 11
89.49894285720439
 21
88.8540449999645
 31
0.0
  0
LINE
  5
243
330
1E
100
AcDbEntity
  8
0
100
AcDbLine
 10
86.6413
 20
90.50404499999999
 30
0.0
 11
93.91530000000001
 21
86.304045
 31
0.0
  0
LINE
  5
244
330
1E
100
AcDbEntity
  8
0
100
AcDbLine
 10
101.4993
 20
71.35384499999999
 30
0.0
 11
103.2283
 21
71.037345
 31
0.0
  0
LINE
  5
245
330
1E
100
AcDbEntity
  8
0
100
AcDbLine
 10
103.2283
 20
71.037345
 30
0.0
 11
103.487309160299
 21
72.00193954337509
 31
0.0
  0
LINE
  5
246
330
1E
100
AcDbEntity
  8
0
100
AcDbLine
 10
102.3623
 20
71.537345
 30
0.0
 11
103.2283
 21
71.037345
 31
0.0
  0
LINE
  5
247
330
1E
100
AcDbEntity
  8
0
100
AcDbLine
 10
102.3623
 20
71.537345
 30
0.0
 11
102.58730567496
 21
72.37530473101729
 31
0.0
  0
LINE
  5
248
330
1E
100
AcDbEntity
  8
0
100
AcDbLine
 10
105.7913
 20
68.87584499999999
 30
0.0
 11
106.2402999999999
 21
68.61704499999999
 31
0.0
  0
LINE
  5
249
330
1E
100
AcDbEntity
  8
0
100
AcDbLine
 10
105.7913
 20
68.87584499999999
 30
0.0
 11
106.069623086767
 21
70.0445609920513
 31
0.0
  0
LINE
  5
24A
330
1E
100
AcDbEntity
  8
0
100
AcDbLine
 10
105.7913
 20
68.87584499999999
 30
0.0
 11
107.6853
 21
68.46394499999999
 31
0.0
  0
LINE
  5
24B
330
1E
100
AcDbEntity
  8
0
100
AcDbLine
 10
106.2402999999999
 20
68.61704499999999
 30
0.0
 11
108.1333
 21
68.205145
 31
0.0
  0
LINE
  5
24C
330
1E
100
AcDbEntity
  8
0
100
AcDbLine
 10
106.2402999999999
 20
68.61704499999999
 30
0.0
 11
107.818558437365
 21
68.2736299707604
 31
0.0
  0
LINE
  5
24D
330
1E
100
AcDbEntity
  8
0
100
AcDbLine
 10
104.4393
 20
73.53124499999999
 30
0.0
 11
108.5963
 21
71.13114499999999
 31
0.0
  0
LINE
  5
24E
330
1E
100
AcDbEntity
  8
0
100
AcDbLine
 10
104.9393
 20
74.397245
 30
0.0
 11
109.0963
 21
71.99714499999998
 31
0.0
  0
LINE
  5
24F
330
1E
100
AcDbEntity
  8
0
100
AcDbLine
 10
104.1012999999999
 20
70.14634499999999
 30
0.0
 11
105.945313811688
 21
69.52256966379611
 31
0.0
  0
LINE
  5
250
330
1E
100
AcDbEntity
  8
0
100
AcDbLine
 10
106.8192999999999
 20
78.853945
 30
0.0
 11
111.050159987978
 21
76.4116278907387
 31
0.0
  0
LINE
  5
251
330
1E
100
AcDbEntity
  8
0
100
AcDbLine
 10
107.6853
 20
68.46394499999999
 30
0.0
 11
108.1333
 21
68.205145
 31
0.0
  0
LINE
  5
252
330
1E
100
AcDbEntity
  8
0
100
AcDbLine
 10
107.6853
 20
68.46394499999999
 30
0.0
 11
107.892424575792
 21
69.33368888969039
 31
0.0
  0
LINE
  5
253
330
1E
100
AcDbEntity
  8
0
100
AcDbLine
 10
108.2527196592889
 20
68.7065783269574
 30
0.0
 11
112.0793
 21
64.01784499999999
 31
0.0
  0
LINE
  5
254
330
1E
100
AcDbEntity
  8
0
100
AcDbLine
 10
108.5963
 20
71.13114499999999
 30
0.0
 11
111.7133
 21
69.33114499999999
 31
0.0
  0
LINE
  5
255
330
1E
100
AcDbEntity
  8
0
100
AcDbLine
 10
109.0963
 20
71.99714499999998
 30
0.0
 11
112.2133
 21
70.19714499999999
 31
0.0
  0
LINE
  5
256
330
1E
100
AcDbEntity
  8
0
100
AcDbLine
 10
106.9063
 20
78.80414499999999
 30
0.0
 11
112.3623
 21
75.65404499999999
 31
0.0
  0
LINE
  5
257
330
1E
100
AcDbEntity
  8
0
100
AcDbLine
 10
100.8442999999999
 20
82.30424499999999
 30
0.0
 11
106.9063
 21
78.80414499999999
 31
0.0
  0
LINE
  5
258
330
1E
100
AcDbEntity
  8
0
100
AcDbLine
 10
125.717537223836
 20
68.3154262947276
 30
0.0
 11
131.1512999999999
 21
63.99784499999999
 31
0.0
  0
LINE
  5
259
330
1E
100
AcDbEntity
  8
0
100
AcDbLine
 10
111.7133
 20
69.33114499999999
 30
0.0
 11
114.1383
 21
67.931145
 31
0.0
  0
LINE
  5
25A
330
1E
100
AcDbEntity
  8
0
100
AcDbLine
 10
112.2133
 20
70.19714499999999
 30
0.0
 11
114.6382999999999
 21
68.797145
 31
0.0
  0
LINE
  5
25B
330
1E
100
AcDbEntity
  8
0
100
AcDbLine
 10
114.6382999999999
 20
68.797145
 30
0.0
 11
116.0242999999999
 21
67.99714499999999
 31
0.0
  0
LINE
  5
25C
330
1E
100
AcDbEntity
  8
0
100
AcDbLine
 10
112.3623
 20
75.65404499999999
 30
0.0
 11
116.9522999999999
 21
73.00404499999999
 31
0.0
  0
LINE
  5
25D
330
1E
100
AcDbEntity
  8
0
100
AcDbLine
 10
116.9522999999999
 20
73.00404499999999
 30
0.0
 11
120.5023
 21
70.954145
 31
0.0
  0
LINE
  5
25E
330
1E
100
AcDbEntity
  8
0
100
AcDbLine
 10
120.5023
 20
70.954145
 30
0.0
 11
123.1003
 21
69.45404499999999
 31
0.0
  0
LINE
  5
25F
330
1E
100
AcDbEntity
  8
0
100
AcDbLine
 10
151.7352999999999
 20
71.05064499999999
 30
0.0
 11
158.1562999999999
 21
64.572345
 31
0.0
  0
LINE
  5
260
330
1E
100
AcDbEntity
  8
0
100
AcDbLine
 10
143.1493
 20
78.779145
 30
0.0
 11
151.7352999999999
 21
71.05064499999999
 31
0.0
  0
LINE
  5
261
330
1E
100
AcDbEntity
  8
0
100
AcDbLine
 10
134.3733
 20
85.57814499999999
 30
0.0
 11
143.1493
 21
78.779145
 31
0.0
  0
LINE
  5
262
330
1E
100
AcDbEntity
  8
0
100
AcDbLine
 10
123.1003
 20
69.45404499999999
 30
0.0
 11
124.7462999999999
 21
68.50404499999999
 31
0.0
  0
LINE
  5
263
330
1E
100
AcDbEntity
  8
0
100
AcDbLine
 10
124.7462999999999
 20
68.50404499999999
 30
0.0
 11
125.3522999999999
 21
68.15404499999999
 31
0.0
  0
LINE
  5
265
330
1E
100
AcDbEntity
  8
0
100
AcDbLine
 10
123.1483
 20
94.13704499999999
 30
0.0
 11
134.3733
 21
85.57814499999999
 31
0.0
  0
LINE
  5
266
330
1E
100
AcDbEntity
  8
0
100
AcDbLine
 10
107.2973
 20
105.482845
 30
0.0
 11
123.1483
 21
94.13704499999999
 31
0.0
  0
LINE
  5
268
330
1E
100
AcDbEntity
  8
0
100
AcDbLine
 10
100.6702999999999
 20
82.40394499999998
 30
0.0
 11
106.8192999999999
 21
78.853945
 31
0.0
  0
LINE
  5
269
330
1E
100
AcDbEntity
  8
0
100
AcDbLine
 10
125.179186947449
 20
68.2540277861268
 30
0.0
 11
125.3522999999999
 21
68.15404499999999
 31
0.0
  0
LINE
  5
26A
330
1E
100
AcDbEntity
  8
0
100
AcDbLine
 10
83.72629999999999
 20
121.0545449999999
 30
0.0
 11
89.7738368319491
 21
117.1296088420449
 31
0.0
  0
ENDSEC
  0
SECTION
  2
OBJECTS
  0
DICTIONARY
  5
C
330
0
100
AcDbDictionary
281
     1
  3
ACAD_GROUP
350
D
  3
ACAD_LAYOUT
350
19
  3
ACAD_MLINESTYLE
350
16
  3
ACAD_PLOTSETTINGS
350
18
  3
ACAD_PLOTSTYLENAME
350
E
  3
AcDbVariableDictionary
350
26F
  0
DICTIONARY
  5
D
102
{ACAD_REACTORS
330
C
102
}
330
C
100
AcDbDictionary
281
     1
  0
DICTIONARY
  5
19
102
{ACAD_REACTORS
330
C
102
}
330
C
100
AcDbDictionary
281
     1
  3
Layout1
350
1D
  3
Model
350
21
  0
DICTIONARY
  5
16
102
{ACAD_REACTORS
330
C
102
}
330
C
100
AcDbDictionary
281
     1
  3
Standard
350
17
  0
DICTIONARY
  5
18
102
{ACAD_REACTORS
330
C
102
}
330
C
100
AcDbDictionary
281
     1
  0
ACDBDICTIONARYWDFLT
  5
E
102
{ACAD_REACTORS
330
C
102
}
330
C
100
AcDbDictionary
281
     1
  3
Normal
350
F
100
AcDbDictionaryWithDefault
340
F
  0
DICTIONARY
  5
26F
102
{ACAD_REACTORS
330
C
102
}
330
C
100
AcDbDictionary
281
     1
  3
DIMASSOC
350
270
  0
LAYOUT
  5
1D
102
{ACAD_REACTORS
330
19
102
}
330
19
100
AcDbPlotSettings
  1

  2
hp deskjet 980c series
  4

  6

 40
0.0
 41
0.0
 42
0.0
 43
0.0
 44
0.0
 45
0.0
 46
0.0
 47
0.0
 48
0.0
 49
0.0
140
0.0
141
0.0
142
1.0
143
1.0
 70
   688
 72
     0
 73
     0
 74
     5
  7

 75
    16
147
1.0
148
0.0
149
0.0
100
AcDbLayout
  1
Layout1
 70
     1
 71
     1
 10
0.0
 20
0.0
 11
12.0
 21
9.0
 12
0.0
 22
0.0
 32
0.0
 14
1.000000000000000E+20
 24
1.000000000000000E+20
 34
1.000000000000000E+20
 15
-1.000000000000000E+20
 25
-1.000000000000000E+20
 35
-1.000000000000000E+20
146
0.0
 13
0.0
 23
0.0
 33
0.0
 16
1.0
 26
0.0
 36
0.0
 17
0.0
 27
1.0
 37
0.0
 76
     0
330
1A
  0
LAYOUT
  5
21
102
{ACAD_REACTORS
330
19
102
}
330
19
100
AcDbPlotSettings
  1

  2
hp deskjet 980c series
  4

  6

 40
0.0
 41
0.0
 42
0.0
 43
0.0
 44
0.0
 45
0.0
 46
0.0
 47
0.0
 48
0.0
 49
0.0
140
0.0
141
0.0
142
1.0
143
1.0
 70
  1712
 72
     0
 73
     0
 74
     0
  7

 75
     0
147
1.0
148
0.0
149
0.0
100
AcDbLayout
  1
Model
 70
     1
 71
     0
 10
0.0
 20
0.0
 11
12.0
 21
9.0
 12
0.0
 22
0.0
 32
0.0
 14
0.0
 24
0.0
 34
0.0
 15
0.0
 25
0.0
 35
0.0
146
0.0
 13
0.0
 23
0.0
 33
0.0
 16
1.0
 26
0.0
 36
0.0
 17
0.0
 27
1.0
 37
0.0
 76
     0
330
1E
  0
MLINESTYLE
  5
17
102
{ACAD_REACTORS
330
16
102
}
330
16
100
AcDbMlineStyle
  2
STANDARD
 70
     0
  3

 62
   256
 51
90.0
 52
90.0
 71
     2
 49
0.5
 62
   256
  6
BYLAYER
 49
-0.5
 62
   256
  6
BYLAYER
  0
ACDBPLACEHOLDER
  5
F
102
{ACAD_REACTORS
330
E
102
}
330
E
  0
DICTIONARYVAR
  5
270
102
{ACAD_REACTORS
330
26F
102
}
330
26F
100
DictionaryVariables
280
     0
  1
1
  0
ENDSEC
  0
EOF
