  0
SECTION
  2
HEADER
  9
$ACADVER
  1
AC1015
  9
$ACADMAINTVER
 70
    13
  9
$DWGCODEPAGE
  3
ANSI_1252
  9
$INSBASE
 10
0.0
 20
0.0
 30
0.0
  9
$EXTMIN
 10
-0.208999999999974
 20
0.1319750000000095
 30
0.0
  9
$EXTMAX
 10
168.209
 20
135.8680249999999
 30
0.0
  9
$LIMMIN
 10
0.0
 20
0.0
  9
$LIMMAX
 10
12.0
 20
9.0
  9
$ORTHOMODE
 70
     0
  9
$REGENMODE
 70
     1
  9
$FILLMODE
 70
     1
  9
$QTEXTMODE
 70
     0
  9
$MIRRTEXT
 70
     1
  9
$LTSCALE
 40
1.0
  9
$ATTMODE
 70
     1
  9
$TEXTSIZE
 40
0.2
  9
$TRACEWID
 40
0.05
  9
$TEXTSTYLE
  7
Standard
  9
$CLAYER
  8
0
  9
$CELTYPE
  6
Continuous
  9
$CECOLOR
 62
   256
  9
$CELTSCALE
 40
1.0
  9
$DISPSILH
 70
     0
  9
$DIMSCALE
 40
1.0
  9
$DIMASZ
 40
0.18
  9
$DIMEXO
 40
0.0625
  9
$DIMDLI
 40
0.38
  9
$DIMRND
 40
0.0
  9
$DIMDLE
 40
0.0
  9
$DIMEXE
 40
0.18
  9
$DIMTP
 40
0.0
  9
$DIMTM
 40
0.0
  9
$DIMTXT
 40
0.18
  9
$DIMCEN
 40
0.09
  9
$DIMTSZ
 40
0.0
  9
$DIMTOL
 70
     0
  9
$DIMLIM
 70
     0
  9
$DIMTIH
 70
     1
  9
$DIMTOH
 70
     1
  9
$DIMSE1
 70
     0
  9
$DIMSE2
 70
     0
  9
$DIMTAD
 70
     0
  9
$DIMZIN
 70
     0
  9
$DIMBLK
  1

  9
$DIMASO
 70
     1
  9
$DIMSHO
 70
     1
  9
$DIMPOST
  1

  9
$DIMAPOST
  1

  9
$DIMALT
 70
     0
  9
$DIMALTD
 70
     2
  9
$DIMALTF
 40
25.4
  9
$DIMLFAC
 40
1.0
  9
$DIMTOFL
 70
     0
  9
$DIMTVP
 40
0.0
  9
$DIMTIX
 70
     0
  9
$DIMSOXD
 70
     0
  9
$DIMSAH
 70
     0
  9
$DIMBLK1
  1

  9
$DIMBLK2
  1

  9
$DIMSTYLE
  2
Standard
  9
$DIMCLRD
 70
     0
  9
$DIMCLRE
 70
     0
  9
$DIMCLRT
 70
     0
  9
$DIMTFAC
 40
1.0
  9
$DIMGAP
 40
0.09
  9
$DIMJUST
 70
     0
  9
$DIMSD1
 70
     0
  9
$DIMSD2
 70
     0
  9
$DIMTOLJ
 70
     1
  9
$DIMTZIN
 70
     0
  9
$DIMALTZ
 70
     0
  9
$DIMALTTZ
 70
     0
  9
$DIMUPT
 70
     0
  9
$DIMDEC
 70
     4
  9
$DIMTDEC
 70
     4
  9
$DIMALTU
 70
     2
  9
$DIMALTTD
 70
     2
  9
$DIMTXSTY
  7
Standard
  9
$DIMAUNIT
 70
     0
  9
$DIMADEC
 70
     0
  9
$DIMALTRND
 40
0.0
  9
$DIMAZIN
 70
     0
  9
$DIMDSEP
 70
    46
  9
$DIMATFIT
 70
     3
  9
$DIMFRAC
 70
     0
  9
$DIMLDRBLK
  1

  9
$DIMLUNIT
 70
     2
  9
$DIMLWD
 70
    -2
  9
$DIMLWE
 70
    -2
  9
$DIMTMOVE
 70
     0
  9
$LUNITS
 70
     2
  9
$LUPREC
 70
     4
  9
$SKETCHINC
 40
0.1
  9
$FILLETRAD
 40
0.0
  9
$AUNITS
 70
     0
  9
$AUPREC
 70
     0
  9
$MENU
  1
.
  9
$ELEVATION
 40
0.0
  9
$PELEVATION
 40
0.0
  9
$THICKNESS
 40
0.0
  9
$LIMCHECK
 70
     0
  9
$CHAMFERA
 40
0.0
  9
$CHAMFERB
 40
0.0
  9
$CHAMFERC
 40
0.0
  9
$CHAMFERD
 40
0.0
  9
$SKPOLY
 70
     0
  9
$TDCREATE
 40
2454738.448663553
  9
$TDUCREATE
 40
2454738.365330220
  9
$TDUPDATE
 40
2454738.449401759
  9
$TDUUPDATE
 40
2454738.366068426
  9
$TDINDWG
 40
0.0007382060
  9
$TDUSRTIMER
 40
0.0007382060
  9
$USRTIMER
 70
     1
  9
$ANGBASE
 50
0.0
  9
$ANGDIR
 70
     0
  9
$PDMODE
 70
     0
  9
$PDSIZE
 40
0.0
  9
$PLINEWID
 40
0.0
  9
$SPLFRAME
 70
     0
  9
$SPLINETYPE
 70
     6
  9
$SPLINESEGS
 70
     8
  9
$HANDSEED
  5
236
  9
$SURFTAB1
 70
     6
  9
$SURFTAB2
 70
     6
  9
$SURFTYPE
 70
     6
  9
$SURFU
 70
     6
  9
$SURFV
 70
     6
  9
$UCSBASE
  2

  9
$UCSNAME
  2

  9
$UCSORG
 10
0.0
 20
0.0
 30
0.0
  9
$UCSXDIR
 10
1.0
 20
0.0
 30
0.0
  9
$UCSYDIR
 10
0.0
 20
1.0
 30
0.0
  9
$UCSORTHOREF
  2

  9
$UCSORTHOVIEW
 70
     1
  9
$UCSORGTOP
 10
0.0
 20
0.0
 30
0.0
  9
$UCSORGBOTTOM
 10
0.0
 20
0.0
 30
0.0
  9
$UCSORGLEFT
 10
0.0
 20
0.0
 30
0.0
  9
$UCSORGRIGHT
 10
0.0
 20
0.0
 30
0.0
  9
$UCSORGFRONT
 10
0.0
 20
0.0
 30
0.0
  9
$UCSORGBACK
 10
0.0
 20
0.0
 30
0.0
  9
$PUCSBASE
  2

  9
$PUCSNAME
  2

  9
$PUCSORG
 10
0.0
 20
0.0
 30
0.0
  9
$PUCSXDIR
 10
1.0
 20
0.0
 30
0.0
  9
$PUCSYDIR
 10
0.0
 20
1.0
 30
0.0
  9
$PUCSORTHOREF
  2

  9
$PUCSORTHOVIEW
 70
     0
  9
$PUCSORGTOP
 10
0.0
 20
0.0
 30
0.0
  9
$PUCSORGBOTTOM
 10
0.0
 20
0.0
 30
0.0
  9
$PUCSORGLEFT
 10
0.0
 20
0.0
 30
0.0
  9
$PUCSORGRIGHT
 10
0.0
 20
0.0
 30
0.0
  9
$PUCSORGFRONT
 10
0.0
 20
0.0
 30
0.0
  9
$PUCSORGBACK
 10
0.0
 20
0.0
 30
0.0
  9
$USERI1
 70
     0
  9
$USERI2
 70
     0
  9
$USERI3
 70
     0
  9
$USERI4
 70
     0
  9
$USERI5
 70
     0
  9
$USERR1
 40
0.0
  9
$USERR2
 40
0.0
  9
$USERR3
 40
0.0
  9
$USERR4
 40
0.0
  9
$USERR5
 40
0.0
  9
$WORLDVIEW
 70
     1
  9
$SHADEDGE
 70
     3
  9
$SHADEDIF
 70
    70
  9
$TILEMODE
 70
     1
  9
$MAXACTVP
 70
    64
  9
$PINSBASE
 10
0.0
 20
0.0
 30
0.0
  9
$PLIMCHECK
 70
     0
  9
$PEXTMIN
 10
1.000000000000000E+20
 20
1.000000000000000E+20
 30
1.000000000000000E+20
  9
$PEXTMAX
 10
-1.000000000000000E+20
 20
-1.000000000000000E+20
 30
-1.000000000000000E+20
  9
$PLIMMIN
 10
0.0
 20
0.0
  9
$PLIMMAX
 10
12.0
 20
9.0
  9
$UNITMODE
 70
     0
  9
$VISRETAIN
 70
     1
  9
$PLINEGEN
 70
     0
  9
$PSLTSCALE
 70
     1
  9
$TREEDEPTH
 70
  3020
  9
$CMLSTYLE
  2
Standard
  9
$CMLJUST
 70
     0
  9
$CMLSCALE
 40
1.0
  9
$PROXYGRAPHICS
 70
     1
  9
$MEASUREMENT
 70
     0
  9
$CELWEIGHT
370
    -1
  9
$ENDCAPS
280
     0
  9
$JOINSTYLE
280
     0
  9
$LWDISPLAY
290
     0
  9
$INSUNITS
 70
     0
  9
$HYPERLINKBASE
  1

  9
$STYLESHEET
  1

  9
$XEDIT
290
     1
  9
$CEPSNTYPE
380
     0
  9
$PSTYLEMODE
290
     1
  9
$FINGERPRINTGUID
  2
{B631153E-DD6D-484A-A883-8BC899FF947F}
  9
$VERSIONGUID
  2
{CCB8154C-F0F1-4699-A13B-CE3E844CA444}
  9
$EXTNAMES
290
     1
  9
$PSVPSCALE
 40
0.0
  9
$OLESTARTUP
290
     0
  0
ENDSEC
  0
SECTION
  2
CLASSES
  0
CLASS
  1
ACDBDICTIONARYWDFLT
  2
AcDbDictionaryWithDefault
  3
AutoCAD 2000
 90
        0
280
     0
281
     0
  0
CLASS
  1
ACDBPLACEHOLDER
  2
AcDbPlaceHolder
  3
AutoCAD 2000
 90
        0
280
     0
281
     0
  0
CLASS
  1
LAYOUT
  2
AcDbLayout
  3
AutoCAD 2000
 90
        0
280
     0
281
     0
  0
CLASS
  1
DICTIONARYVAR
  2
AcDbDictionaryVar
  3
AutoCAD 2000
 90
        0
280
     0
281
     0
  0
ENDSEC
  0
SECTION
  2
TABLES
  0
TABLE
  2
VPORT
  5
8
330
0
100
AcDbSymbolTable
 70
     2
  0
VPORT
  5
235
330
8
100
AcDbSymbolTableRecord
100
AcDbViewportTableRecord
  2
*Active
 70
     0
 10
0.0
 20
0.0
 11
1.0
 21
1.0
 12
84.00000000000002
 22
68.0
 13
0.0
 23
0.0
 14
1.0
 24
1.0
 15
0.0
 25
0.0
 16
0.0
 26
0.0
 36
1.0
 17
0.0
 27
0.0
 37
0.0
 40
136.7775030690536
 41
2.078104993597951
 42
50.0
 43
0.0
 44
0.0
 50
0.0
 51
0.0
 71
     0
 72
   100
 73
     1
 74
     3
 75
     0
 76
     0
 77
     0
 78
     0
281
     0
 65
     1
110
0.0
120
0.0
130
0.0
111
1.0
121
0.0
131
0.0
112
0.0
122
1.0
132
0.0
 79
     1
146
0.0
  0
ENDTAB
  0
TABLE
  2
LTYPE
  5
5
330
0
100
AcDbSymbolTable
 70
     1
  0
LTYPE
  5
13
330
5
100
AcDbSymbolTableRecord
100
AcDbLinetypeTableRecord
  2
ByBlock
 70
     0
  3

 72
    65
 73
     0
 40
0.0
  0
LTYPE
  5
14
330
5
100
AcDbSymbolTableRecord
100
AcDbLinetypeTableRecord
  2
ByLayer
 70
     0
  3

 72
    65
 73
     0
 40
0.0
  0
LTYPE
  5
15
330
5
100
AcDbSymbolTableRecord
100
AcDbLinetypeTableRecord
  2
Continuous
 70
     0
  3
Solid line
 72
    65
 73
     0
 40
0.0
  0
ENDTAB
  0
TABLE
  2
LAYER
  5
2
330
0
100
AcDbSymbolTable
 70
     1
  0
LAYER
  5
10
330
2
100
AcDbSymbolTableRecord
100
AcDbLayerTableRecord
  2
0
 70
     0
 62
     7
  6
Continuous
370
    -3
390
F
  0
ENDTAB
  0
TABLE
  2
STYLE
  5
3
330
0
100
AcDbSymbolTable
 70
     1
  0
STYLE
  5
11
330
3
100
AcDbSymbolTableRecord
100
AcDbTextStyleTableRecord
  2
Standard
 70
     0
 40
0.0
 41
1.0
 50
0.0
 71
     0
 42
0.2
  3
txt
  4

  0
ENDTAB
  0
TABLE
  2
VIEW
  5
6
330
0
100
AcDbSymbolTable
 70
     0
  0
ENDTAB
  0
TABLE
  2
UCS
  5
7
330
0
100
AcDbSymbolTable
 70
     0
  0
ENDTAB
  0
TABLE
  2
APPID
  5
9
330
0
100
AcDbSymbolTable
 70
     1
  0
APPID
  5
12
330
9
100
AcDbSymbolTableRecord
100
AcDbRegAppTableRecord
  2
ACAD
 70
     0
  0
ENDTAB
  0
TABLE
  2
DIMSTYLE
  5
A
330
0
100
AcDbSymbolTable
 70
     1
100
AcDbDimStyleTable
 71
     0
  0
DIMSTYLE
105
22F
330
A
100
AcDbSymbolTableRecord
100
AcDbDimStyleTableRecord
  2
Standard
 70
     0
340
11
  0
ENDTAB
  0
TABLE
  2
BLOCK_RECORD
  5
1
330
0
100
AcDbSymbolTable
 70
     0
  0
BLOCK_RECORD
  5
1E
330
1
100
AcDbSymbolTableRecord
100
AcDbBlockTableRecord
  2
*Model_Space
340
21
  0
BLOCK_RECORD
  5
1A
330
1
100
AcDbSymbolTableRecord
100
AcDbBlockTableRecord
  2
*Paper_Space
340
1D
  0
ENDTAB
  0
ENDSEC
  0
SECTION
  2
BLOCKS
  0
BLOCK
  5
1F
330
1E
100
AcDbEntity
  8
0
100
AcDbBlockBegin
  2
*Model_Space
 70
     0
 10
0.0
 20
0.0
 30
0.0
  3
*Model_Space
  1

  0
ENDBLK
  5
20
330
1E
100
AcDbEntity
  8
0
100
AcDbBlockEnd
  0
BLOCK
  5
1B
330
1A
100
AcDbEntity
 67
     1
  8
0
100
AcDbBlockBegin
  2
*Paper_Space
 70
     0
 10
0.0
 20
0.0
 30
0.0
  3
*Paper_Space
  1

  0
ENDBLK
  5
1C
330
1A
100
AcDbEntity
 67
     1
  8
0
100
AcDbBlockEnd
  0
ENDSEC
  0
SECTION
  2
ENTITIES
  0
LINE
  5
22
330
1E
100
AcDbEntity
  8
0
100
AcDbLine
 10
12.311
 20
105.2177249999999
 30
0.0
 11
13.1086050246948
 21
105.9080071871489
 31
0.0
  0
LINE
  5
23
330
1E
100
AcDbEntity
  8
0
100
AcDbLine
 10
21.581
 20
96.23062500000001
 30
0.0
 11
21.7314626290345
 21
96.40234418557941
 31
0.0
  0
LINE
  5
24
330
1E
100
AcDbEntity
  8
0
100
AcDbLine
 10
21.581
 20
96.23062500000001
 30
0.0
 11
21.80699999999999
 21
96.10012500000001
 31
0.0
  0
LINE
  5
25
330
1E
100
AcDbEntity
  8
0
100
AcDbLine
 10
20.094
 20
97.542425
 30
0.0
 11
20.48398172501289
 21
97.9878095957418
 31
0.0
  0
LINE
  5
26
330
1E
100
AcDbEntity
  8
0
100
AcDbLine
 10
20.094
 20
97.542425
 30
0.0
 11
21.581
 21
96.23062500000001
 31
0.0
  0
LINE
  5
27
330
1E
100
AcDbEntity
  8
0
100
AcDbLine
 10
21.14199999999999
 20
96.937025
 30
0.0
 11
21.80499999999999
 21
96.55432500000001
 31
0.0
  0
LINE
  5
28
330
1E
100
AcDbEntity
  8
0
100
AcDbLine
 10
21.14199999999999
 20
96.937025
 30
0.0
 11
21.5790921813097
 21
97.44957807258058
 31
0.0
  0
LINE
  5
29
330
1E
100
AcDbEntity
  8
0
100
AcDbLine
 10
21.14199999999999
 20
96.937025
 30
0.0
 11
22.515
 21
95.691625
 31
0.0
  0
LINE
  5
2A
330
1E
100
AcDbEntity
  8
0
100
AcDbLine
 10
23.42895553534889
 20
95.60318684991109
 30
0.0
 11
24.545
 21
94.519625
 31
0.0
  0
LINE
  5
2B
330
1E
100
AcDbEntity
  8
0
100
AcDbLine
 10
23.178
 20
95.308925
 30
0.0
 11
23.619655318448
 21
95.82679487224199
 31
0.0
  0
LINE
  5
2C
330
1E
100
AcDbEntity
  8
0
100
AcDbLine
 10
21.80699999999999
 20
96.10012500000001
 30
0.0
 11
21.92109756673729
 21
96.2303330046507
 31
0.0
  0
LINE
  5
2D
330
1E
100
AcDbEntity
  8
0
100
AcDbLine
 10
23.045
 20
96.89722500000002
 30
0.0
 11
23.47430419381389
 21
97.44565143858391
 31
0.0
  0
LINE
  5
2E
330
1E
100
AcDbEntity
  8
0
100
AcDbLine
 10
21.81999999999999
 20
97.604325
 30
0.0
 11
23.045
 21
96.89722500000002
 31
0.0
  0
LINE
  5
2F
330
1E
100
AcDbEntity
  8
0
100
AcDbLine
 10
22.515
 20
95.691625
 30
0.0
 11
23.178
 21
95.308925
 31
0.0
  0
LINE
  5
30
330
1E
100
AcDbEntity
  8
0
100
AcDbLine
 10
21.80499999999999
 20
96.55432500000001
 30
0.0
 11
22.2651260924614
 21
97.0938886265076
 31
0.0
  0
LINE
  5
31
330
1E
100
AcDbEntity
  8
0
100
AcDbLine
 10
21.80499999999999
 20
96.55432500000001
 30
0.0
 11
23.178
 21
95.308925
 31
0.0
  0
LINE
  5
32
330
1E
100
AcDbEntity
  8
0
100
AcDbLine
 10
19.085
 20
99.18352500000001
 30
0.0
 11
19.53328737728579
 21
99.7210127754171
 31
0.0
  0
LINE
  5
33
330
1E
100
AcDbEntity
  8
0
100
AcDbLine
 10
20.815
 20
98.63722500000001
 30
0.0
 11
22.04
 21
97.93012500000001
 31
0.0
  0
LINE
  5
34
330
1E
100
AcDbEntity
  8
0
100
AcDbLine
 10
20.815
 20
98.63722500000001
 30
0.0
 11
21.44600835480349
 21
99.44332396136161
 31
0.0
  0
LINE
  5
35
330
1E
100
AcDbEntity
  8
0
100
AcDbLine
 10
20.815
 20
98.63722500000001
 30
0.0
 11
21.81999999999999
 21
97.604325
 31
0.0
  0
LINE
  5
36
330
1E
100
AcDbEntity
  8
0
100
AcDbLine
 10
22.04
 20
97.93012500000001
 30
0.0
 11
22.37205784601689
 21
98.35432141950631
 31
0.0
  0
LINE
  5
37
330
1E
100
AcDbEntity
  8
0
100
AcDbLine
 10
22.04
 20
97.93012500000001
 30
0.0
 11
23.045
 21
96.89722500000002
 31
0.0
  0
LINE
  5
38
330
1E
100
AcDbEntity
  8
0
100
AcDbLine
 10
20.874
 20
97.66312499999999
 30
0.0
 11
21.4089171995468
 21
97.25002357696471
 31
0.0
  0
LINE
  5
39
330
1E
100
AcDbEntity
  8
0
100
AcDbLine
 10
28.90699999999999
 20
92.001325
 30
0.0
 11
29.28287207273129
 21
92.50139001875091
 31
0.0
  0
LINE
  5
3A
330
1E
100
AcDbEntity
  8
0
100
AcDbLine
 10
27.533
 20
92.794725
 30
0.0
 11
28.90699999999999
 21
92.001325
 31
0.0
  0
LINE
  5
3B
330
1E
100
AcDbEntity
  8
0
100
AcDbLine
 10
28.069
 20
92.937825
 30
0.0
 11
28.3684818460795
 21
93.3362342528594
 31
0.0
  0
LINE
  5
3C
330
1E
100
AcDbEntity
  8
0
100
AcDbLine
 10
28.069
 20
92.937825
 30
0.0
 11
28.90699999999999
 21
92.001325
 31
0.0
  0
LINE
  5
3D
330
1E
100
AcDbEntity
  8
0
100
AcDbLine
 10
32.01699999999999
 20
92.169825
 30
0.0
 11
33.68999999999999
 21
91.20392499999999
 31
0.0
  0
LINE
  5
3E
330
1E
100
AcDbEntity
  8
0
100
AcDbLine
 10
32.01699999999999
 20
92.169825
 30
0.0
 11
32.3961057613885
 21
92.75415854821309
 31
0.0
  0
LINE
  5
3F
330
1E
100
AcDbEntity
  8
0
100
AcDbLine
 10
32.01699999999999
 20
92.169825
 30
0.0
 11
32.26099999999999
 21
91.57652500000001
 31
0.0
  0
LINE
  5
40
330
1E
100
AcDbEntity
  8
0
100
AcDbLine
 10
38.412
 20
85.480225
 30
0.0
 11
39.743
 21
84.71222500000001
 31
0.0
  0
LINE
  5
41
330
1E
100
AcDbEntity
  8
0
100
AcDbLine
 10
32.26099999999999
 20
91.57652500000001
 30
0.0
 11
33.93399999999999
 21
90.610525
 31
0.0
  0
LINE
  5
42
330
1E
100
AcDbEntity
  8
0
100
AcDbLine
 10
33.68999999999999
 20
91.20392499999999
 30
0.0
 11
34.3402102275421
 21
92.20612461826108
 31
0.0
  0
LINE
  5
43
330
1E
100
AcDbEntity
  8
0
100
AcDbLine
 10
33.68999999999999
 20
91.20392499999999
 30
0.0
 11
33.93399999999999
 21
90.610525
 31
0.0
  0
LINE
  5
44
330
1E
100
AcDbEntity
  8
0
100
AcDbLine
 10
33.216
 20
88.480225
 30
0.0
 11
33.403
 21
88.37222500000001
 31
0.0
  0
LINE
  5
45
330
1E
100
AcDbEntity
  8
0
100
AcDbLine
 10
33.216
 20
88.480225
 30
0.0
 11
33.3817044217976
 21
88.7672416289957
 31
0.0
  0
LINE
  5
46
330
1E
100
AcDbEntity
  8
0
100
AcDbLine
 10
33.403
 20
88.37222500000001
 30
0.0
 11
33.902
 21
88.084225
 31
0.0
  0
LINE
  5
47
330
1E
100
AcDbEntity
  8
0
100
AcDbLine
 10
35.516
 20
88.185725
 30
0.0
 11
37.233
 21
87.19432500000001
 31
0.0
  0
LINE
  5
48
330
1E
100
AcDbEntity
  8
0
100
AcDbLine
 10
35.49
 20
88.65322500000001
 30
0.0
 11
37.207
 21
87.66182499999999
 31
0.0
  0
LINE
  5
49
330
1E
100
AcDbEntity
  8
0
100
AcDbLine
 10
35.49
 20
88.65322500000001
 30
0.0
 11
35.7486783823357
 21
89.0754133568873
 31
0.0
  0
LINE
  5
4A
330
1E
100
AcDbEntity
  8
0
100
AcDbLine
 10
35.49
 20
88.65322500000001
 30
0.0
 11
35.516
 21
88.185725
 31
0.0
  0
LINE
  5
4B
330
1E
100
AcDbEntity
  8
0
100
AcDbLine
 10
35.332
 20
91.926825
 30
0.0
 11
35.472
 21
92.65762499999999
 31
0.0
  0
LINE
  5
4C
330
1E
100
AcDbEntity
  8
0
100
AcDbLine
 10
35.332
 20
91.926825
 30
0.0
 11
37.049
 21
90.935325
 31
0.0
  0
LINE
  5
4D
330
1E
100
AcDbEntity
  8
0
100
AcDbLine
 10
35.472
 20
92.65762499999999
 30
0.0
 11
37.189
 21
91.66612499999999
 31
0.0
  0
LINE
  5
4E
330
1E
100
AcDbEntity
  8
0
100
AcDbLine
 10
35.472
 20
92.65762499999999
 30
0.0
 11
36.2211599915352
 21
93.82063130410049
 31
0.0
  0
LINE
  5
4F
330
1E
100
AcDbEntity
  8
0
100
AcDbLine
 10
33.93399999999999
 20
90.610525
 30
0.0
 11
34.30960255434549
 21
91.19003613206979
 31
0.0
  0
LINE
  5
50
330
1E
100
AcDbEntity
  8
0
100
AcDbLine
 10
33.902
 20
88.084225
 30
0.0
 11
34.733
 21
87.604225
 31
0.0
  0
LINE
  5
51
330
1E
100
AcDbEntity
  8
0
100
AcDbLine
 10
34.733
 20
87.604225
 30
0.0
 11
35.835
 21
86.96822500000001
 31
0.0
  0
LINE
  5
52
330
1E
100
AcDbEntity
  8
0
100
AcDbLine
 10
37.233
 20
87.19432500000001
 30
0.0
 11
37.69645089226779
 21
87.95072207090228
 31
0.0
  0
LINE
  5
53
330
1E
100
AcDbEntity
  8
0
100
AcDbLine
 10
37.207
 20
87.66182499999999
 30
0.0
 11
37.4656715921415
 21
88.08400227462792
 31
0.0
  0
LINE
  5
54
330
1E
100
AcDbEntity
  8
0
100
AcDbLine
 10
37.207
 20
87.66182499999999
 30
0.0
 11
37.233
 21
87.19432500000001
 31
0.0
  0
LINE
  5
55
330
1E
100
AcDbEntity
  8
0
100
AcDbLine
 10
38.388
 20
88.03862499999999
 30
0.0
 11
38.584
 21
88.37822499999999
 31
0.0
  0
LINE
  5
56
330
1E
100
AcDbEntity
  8
0
100
AcDbLine
 10
38.388
 20
88.03862499999999
 30
0.0
 11
40.11999999999999
 21
87.03862499999999
 31
0.0
  0
LINE
  5
57
330
1E
100
AcDbEntity
  8
0
100
AcDbLine
 10
37.049
 20
90.935325
 30
0.0
 11
37.2479195529252
 21
91.24384609399559
 31
0.0
  0
LINE
  5
58
330
1E
100
AcDbEntity
  8
0
100
AcDbLine
 10
37.049
 20
90.935325
 30
0.0
 11
37.189
 21
91.66612499999999
 31
0.0
  0
LINE
  5
59
330
1E
100
AcDbEntity
  8
0
100
AcDbLine
 10
37.189
 20
91.66612499999999
 30
0.0
 11
37.70632603923299
 21
92.46848953998359
 31
0.0
  0
LINE
  5
5A
330
1E
100
AcDbEntity
  8
0
100
AcDbLine
 10
38.584
 20
88.37822499999999
 30
0.0
 11
40.316
 21
87.378225
 31
0.0
  0
LINE
  5
5B
330
1E
100
AcDbEntity
  8
0
100
AcDbLine
 10
38.584
 20
88.37822499999999
 30
0.0
 11
38.90690712493739
 21
88.93727236084981
 31
0.0
  0
LINE
  5
5C
330
1E
100
AcDbEntity
  8
0
100
AcDbLine
 10
35.835
 20
86.96822500000001
 30
0.0
 11
37.082
 21
86.248225
 31
0.0
  0
LINE
  5
5D
330
1E
100
AcDbEntity
  8
0
100
AcDbLine
 10
37.082
 20
86.248225
 30
0.0
 11
38.412
 21
85.480225
 31
0.0
  0
LINE
  5
5E
330
1E
100
AcDbEntity
  8
0
100
AcDbLine
 10
32.106
 20
89.544425
 30
0.0
 11
33.3783184054558
 21
88.7613767100899
 31
0.0
  0
LINE
  5
5F
330
1E
100
AcDbEntity
  8
0
100
AcDbLine
 10
25.599
 20
93.910925
 30
0.0
 11
25.6504385394028
 21
93.9744166179557
 31
0.0
  0
LINE
  5
60
330
1E
100
AcDbEntity
  8
0
100
AcDbLine
 10
24.545
 20
94.519625
 30
0.0
 11
24.6987324377611
 21
94.70939232117229
 31
0.0
  0
LINE
  5
61
330
1E
100
AcDbEntity
  8
0
100
AcDbLine
 10
24.545
 20
94.519625
 30
0.0
 11
25.599
 21
93.910925
 31
0.0
  0
LINE
  5
62
330
1E
100
AcDbEntity
  8
0
100
AcDbLine
 10
26.695
 20
93.73122499999999
 30
0.0
 11
28.069
 21
92.937825
 31
0.0
  0
LINE
  5
63
330
1E
100
AcDbEntity
  8
0
100
AcDbLine
 10
26.695
 20
93.73122499999999
 30
0.0
 11
27.1089447591083
 21
94.28190753505301
 31
0.0
  0
LINE
  5
64
330
1E
100
AcDbEntity
  8
0
100
AcDbLine
 10
26.695
 20
93.73122499999999
 30
0.0
 11
27.533
 21
92.794725
 31
0.0
  0
LINE
  5
65
330
1E
100
AcDbEntity
  8
0
100
AcDbLine
 10
28.10999999999999
 20
93.97312499999999
 30
0.0
 11
28.5143952095838
 21
94.53593763733808
 31
0.0
  0
LINE
  5
66
330
1E
100
AcDbEntity
  8
0
100
AcDbLine
 10
26.61
 20
94.839125
 30
0.0
 11
28.10999999999999
 21
93.97312499999999
 31
0.0
  0
LINE
  5
67
330
1E
100
AcDbEntity
  8
0
100
AcDbLine
 10
27.456
 20
94.802925
 30
0.0
 11
28.0996941567326
 21
95.6980010189839
 31
0.0
  0
LINE
  5
68
330
1E
100
AcDbEntity
  8
0
100
AcDbLine
 10
27.456
 20
94.802925
 30
0.0
 11
28.10999999999999
 21
93.97312499999999
 31
0.0
  0
LINE
  5
69
330
1E
100
AcDbEntity
  8
0
100
AcDbLine
 10
25.956
 20
95.66892499999999
 30
0.0
 11
27.456
 21
94.802925
 31
0.0
  0
LINE
  5
6A
330
1E
100
AcDbEntity
  8
0
100
AcDbLine
 10
25.956
 20
95.66892499999999
 30
0.0
 11
26.3792282436253
 21
96.25743655857711
 31
0.0
  0
LINE
  5
6B
330
1E
100
AcDbEntity
  8
0
100
AcDbLine
 10
25.956
 20
95.66892499999999
 30
0.0
 11
26.61
 21
94.839125
 31
0.0
  0
LINE
  5
6C
330
1E
100
AcDbEntity
  8
0
100
AcDbLine
 10
27.695
 20
96.33572499999999
 30
0.0
 11
29.296
 21
95.41182499999999
 31
0.0
  0
LINE
  5
6D
330
1E
100
AcDbEntity
  8
0
100
AcDbLine
 10
32.631
 20
96.268325
 30
0.0
 11
33.0562665139595
 21
96.871720546455
 31
0.0
  0
LINE
  5
6E
330
1E
100
AcDbEntity
  8
0
100
AcDbLine
 10
29.296
 20
95.41182499999999
 30
0.0
 11
30.16914526533589
 21
96.52263906211082
 31
0.0
  0
LINE
  5
6F
330
1E
100
AcDbEntity
  8
0
100
AcDbLine
 10
29.02599999999999
 20
96.378725
 30
0.0
 11
29.5979360279939
 21
97.10571924002771
 31
0.0
  0
LINE
  5
70
330
1E
100
AcDbEntity
  8
0
100
AcDbLine
 10
29.02599999999999
 20
96.378725
 30
0.0
 11
29.296
 21
95.41182499999999
 31
0.0
  0
LINE
  5
71
330
1E
100
AcDbEntity
  8
0
100
AcDbLine
 10
30.958
 20
97.23422499999999
 30
0.0
 11
32.631
 21
96.268325
 31
0.0
  0
LINE
  5
72
330
1E
100
AcDbEntity
  8
0
100
AcDbLine
 10
32.538
 20
97.08452499999999
 30
0.0
 11
32.72841598968269
 21
97.3547169194261
 31
0.0
  0
LINE
  5
73
330
1E
100
AcDbEntity
  8
0
100
AcDbLine
 10
32.538
 20
97.08452499999999
 30
0.0
 11
32.631
 21
96.268325
 31
0.0
  0
LINE
  5
74
330
1E
100
AcDbEntity
  8
0
100
AcDbLine
 10
30.865
 20
98.050425
 30
0.0
 11
32.538
 21
97.08452499999999
 31
0.0
  0
LINE
  5
75
330
1E
100
AcDbEntity
  8
0
100
AcDbLine
 10
30.865
 20
98.050425
 30
0.0
 11
31.2420851120378
 21
98.5854921988119
 31
0.0
  0
LINE
  5
76
330
1E
100
AcDbEntity
  8
0
100
AcDbLine
 10
30.865
 20
98.050425
 30
0.0
 11
30.958
 21
97.23422499999999
 31
0.0
  0
LINE
  5
77
330
1E
100
AcDbEntity
  8
0
100
AcDbLine
 10
27.42599999999999
 20
97.30262500000002
 30
0.0
 11
29.02599999999999
 21
96.378725
 31
0.0
  0
LINE
  5
78
330
1E
100
AcDbEntity
  8
0
100
AcDbLine
 10
27.42599999999999
 20
97.30262500000002
 30
0.0
 11
27.59762144414089
 21
97.52096153697721
 31
0.0
  0
LINE
  5
79
330
1E
100
AcDbEntity
  8
0
100
AcDbLine
 10
27.42599999999999
 20
97.30262500000002
 30
0.0
 11
27.695
 21
96.33572499999999
 31
0.0
  0
LINE
  5
7A
330
1E
100
AcDbEntity
  8
0
100
AcDbLine
 10
37.37899999999999
 20
96.77022499999999
 30
0.0
 11
42.777
 21
93.65362500000001
 31
0.0
  0
LINE
  5
7B
330
1E
100
AcDbEntity
  8
0
100
AcDbLine
 10
37.884
 20
97.645525
 30
0.0
 11
43.28199999999999
 21
94.528925
 31
0.0
  0
LINE
  5
7C
330
1E
100
AcDbEntity
  8
0
100
AcDbLine
 10
26.26199999999999
 20
93.50212500000001
 30
0.0
 11
32.106
 21
89.544425
 31
0.0
  0
LINE
  5
7D
330
1E
100
AcDbEntity
  8
0
100
AcDbLine
 10
23.47359590329659
 20
95.6555306136568
 30
0.0
 11
26.26199999999999
 21
93.50212500000001
 31
0.0
  0
LINE
  5
7E
330
1E
100
AcDbEntity
  8
0
100
AcDbLine
 10
16.499
 20
100.6762249999999
 30
0.0
 11
16.95944924676379
 21
101.20706072062
 31
0.0
  0
LINE
  5
7F
330
1E
100
AcDbEntity
  8
0
100
AcDbLine
 10
16.499
 20
100.6762249999999
 30
0.0
 11
16.8158329810289
 21
101.041490585692
 31
0.0
  0
LINE
  5
80
330
1E
100
AcDbEntity
  8
0
100
AcDbLine
 10
16.051
 20
100.935025
 30
0.0
 11
16.499
 21
100.6762249999999
 31
0.0
  0
LINE
  5
81
330
1E
100
AcDbEntity
  8
0
100
AcDbLine
 10
14.50099999999999
 20
104.7651249999999
 30
0.0
 11
15.555
 21
104.156325
 31
0.0
  0
LINE
  5
82
330
1E
100
AcDbEntity
  8
0
100
AcDbLine
 10
14.50099999999999
 20
104.7651249999999
 30
0.0
 11
15.2492356061368
 21
105.4732332420589
 31
0.0
  0
LINE
  5
83
330
1E
100
AcDbEntity
  8
0
100
AcDbLine
 10
14.50099999999999
 20
104.7651249999999
 30
0.0
 11
15.436
 21
103.413725
 31
0.0
  0
LINE
  5
84
330
1E
100
AcDbEntity
  8
0
100
AcDbLine
 10
13.962
 20
102.593725
 30
0.0
 11
14.4949587295003
 21
103.20036931142
 31
0.0
  0
LINE
  5
85
330
1E
100
AcDbEntity
  8
0
100
AcDbLine
 10
13.962
 20
102.593725
 30
0.0
 11
14.4755506774934
 21
103.178277949192
 31
0.0
  0
LINE
  5
86
330
1E
100
AcDbEntity
  8
0
100
AcDbLine
 10
13.962
 20
102.593725
 30
0.0
 11
15.46499999999999
 21
101.2736249999999
 31
0.0
  0
LINE
  5
87
330
1E
100
AcDbEntity
  8
0
100
AcDbLine
 10
14.607
 20
102.221725
 30
0.0
 11
15.055
 21
101.9629249999999
 31
0.0
  0
LINE
  5
88
330
1E
100
AcDbEntity
  8
0
100
AcDbLine
 10
14.607
 20
102.221725
 30
0.0
 11
15.1627729167816
 21
102.8629458782229
 31
0.0
  0
LINE
  5
89
330
1E
100
AcDbEntity
  8
0
100
AcDbLine
 10
14.607
 20
102.221725
 30
0.0
 11
16.051
 21
100.935025
 31
0.0
  0
LINE
  5
8A
330
1E
100
AcDbEntity
  8
0
100
AcDbLine
 10
15.436
 20
103.413725
 30
0.0
 11
16.49
 21
102.8050249999999
 31
0.0
  0
LINE
  5
8B
330
1E
100
AcDbEntity
  8
0
100
AcDbLine
 10
15.55545958468109
 20
101.3765844545639
 30
0.0
 11
16.051
 21
100.935025
 31
0.0
  0
LINE
  5
8C
330
1E
100
AcDbEntity
  8
0
100
AcDbLine
 10
16.49
 20
102.8050249999999
 30
0.0
 11
16.975397631091
 21
103.264356880923
 31
0.0
  0
LINE
  5
8D
330
1E
100
AcDbEntity
  8
0
100
AcDbLine
 10
15.555
 20
104.156325
 30
0.0
 11
15.970853423178
 21
104.549817876181
 31
0.0
  0
LINE
  5
8E
330
1E
100
AcDbEntity
  8
0
100
AcDbLine
 10
15.555
 20
104.156325
 30
0.0
 11
16.49
 21
102.8050249999999
 31
0.0
  0
LINE
  5
8F
330
1E
100
AcDbEntity
  8
0
100
AcDbLine
 10
15.46499999999999
 20
101.2736249999999
 30
0.0
 11
15.55545958468109
 21
101.3765844545639
 31
0.0
  0
LINE
  5
90
330
1E
100
AcDbEntity
  8
0
100
AcDbLine
 10
15.055
 20
101.9629249999999
 30
0.0
 11
15.6108584149712
 21
102.6042445214319
 31
0.0
  0
LINE
  5
91
330
1E
100
AcDbEntity
  8
0
100
AcDbLine
 10
15.055
 20
101.9629249999999
 30
0.0
 11
16.499
 21
100.6762249999999
 31
0.0
  0
LINE
  5
92
330
1E
100
AcDbEntity
  8
0
100
AcDbLine
 10
16.8158329810289
 20
101.041490585692
 30
0.0
 11
16.9747996240293
 21
100.909153145297
 31
0.0
  0
LINE
  5
93
330
1E
100
AcDbEntity
  8
0
100
AcDbLine
 10
18.219
 20
99.68352500000001
 30
0.0
 11
19.085
 21
99.18352500000001
 31
0.0
  0
LINE
  5
94
330
1E
100
AcDbEntity
  8
0
100
AcDbLine
 10
17.80999999999999
 20
100.372225
 30
0.0
 11
18.391027581234
 21
101.0688656772019
 31
0.0
  0
LINE
  5
95
330
1E
100
AcDbEntity
  8
0
100
AcDbLine
 10
17.80999999999999
 20
100.372225
 30
0.0
 11
19.085
 21
99.18352500000001
 31
0.0
  0
LINE
  5
96
330
1E
100
AcDbEntity
  8
0
100
AcDbLine
 10
22.283
 20
99.460425
 30
0.0
 11
22.6220421233561
 21
99.82558919054969
 31
0.0
  0
LINE
  5
97
330
1E
100
AcDbEntity
  8
0
100
AcDbLine
 10
20.909
 20
100.253725
 30
0.0
 11
22.283
 21
99.460425
 31
0.0
  0
LINE
  5
98
330
1E
100
AcDbEntity
  8
0
100
AcDbLine
 10
21.648
 20
100.638925
 30
0.0
 11
21.9183148488193
 21
100.9302896345199
 31
0.0
  0
LINE
  5
99
330
1E
100
AcDbEntity
  8
0
100
AcDbLine
 10
21.648
 20
100.638925
 30
0.0
 11
22.283
 21
99.460425
 31
0.0
  0
LINE
  5
9A
330
1E
100
AcDbEntity
  8
0
100
AcDbLine
 10
32.108
 20
99.81402500000001
 30
0.0
 11
37.37899999999999
 21
96.77022499999999
 31
0.0
  0
LINE
  5
9B
330
1E
100
AcDbEntity
  8
0
100
AcDbLine
 10
16.944
 20
100.8722249999999
 30
0.0
 11
17.80999999999999
 21
100.372225
 31
0.0
  0
LINE
  5
9C
330
1E
100
AcDbEntity
  8
0
100
AcDbLine
 10
16.944
 20
100.8722249999999
 30
0.0
 11
17.52847995916519
 21
101.573005010648
 31
0.0
  0
LINE
  5
9D
330
1E
100
AcDbEntity
  8
0
100
AcDbLine
 10
16.944
 20
100.8722249999999
 30
0.0
 11
18.219
 21
99.68352500000001
 31
0.0
  0
LINE
  5
9E
330
1E
100
AcDbEntity
  8
0
100
AcDbLine
 10
20.274
 20
101.432325
 30
0.0
 11
21.648
 21
100.638925
 31
0.0
  0
LINE
  5
9F
330
1E
100
AcDbEntity
  8
0
100
AcDbLine
 10
20.274
 20
101.432325
 30
0.0
 11
21.0592927427386
 21
102.278769558923
 31
0.0
  0
LINE
  5
A0
330
1E
100
AcDbEntity
  8
0
100
AcDbLine
 10
20.274
 20
101.432325
 30
0.0
 11
20.909
 21
100.253725
 31
0.0
  0
LINE
  5
A1
330
1E
100
AcDbEntity
  8
0
100
AcDbLine
 10
22.113
 20
102.340625
 30
0.0
 11
23.613
 21
101.4746249999999
 31
0.0
  0
LINE
  5
A2
330
1E
100
AcDbEntity
  8
0
100
AcDbLine
 10
23.613
 20
101.4746249999999
 30
0.0
 11
24.092661725135
 21
102.047801263092
 31
0.0
  0
LINE
  5
A3
330
1E
100
AcDbEntity
  8
0
100
AcDbLine
 10
23.12599999999999
 20
102.518525
 30
0.0
 11
23.45613895886889
 21
102.913027635565
 31
0.0
  0
LINE
  5
A4
330
1E
100
AcDbEntity
  8
0
100
AcDbLine
 10
23.12599999999999
 20
102.518525
 30
0.0
 11
23.613
 21
101.4746249999999
 31
0.0
  0
LINE
  5
A5
330
1E
100
AcDbEntity
  8
0
100
AcDbLine
 10
21.62599999999999
 20
103.3845249999999
 30
0.0
 11
23.12599999999999
 21
102.518525
 31
0.0
  0
LINE
  5
A6
330
1E
100
AcDbEntity
  8
0
100
AcDbLine
 10
21.62599999999999
 20
103.3845249999999
 30
0.0
 11
21.8403103095159
 21
103.6406171080699
 31
0.0
  0
LINE
  5
A7
330
1E
100
AcDbEntity
  8
0
100
AcDbLine
 10
21.62599999999999
 20
103.3845249999999
 30
0.0
 11
22.113
 21
102.340625
 31
0.0
  0
LINE
  5
A8
330
1E
100
AcDbEntity
  8
0
100
AcDbLine
 10
22.2
 20
105.5340249999999
 30
0.0
 11
27.027
 21
102.7470249999999
 31
0.0
  0
LINE
  5
A9
330
1E
100
AcDbEntity
  8
0
100
AcDbLine
 10
27.027
 20
102.7470249999999
 30
0.0
 11
32.108
 21
99.81402500000001
 31
0.0
  0
LINE
  5
AA
330
1E
100
AcDbEntity
  8
0
100
AcDbLine
 10
27.53199999999999
 20
103.6220249999999
 30
0.0
 11
32.613
 21
100.689025
 31
0.0
  0
LINE
  5
AB
330
1E
100
AcDbEntity
  8
0
100
AcDbLine
 10
32.613
 20
100.689025
 30
0.0
 11
37.884
 21
97.645525
 31
0.0
  0
LINE
  5
AC
330
1E
100
AcDbEntity
  8
0
100
AcDbLine
 10
16.8158329810289
 20
101.041490585692
 30
0.0
 11
16.9747996240293
 21
100.909153145297
 31
0.0
  0
LINE
  5
AD
330
1E
100
AcDbEntity
  8
0
100
AcDbLine
 10
18.963161388238
 20
99.25387061880021
 30
0.0
 11
20.874
 21
97.66312499999999
 31
0.0
  0
LINE
  5
AE
330
1E
100
AcDbEntity
  8
0
100
AcDbLine
 10
12.3444329872723
 20
105.2466593658359
 30
0.0
 11
14.4755506774934
 21
103.178277949192
 31
0.0
  0
LINE
  5
AF
330
1E
100
AcDbEntity
  8
0
100
AcDbLine
 10
5.833999999999999
 20
111.7400249999999
 30
0.0
 11
6.346825821181329
 21
112.1911471795949
 31
0.0
  0
LINE
  5
B0
330
1E
100
AcDbEntity
  8
0
100
AcDbLine
 10
5.833999999999999
 20
111.7400249999999
 30
0.0
 11
6.046871883770839
 21
111.927283956579
 31
0.0
  0
LINE
  5
B1
330
1E
100
AcDbEntity
  8
0
100
AcDbLine
 10
10.031
 20
106.5340249999999
 30
0.0
 11
10.57334504198419
 21
106.9823400898999
 31
0.0
  0
LINE
  5
B2
330
1E
100
AcDbEntity
  8
0
100
AcDbLine
 10
9.80500000000001
 20
106.6650249999999
 30
0.0
 11
10.031
 21
106.5340249999999
 31
0.0
  0
LINE
  5
B3
330
1E
100
AcDbEntity
  8
0
100
AcDbLine
 10
15.806
 20
105.982025
 30
0.0
 11
16.51261478296359
 21
106.7164221149349
 31
0.0
  0
LINE
  5
B4
330
1E
100
AcDbEntity
  8
0
100
AcDbLine
 10
14.58099999999999
 20
106.6890249999999
 30
0.0
 11
15.806
 21
105.982025
 31
0.0
  0
LINE
  5
B5
330
1E
100
AcDbEntity
  8
0
100
AcDbLine
 10
11.649
 20
105.600025
 30
0.0
 11
12.311
 21
105.2177249999999
 31
0.0
  0
LINE
  5
B6
330
1E
100
AcDbEntity
  8
0
100
AcDbLine
 10
8.548999999999981
 20
108.202025
 30
0.0
 11
8.775000000000009
 21
108.071025
 31
0.0
  0
LINE
  5
B7
330
1E
100
AcDbEntity
  8
0
100
AcDbLine
 10
8.548999999999981
 20
108.202025
 30
0.0
 11
9.207907529165471
 21
108.747047277211
 31
0.0
  0
LINE
  5
B8
330
1E
100
AcDbEntity
  8
0
100
AcDbLine
 10
8.548999999999981
 20
108.202025
 30
0.0
 11
9.80500000000001
 21
106.6650249999999
 31
0.0
  0
LINE
  5
B9
330
1E
100
AcDbEntity
  8
0
100
AcDbLine
 10
8.548999999999981
 20
108.202025
 30
0.0
 11
9.121371717452319
 21
108.6754682724609
 31
0.0
  0
LINE
  5
BA
330
1E
100
AcDbEntity
  8
0
100
AcDbLine
 10
8.775000000000009
 20
108.071025
 30
0.0
 11
9.372651985691639
 21
108.565379111622
 31
0.0
  0
LINE
  5
BB
330
1E
100
AcDbEntity
  8
0
100
AcDbLine
 10
8.775000000000009
 20
108.071025
 30
0.0
 11
10.031
 21
106.5340249999999
 31
0.0
  0
LINE
  5
BC
330
1E
100
AcDbEntity
  8
0
100
AcDbLine
 10
13.75599999999999
 20
107.928025
 30
0.0
 11
14.98
 21
107.2210249999999
 31
0.0
  0
LINE
  5
BD
330
1E
100
AcDbEntity
  8
0
100
AcDbLine
 10
13.75599999999999
 20
107.928025
 30
0.0
 11
14.55243239128609
 21
108.756361952955
 31
0.0
  0
LINE
  5
BE
330
1E
100
AcDbEntity
  8
0
100
AcDbLine
 10
13.75599999999999
 20
107.928025
 30
0.0
 11
14.58099999999999
 21
106.6890249999999
 31
0.0
  0
LINE
  5
BF
330
1E
100
AcDbEntity
  8
0
100
AcDbLine
 10
14.98
 20
107.2210249999999
 30
0.0
 11
15.2336417240469
 21
107.4846318918559
 31
0.0
  0
LINE
  5
C0
330
1E
100
AcDbEntity
  8
0
100
AcDbLine
 10
14.98
 20
107.2210249999999
 30
0.0
 11
15.806
 21
105.982025
 31
0.0
  0
LINE
  5
C1
330
1E
100
AcDbEntity
  8
0
100
AcDbLine
 10
10.502
 20
107.074025
 30
0.0
 11
11.165
 21
106.691025
 31
0.0
  0
LINE
  5
C2
330
1E
100
AcDbEntity
  8
0
100
AcDbLine
 10
10.502
 20
107.074025
 30
0.0
 11
11.0719618065766
 21
107.5675099553599
 31
0.0
  0
LINE
  5
C3
330
1E
100
AcDbEntity
  8
0
100
AcDbLine
 10
10.502
 20
107.074025
 30
0.0
 11
11.649
 21
105.600025
 31
0.0
  0
LINE
  5
C4
330
1E
100
AcDbEntity
  8
0
100
AcDbLine
 10
11.165
 20
106.691025
 30
0.0
 11
11.687207116354
 21
107.1431629371899
 31
0.0
  0
LINE
  5
C5
330
1E
100
AcDbEntity
  8
0
100
AcDbLine
 10
11.165
 20
106.691025
 30
0.0
 11
12.311
 21
105.2177249999999
 31
0.0
  0
LINE
  5
C6
330
1E
100
AcDbEntity
  8
0
100
AcDbLine
 10
17.69099999999999
 20
108.1370249999999
 30
0.0
 11
22.2
 21
105.5340249999999
 31
0.0
  0
LINE
  5
C7
330
1E
100
AcDbEntity
  8
0
100
AcDbLine
 10
9.74199999999999
 20
109.483025
 30
0.0
 11
10.1699226531109
 21
109.8841839013529
 31
0.0
  0
LINE
  5
C8
330
1E
100
AcDbEntity
  8
0
100
AcDbLine
 10
8.875999999999999
 20
109.9830249999999
 30
0.0
 11
9.74199999999999
 21
109.483025
 31
0.0
  0
LINE
  5
C9
330
1E
100
AcDbEntity
  8
0
100
AcDbLine
 10
18.19599999999999
 20
109.012025
 30
0.0
 11
22.70599999999999
 21
106.409025
 31
0.0
  0
LINE
  5
CA
330
1E
100
AcDbEntity
  8
0
100
AcDbLine
 10
22.70599999999999
 20
106.409025
 30
0.0
 11
27.53199999999999
 21
103.6220249999999
 31
0.0
  0
LINE
  5
CB
330
1E
100
AcDbEntity
  8
0
100
AcDbLine
 10
7.78999999999999
 20
111.3730249999999
 30
0.0
 11
8.656000000000029
 21
110.873025
 31
0.0
  0
LINE
  5
CC
330
1E
100
AcDbEntity
  8
0
100
AcDbLine
 10
7.78999999999999
 20
111.3730249999999
 30
0.0
 11
8.498211530464919
 21
112.0364503947649
 31
0.0
  0
LINE
  5
CD
330
1E
100
AcDbEntity
  8
0
100
AcDbLine
 10
7.78999999999999
 20
111.3730249999999
 30
0.0
 11
8.49821153046491
 21
112.0364503947649
 31
0.0
  0
LINE
  5
CE
330
1E
100
AcDbEntity
  8
0
100
AcDbLine
 10
7.78999999999999
 20
111.3730249999999
 30
0.0
 11
8.875999999999999
 21
109.9830249999999
 31
0.0
  0
LINE
  5
CF
330
1E
100
AcDbEntity
  8
0
100
AcDbLine
 10
8.656000000000029
 20
110.873025
 30
0.0
 11
9.029485500608419
 21
111.2228918900769
 31
0.0
  0
LINE
  5
D0
330
1E
100
AcDbEntity
  8
0
100
AcDbLine
 10
8.656000000000029
 20
110.873025
 30
0.0
 11
9.74199999999999
 21
109.483025
 31
0.0
  0
LINE
  5
D1
330
1E
100
AcDbEntity
  8
0
100
AcDbLine
 10
8.656000000000029
 20
110.873025
 30
0.0
 11
9.029485500608409
 21
111.2228918900769
 31
0.0
  0
LINE
  5
D2
330
1E
100
AcDbEntity
  8
0
100
AcDbLine
 10
13.627
 20
110.484025
 30
0.0
 11
17.69099999999999
 21
108.1370249999999
 31
0.0
  0
LINE
  5
D3
330
1E
100
AcDbEntity
  8
0
100
AcDbLine
 10
14.13199999999999
 20
111.359025
 30
0.0
 11
18.19599999999999
 21
109.012025
 31
0.0
  0
LINE
  5
D4
330
1E
100
AcDbEntity
  8
0
100
AcDbLine
 10
7.615000000000009
 20
110.3370249999999
 30
0.0
 11
9.121371717452319
 21
108.6754682724609
 31
0.0
  0
LINE
  5
D5
330
1E
100
AcDbEntity
  8
0
100
AcDbLine
 10
6.046871883770839
 20
111.927283956579
 30
0.0
 11
7.615000000000009
 21
110.3370249999999
 31
0.0
  0
LINE
  5
D6
330
1E
100
AcDbEntity
  8
0
100
AcDbLine
 10
5.38499999999999
 20
111.998025
 30
0.0
 11
5.833999999999999
 21
111.7400249999999
 31
0.0
  0
LINE
  5
D7
330
1E
100
AcDbEntity
  8
0
100
AcDbLine
 10
4.656990646415209
 20
112.86300969233
 30
0.0
 11
5.38499999999999
 21
111.998025
 31
0.0
  0
LINE
  5
D8
330
1E
100
AcDbEntity
  8
0
100
AcDbLine
 10
4.347999999999979
 20
112.5970249999999
 30
0.0
 11
4.656990646415209
 21
112.86300969233
 31
0.0
  0
LINE
  5
D9
330
1E
100
AcDbEntity
  8
0
100
AcDbLine
 10
10.07
 20
112.537025
 30
0.0
 11
13.627
 21
110.484025
 31
0.0
  0
LINE
  5
DA
330
1E
100
AcDbEntity
  8
0
100
AcDbLine
 10
22.84499999999999
 20
111.9300249999999
 30
0.0
 11
28.17999999999999
 21
108.850025
 31
0.0
  0
LINE
  5
DB
330
1E
100
AcDbEntity
  8
0
100
AcDbLine
 10
28.17999999999999
 20
108.850025
 30
0.0
 11
33.895
 21
105.550025
 31
0.0
  0
LINE
  5
DC
330
1E
100
AcDbEntity
  8
0
100
AcDbLine
 10
33.895
 20
105.550025
 30
0.0
 11
39.738
 21
102.177025
 31
0.0
  0
LINE
  5
DD
330
1E
100
AcDbEntity
  8
0
100
AcDbLine
 10
51.6
 20
78.899225
 30
0.0
 11
52.655
 21
78.29042499999999
 31
0.0
  0
LINE
  5
DE
330
1E
100
AcDbEntity
  8
0
100
AcDbLine
 10
51.6
 20
78.899225
 30
0.0
 11
51.835363089408
 21
79.51209461764391
 31
0.0
  0
LINE
  5
DF
330
1E
100
AcDbEntity
  8
0
100
AcDbLine
 10
51.6
 20
78.899225
 30
0.0
 11
53.144
 21
78.460725
 31
0.0
  0
LINE
  5
E0
330
1E
100
AcDbEntity
  8
0
100
AcDbLine
 10
43.608
 20
82.48022500000001
 30
0.0
 11
43.7828628477598
 21
82.78310493860471
 31
0.0
  0
LINE
  5
E1
330
1E
100
AcDbEntity
  8
0
100
AcDbLine
 10
43.42100000000001
 20
82.58822499999999
 30
0.0
 11
43.608
 21
82.48022500000001
 31
0.0
  0
LINE
  5
E2
330
1E
100
AcDbEntity
  8
0
100
AcDbLine
 10
42.923
 20
82.87622500000001
 30
0.0
 11
43.42100000000001
 21
82.58822499999999
 31
0.0
  0
LINE
  5
E3
330
1E
100
AcDbEntity
  8
0
100
AcDbLine
 10
42.091
 20
83.35622499999999
 30
0.0
 11
42.923
 21
82.87622500000001
 31
0.0
  0
LINE
  5
E4
330
1E
100
AcDbEntity
  8
0
100
AcDbLine
 10
40.11999999999999
 20
87.03862499999999
 30
0.0
 11
40.4649786525818
 21
87.63591984343559
 31
0.0
  0
LINE
  5
E5
330
1E
100
AcDbEntity
  8
0
100
AcDbLine
 10
40.11999999999999
 20
87.03862499999999
 30
0.0
 11
40.316
 21
87.378225
 31
0.0
  0
LINE
  5
E6
330
1E
100
AcDbEntity
  8
0
100
AcDbLine
 10
40.316
 20
87.378225
 30
0.0
 11
40.64131267450879
 21
87.94143707582639
 31
0.0
  0
LINE
  5
E7
330
1E
100
AcDbEntity
  8
0
100
AcDbLine
 10
40.512
 20
91.717825
 30
0.0
 11
40.843
 21
92.28972500000001
 31
0.0
  0
LINE
  5
E8
330
1E
100
AcDbEntity
  8
0
100
AcDbLine
 10
40.512
 20
91.717825
 30
0.0
 11
41.00681184800239
 21
92.5747825109101
 31
0.0
  0
LINE
  5
E9
330
1E
100
AcDbEntity
  8
0
100
AcDbLine
 10
40.512
 20
91.717825
 30
0.0
 11
42.24499999999999
 21
90.71782500000001
 31
0.0
  0
LINE
  5
EA
330
1E
100
AcDbEntity
  8
0
100
AcDbLine
 10
42.24499999999999
 20
90.71782500000001
 30
0.0
 11
42.575
 21
91.28972500000001
 31
0.0
  0
LINE
  5
EB
330
1E
100
AcDbEntity
  8
0
100
AcDbLine
 10
42.575
 20
91.28972500000001
 30
0.0
 11
42.8864132883837
 21
91.82905718768909
 31
0.0
  0
LINE
  5
EC
330
1E
100
AcDbEntity
  8
0
100
AcDbLine
 10
40.843
 20
92.28972500000001
 30
0.0
 11
42.575
 21
91.28972500000001
 31
0.0
  0
LINE
  5
ED
330
1E
100
AcDbEntity
  8
0
100
AcDbLine
 10
40.843
 20
92.28972500000001
 30
0.0
 11
41.1522748229982
 21
92.82535361029641
 31
0.0
  0
LINE
  5
EE
330
1E
100
AcDbEntity
  8
0
100
AcDbLine
 10
40.99
 20
83.992225
 30
0.0
 11
42.091
 21
83.35622499999999
 31
0.0
  0
LINE
  5
EF
330
1E
100
AcDbEntity
  8
0
100
AcDbLine
 10
39.743
 20
84.71222500000001
 30
0.0
 11
40.99
 21
83.992225
 31
0.0
  0
LINE
  5
F0
330
1E
100
AcDbEntity
  8
0
100
AcDbLine
 10
42.777
 20
93.65362500000001
 30
0.0
 11
48.17499999999999
 21
90.536925
 31
0.0
  0
LINE
  5
F1
330
1E
100
AcDbEntity
  8
0
100
AcDbLine
 10
43.299
 20
87.327325
 30
0.0
 11
45.016
 21
86.335925
 31
0.0
  0
LINE
  5
F2
330
1E
100
AcDbEntity
  8
0
100
AcDbLine
 10
43.299
 20
87.327325
 30
0.0
 11
43.46646002344989
 21
87.65353947325079
 31
0.0
  0
LINE
  5
F3
330
1E
100
AcDbEntity
  8
0
100
AcDbLine
 10
43.299
 20
87.327325
 30
0.0
 11
43.86199999999999
 21
87.81372500000001
 31
0.0
  0
LINE
  5
F4
330
1E
100
AcDbEntity
  8
0
100
AcDbLine
 10
43.86199999999999
 20
87.81372500000001
 30
0.0
 11
44.3001356561573
 21
88.66721940028309
 31
0.0
  0
LINE
  5
F5
330
1E
100
AcDbEntity
  8
0
100
AcDbLine
 10
43.86199999999999
 20
87.81372500000001
 30
0.0
 11
45.57899999999999
 21
86.82232500000001
 31
0.0
  0
LINE
  5
F6
330
1E
100
AcDbEntity
  8
0
100
AcDbLine
 10
44.325
 20
83.09962500000001
 30
0.0
 11
45.925
 21
82.17572500000001
 31
0.0
  0
LINE
  5
F7
330
1E
100
AcDbEntity
  8
0
100
AcDbLine
 10
44.325
 20
83.09962500000001
 30
0.0
 11
44.5802251547992
 21
83.6315190211943
 31
0.0
  0
LINE
  5
F8
330
1E
100
AcDbEntity
  8
0
100
AcDbLine
 10
44.325
 20
83.09962500000001
 30
0.0
 11
45.17100000000001
 21
83.06392499999999
 31
0.0
  0
LINE
  5
F9
330
1E
100
AcDbEntity
  8
0
100
AcDbLine
 10
44.325
 20
83.09962500000001
 30
0.0
 11
44.5802251547992
 21
83.6315190211943
 31
0.0
  0
LINE
  5
FA
330
1E
100
AcDbEntity
  8
0
100
AcDbLine
 10
43.28199999999999
 20
94.528925
 30
0.0
 11
48.681
 21
91.41222500000001
 31
0.0
  0
LINE
  5
FB
330
1E
100
AcDbEntity
  8
0
100
AcDbLine
 10
43.7790677580249
 20
82.77653146367491
 30
0.0
 11
44.554
 21
82.35772500000001
 31
0.0
  0
LINE
  5
FC
330
1E
100
AcDbEntity
  8
0
100
AcDbLine
 10
45.925
 20
82.17572500000001
 30
0.0
 11
46.771
 21
82.14002499999999
 31
0.0
  0
LINE
  5
FD
330
1E
100
AcDbEntity
  8
0
100
AcDbLine
 10
46.771
 20
82.14002499999999
 30
0.0
 11
47.0854484801655
 21
82.79534154473969
 31
0.0
  0
LINE
  5
FE
330
1E
100
AcDbEntity
  8
0
100
AcDbLine
 10
44.575
 20
84.466725
 30
0.0
 11
46.248
 21
83.500825
 31
0.0
  0
LINE
  5
FF
330
1E
100
AcDbEntity
  8
0
100
AcDbLine
 10
44.575
 20
84.466725
 30
0.0
 11
44.88899994248821
 21
85.0817851337071
 31
0.0
  0
LINE
  5
100
330
1E
100
AcDbEntity
  8
0
100
AcDbLine
 10
44.575
 20
84.466725
 30
0.0
 11
45.211
 21
84.552425
 31
0.0
  0
LINE
  5
101
330
1E
100
AcDbEntity
  8
0
100
AcDbLine
 10
45.211
 20
84.552425
 30
0.0
 11
45.7555979563702
 21
85.620374266012
 31
0.0
  0
LINE
  5
102
330
1E
100
AcDbEntity
  8
0
100
AcDbLine
 10
45.211
 20
84.552425
 30
0.0
 11
46.88399999999999
 21
83.58652499999999
 31
0.0
  0
LINE
  5
103
330
1E
100
AcDbEntity
  8
0
100
AcDbLine
 10
45.016
 20
86.335925
 30
0.0
 11
45.57899999999999
 21
86.82232500000001
 31
0.0
  0
LINE
  5
104
330
1E
100
AcDbEntity
  8
0
100
AcDbLine
 10
46.248
 20
83.500825
 30
0.0
 11
46.88399999999999
 21
83.58652499999999
 31
0.0
  0
LINE
  5
105
330
1E
100
AcDbEntity
  8
0
100
AcDbLine
 10
46.88399999999999
 20
83.58652499999999
 30
0.0
 11
47.2018565340992
 21
84.20983738727159
 31
0.0
  0
LINE
  5
106
330
1E
100
AcDbEntity
  8
0
100
AcDbLine
 10
45.57899999999999
 20
86.82232500000001
 30
0.0
 11
46.2115608553282
 21
88.05305075282891
 31
0.0
  0
LINE
  5
107
330
1E
100
AcDbEntity
  8
0
100
AcDbLine
 10
45.17100000000001
 20
83.06392499999999
 30
0.0
 11
45.3857075121517
 21
83.5113542621033
 31
0.0
  0
LINE
  5
108
330
1E
100
AcDbEntity
  8
0
100
AcDbLine
 10
45.17100000000001
 20
83.06392499999999
 30
0.0
 11
46.771
 21
82.14002499999999
 31
0.0
  0
LINE
  5
109
330
1E
100
AcDbEntity
  8
0
100
AcDbLine
 10
50.39899999999999
 20
81.104225
 30
0.0
 11
51.89899999999999
 21
80.238125
 31
0.0
  0
LINE
  5
10A
330
1E
100
AcDbEntity
  8
0
100
AcDbLine
 10
50.39899999999999
 20
81.104225
 30
0.0
 11
50.68423208611171
 21
81.73602638038358
 31
0.0
  0
LINE
  5
10B
330
1E
100
AcDbEntity
  8
0
100
AcDbLine
 10
50.39899999999999
 20
81.104225
 30
0.0
 11
51.444
 21
80.95342499999999
 31
0.0
  0
LINE
  5
10C
330
1E
100
AcDbEntity
  8
0
100
AcDbLine
 10
51.444
 20
80.95342499999999
 30
0.0
 11
51.8988908517585
 21
81.9610278681861
 31
0.0
  0
LINE
  5
10D
330
1E
100
AcDbEntity
  8
0
100
AcDbLine
 10
51.444
 20
80.95342499999999
 30
0.0
 11
52.94399999999999
 21
80.087425
 31
0.0
  0
LINE
  5
10E
330
1E
100
AcDbEntity
  8
0
100
AcDbLine
 10
50.126
 20
86.16732500000001
 30
0.0
 11
51.79899999999999
 21
85.201325
 31
0.0
  0
LINE
  5
10F
330
1E
100
AcDbEntity
  8
0
100
AcDbLine
 10
50.126
 20
86.16732500000001
 30
0.0
 11
50.43719927000399
 21
86.839882919834
 31
0.0
  0
LINE
  5
110
330
1E
100
AcDbEntity
  8
0
100
AcDbLine
 10
50.126
 20
86.16732500000001
 30
0.0
 11
50.88
 21
86.49492499999999
 31
0.0
  0
LINE
  5
111
330
1E
100
AcDbEntity
  8
0
100
AcDbLine
 10
50.88
 20
86.49492499999999
 30
0.0
 11
51.0185143273686
 21
86.79465606587699
 31
0.0
  0
LINE
  5
112
330
1E
100
AcDbEntity
  8
0
100
AcDbLine
 10
50.88
 20
86.49492499999999
 30
0.0
 11
52.553
 21
85.528925
 31
0.0
  0
LINE
  5
113
330
1E
100
AcDbEntity
  8
0
100
AcDbLine
 10
51.05199999999999
 20
82.85082499999999
 30
0.0
 11
52.652
 21
81.92692499999999
 31
0.0
  0
LINE
  5
114
330
1E
100
AcDbEntity
  8
0
100
AcDbLine
 10
51.05199999999999
 20
82.85082499999999
 30
0.0
 11
51.5785284249873
 21
84.16602260210209
 31
0.0
  0
LINE
  5
115
330
1E
100
AcDbEntity
  8
0
100
AcDbLine
 10
51.05199999999999
 20
82.85082499999999
 30
0.0
 11
52.02399999999999
 21
83.101125
 31
0.0
  0
LINE
  5
116
330
1E
100
AcDbEntity
  8
0
100
AcDbLine
 10
48.17499999999999
 20
90.536925
 30
0.0
 11
53.446
 21
87.493625
 31
0.0
  0
LINE
  5
117
330
1E
100
AcDbEntity
  8
0
100
AcDbLine
 10
48.681
 20
91.41222500000001
 30
0.0
 11
53.95199999999999
 21
88.36892500000001
 31
0.0
  0
LINE
  5
118
330
1E
100
AcDbEntity
  8
0
100
AcDbLine
 10
44.554
 20
82.35772500000001
 30
0.0
 11
50.903
 21
79.275425
 31
0.0
  0
LINE
  5
119
330
1E
100
AcDbEntity
  8
0
100
AcDbLine
 10
50.903
 20
79.275425
 30
0.0
 11
51.62987302600921
 21
78.97701234581621
 31
0.0
  0
LINE
  5
11A
330
1E
100
AcDbEntity
  8
0
100
AcDbLine
 10
62.0093
 20
74.40112499999999
 30
0.0
 11
62.45750000000001
 21
74.142325
 31
0.0
  0
LINE
  5
11B
330
1E
100
AcDbEntity
  8
0
100
AcDbLine
 10
62.0093
 20
74.40112499999999
 30
0.0
 11
62.2388205091893
 21
75.0650674107378
 31
0.0
  0
LINE
  5
11C
330
1E
100
AcDbEntity
  8
0
100
AcDbLine
 10
62.0093
 20
74.40112499999999
 30
0.0
 11
63.84579999999999
 21
73.79342499999999
 31
0.0
  0
LINE
  5
11D
330
1E
100
AcDbEntity
  8
0
100
AcDbLine
 10
62.45750000000001
 20
74.142325
 30
0.0
 11
64.2941
 21
73.534625
 31
0.0
  0
LINE
  5
11E
330
1E
100
AcDbEntity
  8
0
100
AcDbLine
 10
62.45750000000001
 20
74.142325
 30
0.0
 11
63.08798832478871
 21
73.9337070347522
 31
0.0
  0
LINE
  5
11F
330
1E
100
AcDbEntity
  8
0
100
AcDbLine
 10
61.95669999999999
 20
74.88412499999999
 30
0.0
 11
62.21958536554019
 21
75.5994213004692
 31
0.0
  0
LINE
  5
120
330
1E
100
AcDbEntity
  8
0
100
AcDbLine
 10
61.95669999999999
 20
74.88412499999999
 30
0.0
 11
61.97408689676059
 21
74.93143376861079
 31
0.0
  0
LINE
  5
121
330
1E
100
AcDbEntity
  8
0
100
AcDbLine
 10
63.044
 20
73.803725
 30
0.0
 11
63.08798832478871
 21
73.9337070347522
 31
0.0
  0
LINE
  5
122
330
1E
100
AcDbEntity
  8
0
100
AcDbLine
 10
63.044
 20
73.803725
 30
0.0
 11
64.93850000000001
 21
73.162625
 31
0.0
  0
LINE
  5
123
330
1E
100
AcDbEntity
  8
0
100
AcDbLine
 10
54.022
 20
77.501225
 30
0.0
 11
54.685
 21
77.118525
 31
0.0
  0
LINE
  5
124
330
1E
100
AcDbEntity
  8
0
100
AcDbLine
 10
54.022
 20
77.501225
 30
0.0
 11
54.15121026275079
 21
77.86531898626709
 31
0.0
  0
LINE
  5
125
330
1E
100
AcDbEntity
  8
0
100
AcDbLine
 10
57.498
 20
75.946725
 30
0.0
 11
57.7020241819741
 21
76.5463786826715
 31
0.0
  0
LINE
  5
126
330
1E
100
AcDbEntity
  8
0
100
AcDbLine
 10
54.685
 20
77.118525
 30
0.0
 11
55.4477134006145
 21
76.87376530022209
 31
0.0
  0
LINE
  5
127
330
1E
100
AcDbEntity
  8
0
100
AcDbLine
 10
54.685
 20
77.118525
 30
0.0
 11
54.87216058619609
 21
77.64591378823929
 31
0.0
  0
LINE
  5
128
330
1E
100
AcDbEntity
  8
0
100
AcDbLine
 10
55.392
 20
76.710025
 30
0.0
 11
55.618
 21
76.579425
 31
0.0
  0
LINE
  5
129
330
1E
100
AcDbEntity
  8
0
100
AcDbLine
 10
55.392
 20
76.710025
 30
0.0
 11
55.63790918819139
 21
77.43274599454951
 31
0.0
  0
LINE
  5
12A
330
1E
100
AcDbEntity
  8
0
100
AcDbLine
 10
55.392
 20
76.710025
 30
0.0
 11
57.27199999999999
 21
76.077325
 31
0.0
  0
LINE
  5
12B
330
1E
100
AcDbEntity
  8
0
100
AcDbLine
 10
56.68899999999999
 20
77.473025
 30
0.0
 11
58.08600000000001
 21
77.119125
 31
0.0
  0
LINE
  5
12C
330
1E
100
AcDbEntity
  8
0
100
AcDbLine
 10
56.861
 20
77.82622499999999
 30
0.0
 11
58.08600000000001
 21
77.119125
 31
0.0
  0
LINE
  5
12D
330
1E
100
AcDbEntity
  8
0
100
AcDbLine
 10
56.861
 20
77.82622499999999
 30
0.0
 11
57.2459242022107
 21
78.78182534038019
 31
0.0
  0
LINE
  5
12E
330
1E
100
AcDbEntity
  8
0
100
AcDbLine
 10
55.618
 20
76.579425
 30
0.0
 11
57.498
 21
75.946725
 31
0.0
  0
LINE
  5
12F
330
1E
100
AcDbEntity
  8
0
100
AcDbLine
 10
57.27199999999999
 20
76.077325
 30
0.0
 11
57.498
 21
75.946725
 31
0.0
  0
LINE
  5
130
330
1E
100
AcDbEntity
  8
0
100
AcDbLine
 10
57.27199999999999
 20
76.077325
 30
0.0
 11
57.4860159756295
 21
76.70631263520791
 31
0.0
  0
LINE
  5
131
330
1E
100
AcDbEntity
  8
0
100
AcDbLine
 10
54.198
 20
77.852025
 30
0.0
 11
54.4364227807961
 21
78.47370150255681
 31
0.0
  0
LINE
  5
132
330
1E
100
AcDbEntity
  8
0
100
AcDbLine
 10
51.89899999999999
 20
80.238125
 30
0.0
 11
52.94399999999999
 21
80.087425
 31
0.0
  0
LINE
  5
133
330
1E
100
AcDbEntity
  8
0
100
AcDbLine
 10
51.79899999999999
 20
85.201325
 30
0.0
 11
52.553
 21
85.528925
 31
0.0
  0
LINE
  5
134
330
1E
100
AcDbEntity
  8
0
100
AcDbLine
 10
52.94399999999999
 20
80.087425
 30
0.0
 11
53.2433606523097
 21
80.75052176425291
 31
0.0
  0
LINE
  5
135
330
1E
100
AcDbEntity
  8
0
100
AcDbLine
 10
52.553
 20
85.528925
 30
0.0
 11
52.829229844357
 21
86.12594236712538
 31
0.0
  0
LINE
  5
136
330
1E
100
AcDbEntity
  8
0
100
AcDbLine
 10
52.652
 20
81.92692499999999
 30
0.0
 11
53.624
 21
82.177225
 31
0.0
  0
LINE
  5
137
330
1E
100
AcDbEntity
  8
0
100
AcDbLine
 10
52.02399999999999
 20
83.101125
 30
0.0
 11
52.36896927110009
 21
83.9628611834693
 31
0.0
  0
LINE
  5
138
330
1E
100
AcDbEntity
  8
0
100
AcDbLine
 10
52.02399999999999
 20
83.101125
 30
0.0
 11
53.624
 21
82.177225
 31
0.0
  0
LINE
  5
139
330
1E
100
AcDbEntity
  8
0
100
AcDbLine
 10
52.655
 20
78.29042499999999
 30
0.0
 11
54.198
 21
77.852025
 31
0.0
  0
LINE
  5
13A
330
1E
100
AcDbEntity
  8
0
100
AcDbLine
 10
53.624
 20
82.177225
 30
0.0
 11
53.7284933427763
 21
82.4378794875702
 31
0.0
  0
LINE
  5
13B
330
1E
100
AcDbEntity
  8
0
100
AcDbLine
 10
53.144
 20
78.460725
 30
0.0
 11
54.198
 21
77.852025
 31
0.0
  0
LINE
  5
13C
330
1E
100
AcDbEntity
  8
0
100
AcDbLine
 10
53.144
 20
78.460725
 30
0.0
 11
53.32339640137729
 21
78.9285181478951
 31
0.0
  0
LINE
  5
13D
330
1E
100
AcDbEntity
  8
0
100
AcDbLine
 10
53.446
 20
87.493625
 30
0.0
 11
58.527
 21
84.56022500000001
 31
0.0
  0
LINE
  5
13E
330
1E
100
AcDbEntity
  8
0
100
AcDbLine
 10
55.464
 20
78.180125
 30
0.0
 11
56.68899999999999
 21
77.473025
 31
0.0
  0
LINE
  5
13F
330
1E
100
AcDbEntity
  8
0
100
AcDbLine
 10
55.464
 20
78.180125
 30
0.0
 11
55.7242965505719
 21
78.82632877439959
 31
0.0
  0
LINE
  5
140
330
1E
100
AcDbEntity
  8
0
100
AcDbLine
 10
55.464
 20
78.180125
 30
0.0
 11
56.861
 21
77.82622499999999
 31
0.0
  0
LINE
  5
141
330
1E
100
AcDbEntity
  8
0
100
AcDbLine
 10
53.95199999999999
 20
88.36892500000001
 30
0.0
 11
59.033
 21
85.435525
 31
0.0
  0
LINE
  5
142
330
1E
100
AcDbEntity
  8
0
100
AcDbLine
 10
54.22141311479539
 20
77.9130736266092
 30
0.0
 11
55.6076944075424
 21
77.34394550489979
 31
0.0
  0
LINE
  5
143
330
1E
100
AcDbEntity
  8
0
100
AcDbLine
 10
58.064
 20
78.80232499999999
 30
0.0
 11
59.4384
 21
78.008925
 31
0.0
  0
LINE
  5
144
330
1E
100
AcDbEntity
  8
0
100
AcDbLine
 10
58.064
 20
78.80232499999999
 30
0.0
 11
58.4525063834264
 21
80.06222511798451
 31
0.0
  0
LINE
  5
145
330
1E
100
AcDbEntity
  8
0
100
AcDbLine
 10
58.064
 20
78.80232499999999
 30
0.0
 11
59.4029
 21
78.840925
 31
0.0
  0
LINE
  5
146
330
1E
100
AcDbEntity
  8
0
100
AcDbLine
 10
58.08600000000001
 20
77.119125
 30
0.0
 11
58.3640664427082
 21
77.80935045858569
 31
0.0
  0
LINE
  5
147
330
1E
100
AcDbEntity
  8
0
100
AcDbLine
 10
59.1439
 20
80.96092500000001
 30
0.0
 11
60.6439
 21
80.094925
 31
0.0
  0
LINE
  5
148
330
1E
100
AcDbEntity
  8
0
100
AcDbLine
 10
59.1439
 20
80.96092500000001
 30
0.0
 11
59.40136188156479
 21
81.6653350726807
 31
0.0
  0
LINE
  5
149
330
1E
100
AcDbEntity
  8
0
100
AcDbLine
 10
59.1439
 20
80.96092500000001
 30
0.0
 11
60.2915
 21
81.060925
 31
0.0
  0
LINE
  5
14A
330
1E
100
AcDbEntity
  8
0
100
AcDbLine
 10
59.4384
 20
78.008925
 30
0.0
 11
60.777
 21
78.04762499999999
 31
0.0
  0
LINE
  5
14B
330
1E
100
AcDbEntity
  8
0
100
AcDbLine
 10
59.4029
 20
78.840925
 30
0.0
 11
60.777
 21
78.04762499999999
 31
0.0
  0
LINE
  5
14C
330
1E
100
AcDbEntity
  8
0
100
AcDbLine
 10
59.4029
 20
78.840925
 30
0.0
 11
59.670616082643
 21
79.70957069505259
 31
0.0
  0
LINE
  5
14D
330
1E
100
AcDbEntity
  8
0
100
AcDbLine
 10
59.42379999999999
 20
75.89382500000001
 30
0.0
 11
60.2898
 21
75.39382500000001
 31
0.0
  0
LINE
  5
14E
330
1E
100
AcDbEntity
  8
0
100
AcDbLine
 10
59.42379999999999
 20
75.89382500000001
 30
0.0
 11
59.6652482657852
 21
76.5507921572094
 31
0.0
  0
LINE
  5
14F
330
1E
100
AcDbEntity
  8
0
100
AcDbLine
 10
59.42379999999999
 20
75.89382500000001
 30
0.0
 11
61.0907
 21
75.38412499999999
 31
0.0
  0
LINE
  5
150
330
1E
100
AcDbEntity
  8
0
100
AcDbLine
 10
60.6439
 20
80.094925
 30
0.0
 11
61.79149999999999
 21
80.194925
 31
0.0
  0
LINE
  5
151
330
1E
100
AcDbEntity
  8
0
100
AcDbLine
 10
61.79149999999999
 20
80.194925
 30
0.0
 11
62.02602537278789
 21
80.8364837705443
 31
0.0
  0
LINE
  5
152
330
1E
100
AcDbEntity
  8
0
100
AcDbLine
 10
60.2915
 20
81.060925
 30
0.0
 11
61.79149999999999
 21
80.194925
 31
0.0
  0
LINE
  5
153
330
1E
100
AcDbEntity
  8
0
100
AcDbLine
 10
60.2915
 20
81.060925
 30
0.0
 11
60.40621073443089
 21
81.37472336166508
 31
0.0
  0
LINE
  5
154
330
1E
100
AcDbEntity
  8
0
100
AcDbLine
 10
60.777
 20
78.04762499999999
 30
0.0
 11
61.1189718659733
 21
79.15720491867429
 31
0.0
  0
LINE
  5
155
330
1E
100
AcDbEntity
  8
0
100
AcDbLine
 10
60.2898
 20
75.39382500000001
 30
0.0
 11
61.95669999999999
 21
74.88412499999999
 31
0.0
  0
LINE
  5
156
330
1E
100
AcDbEntity
  8
0
100
AcDbLine
 10
61.0907
 20
75.38412499999999
 30
0.0
 11
61.95669999999999
 21
74.88412499999999
 31
0.0
  0
LINE
  5
157
330
1E
100
AcDbEntity
  8
0
100
AcDbLine
 10
61.0907
 20
75.38412499999999
 30
0.0
 11
61.423273685076
 21
76.28903930011509
 31
0.0
  0
LINE
  5
158
330
1E
100
AcDbEntity
  8
0
100
AcDbLine
 10
58.527
 20
84.56022500000001
 30
0.0
 11
63.35399999999999
 21
81.77362499999999
 31
0.0
  0
LINE
  5
159
330
1E
100
AcDbEntity
  8
0
100
AcDbLine
 10
59.033
 20
85.435525
 30
0.0
 11
63.85899999999999
 21
82.648925
 31
0.0
  0
LINE
  5
15A
330
1E
100
AcDbEntity
  8
0
100
AcDbLine
 10
57.6895890552408
 20
76.50983022322958
 30
0.0
 11
59.53325587500979
 21
75.8306287673154
 31
0.0
  0
LINE
  5
15B
330
1E
100
AcDbEntity
  8
0
100
AcDbLine
 10
61.97408689676059
 20
74.93143376861079
 30
0.0
 11
62.1679369629996
 21
74.860019972036
 31
0.0
  0
LINE
  5
15C
330
1E
100
AcDbEntity
  8
0
100
AcDbLine
 10
63.8573
 20
75.45772499999999
 30
0.0
 11
64.9117
 21
74.84892499999999
 31
0.0
  0
LINE
  5
15D
330
1E
100
AcDbEntity
  8
0
100
AcDbLine
 10
63.8573
 20
75.45772499999999
 30
0.0
 11
64.0134601223167
 21
76.11222672130231
 31
0.0
  0
LINE
  5
15E
330
1E
100
AcDbEntity
  8
0
100
AcDbLine
 10
63.8573
 20
75.45772499999999
 30
0.0
 11
65.4952
 21
75.323525
 31
0.0
  0
LINE
  5
15F
330
1E
100
AcDbEntity
  8
0
100
AcDbLine
 10
64.9117
 20
74.84892499999999
 30
0.0
 11
66.54959999999999
 21
74.714725
 31
0.0
  0
LINE
  5
160
330
1E
100
AcDbEntity
  8
0
100
AcDbLine
 10
64.2941
 20
73.534625
 30
0.0
 11
64.57249530383879
 21
74.339825941607
 31
0.0
  0
LINE
  5
161
330
1E
100
AcDbEntity
  8
0
100
AcDbLine
 10
63.84579999999999
 20
73.79342499999999
 30
0.0
 11
64.2941
 21
73.534625
 31
0.0
  0
LINE
  5
162
330
1E
100
AcDbEntity
  8
0
100
AcDbLine
 10
63.84579999999999
 20
73.79342499999999
 30
0.0
 11
64.14078552896739
 21
74.6466097427373
 31
0.0
  0
LINE
  5
163
330
1E
100
AcDbEntity
  8
0
100
AcDbLine
 10
64.93850000000001
 20
73.162625
 30
0.0
 11
65.2041018309488
 21
73.94745748876831
 31
0.0
  0
LINE
  5
164
330
1E
100
AcDbEntity
  8
0
100
AcDbLine
 10
64.93850000000001
 20
73.162625
 30
0.0
 11
65.188956949296
 21
73.9027055564598
 31
0.0
  0
LINE
  5
165
330
1E
100
AcDbEntity
  8
0
100
AcDbLine
 10
63.35399999999999
 20
81.77362499999999
 30
0.0
 11
67.863
 21
79.170225
 31
0.0
  0
LINE
  5
166
330
1E
100
AcDbEntity
  8
0
100
AcDbLine
 10
63.85899999999999
 20
82.648925
 30
0.0
 11
68.368
 21
80.045525
 31
0.0
  0
LINE
  5
167
330
1E
100
AcDbEntity
  8
0
100
AcDbLine
 10
66.54959999999999
 20
74.714725
 30
0.0
 11
66.7898904543437
 21
75.72188860704621
 31
0.0
  0
LINE
  5
168
330
1E
100
AcDbEntity
  8
0
100
AcDbLine
 10
66.9508
 20
76.453625
 30
0.0
 11
68.1756
 21
75.746525
 31
0.0
  0
LINE
  5
169
330
1E
100
AcDbEntity
  8
0
100
AcDbLine
 10
66.9508
 20
76.453625
 30
0.0
 11
67.1611209607091
 21
77.1820099545669
 31
0.0
  0
LINE
  5
16A
330
1E
100
AcDbEntity
  8
0
100
AcDbLine
 10
66.9508
 20
76.453625
 30
0.0
 11
68.4371
 21
76.358125
 31
0.0
  0
LINE
  5
16B
330
1E
100
AcDbEntity
  8
0
100
AcDbLine
 10
65.4952
 20
75.323525
 30
0.0
 11
66.54959999999999
 21
74.714725
 31
0.0
  0
LINE
  5
16C
330
1E
100
AcDbEntity
  8
0
100
AcDbLine
 10
65.4952
 20
75.323525
 30
0.0
 11
65.70446328856601
 21
76.20064002776979
 31
0.0
  0
LINE
  5
16D
330
1E
100
AcDbEntity
  8
0
100
AcDbLine
 10
68.1756
 20
75.746525
 30
0.0
 11
69.6618
 21
75.650925
 31
0.0
  0
LINE
  5
16E
330
1E
100
AcDbEntity
  8
0
100
AcDbLine
 10
69.6618
 20
75.650925
 30
0.0
 11
69.8583697547686
 21
76.3316866863941
 31
0.0
  0
LINE
  5
16F
330
1E
100
AcDbEntity
  8
0
100
AcDbLine
 10
68.4371
 20
76.358125
 30
0.0
 11
69.6618
 21
75.650925
 31
0.0
  0
LINE
  5
170
330
1E
100
AcDbEntity
  8
0
100
AcDbLine
 10
68.4371
 20
76.358125
 30
0.0
 11
68.5406734477815
 21
76.71680205744241
 31
0.0
  0
LINE
  5
171
330
1E
100
AcDbEntity
  8
0
100
AcDbLine
 10
68.0364
 20
73.04492500000001
 30
0.0
 11
68.6992
 21
72.66222500000001
 31
0.0
  0
LINE
  5
172
330
1E
100
AcDbEntity
  8
0
100
AcDbLine
 10
68.0364
 20
73.04492500000001
 30
0.0
 11
68.18659370754699
 21
73.82670353337259
 31
0.0
  0
LINE
  5
173
330
1E
100
AcDbEntity
  8
0
100
AcDbLine
 10
68.0364
 20
73.04492500000001
 30
0.0
 11
69.88590000000001
 21
72.78852500000001
 31
0.0
  0
LINE
  5
174
330
1E
100
AcDbEntity
  8
0
100
AcDbLine
 10
68.6992
 20
72.66222500000001
 30
0.0
 11
70.5488
 21
72.40582499999999
 31
0.0
  0
LINE
  5
175
330
1E
100
AcDbEntity
  8
0
100
AcDbLine
 10
68.6992
 20
72.66222500000001
 30
0.0
 11
70.433765029171
 21
72.42177167307559
 31
0.0
  0
LINE
  5
176
330
1E
100
AcDbEntity
  8
0
100
AcDbLine
 10
70.31659999999999
 20
71.728425
 30
0.0
 11
70.54269999999999
 21
71.597825
 31
0.0
  0
LINE
  5
177
330
1E
100
AcDbEntity
  8
0
100
AcDbLine
 10
70.31659999999999
 20
71.728425
 30
0.0
 11
70.433765029171
 21
72.42177167307559
 31
0.0
  0
LINE
  5
178
330
1E
100
AcDbEntity
  8
0
100
AcDbLine
 10
70.31659999999999
 20
71.728425
 30
0.0
 11
72.2758
 21
71.408825
 31
0.0
  0
LINE
  5
179
330
1E
100
AcDbEntity
  8
0
100
AcDbLine
 10
70.54269999999999
 20
71.597825
 30
0.0
 11
72.5018
 21
71.278225
 31
0.0
  0
LINE
  5
17A
330
1E
100
AcDbEntity
  8
0
100
AcDbLine
 10
70.5488
 20
72.40582499999999
 30
0.0
 11
70.72701114760208
 21
73.3334857557582
 31
0.0
  0
LINE
  5
17B
330
1E
100
AcDbEntity
  8
0
100
AcDbLine
 10
69.88590000000001
 20
72.78852500000001
 30
0.0
 11
70.5488
 21
72.40582499999999
 31
0.0
  0
LINE
  5
17C
330
1E
100
AcDbEntity
  8
0
100
AcDbLine
 10
69.88590000000001
 20
72.78852500000001
 30
0.0
 11
70.0529188630003
 21
73.65769294935169
 31
0.0
  0
LINE
  5
17D
330
1E
100
AcDbEntity
  8
0
100
AcDbLine
 10
71.92699999999999
 20
76.823625
 30
0.0
 11
75.48399999999999
 21
74.770225
 31
0.0
  0
LINE
  5
17E
330
1E
100
AcDbEntity
  8
0
100
AcDbLine
 10
67.863
 20
79.170225
 30
0.0
 11
71.92699999999999
 21
76.823625
 31
0.0
  0
LINE
  5
17F
330
1E
100
AcDbEntity
  8
0
100
AcDbLine
 10
68.368
 20
80.045525
 30
0.0
 11
72.43300000000001
 21
77.698925
 31
0.0
  0
LINE
  5
180
330
1E
100
AcDbEntity
  8
0
100
AcDbLine
 10
65.188956949296
 20
73.9027055564598
 30
0.0
 11
68.04536885094271
 21
73.0916090805152
 31
0.0
  0
LINE
  5
181
330
1E
100
AcDbEntity
  8
0
100
AcDbLine
 10
68.57099999999999
 20
85.530325
 30
0.0
 11
73.652
 21
82.59702500000001
 31
0.0
  0
LINE
  5
182
330
1E
100
AcDbEntity
  8
0
100
AcDbLine
 10
63.236
 20
88.610325
 30
0.0
 11
68.57099999999999
 21
85.530325
 31
0.0
  0
LINE
  5
183
330
1E
100
AcDbEntity
  8
0
100
AcDbLine
 10
57.521
 20
91.910325
 30
0.0
 11
63.236
 21
88.610325
 31
0.0
  0
LINE
  5
184
330
1E
100
AcDbEntity
  8
0
100
AcDbLine
 10
51.678
 20
95.28372500000001
 30
0.0
 11
57.521
 21
91.910325
 31
0.0
  0
LINE
  5
185
330
1E
100
AcDbEntity
  8
0
100
AcDbLine
 10
45.708
 20
98.730325
 30
0.0
 11
51.678
 21
95.28372500000001
 31
0.0
  0
LINE
  5
186
330
1E
100
AcDbEntity
  8
0
100
AcDbLine
 10
39.738
 20
102.177025
 30
0.0
 11
45.708
 21
98.730325
 31
0.0
  0
LINE
  5
187
330
1E
100
AcDbEntity
  8
0
100
AcDbLine
 10
4.13600000000002
 20
113.4820249999999
 30
0.0
 11
4.585000000000009
 21
113.223025
 31
0.0
  0
LINE
  5
188
330
1E
100
AcDbEntity
  8
0
100
AcDbLine
 10
4.13600000000002
 20
113.4820249999999
 30
0.0
 11
4.79022158809175
 21
114.057145647915
 31
0.0
  0
LINE
  5
189
330
1E
100
AcDbEntity
  8
0
100
AcDbLine
 10
4.13600000000002
 20
113.4820249999999
 30
0.0
 11
5.38499999999999
 21
111.998025
 31
0.0
  0
LINE
  5
18A
330
1E
100
AcDbEntity
  8
0
100
AcDbLine
 10
4.585000000000009
 20
113.223025
 30
0.0
 11
5.26252558228653
 21
113.819030124525
 31
0.0
  0
LINE
  5
18B
330
1E
100
AcDbEntity
  8
0
100
AcDbLine
 10
4.585000000000009
 20
113.223025
 30
0.0
 11
5.833999999999999
 21
111.7400249999999
 31
0.0
  0
LINE
  5
18C
330
1E
100
AcDbEntity
  8
0
100
AcDbLine
 10
3.042999999999979
 20
114.113025
 30
0.0
 11
3.640565711718219
 21
114.6274202861429
 31
0.0
  0
LINE
  5
18D
330
1E
100
AcDbEntity
  8
0
100
AcDbLine
 10
3.042999999999979
 20
114.113025
 30
0.0
 11
4.347999999999979
 21
112.5970249999999
 31
0.0
  0
LINE
  5
18E
330
1E
100
AcDbEntity
  8
0
100
AcDbLine
 10
7.02199999999999
 20
114.297025
 30
0.0
 11
10.07
 21
112.537025
 31
0.0
  0
LINE
  5
18F
330
1E
100
AcDbEntity
  8
0
100
AcDbLine
 10
4.735000000000009
 20
115.6170249999999
 30
0.0
 11
7.02199999999999
 21
114.297025
 31
0.0
  0
LINE
  5
190
330
1E
100
AcDbEntity
  8
0
100
AcDbLine
 10
10.57499999999999
 20
113.412025
 30
0.0
 11
14.13199999999999
 21
111.359025
 31
0.0
  0
LINE
  5
191
330
1E
100
AcDbEntity
  8
0
100
AcDbLine
 10
7.527000000000018
 20
115.172025
 30
0.0
 11
10.57499999999999
 21
113.412025
 31
0.0
  0
LINE
  5
192
330
1E
100
AcDbEntity
  8
0
100
AcDbLine
 10
2.95700000000002
 20
116.6440249999999
 30
0.0
 11
4.735000000000009
 21
115.6170249999999
 31
0.0
  0
LINE
  5
193
330
1E
100
AcDbEntity
  8
0
100
AcDbLine
 10
1.940999999999999
 20
117.2300249999999
 30
0.0
 11
2.95700000000002
 21
116.6440249999999
 31
0.0
  0
LINE
  5
194
330
1E
100
AcDbEntity
  8
0
100
AcDbLine
 10
5.241000000000009
 20
116.4920249999999
 30
0.0
 11
7.527000000000018
 21
115.172025
 31
0.0
  0
LINE
  5
195
330
1E
100
AcDbEntity
  8
0
100
AcDbLine
 10
14.9581293214269
 20
116.4837919654039
 30
0.0
 11
17.89099999999999
 21
114.7900249999999
 31
0.0
  0
LINE
  5
196
330
1E
100
AcDbEntity
  8
0
100
AcDbLine
 10
3.46199999999999
 20
117.5190249999999
 30
0.0
 11
5.241000000000009
 21
116.4920249999999
 31
0.0
  0
LINE
  5
197
330
1E
100
AcDbEntity
  8
0
100
AcDbLine
 10
2.445999999999999
 20
118.106025
 30
0.0
 11
3.46199999999999
 21
117.5190249999999
 31
0.0
  0
LINE
  5
198
330
1E
100
AcDbEntity
  8
0
100
AcDbLine
 10
2.00199999999998
 20
118.362025
 30
0.0
 11
2.445999999999999
 21
118.106025
 31
0.0
  0
LINE
  5
199
330
1E
100
AcDbEntity
  8
0
100
AcDbLine
 10
1.49600000000001
 20
117.487025
 30
0.0
 11
2.00199999999998
 21
118.362025
 31
0.0
  0
LINE
  5
19A
330
1E
100
AcDbEntity
  8
0
100
AcDbLine
 10
1.49600000000001
 20
117.487025
 30
0.0
 11
3.604467155893559
 21
114.59634600161
 31
0.0
  0
LINE
  5
19B
330
1E
100
AcDbEntity
  8
0
100
AcDbLine
 10
1.49600000000001
 20
117.487025
 30
0.0
 11
1.940999999999999
 21
117.2300249999999
 31
0.0
  0
LINE
  5
19C
330
1E
100
AcDbEntity
  8
0
100
AcDbLine
 10
1.49600000000001
 20
117.487025
 30
0.0
 11
3.604467155893559
 21
114.59634600161
 31
0.0
  0
LINE
  5
19D
330
1E
100
AcDbEntity
  8
0
100
AcDbLine
 10
9.31799999999998
 20
119.740025
 30
0.0
 11
13.319
 21
117.4300249999999
 31
0.0
  0
LINE
  5
19E
330
1E
100
AcDbEntity
  8
0
100
AcDbLine
 10
13.319
 20
117.4300249999999
 30
0.0
 11
17.76399999999999
 21
114.8640249999999
 31
0.0
  0
LINE
  5
19F
330
1E
100
AcDbEntity
  8
0
100
AcDbLine
 10
17.89099999999999
 20
114.7900249999999
 30
0.0
 11
21.0855288569911
 21
112.946023491161
 31
0.0
  0
LINE
  5
1A0
330
1E
100
AcDbEntity
  8
0
100
AcDbLine
 10
17.76399999999999
 20
114.8640249999999
 30
0.0
 11
22.84499999999999
 21
111.9300249999999
 31
0.0
  0
LINE
  5
1A1
330
1E
100
AcDbEntity
  8
0
100
AcDbLine
 10
-0.0550000000111192
 20
125.151431741579
 30
0.0
 11
0.363000000000001
 21
124.910025
 31
0.0
  0
LINE
  5
1A2
330
1E
100
AcDbEntity
  8
0
100
AcDbLine
 10
-0.0550000000111146
 20
125.151431741579
 30
0.0
 11
0.363000000000001
 21
124.910025
 31
0.0
  0
LINE
  5
1A3
330
1E
100
AcDbEntity
  8
0
100
AcDbLine
 10
-0.0819849956336774
 20
125.1669556941169
 30
0.0
 11
0.6110000000000192
 21
121.966025
 31
0.0
  0
LINE
  5
1A4
330
1E
100
AcDbEntity
  8
0
100
AcDbLine
 10
-0.0819849956336774
 20
125.1669556941169
 30
0.0
 11
0.6110000000000192
 21
121.966025
 31
0.0
  0
LINE
  5
1A5
330
1E
100
AcDbEntity
  8
0
100
AcDbLine
 10
-0.0550000000111181
 20
125.151431741579
 30
0.0
 11
0.236000000000019
 21
124.984025
 31
0.0
  0
LINE
  5
1A6
330
1E
100
AcDbEntity
  8
0
100
AcDbLine
 10
-0.208999999999974
 20
125.2400249999999
 30
0.0
 11
-0.100999999999998
 21
128.2130249999999
 31
0.0
  0
LINE
  5
1A7
330
1E
100
AcDbEntity
  8
0
100
AcDbLine
 10
-0.208999999999974
 20
125.2400249999999
 30
0.0
 11
-0.0819849956336774
 21
125.1669556941169
 31
0.0
  0
LINE
  5
1A8
330
1E
100
AcDbEntity
  8
0
100
AcDbLine
 10
-0.208999999999974
 20
125.2400249999999
 30
0.0
 11
0.236000000000019
 21
124.984025
 31
0.0
  0
LINE
  5
1A9
330
1E
100
AcDbEntity
  8
0
100
AcDbLine
 10
-0.208999999999974
 20
125.2400249999999
 30
0.0
 11
-0.0819849956336774
 21
125.1669556941169
 31
0.0
  0
LINE
  5
1AA
330
1E
100
AcDbEntity
  8
0
100
AcDbLine
 10
-0.208999999999974
 20
125.2400249999999
 30
0.0
 11
0.236000000000019
 21
124.984025
 31
0.0
  0
LINE
  5
1AB
330
1E
100
AcDbEntity
  8
0
100
AcDbLine
 10
0.363
 20
124.910025
 30
0.0
 11
1.162000000003239
 21
124.449292605632
 31
0.0
  0
LINE
  5
1AC
330
1E
100
AcDbEntity
  8
0
100
AcDbLine
 10
0.6110000000000192
 20
121.966025
 30
0.0
 11
2.00199999999998
 21
118.362025
 31
0.0
  0
LINE
  5
1AD
330
1E
100
AcDbEntity
  8
0
100
AcDbLine
 10
0.6110000000000192
 20
121.966025
 30
0.0
 11
2.00199999999998
 21
118.362025
 31
0.0
  0
LINE
  5
1AE
330
1E
100
AcDbEntity
  8
0
100
AcDbLine
 10
0.363000000000001
 20
124.910025
 30
0.0
 11
1.162000000003189
 21
124.449292605632
 31
0.0
  0
LINE
  5
1AF
330
1E
100
AcDbEntity
  8
0
100
AcDbLine
 10
0.236000000000019
 20
124.984025
 30
0.0
 11
1.44299999999998
 21
124.2870249999999
 31
0.0
  0
LINE
  5
1B0
330
1E
100
AcDbEntity
  8
0
100
AcDbLine
 10
0.236000000000019
 20
124.984025
 30
0.0
 11
1.44299999999998
 21
124.2870249999999
 31
0.0
  0
LINE
  5
1B1
330
1E
100
AcDbEntity
  8
0
100
AcDbLine
 10
-0.0550000000111088
 20
125.151431741579
 30
0.0
 11
0.236000000000019
 21
124.984025
 31
0.0
  0
LINE
  5
1B2
330
1E
100
AcDbEntity
  8
0
100
AcDbLine
 10
-0.100999999999998
 20
128.2130249999999
 30
0.0
 11
0.7050000000000141
 21
130.782025
 31
0.0
  0
LINE
  5
1B3
330
1E
100
AcDbEntity
  8
0
100
AcDbLine
 10
4.26399999996521
 20
122.6583199308959
 30
0.0
 11
6.079000000000009
 21
121.6100249999999
 31
0.0
  0
LINE
  5
1B4
330
1E
100
AcDbEntity
  8
0
100
AcDbLine
 10
6.079000000000009
 20
121.6100249999999
 30
0.0
 11
8.274999999976909
 21
120.342399331564
 31
0.0
  0
LINE
  5
1B5
330
1E
100
AcDbEntity
  8
0
100
AcDbLine
 10
5.952
 20
121.684025
 30
0.0
 11
9.31799999999998
 21
119.740025
 31
0.0
  0
LINE
  5
1B6
330
1E
100
AcDbEntity
  8
0
100
AcDbLine
 10
3.34799999999999
 20
123.187025
 30
0.0
 11
5.952
 21
121.684025
 31
0.0
  0
LINE
  5
1B7
330
1E
100
AcDbEntity
  8
0
100
AcDbLine
 10
1.44299999999998
 20
124.2870249999999
 30
0.0
 11
3.34799999999999
 21
123.187025
 31
0.0
  0
LINE
  5
1B8
330
1E
100
AcDbEntity
  8
0
100
AcDbLine
 10
0.7050000000000141
 20
130.782025
 30
0.0
 11
2.52600000000001
 21
132.7640249999999
 31
0.0
  0
LINE
  5
1B9
330
1E
100
AcDbEntity
  8
0
100
AcDbLine
 10
52.118
 20
124.2060249999999
 30
0.0
 11
58.443
 21
120.788025
 31
0.0
  0
LINE
  5
1BA
330
1E
100
AcDbEntity
  8
0
100
AcDbLine
 10
45.768
 20
127.288025
 30
0.0
 11
52.118
 21
124.2060249999999
 31
0.0
  0
LINE
  5
1BB
330
1E
100
AcDbEntity
  8
0
100
AcDbLine
 10
39.47099999999999
 20
129.8740249999999
 30
0.0
 11
45.768
 21
127.288025
 31
0.0
  0
LINE
  5
1BC
330
1E
100
AcDbEntity
  8
0
100
AcDbLine
 10
33.326
 20
132.138025
 30
0.0
 11
39.47099999999999
 21
129.8740249999999
 31
0.0
  0
LINE
  5
1BD
330
1E
100
AcDbEntity
  8
0
100
AcDbLine
 10
27.361
 20
133.831025
 30
0.0
 11
33.326
 21
132.138025
 31
0.0
  0
LINE
  5
1BE
330
1E
100
AcDbEntity
  8
0
100
AcDbLine
 10
21.865
 20
135.020025
 30
0.0
 11
27.361
 21
133.831025
 31
0.0
  0
LINE
  5
1BF
330
1E
100
AcDbEntity
  8
0
100
AcDbLine
 10
16.777
 20
135.7400249999999
 30
0.0
 11
21.865
 21
135.020025
 31
0.0
  0
LINE
  5
1C0
330
1E
100
AcDbEntity
  8
0
100
AcDbLine
 10
12.109
 20
135.8680249999999
 30
0.0
 11
16.777
 21
135.7400249999999
 31
0.0
  0
LINE
  5
1C1
330
1E
100
AcDbEntity
  8
0
100
AcDbLine
 10
8.291999999999999
 20
135.271025
 30
0.0
 11
12.109
 21
135.8680249999999
 31
0.0
  0
LINE
  5
1C2
330
1E
100
AcDbEntity
  8
0
100
AcDbLine
 10
5.046999999999999
 20
134.343025
 30
0.0
 11
8.291999999999999
 21
135.271025
 31
0.0
  0
LINE
  5
1C3
330
1E
100
AcDbEntity
  8
0
100
AcDbLine
 10
2.52600000000001
 20
132.7640249999999
 30
0.0
 11
5.046999999999999
 21
134.343025
 31
0.0
  0
LINE
  5
1C4
330
1E
100
AcDbEntity
  8
0
100
AcDbLine
 10
0.7050000000000141
 20
130.782025
 30
0.0
 11
2.52600000000001
 21
132.7640249999999
 31
0.0
  0
LINE
  5
1C5
330
1E
100
AcDbEntity
  8
0
100
AcDbLine
 10
58.443
 20
120.788025
 30
0.0
 11
64.566
 21
117.019025
 31
0.0
  0
LINE
  5
1C6
330
1E
100
AcDbEntity
  8
0
100
AcDbLine
 10
64.566
 20
117.019025
 30
0.0
 11
70.41
 21
113.0610249999999
 31
0.0
  0
LINE
  5
1C7
330
1E
100
AcDbEntity
  8
0
100
AcDbLine
 10
70.41
 20
113.0610249999999
 30
0.0
 11
72.2997752933975
 21
111.601604993351
 31
0.0
  0
LINE
  5
1C8
330
1E
100
AcDbEntity
  8
0
100
AcDbLine
 10
79.281
 20
70.097325
 30
0.0
 11
79.431985945264
 21
70.85086634981201
 31
0.0
  0
LINE
  5
1C9
330
1E
100
AcDbEntity
  8
0
100
AcDbLine
 10
78.4093
 20
69.838125
 30
0.0
 11
78.48517767624129
 21
70.238950864467
 31
0.0
  0
LINE
  5
1CA
330
1E
100
AcDbEntity
  8
0
100
AcDbLine
 10
78.4093
 20
69.838125
 30
0.0
 11
80.3744
 21
69.466125
 31
0.0
  0
LINE
  5
1CB
330
1E
100
AcDbEntity
  8
0
100
AcDbLine
 10
80.3744
 20
69.466125
 30
0.0
 11
80.51321919812641
 21
70.1994411458016
 31
0.0
  0
LINE
  5
1CC
330
1E
100
AcDbEntity
  8
0
100
AcDbLine
 10
83.61299999999999
 20
70.077125
 30
0.0
 11
84.05799999999999
 21
69.820125
 31
0.0
  0
LINE
  5
1CD
330
1E
100
AcDbEntity
  8
0
100
AcDbLine
 10
77.3716
 20
70.43712499999999
 30
0.0
 11
79.281
 21
70.097325
 31
0.0
  0
LINE
  5
1CE
330
1E
100
AcDbEntity
  8
0
100
AcDbLine
 10
78.8327
 20
70.356125
 30
0.0
 11
79.281
 21
70.097325
 31
0.0
  0
LINE
  5
1CF
330
1E
100
AcDbEntity
  8
0
100
AcDbLine
 10
78.8327
 20
70.356125
 30
0.0
 11
78.96220831842549
 21
71.0024757110387
 31
0.0
  0
LINE
  5
1D0
330
1E
100
AcDbEntity
  8
0
100
AcDbLine
 10
82.597
 20
70.663625
 30
0.0
 11
83.61299999999999
 21
70.077125
 31
0.0
  0
LINE
  5
1D1
330
1E
100
AcDbEntity
  8
0
100
AcDbLine
 10
80.51321919812641
 20
70.1994411458016
 30
0.0
 11
84.05799999999999
 21
69.820125
 31
0.0
  0
LINE
  5
1D2
330
1E
100
AcDbEntity
  8
0
100
AcDbLine
 10
84.05799999999999
 20
69.820125
 30
0.0
 11
84.56299999999998
 21
70.695425
 31
0.0
  0
LINE
  5
1D3
330
1E
100
AcDbEntity
  8
0
100
AcDbLine
 10
72.5018
 20
71.278225
 30
0.0
 11
72.64503059834258
 21
72.12581970932671
 31
0.0
  0
LINE
  5
1D4
330
1E
100
AcDbEntity
  8
0
100
AcDbLine
 10
72.5018
 20
71.278225
 30
0.0
 11
72.62632100203941
 21
72.015102062234
 31
0.0
  0
LINE
  5
1D5
330
1E
100
AcDbEntity
  8
0
100
AcDbLine
 10
72.2758
 20
71.408825
 30
0.0
 11
72.5018
 21
71.278225
 31
0.0
  0
LINE
  5
1D6
330
1E
100
AcDbEntity
  8
0
100
AcDbLine
 10
72.2758
 20
71.408825
 30
0.0
 11
72.41940675784809
 21
72.2588579095102
 31
0.0
  0
LINE
  5
1D7
330
1E
100
AcDbEntity
  8
0
100
AcDbLine
 10
73.88110000000001
 20
72.452425
 30
0.0
 11
75.6272
 21
72.206925
 31
0.0
  0
LINE
  5
1D8
330
1E
100
AcDbEntity
  8
0
100
AcDbLine
 10
72.62632100203941
 20
72.015102062234
 30
0.0
 11
74.80599999999999
 21
71.54362500000001
 31
0.0
  0
LINE
  5
1D9
330
1E
100
AcDbEntity
  8
0
100
AcDbLine
 10
76.9233
 20
70.69602500000001
 30
0.0
 11
77.3716
 21
70.43712499999999
 31
0.0
  0
LINE
  5
1DA
330
1E
100
AcDbEntity
  8
0
100
AcDbLine
 10
76.9233
 20
70.69602500000001
 30
0.0
 11
77.07530902040129
 21
71.45463349057479
 31
0.0
  0
LINE
  5
1DB
330
1E
100
AcDbEntity
  8
0
100
AcDbLine
 10
76.9233
 20
70.69602500000001
 30
0.0
 11
78.8327
 21
70.356125
 31
0.0
  0
LINE
  5
1DC
330
1E
100
AcDbEntity
  8
0
100
AcDbLine
 10
76.9233
 20
70.69602500000001
 30
0.0
 11
76.97976380758641
 21
70.97781040807759
 31
0.0
  0
LINE
  5
1DD
330
1E
100
AcDbEntity
  8
0
100
AcDbLine
 10
75.6272
 20
72.206925
 30
0.0
 11
75.79331787472679
 21
72.91820278371649
 31
0.0
  0
LINE
  5
1DE
330
1E
100
AcDbEntity
  8
0
100
AcDbLine
 10
80.819
 20
71.690225
 30
0.0
 11
82.597
 21
70.663625
 31
0.0
  0
LINE
  5
1DF
330
1E
100
AcDbEntity
  8
0
100
AcDbLine
 10
83.102
 20
71.53892500000001
 30
0.0
 11
84.11799999999999
 21
70.95242500000001
 31
0.0
  0
LINE
  5
1E0
330
1E
100
AcDbEntity
  8
0
100
AcDbLine
 10
84.11799999999999
 20
70.95242500000001
 30
0.0
 11
84.56299999999998
 21
70.695425
 31
0.0
  0
LINE
  5
1E1
330
1E
100
AcDbEntity
  8
0
100
AcDbLine
 10
74.80599999999999
 20
71.54362500000001
 30
0.0
 11
76.97976380758641
 21
70.97781040807759
 31
0.0
  0
LINE
  5
1E2
330
1E
100
AcDbEntity
  8
0
100
AcDbLine
 10
84.56299999999998
 20
70.695425
 30
0.0
 11
88.37899999999999
 21
71.29312500000001
 31
0.0
  0
LINE
  5
1E3
330
1E
100
AcDbEntity
  8
0
100
AcDbLine
 10
88.37899999999999
 20
71.29312500000001
 30
0.0
 11
91.49700000000001
 21
72.29382499999999
 31
0.0
  0
LINE
  5
1E4
330
1E
100
AcDbEntity
  8
0
100
AcDbLine
 10
73.0151
 20
72.952425
 30
0.0
 11
73.88110000000001
 21
72.452425
 31
0.0
  0
LINE
  5
1E5
330
1E
100
AcDbEntity
  8
0
100
AcDbLine
 10
73.0151
 20
72.952425
 30
0.0
 11
73.18855378743091
 21
73.6951521071689
 31
0.0
  0
LINE
  5
1E6
330
1E
100
AcDbEntity
  8
0
100
AcDbLine
 10
73.0151
 20
72.952425
 30
0.0
 11
74.7611
 21
72.706925
 31
0.0
  0
LINE
  5
1E7
330
1E
100
AcDbEntity
  8
0
100
AcDbLine
 10
74.7611
 20
72.706925
 30
0.0
 11
75.6272
 21
72.206925
 31
0.0
  0
LINE
  5
1E8
330
1E
100
AcDbEntity
  8
0
100
AcDbLine
 10
74.7611
 20
72.706925
 30
0.0
 11
74.878916760298
 21
73.2112763108545
 31
0.0
  0
LINE
  5
1E9
330
1E
100
AcDbEntity
  8
0
100
AcDbLine
 10
78.532
 20
73.01022500000001
 30
0.0
 11
80.819
 21
71.690225
 31
0.0
  0
LINE
  5
1EA
330
1E
100
AcDbEntity
  8
0
100
AcDbLine
 10
81.324
 20
72.56552499999999
 30
0.0
 11
83.102
 21
71.53892500000001
 31
0.0
  0
LINE
  5
1EB
330
1E
100
AcDbEntity
  8
0
100
AcDbLine
 10
89.973
 20
73.17382499999999
 30
0.0
 11
91.18
 21
72.476825
 31
0.0
  0
LINE
  5
1EC
330
1E
100
AcDbEntity
  8
0
100
AcDbLine
 10
91.18
 20
72.476825
 30
0.0
 11
91.62499999999999
 21
72.220325
 31
0.0
  0
LINE
  5
1ED
330
1E
100
AcDbEntity
  8
0
100
AcDbLine
 10
91.62499999999999
 20
72.220325
 30
0.0
 11
93.36947968832388
 21
73.31360149673409
 31
0.0
  0
LINE
  5
1EE
330
1E
100
AcDbEntity
  8
0
100
AcDbLine
 10
91.28149122807199
 20
72.418324999999
 30
0.0
 11
91.62499999999999
 21
72.220325
 31
0.0
  0
LINE
  5
1EF
330
1E
100
AcDbEntity
  8
0
100
AcDbLine
 10
91.28149122807199
 20
72.418324999999
 30
0.0
 11
91.49700000000001
 21
72.29382499999999
 31
0.0
  0
LINE
  5
1F0
330
1E
100
AcDbEntity
  8
0
100
AcDbLine
 10
72.43300000000001
 20
77.698925
 30
0.0
 11
75.98899999999999
 21
75.64552500000001
 31
0.0
  0
LINE
  5
1F1
330
1E
100
AcDbEntity
  8
0
100
AcDbLine
 10
73.26429548308251
 20
82.82084977061101
 30
0.0
 11
73.525
 21
82.670325
 31
0.0
  0
LINE
  5
1F2
330
1E
100
AcDbEntity
  8
0
100
AcDbLine
 10
75.48399999999999
 20
74.770225
 30
0.0
 11
78.532
 21
73.01022500000001
 31
0.0
  0
LINE
  5
1F3
330
1E
100
AcDbEntity
  8
0
100
AcDbLine
 10
75.98899999999999
 20
75.64552500000001
 30
0.0
 11
79.038
 21
73.885525
 31
0.0
  0
LINE
  5
1F4
330
1E
100
AcDbEntity
  8
0
100
AcDbLine
 10
79.038
 20
73.885525
 30
0.0
 11
81.324
 21
72.56552499999999
 31
0.0
  0
LINE
  5
1F5
330
1E
100
AcDbEntity
  8
0
100
AcDbLine
 10
78.09699999999999
 20
80.03032500000001
 30
0.0
 11
82.09799999999999
 21
77.720325
 31
0.0
  0
LINE
  5
1F6
330
1E
100
AcDbEntity
  8
0
100
AcDbLine
 10
82.6273155339649
 20
77.414793446611
 30
0.0
 11
85.33700000000001
 21
75.850325
 31
0.0
  0
LINE
  5
1F7
330
1E
100
AcDbEntity
  8
0
100
AcDbLine
 10
85.33700000000001
 20
75.850325
 30
0.0
 11
86.96235494279829
 21
74.9122362643005
 31
0.0
  0
LINE
  5
1F8
330
1E
100
AcDbEntity
  8
0
100
AcDbLine
 10
85.33700000000001
 20
75.850325
 30
0.0
 11
86.96235494279829
 21
74.9122362643005
 31
0.0
  0
LINE
  5
1F9
330
1E
100
AcDbEntity
  8
0
100
AcDbLine
 10
82.09799999999999
 20
77.720325
 30
0.0
 11
85.46499999999999
 21
75.776825
 31
0.0
  0
LINE
  5
1FA
330
1E
100
AcDbEntity
  8
0
100
AcDbLine
 10
85.46499999999999
 20
75.776825
 30
0.0
 11
88.068
 21
74.273825
 31
0.0
  0
LINE
  5
1FB
330
1E
100
AcDbEntity
  8
0
100
AcDbLine
 10
88.068
 20
74.273825
 30
0.0
 11
89.973
 21
73.17382499999999
 31
0.0
  0
LINE
  5
1FC
330
1E
100
AcDbEntity
  8
0
100
AcDbLine
 10
73.652
 20
82.59702500000001
 30
0.0
 11
78.09699999999999
 21
80.03032500000001
 31
0.0
  0
LINE
  5
1FD
330
1E
100
AcDbEntity
  8
0
100
AcDbLine
 10
73.525
 20
82.670325
 30
0.0
 11
73.95942382076601
 21
82.41950762750059
 31
0.0
  0
LINE
  5
1FE
330
1E
100
AcDbEntity
  8
0
100
AcDbLine
 10
73.525
 20
82.670325
 30
0.0
 11
73.95942382076601
 21
82.41950762750059
 31
0.0
  0
LINE
  5
1FF
330
1E
100
AcDbEntity
  8
0
100
AcDbLine
 10
93.36947968832388
 20
73.31360149673409
 30
0.0
 11
97.70000000000001
 21
70.009825
 31
0.0
  0
LINE
  5
207
330
1E
100
AcDbEntity
  8
0
100
AcDbLine
 10
146.6339999999999
 20
0.76594500000001
 30
0.0
 11
149.732
 21
0.13197500000001
 31
0.0
  0
LINE
  5
208
330
1E
100
AcDbEntity
  8
0
100
AcDbLine
 10
146.6339999999999
 20
0.76594500000001
 30
0.0
 11
149.732
 21
0.13197500000001
 31
0.0
  0
LINE
  5
215
330
1E
100
AcDbEntity
  8
0
100
AcDbLine
 10
167.092
 20
10.200825
 30
0.0
 11
168.209
 21
13.135525
 31
0.0
  0
LINE
  5
216
330
1E
100
AcDbEntity
  8
0
100
AcDbLine
 10
149.732
 20
0.1319750000000095
 30
0.0
 11
167.092
 21
10.200825
 31
0.0
  0
LINE
  5
217
330
1E
100
AcDbEntity
  8
0
100
AcDbLine
 10
143.8259999999999
 20
2.502555000000009
 30
0.0
 11
146.6339999999999
 21
0.76594500000001
 31
0.0
  0
LINE
  5
218
330
1E
100
AcDbEntity
  8
0
100
AcDbLine
 10
168.0509999999999
 20
16.460325
 30
0.0
 11
168.209
 21
13.135525
 31
0.0
  0
LINE
  5
219
330
1E
100
AcDbEntity
  8
0
100
AcDbLine
 10
137.945
 20
10.51662499999999
 30
0.0
 11
143.8259999999999
 21
2.502555000000009
 31
0.0
  0
LINE
  5
21A
330
1E
100
AcDbEntity
  8
0
100
AcDbLine
 10
137.945
 20
10.51662499999999
 30
0.0
 11
143.8259999999999
 21
2.502555000000009
 31
0.0
  0
LINE
  5
21B
330
1E
100
AcDbEntity
  8
0
100
AcDbLine
 10
163.886
 20
25.446725
 30
0.0
 11
168.0509999999999
 21
16.460325
 31
0.0
  0
LINE
  5
21C
330
1E
100
AcDbEntity
  8
0
100
AcDbLine
 10
133.177
 20
17.657525
 30
0.0
 11
137.945
 21
10.51662499999999
 31
0.0
  0
LINE
  5
21D
330
1E
100
AcDbEntity
  8
0
100
AcDbLine
 10
159.117
 20
32.587625
 30
0.0
 11
163.886
 21
25.446725
 31
0.0
  0
LINE
  5
21E
330
1E
100
AcDbEntity
  8
0
100
AcDbLine
 10
127.267
 20
27.420725
 30
0.0
 11
133.177
 21
17.657525
 31
0.0
  0
LINE
  5
21F
330
1E
100
AcDbEntity
  8
0
100
AcDbLine
 10
152.374
 20
41.90792499999999
 30
0.0
 11
159.117
 21
32.587625
 31
0.0
  0
LINE
  5
220
330
1E
100
AcDbEntity
  8
0
100
AcDbLine
 10
122.406
 20
36.000825
 30
0.0
 11
127.267
 21
27.420725
 31
0.0
  0
LINE
  5
221
330
1E
100
AcDbEntity
  8
0
100
AcDbLine
 10
146.1699999999999
 20
49.762225
 30
0.0
 11
152.374
 21
41.90792499999999
 31
0.0
  0
LINE
  5
222
330
1E
100
AcDbEntity
  8
0
100
AcDbLine
 10
118.357
 20
43.18812499999999
 30
0.0
 11
122.406
 21
36.000825
 31
0.0
  0
LINE
  5
223
330
1E
100
AcDbEntity
  8
0
100
AcDbLine
 10
139.173
 20
57.843325
 30
0.0
 11
146.1699999999999
 21
49.762225
 31
0.0
  0
LINE
  5
224
330
1E
100
AcDbEntity
  8
0
100
AcDbLine
 10
115.301
 20
50.495025
 30
0.0
 11
118.357
 21
43.18812499999999
 31
0.0
  0
LINE
  5
225
330
1E
100
AcDbEntity
  8
0
100
AcDbLine
 10
132.146
 20
64.671725
 30
0.0
 11
139.173
 21
57.843325
 31
0.0
  0
LINE
  5
226
330
1E
100
AcDbEntity
  8
0
100
AcDbLine
 10
111.572
 20
57.035925
 30
0.0
 11
115.301
 21
50.495025
 31
0.0
  0
LINE
  5
227
330
1E
100
AcDbEntity
  8
0
100
AcDbLine
 10
125.7249999999999
 20
71.15022500000001
 30
0.0
 11
132.146
 21
64.671725
 31
0.0
  0
LINE
  5
228
330
1E
100
AcDbEntity
  8
0
100
AcDbLine
 10
105.141
 20
64.097425
 30
0.0
 11
111.572
 21
57.035925
 31
0.0
  0
LINE
  5
229
330
1E
100
AcDbEntity
  8
0
100
AcDbLine
 10
117.1389999999999
 20
78.878725
 30
0.0
 11
125.7249999999999
 21
71.15022500000001
 31
0.0
  0
LINE
  5
22A
330
1E
100
AcDbEntity
  8
0
100
AcDbLine
 10
97.70000000000001
 20
70.009825
 30
0.0
 11
105.141
 21
64.097425
 31
0.0
  0
LINE
  5
22B
330
1E
100
AcDbEntity
  8
0
100
AcDbLine
 10
108.363
 20
85.677725
 30
0.0
 11
117.1389999999999
 21
78.878725
 31
0.0
  0
LINE
  5
22C
330
1E
100
AcDbEntity
  8
0
100
AcDbLine
 10
97.13799999999999
 20
94.236625
 30
0.0
 11
108.363
 21
85.677725
 31
0.0
  0
LINE
  5
22D
330
1E
100
AcDbEntity
  8
0
100
AcDbLine
 10
81.287
 20
105.582025
 30
0.0
 11
97.13799999999999
 21
94.236625
 31
0.0
  0
LINE
  5
22E
330
1E
100
AcDbEntity
  8
0
100
AcDbLine
 10
72.14410477375221
 20
111.705872014172
 30
0.0
 11
81.287
 21
105.582025
 31
0.0
  0
ENDSEC
  0
SECTION
  2
OBJECTS
  0
DICTIONARY
  5
C
330
0
100
AcDbDictionary
281
     1
  3
ACAD_GROUP
350
D
  3
ACAD_LAYOUT
350
19
  3
ACAD_MLINESTYLE
350
16
  3
ACAD_PLOTSETTINGS
350
18
  3
ACAD_PLOTSTYLENAME
350
E
  3
AcDbVariableDictionary
350
233
  0
DICTIONARY
  5
D
102
{ACAD_REACTORS
330
C
102
}
330
C
100
AcDbDictionary
281
     1
  0
DICTIONARY
  5
19
102
{ACAD_REACTORS
330
C
102
}
330
C
100
AcDbDictionary
281
     1
  3
Layout1
350
1D
  3
Model
350
21
  0
DICTIONARY
  5
16
102
{ACAD_REACTORS
330
C
102
}
330
C
100
AcDbDictionary
281
     1
  3
Standard
350
17
  0
DICTIONARY
  5
18
102
{ACAD_REACTORS
330
C
102
}
330
C
100
AcDbDictionary
281
     1
  0
ACDBDICTIONARYWDFLT
  5
E
102
{ACAD_REACTORS
330
C
102
}
330
C
100
AcDbDictionary
281
     1
  3
Normal
350
F
100
AcDbDictionaryWithDefault
340
F
  0
DICTIONARY
  5
233
102
{ACAD_REACTORS
330
C
102
}
330
C
100
AcDbDictionary
281
     1
  3
DIMASSOC
350
234
  0
LAYOUT
  5
1D
102
{ACAD_REACTORS
330
19
102
}
330
19
100
AcDbPlotSettings
  1

  2
hp deskjet 980c series
  4

  6

 40
0.0
 41
0.0
 42
0.0
 43
0.0
 44
0.0
 45
0.0
 46
0.0
 47
0.0
 48
0.0
 49
0.0
140
0.0
141
0.0
142
1.0
143
1.0
 70
   688
 72
     0
 73
     0
 74
     5
  7

 75
    16
147
1.0
148
0.0
149
0.0
100
AcDbLayout
  1
Layout1
 70
     1
 71
     1
 10
0.0
 20
0.0
 11
12.0
 21
9.0
 12
0.0
 22
0.0
 32
0.0
 14
1.000000000000000E+20
 24
1.000000000000000E+20
 34
1.000000000000000E+20
 15
-1.000000000000000E+20
 25
-1.000000000000000E+20
 35
-1.000000000000000E+20
146
0.0
 13
0.0
 23
0.0
 33
0.0
 16
1.0
 26
0.0
 36
0.0
 17
0.0
 27
1.0
 37
0.0
 76
     0
330
1A
  0
LAYOUT
  5
21
102
{ACAD_REACTORS
330
19
102
}
330
19
100
AcDbPlotSettings
  1

  2
hp deskjet 980c series
  4

  6

 40
0.0
 41
0.0
 42
0.0
 43
0.0
 44
0.0
 45
0.0
 46
0.0
 47
0.0
 48
0.0
 49
0.0
140
0.0
141
0.0
142
1.0
143
1.0
 70
  1712
 72
     0
 73
     0
 74
     0
  7

 75
     0
147
1.0
148
0.0
149
0.0
100
AcDbLayout
  1
Model
 70
     1
 71
     0
 10
0.0
 20
0.0
 11
12.0
 21
9.0
 12
0.0
 22
0.0
 32
0.0
 14
0.0
 24
0.0
 34
0.0
 15
0.0
 25
0.0
 35
0.0
146
0.0
 13
0.0
 23
0.0
 33
0.0
 16
1.0
 26
0.0
 36
0.0
 17
0.0
 27
1.0
 37
0.0
 76
     0
330
1E
  0
MLINESTYLE
  5
17
102
{ACAD_REACTORS
330
16
102
}
330
16
100
AcDbMlineStyle
  2
STANDARD
 70
     0
  3

 62
   256
 51
90.0
 52
90.0
 71
     2
 49
0.5
 62
   256
  6
BYLAYER
 49
-0.5
 62
   256
  6
BYLAYER
  0
ACDBPLACEHOLDER
  5
F
102
{ACAD_REACTORS
330
E
102
}
330
E
  0
DICTIONARYVAR
  5
234
102
{ACAD_REACTORS
330
233
102
}
330
233
100
DictionaryVariables
280
     0
  1
1
  0
ENDSEC
  0
EOF
