  0
SECTION
  2
HEADER
  9
$ACADVER
  1
AC1015
  9
$ACADMAINTVER
 70
    13
  9
$DWGCODEPAGE
  3
ANSI_1252
  9
$INSBASE
 10
0.0
 20
0.0
 30
0.0
  9
$EXTMIN
 10
6.999999999999981
 20
-0.0000000000000174
 30
0.0
  9
$EXTMAX
 10
91.0
 20
87.0
 30
0.0
  9
$LIMMIN
 10
0.0
 20
0.0
  9
$LIMMAX
 10
12.0
 20
9.0
  9
$ORTHOMODE
 70
     0
  9
$REGENMODE
 70
     1
  9
$FILLMODE
 70
     1
  9
$QTEXTMODE
 70
     0
  9
$MIRRTEXT
 70
     1
  9
$LTSCALE
 40
1.0
  9
$ATTMODE
 70
     1
  9
$TEXTSIZE
 40
0.2
  9
$TRACEWID
 40
0.05
  9
$TEXTSTYLE
  7
STANDARD
  9
$CLAYER
  8
0
  9
$CELTYPE
  6
CONTINUOUS
  9
$CECOLOR
 62
   256
  9
$CELTSCALE
 40
1.0
  9
$DISPSILH
 70
     0
  9
$DIMSCALE
 40
1.0
  9
$DIMASZ
 40
0.18
  9
$DIMEXO
 40
0.0625
  9
$DIMDLI
 40
0.38
  9
$DIMRND
 40
0.0
  9
$DIMDLE
 40
0.0
  9
$DIMEXE
 40
0.18
  9
$DIMTP
 40
0.0
  9
$DIMTM
 40
0.0
  9
$DIMTXT
 40
0.18
  9
$DIMCEN
 40
0.09
  9
$DIMTSZ
 40
0.0
  9
$DIMTOL
 70
     0
  9
$DIMLIM
 70
     0
  9
$DIMTIH
 70
     1
  9
$DIMTOH
 70
     1
  9
$DIMSE1
 70
     0
  9
$DIMSE2
 70
     0
  9
$DIMTAD
 70
     0
  9
$DIMZIN
 70
     0
  9
$DIMBLK
  1

  9
$DIMASO
 70
     1
  9
$DIMSHO
 70
     1
  9
$DIMPOST
  1

  9
$DIMAPOST
  1

  9
$DIMALT
 70
     0
  9
$DIMALTD
 70
     2
  9
$DIMALTF
 40
25.4
  9
$DIMLFAC
 40
1.0
  9
$DIMTOFL
 70
     0
  9
$DIMTVP
 40
0.0
  9
$DIMTIX
 70
     0
  9
$DIMSOXD
 70
     0
  9
$DIMSAH
 70
     0
  9
$DIMBLK1
  1

  9
$DIMBLK2
  1

  9
$DIMSTYLE
  2
STANDARD
  9
$DIMCLRD
 70
     0
  9
$DIMCLRE
 70
     0
  9
$DIMCLRT
 70
     0
  9
$DIMTFAC
 40
1.0
  9
$DIMGAP
 40
0.09
  9
$DIMJUST
 70
     0
  9
$DIMSD1
 70
     0
  9
$DIMSD2
 70
     0
  9
$DIMTOLJ
 70
     1
  9
$DIMTZIN
 70
     0
  9
$DIMALTZ
 70
     0
  9
$DIMALTTZ
 70
     0
  9
$DIMUPT
 70
     0
  9
$DIMDEC
 70
     4
  9
$DIMTDEC
 70
     4
  9
$DIMALTU
 70
     2
  9
$DIMALTTD
 70
     2
  9
$DIMTXSTY
  7
STANDARD
  9
$DIMAUNIT
 70
     0
  9
$DIMADEC
 70
     0
  9
$DIMALTRND
 40
0.0
  9
$DIMAZIN
 70
     0
  9
$DIMDSEP
 70
    46
  9
$DIMATFIT
 70
     3
  9
$DIMFRAC
 70
     0
  9
$DIMLDRBLK
  1

  9
$DIMLUNIT
 70
     2
  9
$DIMLWD
 70
    -2
  9
$DIMLWE
 70
    -2
  9
$DIMTMOVE
 70
     0
  9
$LUNITS
 70
     2
  9
$LUPREC
 70
     4
  9
$SKETCHINC
 40
0.1
  9
$FILLETRAD
 40
0.0
  9
$AUNITS
 70
     0
  9
$AUPREC
 70
     0
  9
$MENU
  1
.
  9
$ELEVATION
 40
0.0
  9
$PELEVATION
 40
0.0
  9
$THICKNESS
 40
0.0
  9
$LIMCHECK
 70
     0
  9
$CHAMFERA
 40
0.0
  9
$CHAMFERB
 40
0.0
  9
$CHAMFERC
 40
0.0
  9
$CHAMFERD
 40
0.0
  9
$SKPOLY
 70
     0
  9
$TDCREATE
 40
2454983.657029803
  9
$TDUCREATE
 40
2454983.573696470
  9
$TDUPDATE
 40
2454987.696632661
  9
$TDUUPDATE
 40
2454987.613299329
  9
$TDINDWG
 40
0.0080785185
  9
$TDUSRTIMER
 40
0.0080785185
  9
$USRTIMER
 70
     1
  9
$ANGBASE
 50
0.0
  9
$ANGDIR
 70
     0
  9
$PDMODE
 70
     0
  9
$PDSIZE
 40
0.0
  9
$PLINEWID
 40
0.0
  9
$SPLFRAME
 70
     0
  9
$SPLINETYPE
 70
     6
  9
$SPLINESEGS
 70
     8
  9
$HANDSEED
  5
62B
  9
$SURFTAB1
 70
     6
  9
$SURFTAB2
 70
     6
  9
$SURFTYPE
 70
     6
  9
$SURFU
 70
     6
  9
$SURFV
 70
     6
  9
$UCSBASE
  2

  9
$UCSNAME
  2

  9
$UCSORG
 10
0.0
 20
0.0
 30
0.0
  9
$UCSXDIR
 10
1.0
 20
0.0
 30
0.0
  9
$UCSYDIR
 10
0.0
 20
1.0
 30
0.0
  9
$UCSORTHOREF
  2

  9
$UCSORTHOVIEW
 70
     1
  9
$UCSORGTOP
 10
0.0
 20
0.0
 30
0.0
  9
$UCSORGBOTTOM
 10
0.0
 20
0.0
 30
0.0
  9
$UCSORGLEFT
 10
0.0
 20
0.0
 30
0.0
  9
$UCSORGRIGHT
 10
0.0
 20
0.0
 30
0.0
  9
$UCSORGFRONT
 10
0.0
 20
0.0
 30
0.0
  9
$UCSORGBACK
 10
0.0
 20
0.0
 30
0.0
  9
$PUCSBASE
  2

  9
$PUCSNAME
  2

  9
$PUCSORG
 10
0.0
 20
0.0
 30
0.0
  9
$PUCSXDIR
 10
1.0
 20
0.0
 30
0.0
  9
$PUCSYDIR
 10
0.0
 20
1.0
 30
0.0
  9
$PUCSORTHOREF
  2

  9
$PUCSORTHOVIEW
 70
     0
  9
$PUCSORGTOP
 10
0.0
 20
0.0
 30
0.0
  9
$PUCSORGBOTTOM
 10
0.0
 20
0.0
 30
0.0
  9
$PUCSORGLEFT
 10
0.0
 20
0.0
 30
0.0
  9
$PUCSORGRIGHT
 10
0.0
 20
0.0
 30
0.0
  9
$PUCSORGFRONT
 10
0.0
 20
0.0
 30
0.0
  9
$PUCSORGBACK
 10
0.0
 20
0.0
 30
0.0
  9
$USERI1
 70
     0
  9
$USERI2
 70
     0
  9
$USERI3
 70
     0
  9
$USERI4
 70
     0
  9
$USERI5
 70
     0
  9
$USERR1
 40
0.0
  9
$USERR2
 40
0.0
  9
$USERR3
 40
0.0
  9
$USERR4
 40
0.0
  9
$USERR5
 40
0.0
  9
$WORLDVIEW
 70
     1
  9
$SHADEDGE
 70
     3
  9
$SHADEDIF
 70
    70
  9
$TILEMODE
 70
     1
  9
$MAXACTVP
 70
    64
  9
$PINSBASE
 10
0.0
 20
0.0
 30
0.0
  9
$PLIMCHECK
 70
     0
  9
$PEXTMIN
 10
1.000000000000000E+20
 20
1.000000000000000E+20
 30
1.000000000000000E+20
  9
$PEXTMAX
 10
-1.000000000000000E+20
 20
-1.000000000000000E+20
 30
-1.000000000000000E+20
  9
$PLIMMIN
 10
0.0
 20
0.0
  9
$PLIMMAX
 10
12.0
 20
9.0
  9
$UNITMODE
 70
     0
  9
$VISRETAIN
 70
     1
  9
$PLINEGEN
 70
     0
  9
$PSLTSCALE
 70
     1
  9
$TREEDEPTH
 70
  3020
  9
$CMLSTYLE
  2
STANDARD
  9
$CMLJUST
 70
     0
  9
$CMLSCALE
 40
1.0
  9
$PROXYGRAPHICS
 70
     1
  9
$MEASUREMENT
 70
     0
  9
$CELWEIGHT
370
    -1
  9
$ENDCAPS
280
     0
  9
$JOINSTYLE
280
     0
  9
$LWDISPLAY
290
     0
  9
$INSUNITS
 70
     0
  9
$HYPERLINKBASE
  1

  9
$STYLESHEET
  1

  9
$XEDIT
290
     1
  9
$CEPSNTYPE
380
     0
  9
$PSTYLEMODE
290
     1
  9
$FINGERPRINTGUID
  2
{042DDEA1-5906-444C-8B4B-5B395F9013BF}
  9
$VERSIONGUID
  2
{2D4AD319-3FAE-48DA-BA58-220D13B0FD5D}
  9
$EXTNAMES
290
     1
  9
$PSVPSCALE
 40
0.0
  9
$OLESTARTUP
290
     0
  0
ENDSEC
  0
SECTION
  2
CLASSES
  0
CLASS
  1
ACDBDICTIONARYWDFLT
  2
AcDbDictionaryWithDefault
  3
AutoCAD 2000
 90
        0
280
     0
281
     0
  0
CLASS
  1
ACDBPLACEHOLDER
  2
AcDbPlaceHolder
  3
AutoCAD 2000
 90
        0
280
     0
281
     0
  0
CLASS
  1
LAYOUT
  2
AcDbLayout
  3
AutoCAD 2000
 90
        0
280
     0
281
     0
  0
CLASS
  1
DICTIONARYVAR
  2
AcDbDictionaryVar
  3
AutoCAD 2000
 90
        0
280
     0
281
     0
  0
CLASS
  1
LONG_TRANSACTION
  2
AcDbLongTransaction
  3
AutoCAD 2000
 90
    32768
280
     0
281
     0
  0
CLASS
  1
LWPOLYLINE
  2
AcDbPolyline
  3
AutoCAD 2000
 90
    32768
280
     0
281
     1
  0
CLASS
  1
HATCH
  2
AcDbHatch
  3
AutoCAD 2000
 90
    32768
280
     0
281
     1
  0
CLASS
  1
XRECORD
  2
AcDbXrecord
  3
AutoCAD 2000
 90
    32768
280
     0
281
     0
  0
ENDSEC
  0
SECTION
  2
TABLES
  0
TABLE
  2
VPORT
  5
8
330
0
100
AcDbSymbolTable
 70
     3
  0
VPORT
  5
62A
330
8
100
AcDbSymbolTableRecord
100
AcDbViewportTableRecord
  2
*Active
 70
     0
 10
0.0
 20
0.0
 11
1.0
 21
1.0
 12
48.99999999999998
 22
43.49999999999999
 13
0.0
 23
0.0
 14
1.0
 24
1.0
 15
0.0
 25
0.0
 16
0.0
 26
0.0
 36
1.0
 17
0.0
 27
0.0
 37
0.0
 40
87.54947368421055
 41
1.968387776606954
 42
50.0
 43
0.0
 44
0.0
 50
0.0
 51
0.0
 71
     0
 72
   100
 73
     1
 74
     3
 75
     0
 76
     0
 77
     0
 78
     0
281
     0
 65
     1
110
0.0
120
0.0
130
0.0
111
1.0
121
0.0
131
0.0
112
0.0
122
1.0
132
0.0
 79
     1
146
0.0
  0
ENDTAB
  0
TABLE
  2
LTYPE
  5
5
330
0
100
AcDbSymbolTable
 70
     1
  0
LTYPE
  5
13
330
5
100
AcDbSymbolTableRecord
100
AcDbLinetypeTableRecord
  2
BYBLOCK
 70
     0
  3

 72
    65
 73
     0
 40
0.0
  0
LTYPE
  5
14
330
5
100
AcDbSymbolTableRecord
100
AcDbLinetypeTableRecord
  2
BYLAYER
 70
     0
  3

 72
    65
 73
     0
 40
0.0
  0
LTYPE
  5
15
330
5
100
AcDbSymbolTableRecord
100
AcDbLinetypeTableRecord
  2
CONTINUOUS
 70
     0
  3
Solid line
 72
    65
 73
     0
 40
0.0
  0
ENDTAB
  0
TABLE
  2
LAYER
  5
2
330
0
100
AcDbSymbolTable
 70
     1
  0
LAYER
  5
10
330
2
100
AcDbSymbolTableRecord
100
AcDbLayerTableRecord
  2
0
 70
     0
 62
     7
  6
CONTINUOUS
370
    -3
390
F
  0
ENDTAB
  0
TABLE
  2
STYLE
  5
3
330
0
100
AcDbSymbolTable
 70
     1
  0
STYLE
  5
11
330
3
100
AcDbSymbolTableRecord
100
AcDbTextStyleTableRecord
  2
STANDARD
 70
     0
 40
0.0
 41
1.0
 50
0.0
 71
     0
 42
0.2
  3
txt
  4

  0
ENDTAB
  0
TABLE
  2
VIEW
  5
6
330
0
100
AcDbSymbolTable
 70
     0
  0
ENDTAB
  0
TABLE
  2
UCS
  5
7
330
0
100
AcDbSymbolTable
 70
     0
  0
ENDTAB
  0
TABLE
  2
APPID
  5
9
330
0
100
AcDbSymbolTable
 70
     1
  0
APPID
  5
12
330
9
100
AcDbSymbolTableRecord
100
AcDbRegAppTableRecord
  2
ACAD
 70
     0
  0
ENDTAB
  0
TABLE
  2
DIMSTYLE
  5
A
330
0
100
AcDbSymbolTable
 70
     1
100
AcDbDimStyleTable
 71
     0
  0
DIMSTYLE
105
5F8
330
A
100
AcDbSymbolTableRecord
100
AcDbDimStyleTableRecord
  2
STANDARD
 70
     0
340
11
  0
ENDTAB
  0
TABLE
  2
BLOCK_RECORD
  5
1
330
0
100
AcDbSymbolTable
 70
     0
  0
BLOCK_RECORD
  5
1E
102
{ACAD_XDICTIONARY
360
621
102
}
330
1
100
AcDbSymbolTableRecord
100
AcDbBlockTableRecord
  2
*MODEL_SPACE
340
625
  0
BLOCK_RECORD
  5
1A
102
{ACAD_XDICTIONARY
360
61F
102
}
330
1
100
AcDbSymbolTableRecord
100
AcDbBlockTableRecord
  2
*PAPER_SPACE
340
626
  0
ENDTAB
  0
ENDSEC
  0
SECTION
  2
BLOCKS
  0
BLOCK
  5
1F
330
1E
100
AcDbEntity
  8
0
100
AcDbBlockBegin
  2
*MODEL_SPACE
 70
     0
 10
0.0
 20
0.0
 30
0.0
  3
*MODEL_SPACE
  1

  0
ENDBLK
  5
20
330
1E
100
AcDbEntity
  8
0
100
AcDbBlockEnd
  0
BLOCK
  5
1B
330
1A
100
AcDbEntity
 67
     1
  8
0
100
AcDbBlockBegin
  2
*PAPER_SPACE
 70
     0
 10
0.0
 20
0.0
 30
0.0
  3
*PAPER_SPACE
  1

  0
ENDBLK
  5
1C
330
1A
100
AcDbEntity
 67
     1
  8
0
100
AcDbBlockEnd
  0
ENDSEC
  0
SECTION
  2
ENTITIES
  0
LINE
  5
22
330
1E
100
AcDbEntity
  8
0
100
AcDbLine
 10
28.0
 20
-0.000000000000013
 30
0.0
 11
28.684
 21
-0.000000000000013
 31
0.0
  0
LINE
  5
23
330
1E
100
AcDbEntity
  8
0
100
AcDbLine
 10
28.0
 20
-0.000000000000013
 30
0.0
 11
28.0
 21
15.0
 31
0.0
  0
LINE
  5
24
330
1E
100
AcDbEntity
  8
0
100
AcDbLine
 10
28.684
 20
-0.000000000000013
 30
0.0
 11
30.508
 21
-0.000000000000013
 31
0.0
  0
LINE
  5
25
330
1E
100
AcDbEntity
  8
0
100
AcDbLine
 10
30.508
 20
-0.000000000000013
 30
0.0
 11
33.548
 21
-0.000000000000013
 31
0.0
  0
LINE
  5
26
330
1E
100
AcDbEntity
  8
0
100
AcDbLine
 10
33.548
 20
-0.000000000000013
 30
0.0
 11
37.576
 21
-0.000000000000013
 31
0.0
  0
LINE
  5
27
330
1E
100
AcDbEntity
  8
0
100
AcDbLine
 10
6.999999999999981
 20
24.2895
 30
0.0
 11
7.07139999999997
 21
24.0
 31
0.0
  0
LINE
  5
28
330
1E
100
AcDbEntity
  8
0
100
AcDbLine
 10
6.999999999999981
 20
24.2895
 30
0.0
 11
6.999999999999981
 21
24.6947
 31
0.0
  0
LINE
  5
29
330
1E
100
AcDbEntity
  8
0
100
AcDbLine
 10
6.999999999999981
 20
26.6008
 30
0.0
 11
6.999999999999981
 21
26.3505
 31
0.0
  0
LINE
  5
2A
330
1E
100
AcDbEntity
  8
0
100
AcDbLine
 10
6.999999999999981
 20
26.6008
 30
0.0
 11
6.999999999999981
 21
27.3517
 31
0.0
  0
LINE
  5
2B
330
1E
100
AcDbEntity
  8
0
100
AcDbLine
 10
6.999999999999981
 20
26.3505
 30
0.0
 11
6.999999999999981
 21
26.6008
 31
0.0
  0
LINE
  5
2C
330
1E
100
AcDbEntity
  8
0
100
AcDbLine
 10
6.999999999999981
 20
26.3505
 30
0.0
 11
6.999999999999981
 21
26.6463
 31
0.0
  0
LINE
  5
2D
330
1E
100
AcDbEntity
  8
0
100
AcDbLine
 10
6.999999999999981
 20
24.6947
 30
0.0
 11
6.999999999999981
 21
25.73679999999999
 31
0.0
  0
LINE
  5
2E
330
1E
100
AcDbEntity
  8
0
100
AcDbLine
 10
6.999999999999981
 20
24.6947
 30
0.0
 11
6.999999999999981
 21
24.2895
 31
0.0
  0
LINE
  5
30
330
1E
100
AcDbEntity
  8
0
100
AcDbLine
 10
6.999999999999981
 20
27.3517
 30
0.0
 11
6.999999999999981
 21
26.6008
 31
0.0
  0
LINE
  5
31
330
1E
100
AcDbEntity
  8
0
100
AcDbLine
 10
6.999999999999981
 20
27.3517
 30
0.0
 11
6.999999999999981
 21
28.6488
 31
0.0
  0
LINE
  5
32
330
1E
100
AcDbEntity
  8
0
100
AcDbLine
 10
6.999999999999981
 20
27.3062
 30
0.0
 11
6.999999999999981
 21
28.6715
 31
0.0
  0
LINE
  5
33
330
1E
100
AcDbEntity
  8
0
100
AcDbLine
 10
6.999999999999981
 20
27.3062
 30
0.0
 11
6.999999999999981
 21
26.6463
 31
0.0
  0
LINE
  5
34
330
1E
100
AcDbEntity
  8
0
100
AcDbLine
 10
6.999999999999981
 20
26.6463
 30
0.0
 11
6.999999999999981
 21
27.3062
 31
0.0
  0
LINE
  5
35
330
1E
100
AcDbEntity
  8
0
100
AcDbLine
 10
6.999999999999981
 20
26.6463
 30
0.0
 11
6.999999999999981
 21
26.3505
 31
0.0
  0
LINE
  5
36
330
1E
100
AcDbEntity
  8
0
100
AcDbLine
 10
6.999999999999981
 20
25.73679999999999
 30
0.0
 11
6.999999999999981
 21
27.4158
 31
0.0
  0
LINE
  5
37
330
1E
100
AcDbEntity
  8
0
100
AcDbLine
 10
6.999999999999981
 20
25.73679999999999
 30
0.0
 11
6.999999999999981
 21
24.6947
 31
0.0
  0
LINE
  5
39
330
1E
100
AcDbEntity
  8
0
100
AcDbLine
 10
6.999999999999981
 20
29.6737
 30
0.0
 11
6.999999999999981
 21
27.4158
 31
0.0
  0
LINE
  5
3A
330
1E
100
AcDbEntity
  8
0
100
AcDbLine
 10
6.999999999999981
 20
29.6737
 30
0.0
 11
6.999999999999981
 21
32.2211
 31
0.0
  0
LINE
  5
3D
330
1E
100
AcDbEntity
  8
0
100
AcDbLine
 10
6.999999999999981
 20
30.5214
 30
0.0
 11
6.999999999999981
 21
32.6604
 31
0.0
  0
LINE
  5
3E
330
1E
100
AcDbEntity
  8
0
100
AcDbLine
 10
6.999999999999981
 20
30.5214
 30
0.0
 11
6.999999999999981
 21
28.6715
 31
0.0
  0
LINE
  5
3F
330
1E
100
AcDbEntity
  8
0
100
AcDbLine
 10
6.999999999999981
 20
28.6715
 30
0.0
 11
6.999999999999981
 21
27.3062
 31
0.0
  0
LINE
  5
40
330
1E
100
AcDbEntity
  8
0
100
AcDbLine
 10
6.999999999999981
 20
28.6715
 30
0.0
 11
6.999999999999981
 21
30.5214
 31
0.0
  0
LINE
  5
41
330
1E
100
AcDbEntity
  8
0
100
AcDbLine
 10
6.999999999999981
 20
30.5374
 30
0.0
 11
6.999999999999981
 21
28.6488
 31
0.0
  0
LINE
  5
42
330
1E
100
AcDbEntity
  8
0
100
AcDbLine
 10
6.999999999999981
 20
30.5374
 30
0.0
 11
6.999999999999981
 21
32.6537
 31
0.0
  0
LINE
  5
43
330
1E
100
AcDbEntity
  8
0
100
AcDbLine
 10
6.999999999999981
 20
27.4158
 30
0.0
 11
6.999999999999981
 21
25.73679999999999
 31
0.0
  0
LINE
  5
44
330
1E
100
AcDbEntity
  8
0
100
AcDbLine
 10
6.999999999999981
 20
27.4158
 30
0.0
 11
6.999999999999981
 21
29.6737
 31
0.0
  0
LINE
  5
47
330
1E
100
AcDbEntity
  8
0
100
AcDbLine
 10
6.999999999999981
 20
28.6488
 30
0.0
 11
6.999999999999981
 21
30.5374
 31
0.0
  0
LINE
  5
48
330
1E
100
AcDbEntity
  8
0
100
AcDbLine
 10
6.999999999999981
 20
28.6488
 30
0.0
 11
6.999999999999981
 21
27.3517
 31
0.0
  0
LINE
  5
49
330
1E
100
AcDbEntity
  8
0
100
AcDbLine
 10
6.999999999999981
 20
32.6604
 30
0.0
 11
6.999999999999981
 21
34.9814
 31
0.0
  0
LINE
  5
4A
330
1E
100
AcDbEntity
  8
0
100
AcDbLine
 10
6.999999999999981
 20
32.6604
 30
0.0
 11
6.999999999999981
 21
30.5214
 31
0.0
  0
LINE
  5
4B
330
1E
100
AcDbEntity
  8
0
100
AcDbLine
 10
6.999999999999981
 20
32.2211
 30
0.0
 11
6.999999999999981
 21
35.0
 31
0.0
  0
LINE
  5
4C
330
1E
100
AcDbEntity
  8
0
100
AcDbLine
 10
6.999999999999981
 20
32.2211
 30
0.0
 11
6.999999999999981
 21
29.6737
 31
0.0
  0
LINE
  5
4E
330
1E
100
AcDbEntity
  8
0
100
AcDbLine
 10
6.999999999999981
 20
32.6537
 30
0.0
 11
6.999999999999981
 21
34.8427
 31
0.0
  0
LINE
  5
4F
330
1E
100
AcDbEntity
  8
0
100
AcDbLine
 10
6.999999999999981
 20
32.6537
 30
0.0
 11
6.999999999999981
 21
30.5374
 31
0.0
  0
LINE
  5
50
330
1E
100
AcDbEntity
  8
0
100
AcDbLine
 10
6.999999999999981
 20
34.8427
 30
0.0
 11
6.999999999999981
 21
37.30019999999999
 31
0.0
  0
LINE
  5
51
330
1E
100
AcDbEntity
  8
0
100
AcDbLine
 10
6.999999999999981
 20
34.8427
 30
0.0
 11
6.999999999999981
 21
32.6537
 31
0.0
  0
LINE
  5
52
330
1E
100
AcDbEntity
  8
0
100
AcDbLine
 10
6.999999999999981
 20
35.0
 30
0.0
 11
6.999999999999981
 21
37.7789
 31
0.0
  0
LINE
  5
53
330
1E
100
AcDbEntity
  8
0
100
AcDbLine
 10
6.999999999999981
 20
35.0
 30
0.0
 11
6.999999999999981
 21
32.2211
 31
0.0
  0
LINE
  5
54
330
1E
100
AcDbEntity
  8
0
100
AcDbLine
 10
6.999999999999981
 20
37.30019999999999
 30
0.0
 11
6.999999999999981
 21
34.8427
 31
0.0
  0
LINE
  5
55
330
1E
100
AcDbEntity
  8
0
100
AcDbLine
 10
6.999999999999981
 20
37.30019999999999
 30
0.0
 11
6.999999999999981
 21
39.4847
 31
0.0
  0
LINE
  5
56
330
1E
100
AcDbEntity
  8
0
100
AcDbLine
 10
6.999999999999981
 20
34.9814
 30
0.0
 11
6.999999999999981
 21
37.3935
 31
0.0
  0
LINE
  5
57
330
1E
100
AcDbEntity
  8
0
100
AcDbLine
 10
6.999999999999981
 20
34.9814
 30
0.0
 11
6.999999999999981
 21
32.6604
 31
0.0
  0
LINE
  5
58
330
1E
100
AcDbEntity
  8
0
100
AcDbLine
 10
6.999999999999981
 20
39.4847
 30
0.0
 11
6.999999999999981
 21
37.30019999999999
 31
0.0
  0
LINE
  5
59
330
1E
100
AcDbEntity
  8
0
100
AcDbLine
 10
6.999999999999981
 20
39.4847
 30
0.0
 11
6.999999999999981
 21
41.32789999999999
 31
0.0
  0
LINE
  5
5A
330
1E
100
AcDbEntity
  8
0
100
AcDbLine
 10
6.999999999999981
 20
39.3937
 30
0.0
 11
6.999999999999981
 21
41.3051
 31
0.0
  0
LINE
  5
5B
330
1E
100
AcDbEntity
  8
0
100
AcDbLine
 10
6.999999999999981
 20
39.3937
 30
0.0
 11
6.999999999999981
 21
37.3935
 31
0.0
  0
LINE
  5
5C
330
1E
100
AcDbEntity
  8
0
100
AcDbLine
 10
6.999999999999981
 20
41.32789999999999
 30
0.0
 11
6.999999999999981
 21
42.67269999999999
 31
0.0
  0
LINE
  5
5D
330
1E
100
AcDbEntity
  8
0
100
AcDbLine
 10
6.999999999999981
 20
41.32789999999999
 30
0.0
 11
6.999999999999981
 21
39.4847
 31
0.0
  0
LINE
  5
5E
330
1E
100
AcDbEntity
  8
0
100
AcDbLine
 10
6.999999999999981
 20
42.67269999999999
 30
0.0
 11
6.999999999999981
 21
41.32789999999999
 31
0.0
  0
LINE
  5
5F
330
1E
100
AcDbEntity
  8
0
100
AcDbLine
 10
6.999999999999981
 20
42.67269999999999
 30
0.0
 11
6.999999999999981
 21
43.40079999999999
 31
0.0
  0
LINE
  5
60
330
1E
100
AcDbEntity
  8
0
100
AcDbLine
 10
6.999999999999981
 20
42.71589999999998
 30
0.0
 11
6.999999999999981
 21
41.3051
 31
0.0
  0
LINE
  5
61
330
1E
100
AcDbEntity
  8
0
100
AcDbLine
 10
6.999999999999981
 20
42.71589999999998
 30
0.0
 11
6.999999999999981
 21
43.3781
 31
0.0
  0
LINE
  5
62
330
1E
100
AcDbEntity
  8
0
100
AcDbLine
 10
6.999999999999981
 20
42.5842
 30
0.0
 11
6.999999999999981
 21
40.3263
 31
0.0
  0
LINE
  5
63
330
1E
100
AcDbEntity
  8
0
100
AcDbLine
 10
6.999999999999981
 20
42.5842
 30
0.0
 11
6.999999999999981
 21
44.26309999999999
 31
0.0
  0
LINE
  5
66
330
1E
100
AcDbEntity
  8
0
100
AcDbLine
 10
6.999999999999981
 20
41.3051
 30
0.0
 11
6.999999999999981
 21
39.3937
 31
0.0
  0
LINE
  5
67
330
1E
100
AcDbEntity
  8
0
100
AcDbLine
 10
6.999999999999981
 20
41.3051
 30
0.0
 11
6.999999999999981
 21
42.71589999999998
 31
0.0
  0
LINE
  5
68
330
1E
100
AcDbEntity
  8
0
100
AcDbLine
 10
6.999999999999981
 20
40.3263
 30
0.0
 11
6.999999999999981
 21
37.7789
 31
0.0
  0
LINE
  5
69
330
1E
100
AcDbEntity
  8
0
100
AcDbLine
 10
6.999999999999981
 20
40.3263
 30
0.0
 11
6.999999999999981
 21
42.5842
 31
0.0
  0
LINE
  5
6C
330
1E
100
AcDbEntity
  8
0
100
AcDbLine
 10
6.999999999999981
 20
37.3935
 30
0.0
 11
6.999999999999981
 21
39.3937
 31
0.0
  0
LINE
  5
6D
330
1E
100
AcDbEntity
  8
0
100
AcDbLine
 10
6.999999999999981
 20
37.3935
 30
0.0
 11
6.999999999999981
 21
34.9814
 31
0.0
  0
LINE
  5
6E
330
1E
100
AcDbEntity
  8
0
100
AcDbLine
 10
6.999999999999981
 20
37.7789
 30
0.0
 11
6.999999999999981
 21
40.3263
 31
0.0
  0
LINE
  5
6F
330
1E
100
AcDbEntity
  8
0
100
AcDbLine
 10
6.999999999999981
 20
37.7789
 30
0.0
 11
6.999999999999981
 21
35.0
 31
0.0
  0
LINE
  5
71
330
1E
100
AcDbEntity
  8
0
100
AcDbLine
 10
6.999999999999981
 20
43.40079999999999
 30
0.0
 11
6.999999999999981
 21
42.67269999999999
 31
0.0
  0
LINE
  5
72
330
1E
100
AcDbEntity
  8
0
100
AcDbLine
 10
6.999999999999981
 20
43.40079999999999
 30
0.0
 11
6.999999999999981
 21
43.6056
 31
0.0
  0
LINE
  5
73
330
1E
100
AcDbEntity
  8
0
100
AcDbLine
 10
6.999999999999981
 20
44.26309999999999
 30
0.0
 11
6.999999999999981
 21
45.3053
 31
0.0
  0
LINE
  5
74
330
1E
100
AcDbEntity
  8
0
100
AcDbLine
 10
6.999999999999981
 20
44.26309999999999
 30
0.0
 11
6.999999999999981
 21
42.5842
 31
0.0
  0
LINE
  5
77
330
1E
100
AcDbEntity
  8
0
100
AcDbLine
 10
6.999999999999981
 20
43.3781
 30
0.0
 11
6.999999999999981
 21
43.6056
 31
0.0
  0
LINE
  5
78
330
1E
100
AcDbEntity
  8
0
100
AcDbLine
 10
6.999999999999981
 20
43.3781
 30
0.0
 11
6.999999999999981
 21
42.71589999999998
 31
0.0
  0
LINE
  5
79
330
1E
100
AcDbEntity
  8
0
100
AcDbLine
 10
6.999999999999981
 20
43.6056
 30
0.0
 11
6.999999999999981
 21
43.3781
 31
0.0
  0
LINE
  5
7A
330
1E
100
AcDbEntity
  8
0
100
AcDbLine
 10
6.999999999999981
 20
43.6056
 30
0.0
 11
6.999999999999981
 21
43.40079999999999
 31
0.0
  0
LINE
  5
7B
330
1E
100
AcDbEntity
  8
0
100
AcDbLine
 10
6.999999999999981
 20
45.3053
 30
0.0
 11
6.999999999999981
 21
45.7105
 31
0.0
  0
LINE
  5
7C
330
1E
100
AcDbEntity
  8
0
100
AcDbLine
 10
6.999999999999981
 20
45.3053
 30
0.0
 11
6.999999999999981
 21
44.26309999999999
 31
0.0
  0
LINE
  5
7E
330
1E
100
AcDbEntity
  8
0
100
AcDbLine
 10
8.428599999999971
 20
24.0
 30
0.0
 11
25.0
 21
24.0
 31
0.0
  0
LINE
  5
80
330
1E
100
AcDbEntity
  8
0
100
AcDbLine
 10
7.714299999999981
 20
24.0
 30
0.0
 11
8.428599999999971
 21
24.0
 31
0.0
  0
LINE
  5
82
330
1E
100
AcDbEntity
  8
0
100
AcDbLine
 10
7.07139999999997
 20
24.0
 30
0.0
 11
7.17139999999997
 21
24.0
 31
0.0
  0
LINE
  5
83
330
1E
100
AcDbEntity
  8
0
100
AcDbLine
 10
7.14439999999998
 20
29.4007
 30
0.0
 11
7.25969999999997
 21
26.7789
 31
0.0
  0
LINE
  5
84
330
1E
100
AcDbEntity
  8
0
100
AcDbLine
 10
7.14439999999998
 20
29.4007
 30
0.0
 11
7.29899999999997
 21
32.0081
 31
0.0
  0
LINE
  5
87
330
1E
100
AcDbEntity
  8
0
100
AcDbLine
 10
7.25969999999997
 20
26.7789
 30
0.0
 11
7.714299999999981
 21
24.94279999999999
 31
0.0
  0
LINE
  5
89
330
1E
100
AcDbEntity
  8
0
100
AcDbLine
 10
7.714299999999981
 20
24.94279999999999
 30
0.0
 11
8.428599999999971
 21
24.0
 31
0.0
  0
LINE
  5
8E
330
1E
100
AcDbEntity
  8
0
100
AcDbLine
 10
7.714299999999981
 20
33.6405
 30
0.0
 11
7.714299999999981
 21
35.0
 31
0.0
  0
LINE
  5
90
330
1E
100
AcDbEntity
  8
0
100
AcDbLine
 10
7.29899999999997
 20
32.0081
 30
0.0
 11
7.714299999999981
 21
33.6405
 31
0.0
  0
LINE
  5
91
330
1E
100
AcDbEntity
  8
0
100
AcDbLine
 10
7.714299999999981
 20
36.35949999999999
 30
0.0
 11
7.714299999999981
 21
35.0
 31
0.0
  0
LINE
  5
95
330
1E
100
AcDbEntity
  8
0
100
AcDbLine
 10
7.714299999999981
 20
35.0
 30
0.0
 11
7.714299999999981
 21
36.35949999999999
 31
0.0
  0
LINE
  5
96
330
1E
100
AcDbEntity
  8
0
100
AcDbLine
 10
7.714299999999981
 20
35.0
 30
0.0
 11
7.714299999999981
 21
33.6405
 31
0.0
  0
LINE
  5
97
330
1E
100
AcDbEntity
  8
0
100
AcDbLine
 10
7.29899999999997
 20
37.9919
 30
0.0
 11
7.714299999999981
 21
36.35949999999999
 31
0.0
  0
LINE
  5
99
330
1E
100
AcDbEntity
  8
0
100
AcDbLine
 10
7.14439999999998
 20
40.5993
 30
0.0
 11
7.25969999999997
 21
43.2211
 31
0.0
  0
LINE
  5
9A
330
1E
100
AcDbEntity
  8
0
100
AcDbLine
 10
7.14439999999998
 20
40.5993
 30
0.0
 11
7.29899999999997
 21
37.9919
 31
0.0
  0
LINE
  5
A0
330
1E
100
AcDbEntity
  8
0
100
AcDbLine
 10
7.714299999999981
 20
46.0
 30
0.0
 11
8.428599999999971
 21
46.0
 31
0.0
  0
LINE
  5
A2
330
1E
100
AcDbEntity
  8
0
100
AcDbLine
 10
7.17139999999997
 20
46.0
 30
0.0
 11
7.714299999999981
 21
46.0
 31
0.0
  0
LINE
  5
A4
330
1E
100
AcDbEntity
  8
0
100
AcDbLine
 10
7.07139999999997
 20
46.0
 30
0.0
 11
7.17139999999997
 21
46.0
 31
0.0
  0
LINE
  5
A5
330
1E
100
AcDbEntity
  8
0
100
AcDbLine
 10
7.25969999999997
 20
43.2211
 30
0.0
 11
7.714299999999981
 21
45.0572
 31
0.0
  0
LINE
  5
A9
330
1E
100
AcDbEntity
  8
0
100
AcDbLine
 10
8.428599999999971
 20
46.0
 30
0.0
 11
25.0
 21
46.0
 31
0.0
  0
LINE
  5
AD
330
1E
100
AcDbEntity
  8
0
100
AcDbLine
 10
7.714299999999981
 20
45.0572
 30
0.0
 11
8.428599999999971
 21
46.0
 31
0.0
  0
LINE
  5
AE
330
1E
100
AcDbEntity
  8
0
100
AcDbLine
 10
7.17139999999997
 20
24.0
 30
0.0
 11
7.714299999999981
 21
24.0
 31
0.0
  0
LINE
  5
AF
330
1E
100
AcDbEntity
  8
0
100
AcDbLine
 10
6.999999999999981
 20
45.7105
 30
0.0
 11
7.07139999999997
 21
46.0
 31
0.0
  0
LINE
  5
B0
330
1E
100
AcDbEntity
  8
0
100
AcDbLine
 10
6.999999999999981
 20
45.7105
 30
0.0
 11
6.999999999999981
 21
45.3053
 31
0.0
  0
LINE
  5
B1
330
1E
100
AcDbEntity
  8
0
100
AcDbLine
 10
17.13899999999998
 20
63.7132
 30
0.0
 11
28.0
 21
63.7132
 31
0.0
  0
LINE
  5
B2
330
1E
100
AcDbEntity
  8
0
100
AcDbLine
 10
17.13899999999998
 20
63.7132
 30
0.0
 11
17.13899999999998
 21
63.9292
 31
0.0
  0
LINE
  5
B3
330
1E
100
AcDbEntity
  8
0
100
AcDbLine
 10
17.13899999999998
 20
63.9292
 30
0.0
 11
17.13899999999998
 21
63.7132
 31
0.0
  0
LINE
  5
B4
330
1E
100
AcDbEntity
  8
0
100
AcDbLine
 10
17.13899999999998
 20
63.9292
 30
0.0
 11
17.13899999999998
 21
64.5052
 31
0.0
  0
LINE
  5
B5
330
1E
100
AcDbEntity
  8
0
100
AcDbLine
 10
17.13899999999998
 20
64.57040000000001
 30
0.0
 11
17.13899999999998
 21
64.7555
 31
0.0
  0
LINE
  5
B6
330
1E
100
AcDbEntity
  8
0
100
AcDbLine
 10
17.13899999999998
 20
64.7555
 30
0.0
 11
17.13899999999998
 21
65.2492
 31
0.0
  0
LINE
  5
B7
330
1E
100
AcDbEntity
  8
0
100
AcDbLine
 10
17.13899999999998
 20
64.7555
 30
0.0
 11
17.13899999999998
 21
64.57040000000001
 31
0.0
  0
LINE
  5
B8
330
1E
100
AcDbEntity
  8
0
100
AcDbLine
 10
17.13899999999998
 20
65.2492
 30
0.0
 11
17.13899999999998
 21
66.07210000000001
 31
0.0
  0
LINE
  5
B9
330
1E
100
AcDbEntity
  8
0
100
AcDbLine
 10
17.13899999999998
 20
65.2492
 30
0.0
 11
17.13899999999998
 21
64.7555
 31
0.0
  0
LINE
  5
BA
330
1E
100
AcDbEntity
  8
0
100
AcDbLine
 10
17.13899999999998
 20
66.07210000000001
 30
0.0
 11
17.13899999999998
 21
67.16199999999999
 31
0.0
  0
LINE
  5
BB
330
1E
100
AcDbEntity
  8
0
100
AcDbLine
 10
17.13899999999998
 20
66.07210000000001
 30
0.0
 11
17.13899999999998
 21
65.2492
 31
0.0
  0
LINE
  5
BC
330
1E
100
AcDbEntity
  8
0
100
AcDbLine
 10
17.13899999999998
 20
64.5052
 30
0.0
 11
17.13899999999998
 21
63.9292
 31
0.0
  0
LINE
  5
BD
330
1E
100
AcDbEntity
  8
0
100
AcDbLine
 10
17.13899999999998
 20
64.5052
 30
0.0
 11
17.13899999999998
 21
65.4652
 31
0.0
  0
LINE
  5
BE
330
1E
100
AcDbEntity
  8
0
100
AcDbLine
 10
17.13899999999998
 20
65.4652
 30
0.0
 11
17.13899999999998
 21
64.5052
 31
0.0
  0
LINE
  5
BF
330
1E
100
AcDbEntity
  8
0
100
AcDbLine
 10
17.13899999999998
 20
65.4652
 30
0.0
 11
17.13899999999998
 21
66.7372
 31
0.0
  0
LINE
  5
C0
330
1E
100
AcDbEntity
  8
0
100
AcDbLine
 10
17.13899999999998
 20
67.16199999999999
 30
0.0
 11
17.13899999999998
 21
68.39699999999999
 31
0.0
  0
LINE
  5
C1
330
1E
100
AcDbEntity
  8
0
100
AcDbLine
 10
17.13899999999998
 20
67.16199999999999
 30
0.0
 11
17.13899999999998
 21
66.07210000000001
 31
0.0
  0
LINE
  5
C2
330
1E
100
AcDbEntity
  8
0
100
AcDbLine
 10
17.13899999999998
 20
68.39699999999999
 30
0.0
 11
17.13899999999998
 21
69.71300000000001
 31
0.0
  0
LINE
  5
C3
330
1E
100
AcDbEntity
  8
0
100
AcDbLine
 10
17.13899999999998
 20
68.39699999999999
 30
0.0
 11
17.13899999999998
 21
67.16199999999999
 31
0.0
  0
LINE
  5
C4
330
1E
100
AcDbEntity
  8
0
100
AcDbLine
 10
17.13899999999998
 20
66.7372
 30
0.0
 11
17.13899999999998
 21
65.4652
 31
0.0
  0
LINE
  5
C5
330
1E
100
AcDbEntity
  8
0
100
AcDbLine
 10
17.13899999999998
 20
66.7372
 30
0.0
 11
17.13899999999998
 21
68.17699999999999
 31
0.0
  0
LINE
  5
C6
330
1E
100
AcDbEntity
  8
0
100
AcDbLine
 10
25.0
 20
34.364
 30
0.0
 11
25.0
 21
35.0
 31
0.0
  0
LINE
  5
C7
330
1E
100
AcDbEntity
  8
0
100
AcDbLine
 10
25.0
 20
33.6405
 30
0.0
 11
25.0
 21
34.364
 31
0.0
  0
LINE
  5
C8
330
1E
100
AcDbEntity
  8
0
100
AcDbLine
 10
25.0
 20
32.0081
 30
0.0
 11
25.0
 21
33.6405
 31
0.0
  0
LINE
  5
C9
330
1E
100
AcDbEntity
  8
0
100
AcDbLine
 10
25.0
 20
29.4007
 30
0.0
 11
25.0
 21
32.0081
 31
0.0
  0
LINE
  5
CA
330
1E
100
AcDbEntity
  8
0
100
AcDbLine
 10
25.0
 20
26.7789
 30
0.0
 11
25.0
 21
29.4007
 31
0.0
  0
LINE
  5
CB
330
1E
100
AcDbEntity
  8
0
100
AcDbLine
 10
25.0
 20
24.94279999999999
 30
0.0
 11
25.0
 21
26.7789
 31
0.0
  0
LINE
  5
CC
330
1E
100
AcDbEntity
  8
0
100
AcDbLine
 10
25.0
 20
24.2831
 30
0.0
 11
25.0
 21
24.94279999999999
 31
0.0
  0
LINE
  5
CD
330
1E
100
AcDbEntity
  8
0
100
AcDbLine
 10
25.0
 20
35.0
 30
0.0
 11
25.0
 21
35.63599999999999
 31
0.0
  0
LINE
  5
CE
330
1E
100
AcDbEntity
  8
0
100
AcDbLine
 10
25.0
 20
35.63599999999999
 30
0.0
 11
25.0
 21
36.35949999999999
 31
0.0
  0
LINE
  5
CF
330
1E
100
AcDbEntity
  8
0
100
AcDbLine
 10
25.0
 20
36.35949999999999
 30
0.0
 11
25.0
 21
37.9919
 31
0.0
  0
LINE
  5
D0
330
1E
100
AcDbEntity
  8
0
100
AcDbLine
 10
25.0
 20
37.9919
 30
0.0
 11
25.0
 21
40.5993
 31
0.0
  0
LINE
  5
D1
330
1E
100
AcDbEntity
  8
0
100
AcDbLine
 10
25.0
 20
40.5993
 30
0.0
 11
25.0
 21
43.2211
 31
0.0
  0
LINE
  5
D2
330
1E
100
AcDbEntity
  8
0
100
AcDbLine
 10
25.0
 20
45.7169
 30
0.0
 11
25.0
 21
46.0
 31
0.0
  0
LINE
  5
D3
330
1E
100
AcDbEntity
  8
0
100
AcDbLine
 10
25.0
 20
43.2211
 30
0.0
 11
25.0
 21
45.0572
 31
0.0
  0
LINE
  5
D4
330
1E
100
AcDbEntity
  8
0
100
AcDbLine
 10
25.0
 20
45.0572
 30
0.0
 11
25.0
 21
45.7169
 31
0.0
  0
LINE
  5
D5
330
1E
100
AcDbEntity
  8
0
100
AcDbLine
 10
25.0
 20
24.0
 30
0.0
 11
25.0
 21
24.2831
 31
0.0
  0
LINE
  5
D6
330
1E
100
AcDbEntity
  8
0
100
AcDbLine
 10
17.13899999999998
 20
68.17699999999999
 30
0.0
 11
17.13899999999998
 21
66.7372
 31
0.0
  0
LINE
  5
D7
330
1E
100
AcDbEntity
  8
0
100
AcDbLine
 10
17.13899999999998
 20
68.17699999999999
 30
0.0
 11
17.13899999999998
 21
69.71300000000001
 31
0.0
  0
LINE
  5
D8
330
1E
100
AcDbEntity
  8
0
100
AcDbLine
 10
17.13899999999998
 20
72.26399999999998
 30
0.0
 11
17.13899999999998
 21
71.03
 31
0.0
  0
LINE
  5
D9
330
1E
100
AcDbEntity
  8
0
100
AcDbLine
 10
17.13899999999998
 20
72.26399999999998
 30
0.0
 11
17.13899999999998
 21
73.35399999999999
 31
0.0
  0
LINE
  5
DA
330
1E
100
AcDbEntity
  8
0
100
AcDbLine
 10
17.13899999999998
 20
71.03
 30
0.0
 11
17.13899999999998
 21
69.71300000000001
 31
0.0
  0
LINE
  5
DB
330
1E
100
AcDbEntity
  8
0
100
AcDbLine
 10
17.13899999999998
 20
71.03
 30
0.0
 11
17.13899999999998
 21
72.26399999999998
 31
0.0
  0
LINE
  5
DC
330
1E
100
AcDbEntity
  8
0
100
AcDbLine
 10
17.13899999999998
 20
74.85600000000002
 30
0.0
 11
17.13899999999998
 21
74.67100000000002
 31
0.0
  0
LINE
  5
DD
330
1E
100
AcDbEntity
  8
0
100
AcDbLine
 10
17.13899999999998
 20
74.67100000000002
 30
0.0
 11
17.13899999999998
 21
74.17699999999998
 31
0.0
  0
LINE
  5
DE
330
1E
100
AcDbEntity
  8
0
100
AcDbLine
 10
17.13899999999998
 20
74.67100000000002
 30
0.0
 11
17.13899999999998
 21
74.85600000000002
 31
0.0
  0
LINE
  5
DF
330
1E
100
AcDbEntity
  8
0
100
AcDbLine
 10
17.13899999999998
 20
74.17699999999998
 30
0.0
 11
17.13899999999998
 21
73.35399999999999
 31
0.0
  0
LINE
  5
E0
330
1E
100
AcDbEntity
  8
0
100
AcDbLine
 10
17.13899999999998
 20
74.17699999999998
 30
0.0
 11
17.13899999999998
 21
74.67100000000002
 31
0.0
  0
LINE
  5
E1
330
1E
100
AcDbEntity
  8
0
100
AcDbLine
 10
17.13899999999998
 20
73.35399999999999
 30
0.0
 11
17.13899999999998
 21
72.26399999999998
 31
0.0
  0
LINE
  5
E2
330
1E
100
AcDbEntity
  8
0
100
AcDbLine
 10
17.13899999999998
 20
73.35399999999999
 30
0.0
 11
17.13899999999998
 21
74.17699999999998
 31
0.0
  0
LINE
  5
E3
330
1E
100
AcDbEntity
  8
0
100
AcDbLine
 10
17.13899999999998
 20
75.497
 30
0.0
 11
17.13899999999998
 21
75.713
 31
0.0
  0
LINE
  5
E4
330
1E
100
AcDbEntity
  8
0
100
AcDbLine
 10
17.13899999999998
 20
75.497
 30
0.0
 11
17.13899999999998
 21
74.921
 31
0.0
  0
LINE
  5
E5
330
1E
100
AcDbEntity
  8
0
100
AcDbLine
 10
17.13899999999998
 20
75.713
 30
0.0
 11
28.0
 21
75.713
 31
0.0
  0
LINE
  5
E6
330
1E
100
AcDbEntity
  8
0
100
AcDbLine
 10
17.13899999999998
 20
75.713
 30
0.0
 11
17.13899999999998
 21
75.497
 31
0.0
  0
LINE
  5
E7
330
1E
100
AcDbEntity
  8
0
100
AcDbLine
 10
17.13899999999998
 20
74.921
 30
0.0
 11
17.13899999999998
 21
75.497
 31
0.0
  0
LINE
  5
E8
330
1E
100
AcDbEntity
  8
0
100
AcDbLine
 10
17.13899999999998
 20
74.921
 30
0.0
 11
17.13899999999998
 21
73.961
 31
0.0
  0
LINE
  5
E9
330
1E
100
AcDbEntity
  8
0
100
AcDbLine
 10
17.13899999999998
 20
73.961
 30
0.0
 11
17.13899999999998
 21
74.921
 31
0.0
  0
LINE
  5
EA
330
1E
100
AcDbEntity
  8
0
100
AcDbLine
 10
17.13899999999998
 20
73.961
 30
0.0
 11
17.13899999999998
 21
72.68899999999998
 31
0.0
  0
LINE
  5
EB
330
1E
100
AcDbEntity
  8
0
100
AcDbLine
 10
17.13899999999998
 20
72.68899999999998
 30
0.0
 11
17.13899999999998
 21
73.961
 31
0.0
  0
LINE
  5
EC
330
1E
100
AcDbEntity
  8
0
100
AcDbLine
 10
17.13899999999998
 20
72.68899999999998
 30
0.0
 11
17.13899999999998
 21
71.249
 31
0.0
  0
LINE
  5
ED
330
1E
100
AcDbEntity
  8
0
100
AcDbLine
 10
17.13899999999998
 20
71.249
 30
0.0
 11
17.13899999999998
 21
72.68899999999998
 31
0.0
  0
LINE
  5
EE
330
1E
100
AcDbEntity
  8
0
100
AcDbLine
 10
17.13899999999998
 20
71.249
 30
0.0
 11
17.13899999999998
 21
69.71300000000001
 31
0.0
  0
LINE
  5
EF
330
1E
100
AcDbEntity
  8
0
100
AcDbLine
 10
17.13899999999998
 20
69.71300000000001
 30
0.0
 11
17.13899999999998
 21
71.249
 31
0.0
  0
LINE
  5
F0
330
1E
100
AcDbEntity
  8
0
100
AcDbLine
 10
17.13899999999998
 20
69.71300000000001
 30
0.0
 11
17.13899999999998
 21
71.03
 31
0.0
  0
LINE
  5
F1
330
1E
100
AcDbEntity
  8
0
100
AcDbLine
 10
17.13899999999998
 20
69.71300000000001
 30
0.0
 11
17.13899999999998
 21
68.17699999999999
 31
0.0
  0
LINE
  5
F2
330
1E
100
AcDbEntity
  8
0
100
AcDbLine
 10
17.13899999999998
 20
69.71300000000001
 30
0.0
 11
17.13899999999998
 21
68.39699999999999
 31
0.0
  0
LINE
  5
F3
330
1E
100
AcDbEntity
  8
0
100
AcDbLine
 10
28.684
 20
82.0
 30
0.0
 11
30.508
 21
82.0
 31
0.0
  0
LINE
  5
F4
330
1E
100
AcDbEntity
  8
0
100
AcDbLine
 10
30.508
 20
82.0
 30
0.0
 11
33.548
 21
82.0
 31
0.0
  0
LINE
  5
F5
330
1E
100
AcDbEntity
  8
0
100
AcDbLine
 10
33.548
 20
82.0
 30
0.0
 11
37.576
 21
82.0
 31
0.0
  0
LINE
  5
F6
330
1E
100
AcDbEntity
  8
0
100
AcDbLine
 10
28.0
 20
75.713
 30
0.0
 11
28.0
 21
82.0
 31
0.0
  0
LINE
  5
F7
330
1E
100
AcDbEntity
  8
0
100
AcDbLine
 10
28.0
 20
55.0
 30
0.0
 11
28.0
 21
63.7132
 31
0.0
  0
LINE
  5
F8
330
1E
100
AcDbEntity
  8
0
100
AcDbLine
 10
28.0
 20
55.0
 30
0.0
 11
28.0
 21
82.0
 31
0.0
  0
LINE
  5
F9
330
1E
100
AcDbEntity
  8
0
100
AcDbLine
 10
28.0
 20
15.0
 30
0.0
 11
28.0
 21
-0.0000000000000174
 31
0.0
  0
LINE
  5
FA
330
1E
100
AcDbEntity
  8
0
100
AcDbLine
 10
28.0
 20
82.0
 30
0.0
 11
28.0
 21
75.713
 31
0.0
  0
LINE
  5
FB
330
1E
100
AcDbEntity
  8
0
100
AcDbLine
 10
28.0
 20
82.0
 30
0.0
 11
28.684
 21
82.0
 31
0.0
  0
LINE
  5
FC
330
1E
100
AcDbEntity
  8
0
100
AcDbLine
 10
25.0
 20
55.0
 30
0.0
 11
47.0
 21
55.0
 31
0.0
  0
LINE
  5
FD
330
1E
100
AcDbEntity
  8
0
100
AcDbLine
 10
25.0
 20
15.0
 30
0.0
 11
25.0
 21
55.0
 31
0.0
  0
LINE
  5
FE
330
1E
100
AcDbEntity
  8
0
100
AcDbLine
 10
25.0
 20
15.0
 30
0.0
 11
28.0
 21
15.0
 31
0.0
  0
LINE
  5
FF
330
1E
100
AcDbEntity
  8
0
100
AcDbLine
 10
25.0
 20
15.0
 30
0.0
 11
47.0
 21
15.0
 31
0.0
  0
LINE
  5
100
330
1E
100
AcDbEntity
  8
0
100
AcDbLine
 10
25.0
 20
15.0
 30
0.0
 11
28.0
 21
15.0
 31
0.0
  0
LINE
  5
101
330
1E
100
AcDbEntity
  8
0
100
AcDbLine
 10
34.0
 20
82.03599999999999
 30
0.0
 11
34.0
 21
82.086
 31
0.0
  0
LINE
  5
102
330
1E
100
AcDbEntity
  8
0
100
AcDbLine
 10
34.0
 20
82.03599999999999
 30
0.0
 11
34.3421
 21
82.0
 31
0.0
  0
LINE
  5
103
330
1E
100
AcDbEntity
  8
0
100
AcDbLine
 10
34.0
 20
86.64299999999999
 30
0.0
 11
34.0
 21
86.286
 31
0.0
  0
LINE
  5
104
330
1E
100
AcDbEntity
  8
0
100
AcDbLine
 10
34.0
 20
86.64299999999999
 30
0.0
 11
34.0
 21
86.91399999999999
 31
0.0
  0
LINE
  5
106
330
1E
100
AcDbEntity
  8
0
100
AcDbLine
 10
34.0
 20
86.286
 30
0.0
 11
34.0
 21
82.71399999999998
 31
0.0
  0
LINE
  5
107
330
1E
100
AcDbEntity
  8
0
100
AcDbLine
 10
34.0
 20
86.286
 30
0.0
 11
34.0
 21
86.64299999999999
 31
0.0
  0
LINE
  5
10A
330
1E
100
AcDbEntity
  8
0
100
AcDbLine
 10
34.0
 20
86.286
 30
0.0
 11
35.11419999999999
 21
86.64299999999999
 31
0.0
  0
LINE
  5
10B
330
1E
100
AcDbEntity
  8
0
100
AcDbLine
 10
34.0
 20
82.71399999999998
 30
0.0
 11
34.0
 21
82.35700000000001
 31
0.0
  0
LINE
  5
10C
330
1E
100
AcDbEntity
  8
0
100
AcDbLine
 10
34.0
 20
82.71399999999998
 30
0.0
 11
34.0
 21
86.286
 31
0.0
  0
LINE
  5
10F
330
1E
100
AcDbEntity
  8
0
100
AcDbLine
 10
34.0
 20
82.71399999999998
 30
0.0
 11
35.11419999999999
 21
82.35700000000001
 31
0.0
  0
LINE
  5
110
330
1E
100
AcDbEntity
  8
0
100
AcDbLine
 10
34.0
 20
86.91399999999999
 30
0.0
 11
34.0
 21
86.64299999999999
 31
0.0
  0
LINE
  5
111
330
1E
100
AcDbEntity
  8
0
100
AcDbLine
 10
34.0
 20
86.91399999999999
 30
0.0
 11
34.0
 21
86.964
 31
0.0
  0
LINE
  5
112
330
1E
100
AcDbEntity
  8
0
100
AcDbLine
 10
34.0
 20
82.35700000000001
 30
0.0
 11
34.0
 21
82.086
 31
0.0
  0
LINE
  5
113
330
1E
100
AcDbEntity
  8
0
100
AcDbLine
 10
34.0
 20
82.35700000000001
 30
0.0
 11
34.0
 21
82.71399999999998
 31
0.0
  0
LINE
  5
119
330
1E
100
AcDbEntity
  8
0
100
AcDbLine
 10
34.3421
 20
87.0
 30
0.0
 11
34.82099999999999
 21
87.0
 31
0.0
  0
LINE
  5
11A
330
1E
100
AcDbEntity
  8
0
100
AcDbLine
 10
34.82099999999999
 20
87.0
 30
0.0
 11
36.05259999999999
 21
87.0
 31
0.0
  0
LINE
  5
11D
330
1E
100
AcDbEntity
  8
0
100
AcDbLine
 10
34.0
 20
86.964
 30
0.0
 11
34.0
 21
86.91399999999999
 31
0.0
  0
LINE
  5
11E
330
1E
100
AcDbEntity
  8
0
100
AcDbLine
 10
34.0
 20
86.964
 30
0.0
 11
34.3421
 21
87.0
 31
0.0
  0
LINE
  5
11F
330
1E
100
AcDbEntity
  8
0
100
AcDbLine
 10
34.0
 20
82.086
 30
0.0
 11
34.0
 21
82.03599999999999
 31
0.0
  0
LINE
  5
121
330
1E
100
AcDbEntity
  8
0
100
AcDbLine
 10
34.0
 20
82.086
 30
0.0
 11
34.0
 21
82.35700000000001
 31
0.0
  0
LINE
  5
181
330
1E
100
AcDbEntity
  8
0
100
AcDbLine
 10
37.576
 20
-0.000000000000013
 30
0.0
 11
42.136
 21
-0.000000000000013
 31
0.0
  0
LINE
  5
182
330
1E
100
AcDbEntity
  8
0
100
AcDbLine
 10
37.0
 20
-0.000000000000013
 30
0.0
 11
47.0
 21
-0.000000000000013
 31
0.0
  0
LINE
  5
183
330
1E
100
AcDbEntity
  8
0
100
AcDbLine
 10
37.576
 20
82.0
 30
0.0
 11
42.136
 21
82.0
 31
0.0
  0
LINE
  5
185
330
1E
100
AcDbEntity
  8
0
100
AcDbLine
 10
35.11419999999999
 20
86.64299999999999
 30
0.0
 11
37.28419999999999
 21
86.87000000000002
 31
0.0
  0
LINE
  5
187
330
1E
100
AcDbEntity
  8
0
100
AcDbLine
 10
36.05259999999999
 20
87.0
 30
0.0
 11
38.03679999999999
 21
87.0
 31
0.0
  0
LINE
  5
188
330
1E
100
AcDbEntity
  8
0
100
AcDbLine
 10
38.03679999999999
 20
87.0
 30
0.0
 11
40.7053
 21
87.0
 31
0.0
  0
LINE
  5
18A
330
1E
100
AcDbEntity
  8
0
100
AcDbLine
 10
37.28419999999999
 20
86.87000000000002
 30
0.0
 11
40.3826
 21
86.928
 31
0.0
  0
LINE
  5
18B
330
1E
100
AcDbEntity
  8
0
100
AcDbLine
 10
37.28419999999999
 20
82.12999999999999
 30
0.0
 11
40.3826
 21
82.072
 31
0.0
  0
LINE
  5
18D
330
1E
100
AcDbEntity
  8
0
100
AcDbLine
 10
35.11419999999999
 20
82.35700000000001
 30
0.0
 11
37.28419999999999
 21
82.12999999999999
 31
0.0
  0
LINE
  5
190
330
1E
100
AcDbEntity
  8
0
100
AcDbLine
 10
42.136
 20
-0.000000000000013
 30
0.0
 11
47.0
 21
-0.000000000000013
 31
0.0
  0
LINE
  5
191
330
1E
100
AcDbEntity
  8
0
100
AcDbLine
 10
41.1124
 20
63.7132
 30
0.0
 11
47.0
 21
63.7132
 31
0.0
  0
LINE
  5
192
330
1E
100
AcDbEntity
  8
0
100
AcDbLine
 10
41.1124
 20
63.7132
 30
0.0
 11
41.1124
 21
63.9292
 31
0.0
  0
LINE
  5
193
330
1E
100
AcDbEntity
  8
0
100
AcDbLine
 10
41.1124
 20
63.7132
 30
0.0
 11
47.0
 21
63.7132
 31
0.0
  0
LINE
  5
194
330
1E
100
AcDbEntity
  8
0
100
AcDbLine
 10
41.1124
 20
63.9292
 30
0.0
 11
41.1124
 21
63.7132
 31
0.0
  0
LINE
  5
195
330
1E
100
AcDbEntity
  8
0
100
AcDbLine
 10
41.1124
 20
63.9292
 30
0.0
 11
41.1124
 21
64.5052
 31
0.0
  0
LINE
  5
196
330
1E
100
AcDbEntity
  8
0
100
AcDbLine
 10
41.1124
 20
64.57040000000001
 30
0.0
 11
41.1124
 21
64.7555
 31
0.0
  0
LINE
  5
197
330
1E
100
AcDbEntity
  8
0
100
AcDbLine
 10
41.1124
 20
64.7555
 30
0.0
 11
41.1124
 21
65.2492
 31
0.0
  0
LINE
  5
198
330
1E
100
AcDbEntity
  8
0
100
AcDbLine
 10
41.1124
 20
64.7555
 30
0.0
 11
41.1124
 21
64.57040000000001
 31
0.0
  0
LINE
  5
199
330
1E
100
AcDbEntity
  8
0
100
AcDbLine
 10
41.1124
 20
65.2492
 30
0.0
 11
41.1124
 21
66.07210000000001
 31
0.0
  0
LINE
  5
19A
330
1E
100
AcDbEntity
  8
0
100
AcDbLine
 10
41.1124
 20
65.2492
 30
0.0
 11
41.1124
 21
64.7555
 31
0.0
  0
LINE
  5
19B
330
1E
100
AcDbEntity
  8
0
100
AcDbLine
 10
41.1124
 20
66.07210000000001
 30
0.0
 11
41.1124
 21
67.16199999999999
 31
0.0
  0
LINE
  5
19C
330
1E
100
AcDbEntity
  8
0
100
AcDbLine
 10
41.1124
 20
66.07210000000001
 30
0.0
 11
41.1124
 21
65.2492
 31
0.0
  0
LINE
  5
19D
330
1E
100
AcDbEntity
  8
0
100
AcDbLine
 10
41.1124
 20
64.5052
 30
0.0
 11
41.1124
 21
63.9292
 31
0.0
  0
LINE
  5
19E
330
1E
100
AcDbEntity
  8
0
100
AcDbLine
 10
41.1124
 20
64.5052
 30
0.0
 11
41.1124
 21
65.4652
 31
0.0
  0
LINE
  5
19F
330
1E
100
AcDbEntity
  8
0
100
AcDbLine
 10
41.1124
 20
65.4652
 30
0.0
 11
41.1124
 21
64.5052
 31
0.0
  0
LINE
  5
1A0
330
1E
100
AcDbEntity
  8
0
100
AcDbLine
 10
41.1124
 20
65.4652
 30
0.0
 11
41.1124
 21
66.7372
 31
0.0
  0
LINE
  5
1A1
330
1E
100
AcDbEntity
  8
0
100
AcDbLine
 10
41.1124
 20
67.16199999999999
 30
0.0
 11
41.1124
 21
68.39699999999999
 31
0.0
  0
LINE
  5
1A2
330
1E
100
AcDbEntity
  8
0
100
AcDbLine
 10
41.1124
 20
67.16199999999999
 30
0.0
 11
41.1124
 21
66.07210000000001
 31
0.0
  0
LINE
  5
1A3
330
1E
100
AcDbEntity
  8
0
100
AcDbLine
 10
41.1124
 20
68.39699999999999
 30
0.0
 11
41.1124
 21
69.71300000000001
 31
0.0
  0
LINE
  5
1A4
330
1E
100
AcDbEntity
  8
0
100
AcDbLine
 10
41.1124
 20
68.39699999999999
 30
0.0
 11
41.1124
 21
67.16199999999999
 31
0.0
  0
LINE
  5
1A5
330
1E
100
AcDbEntity
  8
0
100
AcDbLine
 10
41.1124
 20
66.7372
 30
0.0
 11
41.1124
 21
65.4652
 31
0.0
  0
LINE
  5
1A6
330
1E
100
AcDbEntity
  8
0
100
AcDbLine
 10
41.1124
 20
66.7372
 30
0.0
 11
41.1124
 21
68.17699999999999
 31
0.0
  0
LINE
  5
1A7
330
1E
100
AcDbEntity
  8
0
100
AcDbLine
 10
41.1124
 20
68.17699999999999
 30
0.0
 11
41.1124
 21
66.7372
 31
0.0
  0
LINE
  5
1A8
330
1E
100
AcDbEntity
  8
0
100
AcDbLine
 10
41.1124
 20
68.17699999999999
 30
0.0
 11
41.1124
 21
69.71300000000001
 31
0.0
  0
LINE
  5
1A9
330
1E
100
AcDbEntity
  8
0
100
AcDbLine
 10
41.1124
 20
72.26399999999998
 30
0.0
 11
41.1124
 21
71.03
 31
0.0
  0
LINE
  5
1AA
330
1E
100
AcDbEntity
  8
0
100
AcDbLine
 10
41.1124
 20
72.26399999999998
 30
0.0
 11
41.1124
 21
73.35399999999999
 31
0.0
  0
LINE
  5
1AB
330
1E
100
AcDbEntity
  8
0
100
AcDbLine
 10
41.1124
 20
71.03
 30
0.0
 11
41.1124
 21
69.71300000000001
 31
0.0
  0
LINE
  5
1AC
330
1E
100
AcDbEntity
  8
0
100
AcDbLine
 10
41.1124
 20
71.03
 30
0.0
 11
41.1124
 21
72.26399999999998
 31
0.0
  0
LINE
  5
1AD
330
1E
100
AcDbEntity
  8
0
100
AcDbLine
 10
41.1124
 20
74.85600000000002
 30
0.0
 11
41.1124
 21
74.67100000000002
 31
0.0
  0
LINE
  5
1AE
330
1E
100
AcDbEntity
  8
0
100
AcDbLine
 10
41.1124
 20
74.67100000000002
 30
0.0
 11
41.1124
 21
74.17699999999998
 31
0.0
  0
LINE
  5
1AF
330
1E
100
AcDbEntity
  8
0
100
AcDbLine
 10
41.1124
 20
74.67100000000002
 30
0.0
 11
41.1124
 21
74.85600000000002
 31
0.0
  0
LINE
  5
1B0
330
1E
100
AcDbEntity
  8
0
100
AcDbLine
 10
41.1124
 20
74.17699999999998
 30
0.0
 11
41.1124
 21
73.35399999999999
 31
0.0
  0
LINE
  5
1B1
330
1E
100
AcDbEntity
  8
0
100
AcDbLine
 10
41.1124
 20
74.17699999999998
 30
0.0
 11
41.1124
 21
74.67100000000002
 31
0.0
  0
LINE
  5
1B2
330
1E
100
AcDbEntity
  8
0
100
AcDbLine
 10
41.1124
 20
73.35399999999999
 30
0.0
 11
41.1124
 21
72.26399999999998
 31
0.0
  0
LINE
  5
1B3
330
1E
100
AcDbEntity
  8
0
100
AcDbLine
 10
41.1124
 20
73.35399999999999
 30
0.0
 11
41.1124
 21
74.17699999999998
 31
0.0
  0
LINE
  5
1B4
330
1E
100
AcDbEntity
  8
0
100
AcDbLine
 10
41.1124
 20
75.497
 30
0.0
 11
41.1124
 21
75.713
 31
0.0
  0
LINE
  5
1B5
330
1E
100
AcDbEntity
  8
0
100
AcDbLine
 10
41.1124
 20
75.497
 30
0.0
 11
41.1124
 21
74.921
 31
0.0
  0
LINE
  5
1B6
330
1E
100
AcDbEntity
  8
0
100
AcDbLine
 10
41.1124
 20
75.713
 30
0.0
 11
47.0
 21
75.713
 31
0.0
  0
LINE
  5
1B7
330
1E
100
AcDbEntity
  8
0
100
AcDbLine
 10
41.1124
 20
75.713
 30
0.0
 11
41.1124
 21
75.497
 31
0.0
  0
LINE
  5
1B8
330
1E
100
AcDbEntity
  8
0
100
AcDbLine
 10
41.1124
 20
74.921
 30
0.0
 11
41.1124
 21
75.497
 31
0.0
  0
LINE
  5
1B9
330
1E
100
AcDbEntity
  8
0
100
AcDbLine
 10
41.1124
 20
74.921
 30
0.0
 11
41.1124
 21
73.961
 31
0.0
  0
LINE
  5
1BA
330
1E
100
AcDbEntity
  8
0
100
AcDbLine
 10
41.1124
 20
73.961
 30
0.0
 11
41.1124
 21
74.921
 31
0.0
  0
LINE
  5
1BB
330
1E
100
AcDbEntity
  8
0
100
AcDbLine
 10
41.1124
 20
73.961
 30
0.0
 11
41.1124
 21
72.68899999999998
 31
0.0
  0
LINE
  5
1BC
330
1E
100
AcDbEntity
  8
0
100
AcDbLine
 10
41.1124
 20
72.68899999999998
 30
0.0
 11
41.1124
 21
73.961
 31
0.0
  0
LINE
  5
1BD
330
1E
100
AcDbEntity
  8
0
100
AcDbLine
 10
41.1124
 20
72.68899999999998
 30
0.0
 11
41.1124
 21
71.249
 31
0.0
  0
LINE
  5
1BE
330
1E
100
AcDbEntity
  8
0
100
AcDbLine
 10
41.1124
 20
71.249
 30
0.0
 11
41.1124
 21
72.68899999999998
 31
0.0
  0
LINE
  5
1BF
330
1E
100
AcDbEntity
  8
0
100
AcDbLine
 10
41.1124
 20
71.249
 30
0.0
 11
41.1124
 21
69.71300000000001
 31
0.0
  0
LINE
  5
1C0
330
1E
100
AcDbEntity
  8
0
100
AcDbLine
 10
41.1124
 20
69.71300000000001
 30
0.0
 11
41.1124
 21
71.249
 31
0.0
  0
LINE
  5
1C1
330
1E
100
AcDbEntity
  8
0
100
AcDbLine
 10
41.1124
 20
69.71300000000001
 30
0.0
 11
41.1124
 21
71.03
 31
0.0
  0
LINE
  5
1C2
330
1E
100
AcDbEntity
  8
0
100
AcDbLine
 10
41.1124
 20
69.71300000000001
 30
0.0
 11
41.1124
 21
68.17699999999999
 31
0.0
  0
LINE
  5
1C3
330
1E
100
AcDbEntity
  8
0
100
AcDbLine
 10
41.1124
 20
69.71300000000001
 30
0.0
 11
41.1124
 21
68.39699999999999
 31
0.0
  0
LINE
  5
1C4
330
1E
100
AcDbEntity
  8
0
100
AcDbLine
 10
41.3284
 20
63.7132
 30
0.0
 11
47.0
 21
63.7132
 31
0.0
  0
LINE
  5
1C5
330
1E
100
AcDbEntity
  8
0
100
AcDbLine
 10
41.3284
 20
63.7132
 30
0.0
 11
47.0
 21
63.7132
 31
0.0
  0
LINE
  5
1C6
330
1E
100
AcDbEntity
  8
0
100
AcDbLine
 10
42.136
 20
82.0
 30
0.0
 11
47.0
 21
82.0
 31
0.0
  0
LINE
  5
1C7
330
1E
100
AcDbEntity
  8
0
100
AcDbLine
 10
47.0
 20
39.0
 30
0.0
 11
47.0
 21
34.0
 31
0.0
  0
LINE
  5
1C8
330
1E
100
AcDbEntity
  8
0
100
AcDbLine
 10
47.0
 20
15.0
 30
0.0
 11
47.0
 21
34.0
 31
0.0
  0
LINE
  5
1C9
330
1E
100
AcDbEntity
  8
0
100
AcDbLine
 10
47.54
 20
34.0
 30
0.0
 11
48.97999999999999
 21
34.0
 31
0.0
  0
LINE
  5
1CA
330
1E
100
AcDbEntity
  8
0
100
AcDbLine
 10
48.97999999999999
 20
34.0
 30
0.0
 11
51.38
 21
34.0
 31
0.0
  0
LINE
  5
1CB
330
1E
100
AcDbEntity
  8
0
100
AcDbLine
 10
47.0
 20
82.0
 30
0.0
 11
47.54
 21
82.0
 31
0.0
  0
LINE
  5
1CC
330
1E
100
AcDbEntity
  8
0
100
AcDbLine
 10
47.0
 20
82.0
 30
0.0
 11
47.0
 21
75.713
 31
0.0
  0
LINE
  5
1CD
330
1E
100
AcDbEntity
  8
0
100
AcDbLine
 10
47.54
 20
82.0
 30
0.0
 11
48.97999999999999
 21
82.0
 31
0.0
  0
LINE
  5
1CE
330
1E
100
AcDbEntity
  8
0
100
AcDbLine
 10
48.97999999999999
 20
82.0
 30
0.0
 11
51.38
 21
82.0
 31
0.0
  0
LINE
  5
1CF
330
1E
100
AcDbEntity
  8
0
100
AcDbLine
 10
47.0
 20
80.0
 30
0.0
 11
47.0
 21
75.713
 31
0.0
  0
LINE
  5
1D0
330
1E
100
AcDbEntity
  8
0
100
AcDbLine
 10
47.0
 20
75.713
 30
0.0
 11
47.0
 21
80.0
 31
0.0
  0
LINE
  5
1D1
330
1E
100
AcDbEntity
  8
0
100
AcDbLine
 10
47.0
 20
75.713
 30
0.0
 11
47.0
 21
82.0
 31
0.0
  0
LINE
  5
1D2
330
1E
100
AcDbEntity
  8
0
100
AcDbLine
 10
47.0
 20
34.0
 30
0.0
 11
47.0
 21
15.0
 31
0.0
  0
LINE
  5
1D3
330
1E
100
AcDbEntity
  8
0
100
AcDbLine
 10
47.0
 20
34.0
 30
0.0
 11
47.0
 21
-0.0000000000000174
 31
0.0
  0
LINE
  5
1D4
330
1E
100
AcDbEntity
  8
0
100
AcDbLine
 10
47.0
 20
34.0
 30
0.0
 11
47.0
 21
39.0
 31
0.0
  0
LINE
  5
1D5
330
1E
100
AcDbEntity
  8
0
100
AcDbLine
 10
47.0
 20
34.0
 30
0.0
 11
48.97999999999999
 21
34.0
 31
0.0
  0
LINE
  5
1D6
330
1E
100
AcDbEntity
  8
0
100
AcDbLine
 10
47.0
 20
34.0
 30
0.0
 11
47.54
 21
34.0
 31
0.0
  0
LINE
  5
1D7
330
1E
100
AcDbEntity
  8
0
100
AcDbLine
 10
47.0
 20
34.0
 30
0.0
 11
47.0
 21
82.0
 31
0.0
  0
LINE
  5
1D8
330
1E
100
AcDbEntity
  8
0
100
AcDbLine
 10
47.0
 20
34.0
 30
0.0
 11
47.0
 21
63.7132
 31
0.0
  0
LINE
  5
1D9
330
1E
100
AcDbEntity
  8
0
100
AcDbLine
 10
47.0
 20
-0.000000000000013
 30
0.0
 11
89.0
 21
-0.0000000000000174
 31
0.0
  0
LINE
  5
1DA
330
1E
100
AcDbEntity
  8
0
100
AcDbLine
 10
47.0
 20
-0.000000000000013
 30
0.0
 11
47.0
 21
34.0
 31
0.0
  0
LINE
  5
1DB
330
1E
100
AcDbEntity
  8
0
100
AcDbLine
 10
47.0
 20
-0.000000000000013
 30
0.0
 11
62.0
 21
-0.000000000000013
 31
0.0
  0
LINE
  5
1DD
330
1E
100
AcDbEntity
  8
0
100
AcDbLine
 10
40.3826
 20
82.072
 30
0.0
 11
43.4641
 21
82.149
 31
0.0
  0
LINE
  5
1DF
330
1E
100
AcDbEntity
  8
0
100
AcDbLine
 10
51.38
 20
82.0
 30
0.0
 11
54.56
 21
82.0
 31
0.0
  0
LINE
  5
1E0
330
1E
100
AcDbEntity
  8
0
100
AcDbLine
 10
51.38
 20
34.0
 30
0.0
 11
54.56
 21
34.0
 31
0.0
  0
LINE
  5
1E1
330
1E
100
AcDbEntity
  8
0
100
AcDbLine
 10
54.56
 20
34.0
 30
0.0
 11
58.15999999999998
 21
34.0
 31
0.0
  0
LINE
  5
1E2
330
1E
100
AcDbEntity
  8
0
100
AcDbLine
 10
58.15999999999998
 20
34.0
 30
0.0
 11
62.0
 21
34.0
 31
0.0
  0
LINE
  5
1E3
330
1E
100
AcDbEntity
  8
0
100
AcDbLine
 10
62.0
 20
34.0
 30
0.0
 11
62.0
 21
82.0
 31
0.0
  0
LINE
  5
1E4
330
1E
100
AcDbEntity
  8
0
100
AcDbLine
 10
62.0
 20
34.0
 30
0.0
 11
65.84
 21
34.0
 31
0.0
  0
LINE
  5
1E5
330
1E
100
AcDbEntity
  8
0
100
AcDbLine
 10
62.0
 20
34.0
 30
0.0
 11
83.0
 21
34.0
 31
0.0
  0
LINE
  5
1E6
330
1E
100
AcDbEntity
  8
0
100
AcDbLine
 10
62.0
 20
34.0
 30
0.0
 11
89.0
 21
34.0
 31
0.0
  0
LINE
  5
1E7
330
1E
100
AcDbEntity
  8
0
100
AcDbLine
 10
62.0
 20
-0.000000000000013
 30
0.0
 11
62.0
 21
34.0
 31
0.0
  0
LINE
  5
1E8
330
1E
100
AcDbEntity
  8
0
100
AcDbLine
 10
54.56
 20
82.0
 30
0.0
 11
58.15999999999998
 21
82.0
 31
0.0
  0
LINE
  5
1E9
330
1E
100
AcDbEntity
  8
0
100
AcDbLine
 10
62.0
 20
82.0
 30
0.0
 11
83.0
 21
82.0
 31
0.0
  0
LINE
  5
1EA
330
1E
100
AcDbEntity
  8
0
100
AcDbLine
 10
58.15999999999998
 20
82.0
 30
0.0
 11
62.0
 21
82.0
 31
0.0
  0
LINE
  5
1EB
330
1E
100
AcDbEntity
  8
0
100
AcDbLine
 10
58.15999999999998
 20
34.0
 30
0.0
 11
62.0
 21
34.0
 31
0.0
  0
LINE
  5
1EC
330
1E
100
AcDbEntity
  8
0
100
AcDbLine
 10
62.0
 20
80.0
 30
0.0
 11
62.0
 21
82.0
 31
0.0
  0
LINE
  5
1ED
330
1E
100
AcDbEntity
  8
0
100
AcDbLine
 10
57.0
 20
34.0
 30
0.0
 11
67.0
 21
34.0
 31
0.0
  0
LINE
  5
1EE
330
1E
100
AcDbEntity
  8
0
100
AcDbLine
 10
65.84
 20
34.0
 30
0.0
 11
69.43999999999999
 21
34.0
 31
0.0
  0
LINE
  5
1EF
330
1E
100
AcDbEntity
  8
0
100
AcDbLine
 10
72.62
 20
34.0
 30
0.0
 11
75.01999999999998
 21
34.0
 31
0.0
  0
LINE
  5
1F0
330
1E
100
AcDbEntity
  8
0
100
AcDbLine
 10
69.43999999999999
 20
34.0
 30
0.0
 11
72.62
 21
34.0
 31
0.0
  0
LINE
  5
1F2
330
1E
100
AcDbEntity
  8
0
100
AcDbLine
 10
75.01999999999998
 20
34.0
 30
0.0
 11
76.45999999999998
 21
34.0
 31
0.0
  0
LINE
  5
1F3
330
1E
100
AcDbEntity
  8
0
100
AcDbLine
 10
74.6579
 20
82.0
 30
0.0
 11
75.0
 21
82.03599999999999
 31
0.0
  0
LINE
  5
1F8
330
1E
100
AcDbEntity
  8
0
100
AcDbLine
 10
75.0
 20
82.03599999999999
 30
0.0
 11
75.0
 21
82.086
 31
0.0
  0
LINE
  5
1F9
330
1E
100
AcDbEntity
  8
0
100
AcDbLine
 10
68.61740000000001
 20
82.072
 30
0.0
 11
71.7158
 21
82.12999999999999
 31
0.0
  0
LINE
  5
1FD
330
1E
100
AcDbEntity
  8
0
100
AcDbLine
 10
75.0
 20
82.086
 30
0.0
 11
75.0
 21
82.35700000000001
 31
0.0
  0
LINE
  5
1FE
330
1E
100
AcDbEntity
  8
0
100
AcDbLine
 10
75.0
 20
82.086
 30
0.0
 11
75.0
 21
82.03599999999999
 31
0.0
  0
LINE
  5
1FF
330
1E
100
AcDbEntity
  8
0
100
AcDbLine
 10
55.3826
 20
82.072
 30
0.0
 11
58.4641
 21
82.149
 31
0.0
  0
LINE
  5
201
330
1E
100
AcDbEntity
  8
0
100
AcDbLine
 10
49.0
 20
82.03599999999999
 30
0.0
 11
49.0
 21
82.086
 31
0.0
  0
LINE
  5
202
330
1E
100
AcDbEntity
  8
0
100
AcDbLine
 10
49.0
 20
82.03599999999999
 30
0.0
 11
49.3421
 21
82.0
 31
0.0
  0
LINE
  5
207
330
1E
100
AcDbEntity
  8
0
100
AcDbLine
 10
48.60669999999998
 20
82.35700000000001
 30
0.0
 11
49.0
 21
82.31459568733148
 31
0.0
  0
LINE
  5
20A
330
1E
100
AcDbEntity
  8
0
100
AcDbLine
 10
45.3933
 20
82.35700000000001
 30
0.0
 11
46.24839999999998
 21
82.71399999999998
 31
0.0
  0
LINE
  5
20C
330
1E
100
AcDbEntity
  8
0
100
AcDbLine
 10
43.4641
 20
82.149
 30
0.0
 11
45.3933
 21
82.35700000000001
 31
0.0
  0
LINE
  5
210
330
1E
100
AcDbEntity
  8
0
100
AcDbLine
 10
47.7516
 20
82.71399999999998
 30
0.0
 11
48.60669999999998
 21
82.35700000000001
 31
0.0
  0
LINE
  5
212
330
1E
100
AcDbEntity
  8
0
100
AcDbLine
 10
47.0
 20
82.71399999999998
 30
0.0
 11
47.7516
 21
82.71399999999998
 31
0.0
  0
LINE
  5
213
330
1E
100
AcDbEntity
  8
0
100
AcDbLine
 10
46.24839999999998
 20
82.71399999999998
 30
0.0
 11
47.0
 21
82.71399999999998
 31
0.0
  0
LINE
  5
214
330
1E
100
AcDbEntity
  8
0
100
AcDbLine
 10
47.7516
 20
86.286
 30
0.0
 11
48.60669999999998
 21
86.64299999999999
 31
0.0
  0
LINE
  5
215
330
1E
100
AcDbEntity
  8
0
100
AcDbLine
 10
48.60669999999998
 20
86.64299999999999
 30
0.0
 11
49.0
 21
86.68540431266848
 31
0.0
  0
LINE
  5
216
330
1E
100
AcDbEntity
  8
0
100
AcDbLine
 10
47.0
 20
86.286
 30
0.0
 11
47.7516
 21
86.286
 31
0.0
  0
LINE
  5
217
330
1E
100
AcDbEntity
  8
0
100
AcDbLine
 10
46.24839999999998
 20
86.286
 30
0.0
 11
47.0
 21
86.286
 31
0.0
  0
LINE
  5
21A
330
1E
100
AcDbEntity
  8
0
100
AcDbLine
 10
45.3933
 20
86.64299999999999
 30
0.0
 11
46.24839999999998
 21
86.286
 31
0.0
  0
LINE
  5
21D
330
1E
100
AcDbEntity
  8
0
100
AcDbLine
 10
43.4641
 20
86.851
 30
0.0
 11
45.3933
 21
86.64299999999999
 31
0.0
  0
LINE
  5
220
330
1E
100
AcDbEntity
  8
0
100
AcDbLine
 10
40.7053
 20
87.0
 30
0.0
 11
43.7158
 21
87.0
 31
0.0
  0
LINE
  5
221
330
1E
100
AcDbEntity
  8
0
100
AcDbLine
 10
40.3826
 20
86.928
 30
0.0
 11
43.4641
 21
86.851
 31
0.0
  0
LINE
  5
225
330
1E
100
AcDbEntity
  8
0
100
AcDbLine
 10
47.0
 20
87.0
 30
0.0
 11
49.3421
 21
87.0
 31
0.0
  0
LINE
  5
22A
330
1E
100
AcDbEntity
  8
0
100
AcDbLine
 10
43.7158
 20
87.0
 30
0.0
 11
47.0
 21
87.0
 31
0.0
  0
LINE
  5
22B
330
1E
100
AcDbEntity
  8
0
100
AcDbLine
 10
49.0
 20
86.64299999999999
 30
0.0
 11
49.0
 21
86.286
 31
0.0
  0
LINE
  5
22C
330
1E
100
AcDbEntity
  8
0
100
AcDbLine
 10
49.0
 20
86.64299999999999
 30
0.0
 11
49.0
 21
86.91399999999999
 31
0.0
  0
LINE
  5
22E
330
1E
100
AcDbEntity
  8
0
100
AcDbLine
 10
49.0
 20
86.286
 30
0.0
 11
49.0
 21
82.71399999999998
 31
0.0
  0
LINE
  5
22F
330
1E
100
AcDbEntity
  8
0
100
AcDbLine
 10
49.0
 20
86.286
 30
0.0
 11
49.0
 21
86.64299999999999
 31
0.0
  0
LINE
  5
232
330
1E
100
AcDbEntity
  8
0
100
AcDbLine
 10
49.0
 20
86.286
 30
0.0
 11
50.1142
 21
86.64299999999999
 31
0.0
  0
LINE
  5
233
330
1E
100
AcDbEntity
  8
0
100
AcDbLine
 10
49.0
 20
82.71399999999998
 30
0.0
 11
49.0
 21
82.35700000000001
 31
0.0
  0
LINE
  5
234
330
1E
100
AcDbEntity
  8
0
100
AcDbLine
 10
49.0
 20
82.71399999999998
 30
0.0
 11
49.0
 21
86.286
 31
0.0
  0
LINE
  5
237
330
1E
100
AcDbEntity
  8
0
100
AcDbLine
 10
49.0
 20
82.71399999999998
 30
0.0
 11
50.1142
 21
82.35700000000001
 31
0.0
  0
LINE
  5
238
330
1E
100
AcDbEntity
  8
0
100
AcDbLine
 10
49.0
 20
86.91399999999999
 30
0.0
 11
49.0
 21
86.64299999999999
 31
0.0
  0
LINE
  5
239
330
1E
100
AcDbEntity
  8
0
100
AcDbLine
 10
49.0
 20
86.91399999999999
 30
0.0
 11
49.0
 21
86.964
 31
0.0
  0
LINE
  5
23A
330
1E
100
AcDbEntity
  8
0
100
AcDbLine
 10
49.0
 20
82.35700000000001
 30
0.0
 11
49.0
 21
82.086
 31
0.0
  0
LINE
  5
23B
330
1E
100
AcDbEntity
  8
0
100
AcDbLine
 10
49.0
 20
82.35700000000001
 30
0.0
 11
49.0
 21
82.71399999999998
 31
0.0
  0
LINE
  5
243
330
1E
100
AcDbEntity
  8
0
100
AcDbLine
 10
58.4641
 20
82.149
 30
0.0
 11
60.3933
 21
82.35700000000001
 31
0.0
  0
LINE
  5
247
330
1E
100
AcDbEntity
  8
0
100
AcDbLine
 10
52.28419999999999
 20
82.12999999999999
 30
0.0
 11
55.3826
 21
82.072
 31
0.0
  0
LINE
  5
249
330
1E
100
AcDbEntity
  8
0
100
AcDbLine
 10
50.1142
 20
82.35700000000001
 30
0.0
 11
52.28419999999999
 21
82.12999999999999
 31
0.0
  0
LINE
  5
24C
330
1E
100
AcDbEntity
  8
0
100
AcDbLine
 10
49.3421
 20
87.0
 30
0.0
 11
49.8211
 21
87.0
 31
0.0
  0
LINE
  5
24D
330
1E
100
AcDbEntity
  8
0
100
AcDbLine
 10
51.0526
 20
87.0
 30
0.0
 11
53.03679999999999
 21
87.0
 31
0.0
  0
LINE
  5
24E
330
1E
100
AcDbEntity
  8
0
100
AcDbLine
 10
49.8211
 20
87.0
 30
0.0
 11
51.0526
 21
87.0
 31
0.0
  0
LINE
  5
24F
330
1E
100
AcDbEntity
  8
0
100
AcDbLine
 10
58.4641
 20
86.851
 30
0.0
 11
60.3933
 21
86.64299999999999
 31
0.0
  0
LINE
  5
252
330
1E
100
AcDbEntity
  8
0
100
AcDbLine
 10
53.03679999999999
 20
87.0
 30
0.0
 11
55.7053
 21
87.0
 31
0.0
  0
LINE
  5
254
330
1E
100
AcDbEntity
  8
0
100
AcDbLine
 10
55.7053
 20
87.0
 30
0.0
 11
58.7158
 21
87.0
 31
0.0
  0
LINE
  5
255
330
1E
100
AcDbEntity
  8
0
100
AcDbLine
 10
55.3826
 20
86.928
 30
0.0
 11
58.4641
 21
86.851
 31
0.0
  0
LINE
  5
258
330
1E
100
AcDbEntity
  8
0
100
AcDbLine
 10
52.28419999999999
 20
86.87000000000002
 30
0.0
 11
55.3826
 21
86.928
 31
0.0
  0
LINE
  5
259
330
1E
100
AcDbEntity
  8
0
100
AcDbLine
 10
50.1142
 20
86.64299999999999
 30
0.0
 11
52.28419999999999
 21
86.87000000000002
 31
0.0
  0
LINE
  5
25D
330
1E
100
AcDbEntity
  8
0
100
AcDbLine
 10
65.53589999999998
 20
82.149
 30
0.0
 11
68.61740000000001
 21
82.072
 31
0.0
  0
LINE
  5
25F
330
1E
100
AcDbEntity
  8
0
100
AcDbLine
 10
71.7158
 20
82.12999999999999
 30
0.0
 11
73.88580000000001
 21
82.35700000000001
 31
0.0
  0
LINE
  5
262
330
1E
100
AcDbEntity
  8
0
100
AcDbLine
 10
75.0
 20
82.35700000000001
 30
0.0
 11
75.0
 21
82.086
 31
0.0
  0
LINE
  5
263
330
1E
100
AcDbEntity
  8
0
100
AcDbLine
 10
75.0
 20
82.35700000000001
 30
0.0
 11
75.0
 21
82.71399999999998
 31
0.0
  0
LINE
  5
268
330
1E
100
AcDbEntity
  8
0
100
AcDbLine
 10
73.88580000000001
 20
82.35700000000001
 30
0.0
 11
75.0
 21
82.71399999999998
 31
0.0
  0
LINE
  5
269
330
1E
100
AcDbEntity
  8
0
100
AcDbLine
 10
63.60669999999998
 20
82.35700000000001
 30
0.0
 11
65.53589999999998
 21
82.149
 31
0.0
  0
LINE
  5
26E
330
1E
100
AcDbEntity
  8
0
100
AcDbLine
 10
61.24839999999998
 20
82.71399999999998
 30
0.0
 11
62.0
 21
82.71399999999998
 31
0.0
  0
LINE
  5
270
330
1E
100
AcDbEntity
  8
0
100
AcDbLine
 10
75.0
 20
82.71399999999998
 30
0.0
 11
75.0
 21
82.35700000000001
 31
0.0
  0
LINE
  5
271
330
1E
100
AcDbEntity
  8
0
100
AcDbLine
 10
75.0
 20
82.71399999999998
 30
0.0
 11
75.0
 21
86.286
 31
0.0
  0
LINE
  5
272
330
1E
100
AcDbEntity
  8
0
100
AcDbLine
 10
62.7516
 20
82.71399999999998
 30
0.0
 11
63.60669999999998
 21
82.35700000000001
 31
0.0
  0
LINE
  5
273
330
1E
100
AcDbEntity
  8
0
100
AcDbLine
 10
74.66540000000001
 20
86.286
 30
0.0
 11
75.0
 21
86.286
 31
0.0
  0
LINE
  5
274
330
1E
100
AcDbEntity
  8
0
100
AcDbLine
 10
75.0
 20
86.286
 30
0.0
 11
75.0
 21
82.71399999999998
 31
0.0
  0
LINE
  5
275
330
1E
100
AcDbEntity
  8
0
100
AcDbLine
 10
75.0
 20
86.286
 30
0.0
 11
75.0
 21
86.64299999999999
 31
0.0
  0
LINE
  5
276
330
1E
100
AcDbEntity
  8
0
100
AcDbLine
 10
75.0
 20
86.64299999999999
 30
0.0
 11
75.0
 21
86.91399999999999
 31
0.0
  0
LINE
  5
277
330
1E
100
AcDbEntity
  8
0
100
AcDbLine
 10
75.0
 20
86.64299999999999
 30
0.0
 11
75.0
 21
86.286
 31
0.0
  0
LINE
  5
278
330
1E
100
AcDbEntity
  8
0
100
AcDbLine
 10
73.88580000000001
 20
86.64299999999999
 30
0.0
 11
74.66540000000001
 21
86.286
 31
0.0
  0
LINE
  5
27A
330
1E
100
AcDbEntity
  8
0
100
AcDbLine
 10
63.60669999999998
 20
86.64299999999999
 30
0.0
 11
65.53589999999998
 21
86.851
 31
0.0
  0
LINE
  5
27B
330
1E
100
AcDbEntity
  8
0
100
AcDbLine
 10
62.7516
 20
86.286
 30
0.0
 11
63.60669999999998
 21
86.64299999999999
 31
0.0
  0
LINE
  5
27C
330
1E
100
AcDbEntity
  8
0
100
AcDbLine
 10
62.0
 20
86.286
 30
0.0
 11
62.7516
 21
86.286
 31
0.0
  0
LINE
  5
27E
330
1E
100
AcDbEntity
  8
0
100
AcDbLine
 10
62.0
 20
82.71399999999998
 30
0.0
 11
62.7516
 21
82.71399999999998
 31
0.0
  0
LINE
  5
27F
330
1E
100
AcDbEntity
  8
0
100
AcDbLine
 10
61.24839999999998
 20
86.286
 30
0.0
 11
62.0
 21
86.286
 31
0.0
  0
LINE
  5
281
330
1E
100
AcDbEntity
  8
0
100
AcDbLine
 10
62.0
 20
87.0
 30
0.0
 11
65.2842
 21
87.0
 31
0.0
  0
LINE
  5
282
330
1E
100
AcDbEntity
  8
0
100
AcDbLine
 10
65.53589999999998
 20
86.851
 30
0.0
 11
68.61740000000001
 21
86.928
 31
0.0
  0
LINE
  5
283
330
1E
100
AcDbEntity
  8
0
100
AcDbLine
 10
68.2947
 20
87.0
 30
0.0
 11
70.96309999999999
 21
87.0
 31
0.0
  0
LINE
  5
284
330
1E
100
AcDbEntity
  8
0
100
AcDbLine
 10
70.96309999999999
 20
87.0
 30
0.0
 11
72.9474
 21
87.0
 31
0.0
  0
LINE
  5
285
330
1E
100
AcDbEntity
  8
0
100
AcDbLine
 10
68.61740000000001
 20
86.928
 30
0.0
 11
71.7158
 21
86.87000000000002
 31
0.0
  0
LINE
  5
286
330
1E
100
AcDbEntity
  8
0
100
AcDbLine
 10
72.9474
 20
87.0
 30
0.0
 11
74.179
 21
87.0
 31
0.0
  0
LINE
  5
287
330
1E
100
AcDbEntity
  8
0
100
AcDbLine
 10
74.6579
 20
87.0
 30
0.0
 11
75.0
 21
86.964
 31
0.0
  0
LINE
  5
288
330
1E
100
AcDbEntity
  8
0
100
AcDbLine
 10
74.179
 20
87.0
 30
0.0
 11
74.6579
 21
87.0
 31
0.0
  0
LINE
  5
289
330
1E
100
AcDbEntity
  8
0
100
AcDbLine
 10
75.0
 20
86.91399999999999
 30
0.0
 11
75.0
 21
86.64299999999999
 31
0.0
  0
LINE
  5
28A
330
1E
100
AcDbEntity
  8
0
100
AcDbLine
 10
75.0
 20
86.91399999999999
 30
0.0
 11
75.0
 21
86.964
 31
0.0
  0
LINE
  5
28B
330
1E
100
AcDbEntity
  8
0
100
AcDbLine
 10
75.0
 20
86.964
 30
0.0
 11
75.0
 21
86.91399999999999
 31
0.0
  0
LINE
  5
28E
330
1E
100
AcDbEntity
  8
0
100
AcDbLine
 10
71.7158
 20
86.87000000000002
 30
0.0
 11
73.88580000000001
 21
86.64299999999999
 31
0.0
  0
LINE
  5
290
330
1E
100
AcDbEntity
  8
0
100
AcDbLine
 10
65.2842
 20
87.0
 30
0.0
 11
68.2947
 21
87.0
 31
0.0
  0
LINE
  5
297
330
1E
100
AcDbEntity
  8
0
100
AcDbLine
 10
62.0
 20
86.64299999999999
 30
0.0
 11
63.60669999999998
 21
86.64299999999999
 31
0.0
  0
LINE
  5
298
330
1E
100
AcDbEntity
  8
0
100
AcDbLine
 10
60.3933
 20
86.64299999999999
 30
0.0
 11
61.24839999999998
 21
86.286
 31
0.0
  0
LINE
  5
29A
330
1E
100
AcDbEntity
  8
0
100
AcDbLine
 10
60.3933
 20
86.64299999999999
 30
0.0
 11
62.0
 21
86.64299999999999
 31
0.0
  0
LINE
  5
29B
330
1E
100
AcDbEntity
  8
0
100
AcDbLine
 10
60.3933
 20
82.35700000000001
 30
0.0
 11
61.24839999999998
 21
82.71399999999998
 31
0.0
  0
LINE
  5
29D
330
1E
100
AcDbEntity
  8
0
100
AcDbLine
 10
58.7158
 20
87.0
 30
0.0
 11
62.0
 21
87.0
 31
0.0
  0
LINE
  5
2A0
330
1E
100
AcDbEntity
  8
0
100
AcDbLine
 10
49.0
 20
86.964
 30
0.0
 11
49.0
 21
86.91399999999999
 31
0.0
  0
LINE
  5
2A1
330
1E
100
AcDbEntity
  8
0
100
AcDbLine
 10
49.0
 20
86.964
 30
0.0
 11
49.3421
 21
87.0
 31
0.0
  0
LINE
  5
2A2
330
1E
100
AcDbEntity
  8
0
100
AcDbLine
 10
49.0
 20
82.086
 30
0.0
 11
49.0
 21
82.03599999999999
 31
0.0
  0
LINE
  5
2A3
330
1E
100
AcDbEntity
  8
0
100
AcDbLine
 10
49.0
 20
82.086
 30
0.0
 11
49.0
 21
82.35700000000001
 31
0.0
  0
LINE
  5
2F5
330
1E
100
AcDbEntity
  8
0
100
AcDbLine
 10
81.0
 20
35.26469999999999
 30
0.0
 11
81.0
 21
35.4765
 31
0.0
  0
LINE
  5
2F6
330
1E
100
AcDbEntity
  8
0
100
AcDbLine
 10
81.0
 20
35.26469999999999
 30
0.0
 11
81.135
 21
35.0882
 31
0.0
  0
LINE
  5
2F7
330
1E
100
AcDbEntity
  8
0
100
AcDbLine
 10
81.0
 20
36.0412
 30
0.0
 11
81.0
 21
36.9412
 31
0.0
  0
LINE
  5
2F8
330
1E
100
AcDbEntity
  8
0
100
AcDbLine
 10
81.0
 20
36.0412
 30
0.0
 11
81.0
 21
35.4765
 31
0.0
  0
LINE
  5
2F9
330
1E
100
AcDbEntity
  8
0
100
AcDbLine
 10
81.0
 20
35.4765
 30
0.0
 11
81.0
 21
36.0412
 31
0.0
  0
LINE
  5
2FA
330
1E
100
AcDbEntity
  8
0
100
AcDbLine
 10
81.0
 20
35.4765
 30
0.0
 11
81.0
 21
35.26469999999999
 31
0.0
  0
LINE
  5
2FB
330
1E
100
AcDbEntity
  8
0
100
AcDbLine
 10
81.135
 20
35.88239999999998
 30
0.0
 11
81.135
 21
36.8176
 31
0.0
  0
LINE
  5
2FC
330
1E
100
AcDbEntity
  8
0
100
AcDbLine
 10
81.135
 20
35.88239999999998
 30
0.0
 11
81.135
 21
35.29999999999999
 31
0.0
  0
LINE
  5
2FD
330
1E
100
AcDbEntity
  8
0
100
AcDbLine
 10
81.135
 20
35.29999999999999
 30
0.0
 11
81.135
 21
35.88239999999998
 31
0.0
  0
LINE
  5
2FE
330
1E
100
AcDbEntity
  8
0
100
AcDbLine
 10
81.135
 20
35.29999999999999
 30
0.0
 11
81.135
 21
35.0882
 31
0.0
  0
LINE
  5
2FF
330
1E
100
AcDbEntity
  8
0
100
AcDbLine
 10
81.135
 20
35.0882
 30
0.0
 11
81.135
 21
35.29999999999999
 31
0.0
  0
LINE
  5
300
330
1E
100
AcDbEntity
  8
0
100
AcDbLine
 10
81.135
 20
35.0882
 30
0.0
 11
81.40399999999997
 21
35.0
 31
0.0
  0
LINE
  5
301
330
1E
100
AcDbEntity
  8
0
100
AcDbLine
 10
81.0
 20
36.9412
 30
0.0
 11
81.0
 21
38.14119999999999
 31
0.0
  0
LINE
  5
302
330
1E
100
AcDbEntity
  8
0
100
AcDbLine
 10
81.0
 20
36.9412
 30
0.0
 11
81.0
 21
36.0412
 31
0.0
  0
LINE
  5
303
330
1E
100
AcDbEntity
  8
0
100
AcDbLine
 10
81.0
 20
38.14119999999999
 30
0.0
 11
81.0
 21
39.51769999999999
 31
0.0
  0
LINE
  5
304
330
1E
100
AcDbEntity
  8
0
100
AcDbLine
 10
81.0
 20
38.14119999999999
 30
0.0
 11
81.0
 21
36.9412
 31
0.0
  0
LINE
  5
305
330
1E
100
AcDbEntity
  8
0
100
AcDbLine
 10
81.135
 20
36.8176
 30
0.0
 11
81.135
 21
38.0529
 31
0.0
  0
LINE
  5
306
330
1E
100
AcDbEntity
  8
0
100
AcDbLine
 10
81.135
 20
36.8176
 30
0.0
 11
81.135
 21
35.88239999999998
 31
0.0
  0
LINE
  5
307
330
1E
100
AcDbEntity
  8
0
100
AcDbLine
 10
81.40399999999997
 20
35.0
 30
0.0
 11
83.0
 21
35.0
 31
0.0
  0
LINE
  5
308
330
1E
100
AcDbEntity
  8
0
100
AcDbLine
 10
81.135
 20
38.0529
 30
0.0
 11
81.135
 21
39.4823
 31
0.0
  0
LINE
  5
309
330
1E
100
AcDbEntity
  8
0
100
AcDbLine
 10
81.135
 20
38.0529
 30
0.0
 11
81.135
 21
36.8176
 31
0.0
  0
LINE
  5
30A
330
1E
100
AcDbEntity
  8
0
100
AcDbLine
 10
81.0
 20
43.8588
 30
0.0
 11
81.0
 21
45.0588
 31
0.0
  0
LINE
  5
30B
330
1E
100
AcDbEntity
  8
0
100
AcDbLine
 10
81.0
 20
43.8588
 30
0.0
 11
81.0
 21
42.4823
 31
0.0
  0
LINE
  5
30C
330
1E
100
AcDbEntity
  8
0
100
AcDbLine
 10
81.0
 20
42.4823
 30
0.0
 11
81.0
 21
43.8588
 31
0.0
  0
LINE
  5
30D
330
1E
100
AcDbEntity
  8
0
100
AcDbLine
 10
81.0
 20
42.4823
 30
0.0
 11
81.0
 21
41.0
 31
0.0
  0
LINE
  5
30E
330
1E
100
AcDbEntity
  8
0
100
AcDbLine
 10
81.0
 20
45.0588
 30
0.0
 11
81.0
 21
45.9588
 31
0.0
  0
LINE
  5
30F
330
1E
100
AcDbEntity
  8
0
100
AcDbLine
 10
81.0
 20
45.0588
 30
0.0
 11
81.0
 21
43.8588
 31
0.0
  0
LINE
  5
310
330
1E
100
AcDbEntity
  8
0
100
AcDbLine
 10
81.0
 20
45.9588
 30
0.0
 11
81.0
 21
45.0588
 31
0.0
  0
LINE
  5
311
330
1E
100
AcDbEntity
  8
0
100
AcDbLine
 10
81.0
 20
45.9588
 30
0.0
 11
81.0
 21
46.5235
 31
0.0
  0
LINE
  5
312
330
1E
100
AcDbEntity
  8
0
100
AcDbLine
 10
81.0
 20
46.5235
 30
0.0
 11
81.0
 21
45.9588
 31
0.0
  0
LINE
  5
313
330
1E
100
AcDbEntity
  8
0
100
AcDbLine
 10
81.0
 20
46.5235
 30
0.0
 11
81.0
 21
46.7353
 31
0.0
  0
LINE
  5
314
330
1E
100
AcDbEntity
  8
0
100
AcDbLine
 10
81.0
 20
46.7353
 30
0.0
 11
81.0
 21
46.5235
 31
0.0
  0
LINE
  5
315
330
1E
100
AcDbEntity
  8
0
100
AcDbLine
 10
81.0
 20
46.7353
 30
0.0
 11
81.135
 21
46.9118
 31
0.0
  0
LINE
  5
316
330
1E
100
AcDbEntity
  8
0
100
AcDbLine
 10
81.0
 20
41.0
 30
0.0
 11
81.0
 21
39.51769999999999
 31
0.0
  0
LINE
  5
317
330
1E
100
AcDbEntity
  8
0
100
AcDbLine
 10
81.0
 20
41.0
 30
0.0
 11
81.0
 21
42.4823
 31
0.0
  0
LINE
  5
318
330
1E
100
AcDbEntity
  8
0
100
AcDbLine
 10
81.135
 20
43.94709999999999
 30
0.0
 11
81.135
 21
45.1824
 31
0.0
  0
LINE
  5
319
330
1E
100
AcDbEntity
  8
0
100
AcDbLine
 10
81.135
 20
43.94709999999999
 30
0.0
 11
81.135
 21
42.51769999999999
 31
0.0
  0
LINE
  5
31A
330
1E
100
AcDbEntity
  8
0
100
AcDbLine
 10
81.135
 20
42.51769999999999
 30
0.0
 11
81.135
 21
43.94709999999999
 31
0.0
  0
LINE
  5
31B
330
1E
100
AcDbEntity
  8
0
100
AcDbLine
 10
81.135
 20
42.51769999999999
 30
0.0
 11
81.135
 21
41.0
 31
0.0
  0
LINE
  5
31C
330
1E
100
AcDbEntity
  8
0
100
AcDbLine
 10
81.135
 20
45.1824
 30
0.0
 11
81.135
 21
46.1176
 31
0.0
  0
LINE
  5
31D
330
1E
100
AcDbEntity
  8
0
100
AcDbLine
 10
81.135
 20
45.1824
 30
0.0
 11
81.135
 21
43.94709999999999
 31
0.0
  0
LINE
  5
31E
330
1E
100
AcDbEntity
  8
0
100
AcDbLine
 10
81.135
 20
46.1176
 30
0.0
 11
81.135
 21
46.7
 31
0.0
  0
LINE
  5
31F
330
1E
100
AcDbEntity
  8
0
100
AcDbLine
 10
81.135
 20
46.1176
 30
0.0
 11
81.135
 21
45.1824
 31
0.0
  0
LINE
  5
320
330
1E
100
AcDbEntity
  8
0
100
AcDbLine
 10
81.135
 20
46.7
 30
0.0
 11
81.135
 21
46.9118
 31
0.0
  0
LINE
  5
321
330
1E
100
AcDbEntity
  8
0
100
AcDbLine
 10
81.135
 20
46.7
 30
0.0
 11
81.135
 21
46.1176
 31
0.0
  0
LINE
  5
322
330
1E
100
AcDbEntity
  8
0
100
AcDbLine
 10
81.135
 20
46.9118
 30
0.0
 11
81.40399999999997
 21
47.0
 31
0.0
  0
LINE
  5
323
330
1E
100
AcDbEntity
  8
0
100
AcDbLine
 10
81.135
 20
46.9118
 30
0.0
 11
81.135
 21
46.7
 31
0.0
  0
LINE
  5
324
330
1E
100
AcDbEntity
  8
0
100
AcDbLine
 10
81.40399999999997
 20
47.0
 30
0.0
 11
83.0
 21
47.0
 31
0.0
  0
LINE
  5
325
330
1E
100
AcDbEntity
  8
0
100
AcDbLine
 10
81.135
 20
41.0
 30
0.0
 11
81.135
 21
39.4823
 31
0.0
  0
LINE
  5
326
330
1E
100
AcDbEntity
  8
0
100
AcDbLine
 10
81.135
 20
41.0
 30
0.0
 11
81.135
 21
42.51769999999999
 31
0.0
  0
LINE
  5
327
330
1E
100
AcDbEntity
  8
0
100
AcDbLine
 10
81.0
 20
39.51769999999999
 30
0.0
 11
81.0
 21
41.0
 31
0.0
  0
LINE
  5
328
330
1E
100
AcDbEntity
  8
0
100
AcDbLine
 10
81.0
 20
39.51769999999999
 30
0.0
 11
81.0
 21
38.14119999999999
 31
0.0
  0
LINE
  5
329
330
1E
100
AcDbEntity
  8
0
100
AcDbLine
 10
81.135
 20
39.4823
 30
0.0
 11
81.135
 21
41.0
 31
0.0
  0
LINE
  5
32A
330
1E
100
AcDbEntity
  8
0
100
AcDbLine
 10
81.135
 20
39.4823
 30
0.0
 11
81.135
 21
38.0529
 31
0.0
  0
LINE
  5
32B
330
1E
100
AcDbEntity
  8
0
100
AcDbLine
 10
83.0
 20
35.0
 30
0.0
 11
83.0
 21
34.0
 31
0.0
  0
LINE
  5
32C
330
1E
100
AcDbEntity
  8
0
100
AcDbLine
 10
81.40399999999997
 20
69.0
 30
0.0
 11
83.0
 21
69.0
 31
0.0
  0
LINE
  5
32D
330
1E
100
AcDbEntity
  8
0
100
AcDbLine
 10
81.0
 20
72.14100000000001
 30
0.0
 11
81.0
 21
70.941
 31
0.0
  0
LINE
  5
32E
330
1E
100
AcDbEntity
  8
0
100
AcDbLine
 10
81.0
 20
72.14100000000001
 30
0.0
 11
81.0
 21
73.518
 31
0.0
  0
LINE
  5
32F
330
1E
100
AcDbEntity
  8
0
100
AcDbLine
 10
81.0
 20
73.518
 30
0.0
 11
81.0
 21
72.14100000000001
 31
0.0
  0
LINE
  5
330
330
1E
100
AcDbEntity
  8
0
100
AcDbLine
 10
81.0
 20
73.518
 30
0.0
 11
81.0
 21
75.0
 31
0.0
  0
LINE
  5
331
330
1E
100
AcDbEntity
  8
0
100
AcDbLine
 10
81.0
 20
70.941
 30
0.0
 11
81.0
 21
70.041
 31
0.0
  0
LINE
  5
332
330
1E
100
AcDbEntity
  8
0
100
AcDbLine
 10
81.0
 20
70.941
 30
0.0
 11
81.0
 21
72.14100000000001
 31
0.0
  0
LINE
  5
333
330
1E
100
AcDbEntity
  8
0
100
AcDbLine
 10
81.0
 20
70.041
 30
0.0
 11
81.0
 21
70.941
 31
0.0
  0
LINE
  5
334
330
1E
100
AcDbEntity
  8
0
100
AcDbLine
 10
81.0
 20
70.041
 30
0.0
 11
81.0
 21
69.47700000000001
 31
0.0
  0
LINE
  5
335
330
1E
100
AcDbEntity
  8
0
100
AcDbLine
 10
81.0
 20
69.47700000000001
 30
0.0
 11
81.0
 21
70.041
 31
0.0
  0
LINE
  5
336
330
1E
100
AcDbEntity
  8
0
100
AcDbLine
 10
81.0
 20
69.47700000000001
 30
0.0
 11
81.0
 21
69.265
 31
0.0
  0
LINE
  5
337
330
1E
100
AcDbEntity
  8
0
100
AcDbLine
 10
81.0
 20
69.265
 30
0.0
 11
81.0
 21
69.47700000000001
 31
0.0
  0
LINE
  5
338
330
1E
100
AcDbEntity
  8
0
100
AcDbLine
 10
81.0
 20
69.265
 30
0.0
 11
81.135
 21
69.08800000000001
 31
0.0
  0
LINE
  5
339
330
1E
100
AcDbEntity
  8
0
100
AcDbLine
 10
81.0
 20
75.0
 30
0.0
 11
81.0
 21
76.482
 31
0.0
  0
LINE
  5
33A
330
1E
100
AcDbEntity
  8
0
100
AcDbLine
 10
81.0
 20
75.0
 30
0.0
 11
81.0
 21
73.518
 31
0.0
  0
LINE
  5
33B
330
1E
100
AcDbEntity
  8
0
100
AcDbLine
 10
81.0
 20
77.85899999999998
 30
0.0
 11
81.0
 21
76.482
 31
0.0
  0
LINE
  5
33C
330
1E
100
AcDbEntity
  8
0
100
AcDbLine
 10
81.0
 20
77.85899999999998
 30
0.0
 11
81.0
 21
79.05899999999999
 31
0.0
  0
LINE
  5
33D
330
1E
100
AcDbEntity
  8
0
100
AcDbLine
 10
81.135
 20
72.053
 30
0.0
 11
81.135
 21
70.818
 31
0.0
  0
LINE
  5
33E
330
1E
100
AcDbEntity
  8
0
100
AcDbLine
 10
81.135
 20
72.053
 30
0.0
 11
81.135
 21
73.482
 31
0.0
  0
LINE
  5
33F
330
1E
100
AcDbEntity
  8
0
100
AcDbLine
 10
81.135
 20
73.482
 30
0.0
 11
81.135
 21
72.053
 31
0.0
  0
LINE
  5
340
330
1E
100
AcDbEntity
  8
0
100
AcDbLine
 10
81.135
 20
73.482
 30
0.0
 11
81.135
 21
75.0
 31
0.0
  0
LINE
  5
341
330
1E
100
AcDbEntity
  8
0
100
AcDbLine
 10
81.135
 20
70.818
 30
0.0
 11
81.135
 21
69.882
 31
0.0
  0
LINE
  5
342
330
1E
100
AcDbEntity
  8
0
100
AcDbLine
 10
81.135
 20
70.818
 30
0.0
 11
81.135
 21
72.053
 31
0.0
  0
LINE
  5
343
330
1E
100
AcDbEntity
  8
0
100
AcDbLine
 10
81.135
 20
69.882
 30
0.0
 11
81.135
 21
69.29999999999999
 31
0.0
  0
LINE
  5
344
330
1E
100
AcDbEntity
  8
0
100
AcDbLine
 10
81.135
 20
69.882
 30
0.0
 11
81.135
 21
70.818
 31
0.0
  0
LINE
  5
345
330
1E
100
AcDbEntity
  8
0
100
AcDbLine
 10
81.135
 20
69.29999999999999
 30
0.0
 11
81.135
 21
69.08800000000001
 31
0.0
  0
LINE
  5
346
330
1E
100
AcDbEntity
  8
0
100
AcDbLine
 10
81.135
 20
69.29999999999999
 30
0.0
 11
81.135
 21
69.882
 31
0.0
  0
LINE
  5
347
330
1E
100
AcDbEntity
  8
0
100
AcDbLine
 10
81.135
 20
69.08800000000001
 30
0.0
 11
81.40399999999997
 21
69.0
 31
0.0
  0
LINE
  5
348
330
1E
100
AcDbEntity
  8
0
100
AcDbLine
 10
81.135
 20
69.08800000000001
 30
0.0
 11
81.135
 21
69.29999999999999
 31
0.0
  0
LINE
  5
349
330
1E
100
AcDbEntity
  8
0
100
AcDbLine
 10
81.135
 20
75.0
 30
0.0
 11
81.135
 21
76.518
 31
0.0
  0
LINE
  5
34A
330
1E
100
AcDbEntity
  8
0
100
AcDbLine
 10
81.135
 20
75.0
 30
0.0
 11
81.135
 21
73.482
 31
0.0
  0
LINE
  5
34B
330
1E
100
AcDbEntity
  8
0
100
AcDbLine
 10
81.0
 20
76.482
 30
0.0
 11
81.0
 21
75.0
 31
0.0
  0
LINE
  5
34C
330
1E
100
AcDbEntity
  8
0
100
AcDbLine
 10
81.0
 20
76.482
 30
0.0
 11
81.0
 21
77.85899999999998
 31
0.0
  0
LINE
  5
34D
330
1E
100
AcDbEntity
  8
0
100
AcDbLine
 10
81.0
 20
79.959
 30
0.0
 11
81.0
 21
79.05899999999999
 31
0.0
  0
LINE
  5
34E
330
1E
100
AcDbEntity
  8
0
100
AcDbLine
 10
81.0
 20
79.959
 30
0.0
 11
81.0
 21
80.523
 31
0.0
  0
LINE
  5
34F
330
1E
100
AcDbEntity
  8
0
100
AcDbLine
 10
81.0
 20
80.523
 30
0.0
 11
81.0
 21
79.959
 31
0.0
  0
LINE
  5
350
330
1E
100
AcDbEntity
  8
0
100
AcDbLine
 10
81.0
 20
80.523
 30
0.0
 11
81.0
 21
80.73500000000001
 31
0.0
  0
LINE
  5
351
330
1E
100
AcDbEntity
  8
0
100
AcDbLine
 10
81.135
 20
80.11799999999999
 30
0.0
 11
81.135
 21
79.182
 31
0.0
  0
LINE
  5
352
330
1E
100
AcDbEntity
  8
0
100
AcDbLine
 10
81.135
 20
80.11799999999999
 30
0.0
 11
81.135
 21
80.7
 31
0.0
  0
LINE
  5
353
330
1E
100
AcDbEntity
  8
0
100
AcDbLine
 10
81.0
 20
80.73500000000001
 30
0.0
 11
81.0
 21
80.523
 31
0.0
  0
LINE
  5
354
330
1E
100
AcDbEntity
  8
0
100
AcDbLine
 10
81.0
 20
80.73500000000001
 30
0.0
 11
81.135
 21
80.91199999999998
 31
0.0
  0
LINE
  5
355
330
1E
100
AcDbEntity
  8
0
100
AcDbLine
 10
81.135
 20
80.7
 30
0.0
 11
81.135
 21
80.11799999999999
 31
0.0
  0
LINE
  5
356
330
1E
100
AcDbEntity
  8
0
100
AcDbLine
 10
81.135
 20
80.7
 30
0.0
 11
81.135
 21
80.91199999999998
 31
0.0
  0
LINE
  5
357
330
1E
100
AcDbEntity
  8
0
100
AcDbLine
 10
81.135
 20
80.91199999999998
 30
0.0
 11
81.135
 21
80.7
 31
0.0
  0
LINE
  5
358
330
1E
100
AcDbEntity
  8
0
100
AcDbLine
 10
81.135
 20
80.91199999999998
 30
0.0
 11
81.40399999999997
 21
81.0
 31
0.0
  0
LINE
  5
359
330
1E
100
AcDbEntity
  8
0
100
AcDbLine
 10
81.0
 20
79.05899999999999
 30
0.0
 11
81.0
 21
77.85899999999998
 31
0.0
  0
LINE
  5
35A
330
1E
100
AcDbEntity
  8
0
100
AcDbLine
 10
81.0
 20
79.05899999999999
 30
0.0
 11
81.0
 21
79.959
 31
0.0
  0
LINE
  5
35B
330
1E
100
AcDbEntity
  8
0
100
AcDbLine
 10
81.135
 20
79.182
 30
0.0
 11
81.135
 21
77.947
 31
0.0
  0
LINE
  5
35C
330
1E
100
AcDbEntity
  8
0
100
AcDbLine
 10
81.135
 20
79.182
 30
0.0
 11
81.135
 21
80.11799999999999
 31
0.0
  0
LINE
  5
35D
330
1E
100
AcDbEntity
  8
0
100
AcDbLine
 10
81.135
 20
77.947
 30
0.0
 11
81.135
 21
76.518
 31
0.0
  0
LINE
  5
35E
330
1E
100
AcDbEntity
  8
0
100
AcDbLine
 10
81.135
 20
77.947
 30
0.0
 11
81.135
 21
79.182
 31
0.0
  0
LINE
  5
35F
330
1E
100
AcDbEntity
  8
0
100
AcDbLine
 10
81.40399999999997
 20
81.0
 30
0.0
 11
83.0
 21
81.0
 31
0.0
  0
LINE
  5
360
330
1E
100
AcDbEntity
  8
0
100
AcDbLine
 10
81.135
 20
76.518
 30
0.0
 11
81.135
 21
75.0
 31
0.0
  0
LINE
  5
361
330
1E
100
AcDbEntity
  8
0
100
AcDbLine
 10
81.135
 20
76.518
 30
0.0
 11
81.135
 21
77.947
 31
0.0
  0
LINE
  5
362
330
1E
100
AcDbEntity
  8
0
100
AcDbLine
 10
83.0
 20
69.0
 30
0.0
 11
83.0
 21
47.0
 31
0.0
  0
LINE
  5
363
330
1E
100
AcDbEntity
  8
0
100
AcDbLine
 10
83.0
 20
82.0
 30
0.0
 11
83.0
 21
81.0
 31
0.0
  0
LINE
  5
364
330
1E
100
AcDbEntity
  8
0
100
AcDbLine
 10
83.0
 20
82.0
 30
0.0
 11
83.0
 21
34.0
 31
0.0
  0
LINE
  5
365
330
1E
100
AcDbEntity
  8
0
100
AcDbLine
 10
83.0
 20
82.0
 30
0.0
 11
89.0
 21
82.0
 31
0.0
  0
LINE
  5
366
330
1E
100
AcDbEntity
  8
0
100
AcDbLine
 10
83.0
 20
47.0
 30
0.0
 11
83.0
 21
69.0
 31
0.0
  0
LINE
  5
367
330
1E
100
AcDbEntity
  8
0
100
AcDbLine
 10
83.0
 20
81.0
 30
0.0
 11
83.0
 21
82.0
 31
0.0
  0
LINE
  5
368
330
1E
100
AcDbEntity
  8
0
100
AcDbLine
 10
83.0
 20
34.0
 30
0.0
 11
83.0
 21
35.0
 31
0.0
  0
LINE
  5
369
330
1E
100
AcDbEntity
  8
0
100
AcDbLine
 10
83.0
 20
34.0
 30
0.0
 11
89.0
 21
34.0
 31
0.0
  0
LINE
  5
36A
330
1E
100
AcDbEntity
  8
0
100
AcDbLine
 10
83.0
 20
34.0
 30
0.0
 11
83.0
 21
82.0
 31
0.0
  0
LINE
  5
36B
330
1E
100
AcDbEntity
  8
0
100
AcDbLine
 10
76.45999999999998
 20
34.0
 30
0.0
 11
77.0
 21
34.0
 31
0.0
  0
LINE
  5
375
330
1E
100
AcDbEntity
  8
0
100
AcDbLine
 10
89.0
 20
13.0
 30
0.0
 11
90.59600000000001
 21
13.0
 31
0.0
  0
LINE
  5
376
330
1E
100
AcDbEntity
  8
0
100
AcDbLine
 10
89.0
 20
0.9999999999999827
 30
0.0
 11
90.59600000000001
 21
0.9999999999999827
 31
0.0
  0
LINE
  5
377
330
1E
100
AcDbEntity
  8
0
100
AcDbLine
 10
90.86499999999999
 20
1.88239999999998
 30
0.0
 11
90.86499999999999
 21
2.817599999999978
 31
0.0
  0
LINE
  5
378
330
1E
100
AcDbEntity
  8
0
100
AcDbLine
 10
90.86499999999999
 20
1.88239999999998
 30
0.0
 11
90.86499999999999
 21
1.29999999999998
 31
0.0
  0
LINE
  5
379
330
1E
100
AcDbEntity
  8
0
100
AcDbLine
 10
90.86499999999999
 20
1.29999999999998
 30
0.0
 11
90.86499999999999
 21
1.88239999999998
 31
0.0
  0
LINE
  5
37A
330
1E
100
AcDbEntity
  8
0
100
AcDbLine
 10
90.86499999999999
 20
1.29999999999998
 30
0.0
 11
90.86499999999999
 21
1.08819999999998
 31
0.0
  0
LINE
  5
37B
330
1E
100
AcDbEntity
  8
0
100
AcDbLine
 10
90.59600000000001
 20
0.9999999999999827
 30
0.0
 11
90.86499999999999
 21
1.08819999999998
 31
0.0
  0
LINE
  5
37C
330
1E
100
AcDbEntity
  8
0
100
AcDbLine
 10
90.86499999999999
 20
1.08819999999998
 30
0.0
 11
90.86499999999999
 21
1.29999999999998
 31
0.0
  0
LINE
  5
37D
330
1E
100
AcDbEntity
  8
0
100
AcDbLine
 10
90.86499999999999
 20
1.08819999999998
 30
0.0
 11
91.0
 21
1.264699999999989
 31
0.0
  0
LINE
  5
37E
330
1E
100
AcDbEntity
  8
0
100
AcDbLine
 10
90.86499999999999
 20
2.817599999999978
 30
0.0
 11
90.86499999999999
 21
4.052899999999978
 31
0.0
  0
LINE
  5
37F
330
1E
100
AcDbEntity
  8
0
100
AcDbLine
 10
90.86499999999999
 20
2.817599999999978
 30
0.0
 11
90.86499999999999
 21
1.88239999999998
 31
0.0
  0
LINE
  5
380
330
1E
100
AcDbEntity
  8
0
100
AcDbLine
 10
91.0
 20
2.041199999999979
 30
0.0
 11
91.0
 21
2.941199999999978
 31
0.0
  0
LINE
  5
381
330
1E
100
AcDbEntity
  8
0
100
AcDbLine
 10
91.0
 20
2.041199999999979
 30
0.0
 11
91.0
 21
1.476499999999979
 31
0.0
  0
LINE
  5
382
330
1E
100
AcDbEntity
  8
0
100
AcDbLine
 10
91.0
 20
1.476499999999979
 30
0.0
 11
91.0
 21
2.041199999999979
 31
0.0
  0
LINE
  5
383
330
1E
100
AcDbEntity
  8
0
100
AcDbLine
 10
91.0
 20
1.476499999999979
 30
0.0
 11
91.0
 21
1.264699999999989
 31
0.0
  0
LINE
  5
384
330
1E
100
AcDbEntity
  8
0
100
AcDbLine
 10
91.0
 20
1.264699999999989
 30
0.0
 11
91.0
 21
1.476499999999979
 31
0.0
  0
LINE
  5
385
330
1E
100
AcDbEntity
  8
0
100
AcDbLine
 10
91.0
 20
2.941199999999978
 30
0.0
 11
91.0
 21
4.14119999999998
 31
0.0
  0
LINE
  5
386
330
1E
100
AcDbEntity
  8
0
100
AcDbLine
 10
91.0
 20
2.941199999999978
 30
0.0
 11
91.0
 21
2.041199999999979
 31
0.0
  0
LINE
  5
387
330
1E
100
AcDbEntity
  8
0
100
AcDbLine
 10
91.0
 20
4.14119999999998
 30
0.0
 11
91.0
 21
5.51769999999998
 31
0.0
  0
LINE
  5
388
330
1E
100
AcDbEntity
  8
0
100
AcDbLine
 10
91.0
 20
4.14119999999998
 30
0.0
 11
91.0
 21
2.941199999999978
 31
0.0
  0
LINE
  5
389
330
1E
100
AcDbEntity
  8
0
100
AcDbLine
 10
90.86499999999999
 20
4.052899999999978
 30
0.0
 11
90.86499999999999
 21
5.48229999999999
 31
0.0
  0
LINE
  5
38A
330
1E
100
AcDbEntity
  8
0
100
AcDbLine
 10
90.86499999999999
 20
4.052899999999978
 30
0.0
 11
90.86499999999999
 21
2.817599999999978
 31
0.0
  0
LINE
  5
38B
330
1E
100
AcDbEntity
  8
0
100
AcDbLine
 10
90.86499999999999
 20
9.947099999999981
 30
0.0
 11
90.86499999999999
 21
11.18239999999999
 31
0.0
  0
LINE
  5
38C
330
1E
100
AcDbEntity
  8
0
100
AcDbLine
 10
90.86499999999999
 20
9.947099999999981
 30
0.0
 11
90.86499999999999
 21
8.51769999999998
 31
0.0
  0
LINE
  5
38D
330
1E
100
AcDbEntity
  8
0
100
AcDbLine
 10
90.86499999999999
 20
8.51769999999998
 30
0.0
 11
90.86499999999999
 21
9.947099999999981
 31
0.0
  0
LINE
  5
38E
330
1E
100
AcDbEntity
  8
0
100
AcDbLine
 10
90.86499999999999
 20
8.51769999999998
 30
0.0
 11
90.86499999999999
 21
6.999999999999981
 31
0.0
  0
LINE
  5
38F
330
1E
100
AcDbEntity
  8
0
100
AcDbLine
 10
90.86499999999999
 20
11.18239999999999
 30
0.0
 11
90.86499999999999
 21
12.11759999999999
 31
0.0
  0
LINE
  5
390
330
1E
100
AcDbEntity
  8
0
100
AcDbLine
 10
90.86499999999999
 20
11.18239999999999
 30
0.0
 11
90.86499999999999
 21
9.947099999999981
 31
0.0
  0
LINE
  5
391
330
1E
100
AcDbEntity
  8
0
100
AcDbLine
 10
90.86499999999999
 20
12.11759999999999
 30
0.0
 11
90.86499999999999
 21
12.7
 31
0.0
  0
LINE
  5
392
330
1E
100
AcDbEntity
  8
0
100
AcDbLine
 10
90.86499999999999
 20
12.11759999999999
 30
0.0
 11
90.86499999999999
 21
11.18239999999999
 31
0.0
  0
LINE
  5
393
330
1E
100
AcDbEntity
  8
0
100
AcDbLine
 10
90.86499999999999
 20
12.7
 30
0.0
 11
90.86499999999999
 21
12.91179999999999
 31
0.0
  0
LINE
  5
394
330
1E
100
AcDbEntity
  8
0
100
AcDbLine
 10
90.86499999999999
 20
12.7
 30
0.0
 11
90.86499999999999
 21
12.11759999999999
 31
0.0
  0
LINE
  5
395
330
1E
100
AcDbEntity
  8
0
100
AcDbLine
 10
90.86499999999999
 20
12.91179999999999
 30
0.0
 11
91.0
 21
12.7353
 31
0.0
  0
LINE
  5
396
330
1E
100
AcDbEntity
  8
0
100
AcDbLine
 10
90.86499999999999
 20
12.91179999999999
 30
0.0
 11
90.86499999999999
 21
12.7
 31
0.0
  0
LINE
  5
397
330
1E
100
AcDbEntity
  8
0
100
AcDbLine
 10
90.59600000000001
 20
13.0
 30
0.0
 11
90.86499999999999
 21
12.91179999999999
 31
0.0
  0
LINE
  5
398
330
1E
100
AcDbEntity
  8
0
100
AcDbLine
 10
91.0
 20
9.85879999999998
 30
0.0
 11
91.0
 21
11.05879999999999
 31
0.0
  0
LINE
  5
399
330
1E
100
AcDbEntity
  8
0
100
AcDbLine
 10
91.0
 20
9.85879999999998
 30
0.0
 11
91.0
 21
8.482299999999987
 31
0.0
  0
LINE
  5
39A
330
1E
100
AcDbEntity
  8
0
100
AcDbLine
 10
91.0
 20
8.482299999999987
 30
0.0
 11
91.0
 21
9.85879999999998
 31
0.0
  0
LINE
  5
39B
330
1E
100
AcDbEntity
  8
0
100
AcDbLine
 10
91.0
 20
8.482299999999987
 30
0.0
 11
91.0
 21
6.999999999999981
 31
0.0
  0
LINE
  5
39C
330
1E
100
AcDbEntity
  8
0
100
AcDbLine
 10
91.0
 20
11.05879999999999
 30
0.0
 11
91.0
 21
11.9588
 31
0.0
  0
LINE
  5
39D
330
1E
100
AcDbEntity
  8
0
100
AcDbLine
 10
91.0
 20
11.05879999999999
 30
0.0
 11
91.0
 21
9.85879999999998
 31
0.0
  0
LINE
  5
39E
330
1E
100
AcDbEntity
  8
0
100
AcDbLine
 10
91.0
 20
11.9588
 30
0.0
 11
91.0
 21
12.5235
 31
0.0
  0
LINE
  5
39F
330
1E
100
AcDbEntity
  8
0
100
AcDbLine
 10
91.0
 20
11.9588
 30
0.0
 11
91.0
 21
11.05879999999999
 31
0.0
  0
LINE
  5
3A0
330
1E
100
AcDbEntity
  8
0
100
AcDbLine
 10
91.0
 20
12.7353
 30
0.0
 11
91.0
 21
12.5235
 31
0.0
  0
LINE
  5
3A1
330
1E
100
AcDbEntity
  8
0
100
AcDbLine
 10
91.0
 20
12.5235
 30
0.0
 11
91.0
 21
12.7353
 31
0.0
  0
LINE
  5
3A2
330
1E
100
AcDbEntity
  8
0
100
AcDbLine
 10
91.0
 20
12.5235
 30
0.0
 11
91.0
 21
11.9588
 31
0.0
  0
LINE
  5
3A3
330
1E
100
AcDbEntity
  8
0
100
AcDbLine
 10
91.0
 20
6.999999999999981
 30
0.0
 11
91.0
 21
5.51769999999998
 31
0.0
  0
LINE
  5
3A4
330
1E
100
AcDbEntity
  8
0
100
AcDbLine
 10
91.0
 20
6.999999999999981
 30
0.0
 11
91.0
 21
8.482299999999987
 31
0.0
  0
LINE
  5
3A5
330
1E
100
AcDbEntity
  8
0
100
AcDbLine
 10
91.0
 20
5.51769999999998
 30
0.0
 11
91.0
 21
6.999999999999981
 31
0.0
  0
LINE
  5
3A6
330
1E
100
AcDbEntity
  8
0
100
AcDbLine
 10
91.0
 20
5.51769999999998
 30
0.0
 11
91.0
 21
4.14119999999998
 31
0.0
  0
LINE
  5
3A7
330
1E
100
AcDbEntity
  8
0
100
AcDbLine
 10
90.86499999999999
 20
6.999999999999981
 30
0.0
 11
90.86499999999999
 21
5.48229999999999
 31
0.0
  0
LINE
  5
3A8
330
1E
100
AcDbEntity
  8
0
100
AcDbLine
 10
90.86499999999999
 20
6.999999999999981
 30
0.0
 11
90.86499999999999
 21
8.51769999999998
 31
0.0
  0
LINE
  5
3A9
330
1E
100
AcDbEntity
  8
0
100
AcDbLine
 10
90.86499999999999
 20
5.48229999999999
 30
0.0
 11
90.86499999999999
 21
6.999999999999981
 31
0.0
  0
LINE
  5
3AA
330
1E
100
AcDbEntity
  8
0
100
AcDbLine
 10
90.86499999999999
 20
5.48229999999999
 30
0.0
 11
90.86499999999999
 21
4.052899999999978
 31
0.0
  0
LINE
  5
3AB
330
1E
100
AcDbEntity
  8
0
100
AcDbLine
 10
89.0
 20
-0.0000000000000174
 30
0.0
 11
89.0
 21
34.0
 31
0.0
  0
LINE
  5
3AC
330
1E
100
AcDbEntity
  8
0
100
AcDbLine
 10
90.59600000000001
 20
35.0
 30
0.0
 11
90.86499999999999
 21
35.0882
 31
0.0
  0
LINE
  5
3AD
330
1E
100
AcDbEntity
  8
0
100
AcDbLine
 10
90.59600000000001
 20
47.0
 30
0.0
 11
90.86499999999999
 21
46.9118
 31
0.0
  0
LINE
  5
3AE
330
1E
100
AcDbEntity
  8
0
100
AcDbLine
 10
89.0
 20
47.0
 30
0.0
 11
90.59600000000001
 21
47.0
 31
0.0
  0
LINE
  5
3AF
330
1E
100
AcDbEntity
  8
0
100
AcDbLine
 10
89.0
 20
35.0
 30
0.0
 11
90.59600000000001
 21
35.0
 31
0.0
  0
LINE
  5
3B0
330
1E
100
AcDbEntity
  8
0
100
AcDbLine
 10
90.86499999999999
 20
38.0529
 30
0.0
 11
90.86499999999999
 21
36.8176
 31
0.0
  0
LINE
  5
3B1
330
1E
100
AcDbEntity
  8
0
100
AcDbLine
 10
90.86499999999999
 20
38.0529
 30
0.0
 11
90.86499999999999
 21
39.4823
 31
0.0
  0
LINE
  5
3B2
330
1E
100
AcDbEntity
  8
0
100
AcDbLine
 10
90.86499999999999
 20
39.4823
 30
0.0
 11
90.86499999999999
 21
38.0529
 31
0.0
  0
LINE
  5
3B3
330
1E
100
AcDbEntity
  8
0
100
AcDbLine
 10
90.86499999999999
 20
39.4823
 30
0.0
 11
90.86499999999999
 21
41.0
 31
0.0
  0
LINE
  5
3B4
330
1E
100
AcDbEntity
  8
0
100
AcDbLine
 10
90.86499999999999
 20
43.94709999999999
 30
0.0
 11
90.86499999999999
 21
42.51769999999999
 31
0.0
  0
LINE
  5
3B5
330
1E
100
AcDbEntity
  8
0
100
AcDbLine
 10
90.86499999999999
 20
43.94709999999999
 30
0.0
 11
90.86499999999999
 21
45.1824
 31
0.0
  0
LINE
  5
3B6
330
1E
100
AcDbEntity
  8
0
100
AcDbLine
 10
90.86499999999999
 20
42.51769999999999
 30
0.0
 11
90.86499999999999
 21
41.0
 31
0.0
  0
LINE
  5
3B7
330
1E
100
AcDbEntity
  8
0
100
AcDbLine
 10
90.86499999999999
 20
42.51769999999999
 30
0.0
 11
90.86499999999999
 21
43.94709999999999
 31
0.0
  0
LINE
  5
3B8
330
1E
100
AcDbEntity
  8
0
100
AcDbLine
 10
90.86499999999999
 20
45.1824
 30
0.0
 11
90.86499999999999
 21
46.1176
 31
0.0
  0
LINE
  5
3B9
330
1E
100
AcDbEntity
  8
0
100
AcDbLine
 10
90.86499999999999
 20
45.1824
 30
0.0
 11
90.86499999999999
 21
43.94709999999999
 31
0.0
  0
LINE
  5
3BA
330
1E
100
AcDbEntity
  8
0
100
AcDbLine
 10
90.86499999999999
 20
46.1176
 30
0.0
 11
90.86499999999999
 21
45.1824
 31
0.0
  0
LINE
  5
3BB
330
1E
100
AcDbEntity
  8
0
100
AcDbLine
 10
90.86499999999999
 20
46.1176
 30
0.0
 11
90.86499999999999
 21
46.7
 31
0.0
  0
LINE
  5
3BC
330
1E
100
AcDbEntity
  8
0
100
AcDbLine
 10
90.86499999999999
 20
46.7
 30
0.0
 11
90.86499999999999
 21
46.1176
 31
0.0
  0
LINE
  5
3BD
330
1E
100
AcDbEntity
  8
0
100
AcDbLine
 10
90.86499999999999
 20
46.7
 30
0.0
 11
90.86499999999999
 21
46.9118
 31
0.0
  0
LINE
  5
3BE
330
1E
100
AcDbEntity
  8
0
100
AcDbLine
 10
90.86499999999999
 20
46.9118
 30
0.0
 11
90.86499999999999
 21
46.7
 31
0.0
  0
LINE
  5
3BF
330
1E
100
AcDbEntity
  8
0
100
AcDbLine
 10
90.86499999999999
 20
46.9118
 30
0.0
 11
91.0
 21
46.7353
 31
0.0
  0
LINE
  5
3C0
330
1E
100
AcDbEntity
  8
0
100
AcDbLine
 10
90.86499999999999
 20
41.0
 30
0.0
 11
90.86499999999999
 21
39.4823
 31
0.0
  0
LINE
  5
3C1
330
1E
100
AcDbEntity
  8
0
100
AcDbLine
 10
90.86499999999999
 20
41.0
 30
0.0
 11
90.86499999999999
 21
42.51769999999999
 31
0.0
  0
LINE
  5
3C2
330
1E
100
AcDbEntity
  8
0
100
AcDbLine
 10
90.86499999999999
 20
36.8176
 30
0.0
 11
90.86499999999999
 21
35.88239999999998
 31
0.0
  0
LINE
  5
3C3
330
1E
100
AcDbEntity
  8
0
100
AcDbLine
 10
90.86499999999999
 20
36.8176
 30
0.0
 11
90.86499999999999
 21
38.0529
 31
0.0
  0
LINE
  5
3C4
330
1E
100
AcDbEntity
  8
0
100
AcDbLine
 10
90.86499999999999
 20
35.88239999999998
 30
0.0
 11
90.86499999999999
 21
35.29999999999999
 31
0.0
  0
LINE
  5
3C5
330
1E
100
AcDbEntity
  8
0
100
AcDbLine
 10
90.86499999999999
 20
35.88239999999998
 30
0.0
 11
90.86499999999999
 21
36.8176
 31
0.0
  0
LINE
  5
3C6
330
1E
100
AcDbEntity
  8
0
100
AcDbLine
 10
90.86499999999999
 20
35.29999999999999
 30
0.0
 11
90.86499999999999
 21
35.0882
 31
0.0
  0
LINE
  5
3C7
330
1E
100
AcDbEntity
  8
0
100
AcDbLine
 10
90.86499999999999
 20
35.29999999999999
 30
0.0
 11
90.86499999999999
 21
35.88239999999998
 31
0.0
  0
LINE
  5
3C8
330
1E
100
AcDbEntity
  8
0
100
AcDbLine
 10
90.86499999999999
 20
35.0882
 30
0.0
 11
91.0
 21
35.26469999999999
 31
0.0
  0
LINE
  5
3C9
330
1E
100
AcDbEntity
  8
0
100
AcDbLine
 10
90.86499999999999
 20
35.0882
 30
0.0
 11
90.86499999999999
 21
35.29999999999999
 31
0.0
  0
LINE
  5
3CA
330
1E
100
AcDbEntity
  8
0
100
AcDbLine
 10
90.59600000000001
 20
69.0
 30
0.0
 11
90.86499999999999
 21
69.08800000000001
 31
0.0
  0
LINE
  5
3CB
330
1E
100
AcDbEntity
  8
0
100
AcDbLine
 10
90.86499999999999
 20
72.053
 30
0.0
 11
90.86499999999999
 21
73.482
 31
0.0
  0
LINE
  5
3CC
330
1E
100
AcDbEntity
  8
0
100
AcDbLine
 10
90.86499999999999
 20
72.053
 30
0.0
 11
90.86499999999999
 21
70.818
 31
0.0
  0
LINE
  5
3CD
330
1E
100
AcDbEntity
  8
0
100
AcDbLine
 10
90.86499999999999
 20
73.482
 30
0.0
 11
90.86499999999999
 21
75.0
 31
0.0
  0
LINE
  5
3CE
330
1E
100
AcDbEntity
  8
0
100
AcDbLine
 10
90.86499999999999
 20
73.482
 30
0.0
 11
90.86499999999999
 21
72.053
 31
0.0
  0
LINE
  5
3CF
330
1E
100
AcDbEntity
  8
0
100
AcDbLine
 10
90.86499999999999
 20
70.818
 30
0.0
 11
90.86499999999999
 21
69.882
 31
0.0
  0
LINE
  5
3D0
330
1E
100
AcDbEntity
  8
0
100
AcDbLine
 10
90.86499999999999
 20
70.818
 30
0.0
 11
90.86499999999999
 21
72.053
 31
0.0
  0
LINE
  5
3D1
330
1E
100
AcDbEntity
  8
0
100
AcDbLine
 10
90.86499999999999
 20
69.882
 30
0.0
 11
90.86499999999999
 21
70.818
 31
0.0
  0
LINE
  5
3D2
330
1E
100
AcDbEntity
  8
0
100
AcDbLine
 10
90.86499999999999
 20
69.882
 30
0.0
 11
90.86499999999999
 21
69.29999999999999
 31
0.0
  0
LINE
  5
3D3
330
1E
100
AcDbEntity
  8
0
100
AcDbLine
 10
90.86499999999999
 20
69.29999999999999
 30
0.0
 11
90.86499999999999
 21
69.882
 31
0.0
  0
LINE
  5
3D4
330
1E
100
AcDbEntity
  8
0
100
AcDbLine
 10
90.86499999999999
 20
69.29999999999999
 30
0.0
 11
90.86499999999999
 21
69.08800000000001
 31
0.0
  0
LINE
  5
3D5
330
1E
100
AcDbEntity
  8
0
100
AcDbLine
 10
90.86499999999999
 20
69.08800000000001
 30
0.0
 11
90.86499999999999
 21
69.29999999999999
 31
0.0
  0
LINE
  5
3D6
330
1E
100
AcDbEntity
  8
0
100
AcDbLine
 10
90.86499999999999
 20
69.08800000000001
 30
0.0
 11
91.0
 21
69.265
 31
0.0
  0
LINE
  5
3D7
330
1E
100
AcDbEntity
  8
0
100
AcDbLine
 10
90.86499999999999
 20
77.947
 30
0.0
 11
90.86499999999999
 21
79.182
 31
0.0
  0
LINE
  5
3D8
330
1E
100
AcDbEntity
  8
0
100
AcDbLine
 10
90.86499999999999
 20
77.947
 30
0.0
 11
90.86499999999999
 21
76.518
 31
0.0
  0
LINE
  5
3D9
330
1E
100
AcDbEntity
  8
0
100
AcDbLine
 10
90.86499999999999
 20
76.518
 30
0.0
 11
90.86499999999999
 21
77.947
 31
0.0
  0
LINE
  5
3DA
330
1E
100
AcDbEntity
  8
0
100
AcDbLine
 10
90.86499999999999
 20
76.518
 30
0.0
 11
90.86499999999999
 21
75.0
 31
0.0
  0
LINE
  5
3DB
330
1E
100
AcDbEntity
  8
0
100
AcDbLine
 10
90.86499999999999
 20
75.0
 30
0.0
 11
90.86499999999999
 21
76.518
 31
0.0
  0
LINE
  5
3DC
330
1E
100
AcDbEntity
  8
0
100
AcDbLine
 10
90.86499999999999
 20
75.0
 30
0.0
 11
90.86499999999999
 21
73.482
 31
0.0
  0
LINE
  5
3DD
330
1E
100
AcDbEntity
  8
0
100
AcDbLine
 10
90.86499999999999
 20
79.182
 30
0.0
 11
90.86499999999999
 21
80.11799999999999
 31
0.0
  0
LINE
  5
3DE
330
1E
100
AcDbEntity
  8
0
100
AcDbLine
 10
90.86499999999999
 20
79.182
 30
0.0
 11
90.86499999999999
 21
77.947
 31
0.0
  0
LINE
  5
3DF
330
1E
100
AcDbEntity
  8
0
100
AcDbLine
 10
90.86499999999999
 20
80.11799999999999
 30
0.0
 11
90.86499999999999
 21
80.7
 31
0.0
  0
LINE
  5
3E0
330
1E
100
AcDbEntity
  8
0
100
AcDbLine
 10
90.86499999999999
 20
80.11799999999999
 30
0.0
 11
90.86499999999999
 21
79.182
 31
0.0
  0
LINE
  5
3E1
330
1E
100
AcDbEntity
  8
0
100
AcDbLine
 10
90.86499999999999
 20
80.7
 30
0.0
 11
90.86499999999999
 21
80.91199999999998
 31
0.0
  0
LINE
  5
3E2
330
1E
100
AcDbEntity
  8
0
100
AcDbLine
 10
90.86499999999999
 20
80.7
 30
0.0
 11
90.86499999999999
 21
80.11799999999999
 31
0.0
  0
LINE
  5
3E3
330
1E
100
AcDbEntity
  8
0
100
AcDbLine
 10
90.59600000000001
 20
81.0
 30
0.0
 11
90.86499999999999
 21
80.91199999999998
 31
0.0
  0
LINE
  5
3E4
330
1E
100
AcDbEntity
  8
0
100
AcDbLine
 10
89.0
 20
81.0
 30
0.0
 11
90.59600000000001
 21
81.0
 31
0.0
  0
LINE
  5
3E5
330
1E
100
AcDbEntity
  8
0
100
AcDbLine
 10
89.0
 20
69.0
 30
0.0
 11
90.59600000000001
 21
69.0
 31
0.0
  0
LINE
  5
3E6
330
1E
100
AcDbEntity
  8
0
100
AcDbLine
 10
91.0
 20
35.26469999999999
 30
0.0
 11
91.0
 21
35.4765
 31
0.0
  0
LINE
  5
3E7
330
1E
100
AcDbEntity
  8
0
100
AcDbLine
 10
91.0
 20
38.14119999999999
 30
0.0
 11
91.0
 21
36.9412
 31
0.0
  0
LINE
  5
3E8
330
1E
100
AcDbEntity
  8
0
100
AcDbLine
 10
91.0
 20
38.14119999999999
 30
0.0
 11
91.0
 21
39.51769999999999
 31
0.0
  0
LINE
  5
3E9
330
1E
100
AcDbEntity
  8
0
100
AcDbLine
 10
91.0
 20
39.51769999999999
 30
0.0
 11
91.0
 21
38.14119999999999
 31
0.0
  0
LINE
  5
3EA
330
1E
100
AcDbEntity
  8
0
100
AcDbLine
 10
91.0
 20
39.51769999999999
 30
0.0
 11
91.0
 21
41.0
 31
0.0
  0
LINE
  5
3EB
330
1E
100
AcDbEntity
  8
0
100
AcDbLine
 10
91.0
 20
43.8588
 30
0.0
 11
91.0
 21
42.4823
 31
0.0
  0
LINE
  5
3EC
330
1E
100
AcDbEntity
  8
0
100
AcDbLine
 10
91.0
 20
43.8588
 30
0.0
 11
91.0
 21
45.0588
 31
0.0
  0
LINE
  5
3ED
330
1E
100
AcDbEntity
  8
0
100
AcDbLine
 10
91.0
 20
42.4823
 30
0.0
 11
91.0
 21
41.0
 31
0.0
  0
LINE
  5
3EE
330
1E
100
AcDbEntity
  8
0
100
AcDbLine
 10
91.0
 20
42.4823
 30
0.0
 11
91.0
 21
43.8588
 31
0.0
  0
LINE
  5
3EF
330
1E
100
AcDbEntity
  8
0
100
AcDbLine
 10
91.0
 20
45.0588
 30
0.0
 11
91.0
 21
45.9588
 31
0.0
  0
LINE
  5
3F0
330
1E
100
AcDbEntity
  8
0
100
AcDbLine
 10
91.0
 20
45.0588
 30
0.0
 11
91.0
 21
43.8588
 31
0.0
  0
LINE
  5
3F1
330
1E
100
AcDbEntity
  8
0
100
AcDbLine
 10
91.0
 20
45.9588
 30
0.0
 11
91.0
 21
45.0588
 31
0.0
  0
LINE
  5
3F2
330
1E
100
AcDbEntity
  8
0
100
AcDbLine
 10
91.0
 20
45.9588
 30
0.0
 11
91.0
 21
46.5235
 31
0.0
  0
LINE
  5
3F3
330
1E
100
AcDbEntity
  8
0
100
AcDbLine
 10
91.0
 20
46.5235
 30
0.0
 11
91.0
 21
45.9588
 31
0.0
  0
LINE
  5
3F4
330
1E
100
AcDbEntity
  8
0
100
AcDbLine
 10
91.0
 20
46.5235
 30
0.0
 11
91.0
 21
46.7353
 31
0.0
  0
LINE
  5
3F5
330
1E
100
AcDbEntity
  8
0
100
AcDbLine
 10
91.0
 20
46.7353
 30
0.0
 11
91.0
 21
46.5235
 31
0.0
  0
LINE
  5
3F6
330
1E
100
AcDbEntity
  8
0
100
AcDbLine
 10
91.0
 20
41.0
 30
0.0
 11
91.0
 21
39.51769999999999
 31
0.0
  0
LINE
  5
3F7
330
1E
100
AcDbEntity
  8
0
100
AcDbLine
 10
91.0
 20
41.0
 30
0.0
 11
91.0
 21
42.4823
 31
0.0
  0
LINE
  5
3F8
330
1E
100
AcDbEntity
  8
0
100
AcDbLine
 10
91.0
 20
36.9412
 30
0.0
 11
91.0
 21
36.0412
 31
0.0
  0
LINE
  5
3F9
330
1E
100
AcDbEntity
  8
0
100
AcDbLine
 10
91.0
 20
36.9412
 30
0.0
 11
91.0
 21
38.14119999999999
 31
0.0
  0
LINE
  5
3FA
330
1E
100
AcDbEntity
  8
0
100
AcDbLine
 10
91.0
 20
36.0412
 30
0.0
 11
91.0
 21
35.4765
 31
0.0
  0
LINE
  5
3FB
330
1E
100
AcDbEntity
  8
0
100
AcDbLine
 10
91.0
 20
36.0412
 30
0.0
 11
91.0
 21
36.9412
 31
0.0
  0
LINE
  5
3FC
330
1E
100
AcDbEntity
  8
0
100
AcDbLine
 10
91.0
 20
35.4765
 30
0.0
 11
91.0
 21
35.26469999999999
 31
0.0
  0
LINE
  5
3FD
330
1E
100
AcDbEntity
  8
0
100
AcDbLine
 10
91.0
 20
35.4765
 30
0.0
 11
91.0
 21
36.0412
 31
0.0
  0
LINE
  5
3FE
330
1E
100
AcDbEntity
  8
0
100
AcDbLine
 10
91.0
 20
72.14100000000001
 30
0.0
 11
91.0
 21
73.518
 31
0.0
  0
LINE
  5
3FF
330
1E
100
AcDbEntity
  8
0
100
AcDbLine
 10
91.0
 20
72.14100000000001
 30
0.0
 11
91.0
 21
70.941
 31
0.0
  0
LINE
  5
400
330
1E
100
AcDbEntity
  8
0
100
AcDbLine
 10
91.0
 20
73.518
 30
0.0
 11
91.0
 21
75.0
 31
0.0
  0
LINE
  5
401
330
1E
100
AcDbEntity
  8
0
100
AcDbLine
 10
91.0
 20
73.518
 30
0.0
 11
91.0
 21
72.14100000000001
 31
0.0
  0
LINE
  5
402
330
1E
100
AcDbEntity
  8
0
100
AcDbLine
 10
91.0
 20
70.941
 30
0.0
 11
91.0
 21
70.041
 31
0.0
  0
LINE
  5
403
330
1E
100
AcDbEntity
  8
0
100
AcDbLine
 10
91.0
 20
70.941
 30
0.0
 11
91.0
 21
72.14100000000001
 31
0.0
  0
LINE
  5
404
330
1E
100
AcDbEntity
  8
0
100
AcDbLine
 10
91.0
 20
70.041
 30
0.0
 11
91.0
 21
70.941
 31
0.0
  0
LINE
  5
405
330
1E
100
AcDbEntity
  8
0
100
AcDbLine
 10
91.0
 20
70.041
 30
0.0
 11
91.0
 21
69.47700000000001
 31
0.0
  0
LINE
  5
406
330
1E
100
AcDbEntity
  8
0
100
AcDbLine
 10
91.0
 20
69.47700000000001
 30
0.0
 11
91.0
 21
70.041
 31
0.0
  0
LINE
  5
407
330
1E
100
AcDbEntity
  8
0
100
AcDbLine
 10
91.0
 20
69.47700000000001
 30
0.0
 11
91.0
 21
69.265
 31
0.0
  0
LINE
  5
408
330
1E
100
AcDbEntity
  8
0
100
AcDbLine
 10
91.0
 20
69.265
 30
0.0
 11
91.0
 21
69.47700000000001
 31
0.0
  0
LINE
  5
409
330
1E
100
AcDbEntity
  8
0
100
AcDbLine
 10
91.0
 20
77.85899999999998
 30
0.0
 11
91.0
 21
79.05899999999999
 31
0.0
  0
LINE
  5
40A
330
1E
100
AcDbEntity
  8
0
100
AcDbLine
 10
91.0
 20
77.85899999999998
 30
0.0
 11
91.0
 21
76.482
 31
0.0
  0
LINE
  5
40B
330
1E
100
AcDbEntity
  8
0
100
AcDbLine
 10
91.0
 20
76.482
 30
0.0
 11
91.0
 21
77.85899999999998
 31
0.0
  0
LINE
  5
40C
330
1E
100
AcDbEntity
  8
0
100
AcDbLine
 10
91.0
 20
76.482
 30
0.0
 11
91.0
 21
75.0
 31
0.0
  0
LINE
  5
40D
330
1E
100
AcDbEntity
  8
0
100
AcDbLine
 10
91.0
 20
75.0
 30
0.0
 11
91.0
 21
76.482
 31
0.0
  0
LINE
  5
40E
330
1E
100
AcDbEntity
  8
0
100
AcDbLine
 10
91.0
 20
75.0
 30
0.0
 11
91.0
 21
73.518
 31
0.0
  0
LINE
  5
40F
330
1E
100
AcDbEntity
  8
0
100
AcDbLine
 10
91.0
 20
79.05899999999999
 30
0.0
 11
91.0
 21
79.959
 31
0.0
  0
LINE
  5
410
330
1E
100
AcDbEntity
  8
0
100
AcDbLine
 10
91.0
 20
79.05899999999999
 30
0.0
 11
91.0
 21
77.85899999999998
 31
0.0
  0
LINE
  5
411
330
1E
100
AcDbEntity
  8
0
100
AcDbLine
 10
91.0
 20
79.959
 30
0.0
 11
91.0
 21
80.523
 31
0.0
  0
LINE
  5
412
330
1E
100
AcDbEntity
  8
0
100
AcDbLine
 10
91.0
 20
79.959
 30
0.0
 11
91.0
 21
79.05899999999999
 31
0.0
  0
LINE
  5
413
330
1E
100
AcDbEntity
  8
0
100
AcDbLine
 10
91.0
 20
80.73500000000001
 30
0.0
 11
91.0
 21
80.523
 31
0.0
  0
LINE
  5
414
330
1E
100
AcDbEntity
  8
0
100
AcDbLine
 10
91.0
 20
80.523
 30
0.0
 11
91.0
 21
80.73500000000001
 31
0.0
  0
LINE
  5
415
330
1E
100
AcDbEntity
  8
0
100
AcDbLine
 10
91.0
 20
80.523
 30
0.0
 11
91.0
 21
79.959
 31
0.0
  0
LINE
  5
416
330
1E
100
AcDbEntity
  8
0
100
AcDbLine
 10
90.86499999999999
 20
80.91199999999998
 30
0.0
 11
91.0
 21
80.73500000000001
 31
0.0
  0
LINE
  5
417
330
1E
100
AcDbEntity
  8
0
100
AcDbLine
 10
90.86499999999999
 20
80.91199999999998
 30
0.0
 11
90.86499999999999
 21
80.7
 31
0.0
  0
LINE
  5
418
330
1E
100
AcDbEntity
  8
0
100
AcDbLine
 10
89.0
 20
34.0
 30
0.0
 11
89.0
 21
-0.0000000000000174
 31
0.0
  0
LINE
  5
419
330
1E
100
AcDbEntity
  8
0
100
AcDbLine
 10
89.0
 20
34.0
 30
0.0
 11
89.0
 21
82.0
 31
0.0
  0
ENDSEC
  0
SECTION
  2
OBJECTS
  0
DICTIONARY
  5
C
330
0
100
AcDbDictionary
281
     1
  3
ACAD_GROUP
350
D
  3
ACAD_LAYOUT
350
19
  3
ACAD_MLINESTYLE
350
16
  3
ACAD_PLOTSETTINGS
350
18
  3
ACAD_PLOTSTYLENAME
350
E
  3
ACDBVARIABLEDICTIONARY
350
5FC
  0
DICTIONARY
  5
621
330
1E
100
AcDbDictionary
280
     1
281
     1
  3
ACAD_LAYOUTSELFREF
360
622
  0
DICTIONARY
  5
61F
330
1A
100
AcDbDictionary
280
     1
281
     1
  3
ACAD_LAYOUTSELFREF
360
620
  0
DICTIONARY
  5
D
102
{ACAD_REACTORS
330
C
102
}
330
C
100
AcDbDictionary
281
     1
  0
DICTIONARY
  5
19
102
{ACAD_REACTORS
330
C
102
}
330
C
100
AcDbDictionary
281
     1
  3
Layout1
350
626
  3
Model
350
625
  0
DICTIONARY
  5
16
102
{ACAD_REACTORS
330
C
102
}
330
C
100
AcDbDictionary
281
     1
  3
STANDARD
350
17
  0
DICTIONARY
  5
18
102
{ACAD_REACTORS
330
C
102
}
330
C
100
AcDbDictionary
281
     1
  0
ACDBDICTIONARYWDFLT
  5
E
102
{ACAD_REACTORS
330
C
102
}
330
C
100
AcDbDictionary
281
     1
  3
Normal
350
F
100
AcDbDictionaryWithDefault
340
F
  0
DICTIONARY
  5
5FC
102
{ACAD_REACTORS
330
C
102
}
330
C
100
AcDbDictionary
281
     1
  3
DIMASSOC
350
5FD
  0
XRECORD
  5
622
102
{ACAD_REACTORS
330
621
102
}
330
621
100
AcDbXrecord
280
     1
340
1E
  0
XRECORD
  5
620
102
{ACAD_REACTORS
330
61F
102
}
330
61F
100
AcDbXrecord
280
     1
340
1A
  0
LAYOUT
  5
626
102
{ACAD_REACTORS
330
19
102
}
330
19
100
AcDbPlotSettings
  1

  2
hp deskjet 980c series
  4

  6

 40
0.0
 41
0.0
 42
0.0
 43
0.0
 44
0.0
 45
0.0
 46
0.0
 47
0.0
 48
0.0
 49
0.0
140
0.0
141
0.0
142
1.0
143
1.0
 70
   688
 72
     0
 73
     0
 74
     5
  7

 75
    16
147
1.0
148
0.0
149
0.0
100
AcDbLayout
  1
Layout1
 70
     1
 71
     1
 10
0.0
 20
0.0
 11
12.0
 21
9.0
 12
0.0
 22
0.0
 32
0.0
 14
1.000000000000000E+20
 24
1.000000000000000E+20
 34
1.000000000000000E+20
 15
-1.000000000000000E+20
 25
-1.000000000000000E+20
 35
-1.000000000000000E+20
146
0.0
 13
0.0
 23
0.0
 33
0.0
 16
1.0
 26
0.0
 36
0.0
 17
0.0
 27
1.0
 37
0.0
 76
     0
330
1A
  0
LAYOUT
  5
625
102
{ACAD_REACTORS
330
19
102
}
330
19
100
AcDbPlotSettings
  1

  2
hp deskjet 980c series
  4

  6

 40
0.0
 41
0.0
 42
0.0
 43
0.0
 44
0.0
 45
0.0
 46
0.0
 47
0.0
 48
0.0
 49
0.0
140
0.0
141
0.0
142
1.0
143
1.0
 70
  1712
 72
     0
 73
     0
 74
     0
  7

 75
     0
147
1.0
148
0.0
149
0.0
100
AcDbLayout
  1
Model
 70
     1
 71
     0
 10
0.0
 20
0.0
 11
12.0
 21
9.0
 12
0.0
 22
0.0
 32
0.0
 14
0.0
 24
0.0
 34
0.0
 15
0.0
 25
0.0
 35
0.0
146
0.0
 13
0.0
 23
0.0
 33
0.0
 16
1.0
 26
0.0
 36
0.0
 17
0.0
 27
1.0
 37
0.0
 76
     0
330
1E
  0
MLINESTYLE
  5
17
102
{ACAD_REACTORS
330
16
102
}
330
16
100
AcDbMlineStyle
  2
STANDARD
 70
     0
  3

 62
   256
 51
90.0
 52
90.0
 71
     2
 49
0.5
 62
   256
  6
BYLAYER
 49
-0.5
 62
   256
  6
BYLAYER
  0
ACDBPLACEHOLDER
  5
F
102
{ACAD_REACTORS
330
E
102
}
330
E
  0
DICTIONARYVAR
  5
5FD
102
{ACAD_REACTORS
330
5FC
102
}
330
5FC
100
DictionaryVariables
280
     0
  1
1
  0
ENDSEC
  0
EOF
