  0
SECTION
  2
HEADER
  9
$ACADVER
  1
AC1015
  9
$ACADMAINTVER
 70
    13
  9
$DWGCODEPAGE
  3
ANSI_1252
  9
$INSBASE
 10
0.0
 20
0.0
 30
0.0
  9
$EXTMIN
 10
-0.198350000000001
 20
0.0044999999999814
 30
0.0
  9
$EXTMAX
 10
54.79835
 20
157.9954999999999
 30
0.0
  9
$LIMMIN
 10
0.0
 20
0.0
  9
$LIMMAX
 10
12.0
 20
9.0
  9
$ORTHOMODE
 70
     0
  9
$REGENMODE
 70
     1
  9
$FILLMODE
 70
     1
  9
$QTEXTMODE
 70
     0
  9
$MIRRTEXT
 70
     1
  9
$LTSCALE
 40
1.0
  9
$ATTMODE
 70
     1
  9
$TEXTSIZE
 40
0.2
  9
$TRACEWID
 40
0.05
  9
$TEXTSTYLE
  7
Standard
  9
$CLAYER
  8
0
  9
$CELTYPE
  6
Continuous
  9
$CECOLOR
 62
   256
  9
$CELTSCALE
 40
1.0
  9
$DISPSILH
 70
     0
  9
$DIMSCALE
 40
1.0
  9
$DIMASZ
 40
0.18
  9
$DIMEXO
 40
0.0625
  9
$DIMDLI
 40
0.38
  9
$DIMRND
 40
0.0
  9
$DIMDLE
 40
0.0
  9
$DIMEXE
 40
0.18
  9
$DIMTP
 40
0.0
  9
$DIMTM
 40
0.0
  9
$DIMTXT
 40
0.18
  9
$DIMCEN
 40
0.09
  9
$DIMTSZ
 40
0.0
  9
$DIMTOL
 70
     0
  9
$DIMLIM
 70
     0
  9
$DIMTIH
 70
     1
  9
$DIMTOH
 70
     1
  9
$DIMSE1
 70
     0
  9
$DIMSE2
 70
     0
  9
$DIMTAD
 70
     0
  9
$DIMZIN
 70
     0
  9
$DIMBLK
  1

  9
$DIMASO
 70
     1
  9
$DIMSHO
 70
     1
  9
$DIMPOST
  1

  9
$DIMAPOST
  1

  9
$DIMALT
 70
     0
  9
$DIMALTD
 70
     2
  9
$DIMALTF
 40
25.4
  9
$DIMLFAC
 40
1.0
  9
$DIMTOFL
 70
     0
  9
$DIMTVP
 40
0.0
  9
$DIMTIX
 70
     0
  9
$DIMSOXD
 70
     0
  9
$DIMSAH
 70
     0
  9
$DIMBLK1
  1

  9
$DIMBLK2
  1

  9
$DIMSTYLE
  2
Standard
  9
$DIMCLRD
 70
     0
  9
$DIMCLRE
 70
     0
  9
$DIMCLRT
 70
     0
  9
$DIMTFAC
 40
1.0
  9
$DIMGAP
 40
0.09
  9
$DIMJUST
 70
     0
  9
$DIMSD1
 70
     0
  9
$DIMSD2
 70
     0
  9
$DIMTOLJ
 70
     1
  9
$DIMTZIN
 70
     0
  9
$DIMALTZ
 70
     0
  9
$DIMALTTZ
 70
     0
  9
$DIMUPT
 70
     0
  9
$DIMDEC
 70
     4
  9
$DIMTDEC
 70
     4
  9
$DIMALTU
 70
     2
  9
$DIMALTTD
 70
     2
  9
$DIMTXSTY
  7
Standard
  9
$DIMAUNIT
 70
     0
  9
$DIMADEC
 70
     0
  9
$DIMALTRND
 40
0.0
  9
$DIMAZIN
 70
     0
  9
$DIMDSEP
 70
    46
  9
$DIMATFIT
 70
     3
  9
$DIMFRAC
 70
     0
  9
$DIMLDRBLK
  1

  9
$DIMLUNIT
 70
     2
  9
$DIMLWD
 70
    -2
  9
$DIMLWE
 70
    -2
  9
$DIMTMOVE
 70
     0
  9
$LUNITS
 70
     2
  9
$LUPREC
 70
     4
  9
$SKETCHINC
 40
0.1
  9
$FILLETRAD
 40
0.0
  9
$AUNITS
 70
     0
  9
$AUPREC
 70
     0
  9
$MENU
  1
.
  9
$ELEVATION
 40
0.0
  9
$PELEVATION
 40
0.0
  9
$THICKNESS
 40
0.0
  9
$LIMCHECK
 70
     0
  9
$CHAMFERA
 40
0.0
  9
$CHAMFERB
 40
0.0
  9
$CHAMFERC
 40
0.0
  9
$CHAMFERD
 40
0.0
  9
$SKPOLY
 70
     0
  9
$TDCREATE
 40
2455646.527928599
  9
$TDUCREATE
 40
2455646.486261932
  9
$TDUPDATE
 40
2455646.886568287
  9
$TDUUPDATE
 40
2455646.844901620
  9
$TDINDWG
 40
0.0062771296
  9
$TDUSRTIMER
 40
0.0062771296
  9
$USRTIMER
 70
     1
  9
$ANGBASE
 50
0.0
  9
$ANGDIR
 70
     0
  9
$PDMODE
 70
     0
  9
$PDSIZE
 40
0.0
  9
$PLINEWID
 40
0.0
  9
$SPLFRAME
 70
     0
  9
$SPLINETYPE
 70
     6
  9
$SPLINESEGS
 70
     8
  9
$HANDSEED
  5
43C
  9
$SURFTAB1
 70
     6
  9
$SURFTAB2
 70
     6
  9
$SURFTYPE
 70
     6
  9
$SURFU
 70
     6
  9
$SURFV
 70
     6
  9
$UCSBASE
  2

  9
$UCSNAME
  2

  9
$UCSORG
 10
0.0
 20
0.0
 30
0.0
  9
$UCSXDIR
 10
1.0
 20
0.0
 30
0.0
  9
$UCSYDIR
 10
0.0
 20
1.0
 30
0.0
  9
$UCSORTHOREF
  2

  9
$UCSORTHOVIEW
 70
     1
  9
$UCSORGTOP
 10
0.0
 20
0.0
 30
0.0
  9
$UCSORGBOTTOM
 10
0.0
 20
0.0
 30
0.0
  9
$UCSORGLEFT
 10
0.0
 20
0.0
 30
0.0
  9
$UCSORGRIGHT
 10
0.0
 20
0.0
 30
0.0
  9
$UCSORGFRONT
 10
0.0
 20
0.0
 30
0.0
  9
$UCSORGBACK
 10
0.0
 20
0.0
 30
0.0
  9
$PUCSBASE
  2

  9
$PUCSNAME
  2

  9
$PUCSORG
 10
0.0
 20
0.0
 30
0.0
  9
$PUCSXDIR
 10
1.0
 20
0.0
 30
0.0
  9
$PUCSYDIR
 10
0.0
 20
1.0
 30
0.0
  9
$PUCSORTHOREF
  2

  9
$PUCSORTHOVIEW
 70
     0
  9
$PUCSORGTOP
 10
0.0
 20
0.0
 30
0.0
  9
$PUCSORGBOTTOM
 10
0.0
 20
0.0
 30
0.0
  9
$PUCSORGLEFT
 10
0.0
 20
0.0
 30
0.0
  9
$PUCSORGRIGHT
 10
0.0
 20
0.0
 30
0.0
  9
$PUCSORGFRONT
 10
0.0
 20
0.0
 30
0.0
  9
$PUCSORGBACK
 10
0.0
 20
0.0
 30
0.0
  9
$USERI1
 70
     0
  9
$USERI2
 70
     0
  9
$USERI3
 70
     0
  9
$USERI4
 70
     0
  9
$USERI5
 70
     0
  9
$USERR1
 40
0.0
  9
$USERR2
 40
0.0
  9
$USERR3
 40
0.0
  9
$USERR4
 40
0.0
  9
$USERR5
 40
0.0
  9
$WORLDVIEW
 70
     1
  9
$SHADEDGE
 70
     3
  9
$SHADEDIF
 70
    70
  9
$TILEMODE
 70
     1
  9
$MAXACTVP
 70
    64
  9
$PINSBASE
 10
0.0
 20
0.0
 30
0.0
  9
$PLIMCHECK
 70
     0
  9
$PEXTMIN
 10
1.000000000000000E+20
 20
1.000000000000000E+20
 30
1.000000000000000E+20
  9
$PEXTMAX
 10
-1.000000000000000E+20
 20
-1.000000000000000E+20
 30
-1.000000000000000E+20
  9
$PLIMMIN
 10
0.0
 20
0.0
  9
$PLIMMAX
 10
12.0
 20
9.0
  9
$UNITMODE
 70
     0
  9
$VISRETAIN
 70
     1
  9
$PLINEGEN
 70
     0
  9
$PSLTSCALE
 70
     1
  9
$TREEDEPTH
 70
  3020
  9
$CMLSTYLE
  2
Standard
  9
$CMLJUST
 70
     0
  9
$CMLSCALE
 40
1.0
  9
$PROXYGRAPHICS
 70
     1
  9
$MEASUREMENT
 70
     0
  9
$CELWEIGHT
370
    -1
  9
$ENDCAPS
280
     0
  9
$JOINSTYLE
280
     0
  9
$LWDISPLAY
290
     0
  9
$INSUNITS
 70
     0
  9
$HYPERLINKBASE
  1

  9
$STYLESHEET
  1

  9
$XEDIT
290
     1
  9
$CEPSNTYPE
380
     0
  9
$PSTYLEMODE
290
     1
  9
$FINGERPRINTGUID
  2
{CD7F1AA2-36C3-4C12-97F3-28CB43207462}
  9
$VERSIONGUID
  2
{BD4BBFAE-5B63-45F0-92B6-43C1F10B87FD}
  9
$EXTNAMES
290
     1
  9
$PSVPSCALE
 40
0.0
  9
$OLESTARTUP
290
     0
  0
ENDSEC
  0
SECTION
  2
CLASSES
  0
CLASS
  1
ACDBDICTIONARYWDFLT
  2
AcDbDictionaryWithDefault
  3
AutoCAD 2000
 90
        0
280
     0
281
     0
  0
CLASS
  1
ACDBPLACEHOLDER
  2
AcDbPlaceHolder
  3
AutoCAD 2000
 90
        0
280
     0
281
     0
  0
CLASS
  1
LAYOUT
  2
AcDbLayout
  3
AutoCAD 2000
 90
        0
280
     0
281
     0
  0
CLASS
  1
DICTIONARYVAR
  2
AcDbDictionaryVar
  3
AutoCAD 2000
 90
        0
280
     0
281
     0
  0
ENDSEC
  0
SECTION
  2
TABLES
  0
TABLE
  2
VPORT
  5
8
330
0
100
AcDbSymbolTable
 70
     7
  0
VPORT
  5
43B
330
8
100
AcDbSymbolTableRecord
100
AcDbViewportTableRecord
  2
*Active
 70
     0
 10
0.0
 20
0.0
 11
1.0
 21
1.0
 12
27.29999999999999
 22
78.99999999999998
 13
0.0
 23
0.0
 14
1.0
 24
1.0
 15
0.0
 25
0.0
 16
0.0
 26
0.0
 36
1.0
 17
0.0
 27
0.0
 37
0.0
 40
159.059710259301
 41
2.073363431151241
 42
50.0
 43
0.0
 44
0.0
 50
0.0
 51
0.0
 71
     0
 72
   100
 73
     1
 74
     3
 75
     0
 76
     0
 77
     0
 78
     0
281
     0
 65
     1
110
0.0
120
0.0
130
0.0
111
1.0
121
0.0
131
0.0
112
0.0
122
1.0
132
0.0
 79
     1
146
0.0
  0
ENDTAB
  0
TABLE
  2
LTYPE
  5
5
330
0
100
AcDbSymbolTable
 70
     1
  0
LTYPE
  5
13
330
5
100
AcDbSymbolTableRecord
100
AcDbLinetypeTableRecord
  2
ByBlock
 70
     0
  3

 72
    65
 73
     0
 40
0.0
  0
LTYPE
  5
14
330
5
100
AcDbSymbolTableRecord
100
AcDbLinetypeTableRecord
  2
ByLayer
 70
     0
  3

 72
    65
 73
     0
 40
0.0
  0
LTYPE
  5
15
330
5
100
AcDbSymbolTableRecord
100
AcDbLinetypeTableRecord
  2
Continuous
 70
     0
  3
Solid line
 72
    65
 73
     0
 40
0.0
  0
ENDTAB
  0
TABLE
  2
LAYER
  5
2
330
0
100
AcDbSymbolTable
 70
     1
  0
LAYER
  5
10
330
2
100
AcDbSymbolTableRecord
100
AcDbLayerTableRecord
  2
0
 70
     0
 62
     7
  6
Continuous
370
    -3
390
F
  0
ENDTAB
  0
TABLE
  2
STYLE
  5
3
330
0
100
AcDbSymbolTable
 70
     1
  0
STYLE
  5
11
330
3
100
AcDbSymbolTableRecord
100
AcDbTextStyleTableRecord
  2
Standard
 70
     0
 40
0.0
 41
1.0
 50
0.0
 71
     0
 42
0.2
  3
txt
  4

  0
ENDTAB
  0
TABLE
  2
VIEW
  5
6
330
0
100
AcDbSymbolTable
 70
     0
  0
ENDTAB
  0
TABLE
  2
UCS
  5
7
330
0
100
AcDbSymbolTable
 70
     0
  0
ENDTAB
  0
TABLE
  2
APPID
  5
9
330
0
100
AcDbSymbolTable
 70
     1
  0
APPID
  5
12
330
9
100
AcDbSymbolTableRecord
100
AcDbRegAppTableRecord
  2
ACAD
 70
     0
  0
ENDTAB
  0
TABLE
  2
DIMSTYLE
  5
A
330
0
100
AcDbSymbolTable
 70
     1
100
AcDbDimStyleTable
 71
     0
  0
DIMSTYLE
105
271
330
A
100
AcDbSymbolTableRecord
100
AcDbDimStyleTableRecord
  2
Standard
 70
     0
340
11
  0
ENDTAB
  0
TABLE
  2
BLOCK_RECORD
  5
1
330
0
100
AcDbSymbolTable
 70
     0
  0
BLOCK_RECORD
  5
1E
330
1
100
AcDbSymbolTableRecord
100
AcDbBlockTableRecord
  2
*Model_Space
340
21
  0
BLOCK_RECORD
  5
1A
330
1
100
AcDbSymbolTableRecord
100
AcDbBlockTableRecord
  2
*Paper_Space
340
1D
  0
ENDTAB
  0
ENDSEC
  0
SECTION
  2
BLOCKS
  0
BLOCK
  5
1F
330
1E
100
AcDbEntity
  8
0
100
AcDbBlockBegin
  2
*Model_Space
 70
     0
 10
0.0
 20
0.0
 30
0.0
  3
*Model_Space
  1

  0
ENDBLK
  5
20
330
1E
100
AcDbEntity
  8
0
100
AcDbBlockEnd
  0
BLOCK
  5
1B
330
1A
100
AcDbEntity
 67
     1
  8
0
100
AcDbBlockBegin
  2
*Paper_Space
 70
     0
 10
0.0
 20
0.0
 30
0.0
  3
*Paper_Space
  1

  0
ENDBLK
  5
1C
330
1A
100
AcDbEntity
 67
     1
  8
0
100
AcDbBlockEnd
  0
ENDSEC
  0
SECTION
  2
ENTITIES
  0
LINE
  5
22
330
1E
100
AcDbEntity
  8
0
100
AcDbLine
 10
19.04035
 20
0.0044999999999815
 30
0.0
 11
20.94715
 21
0.0044999999999815
 31
0.0
  0
LINE
  5
23
330
1E
100
AcDbEntity
  8
0
100
AcDbLine
 10
17.00925
 20
0.0044999999999816
 30
0.0
 11
19.04035
 21
0.0044999999999815
 31
0.0
  0
LINE
  5
24
330
1E
100
AcDbEntity
  8
0
100
AcDbLine
 10
22.90415
 20
0.0044999999999814
 30
0.0
 11
24.90015
 21
0.0044999999999814
 31
0.0
  0
LINE
  5
25
330
1E
100
AcDbEntity
  8
0
100
AcDbLine
 10
20.94715
 20
0.0044999999999815
 30
0.0
 11
22.90415
 21
0.0044999999999814
 31
0.0
  0
LINE
  5
26
330
1E
100
AcDbEntity
  8
0
100
AcDbLine
 10
2.49255
 20
0.004499999999983
 30
0.0
 11
2.589749999999999
 21
0.0044999999999831
 31
0.0
  0
LINE
  5
27
330
1E
100
AcDbEntity
  8
0
100
AcDbLine
 10
2.589749999999999
 20
0.0044999999999831
 30
0.0
 11
2.877449999999999
 21
0.0044999999999832
 31
0.0
  0
LINE
  5
28
330
1E
100
AcDbEntity
  8
0
100
AcDbLine
 10
2.877449999999999
 20
0.0044999999999832
 30
0.0
 11
3.351649999999999
 21
0.0044999999999834
 31
0.0
  0
LINE
  5
29
330
1E
100
AcDbEntity
  8
0
100
AcDbLine
 10
2.88245
 20
0.0044999999999827
 30
0.0
 11
3.224349999999999
 21
0.0044999999999826
 31
0.0
  0
LINE
  5
2A
330
1E
100
AcDbEntity
  8
0
100
AcDbLine
 10
3.351649999999999
 20
0.0044999999999834
 30
0.0
 11
4.004349999999999
 21
0.0044999999999835
 31
0.0
  0
LINE
  5
2B
330
1E
100
AcDbEntity
  8
0
100
AcDbLine
 10
4.004349999999999
 20
0.0044999999999835
 30
0.0
 11
5.266549999999999
 21
0.0044999999999837
 31
0.0
  0
LINE
  5
2C
330
1E
100
AcDbEntity
  8
0
100
AcDbLine
 10
5.266549999999999
 20
0.0044999999999837
 30
0.0
 11
6.26104999999999
 21
0.0044999999999838
 31
0.0
  0
LINE
  5
2D
330
1E
100
AcDbEntity
  8
0
100
AcDbLine
 10
6.26104999999999
 20
0.0044999999999838
 30
0.0
 11
7.392949999999999
 21
0.0044999999999839
 31
0.0
  0
LINE
  5
2E
330
1E
100
AcDbEntity
  8
0
100
AcDbLine
 10
7.392949999999999
 20
0.0044999999999839
 30
0.0
 11
8.54185
 21
0.004499999999984
 31
0.0
  0
LINE
  5
2F
330
1E
100
AcDbEntity
  8
0
100
AcDbLine
 10
9.885249999999999
 20
0.0044999999999841
 30
0.0
 11
11.33885
 21
0.0044999999999841
 31
0.0
  0
LINE
  5
30
330
1E
100
AcDbEntity
  8
0
100
AcDbLine
 10
11.33885
 20
0.0044999999999841
 30
0.0
 11
12.89484999999999
 21
0.0044999999999842
 31
0.0
  0
LINE
  5
31
330
1E
100
AcDbEntity
  8
0
100
AcDbLine
 10
14.54595
 20
0.0044999999999843
 30
0.0
 11
16.55604999999999
 21
0.0044999999999844
 31
0.0
  0
LINE
  5
32
330
1E
100
AcDbEntity
  8
0
100
AcDbLine
 10
16.55604999999999
 20
0.0044999999999844
 30
0.0
 11
19.27995
 21
0.0044999999999844
 31
0.0
  0
LINE
  5
33
330
1E
100
AcDbEntity
  8
0
100
AcDbLine
 10
19.27995
 20
0.0044999999999844
 30
0.0
 11
22.13814999999999
 21
0.0044999999999845
 31
0.0
  0
LINE
  5
34
330
1E
100
AcDbEntity
  8
0
100
AcDbLine
 10
22.13814999999999
 20
0.0044999999999845
 30
0.0
 11
23.75925
 21
0.0044999999999845
 31
0.0
  0
LINE
  5
35
330
1E
100
AcDbEntity
  8
0
100
AcDbLine
 10
23.75925
 20
0.0044999999999845
 30
0.0
 11
24.36485
 21
0.0044999999999845
 31
0.0
  0
LINE
  5
36
330
1E
100
AcDbEntity
  8
0
100
AcDbLine
 10
12.89484999999999
 20
0.0044999999999842
 30
0.0
 11
14.54595
 21
0.0044999999999843
 31
0.0
  0
LINE
  5
37
330
1E
100
AcDbEntity
  8
0
100
AcDbLine
 10
8.54185
 20
0.004499999999984
 30
0.0
 11
9.885249999999999
 21
0.0044999999999841
 31
0.0
  0
LINE
  5
38
330
1E
100
AcDbEntity
  8
0
100
AcDbLine
 10
24.4546863031218
 20
0.0045019910528019
 30
0.0
 11
27.19835
 21
0.0045029999999814
 31
0.0
  0
LINE
  5
39
330
1E
100
AcDbEntity
  8
0
100
AcDbLine
 10
24.46388319705919
 20
0.0045021948846711
 30
0.0
 11
27.19835
 21
0.0045029999999814
 31
0.0
  0
LINE
  5
3A
330
1E
100
AcDbEntity
  8
0
100
AcDbLine
 10
24.4546863031218
 20
0.0045019910528019
 30
0.0
 11
27.19835
 21
0.0045029999999814
 31
0.0
  0
LINE
  5
3B
330
1E
100
AcDbEntity
  8
0
100
AcDbLine
 10
24.4404928996078
 20
0.0045016764826886
 30
0.0
 11
27.19835
 21
0.0045029999999814
 31
0.0
  0
LINE
  5
3C
330
1E
100
AcDbEntity
  8
0
100
AcDbLine
 10
24.41239218758239
 20
0.0045010536832199
 30
0.0
 11
27.19835
 21
0.0045029999999814
 31
0.0
  0
LINE
  5
3D
330
1E
100
AcDbEntity
  8
0
100
AcDbLine
 10
26.92535
 20
0.0045019999999814
 30
0.0
 11
27.19835
 21
0.0045029999999814
 31
0.0
  0
LINE
  5
3E
330
1E
100
AcDbEntity
  8
0
100
AcDbLine
 10
24.90015
 20
0.0044999999999814
 30
0.0
 11
26.92535
 21
0.0045019999999814
 31
0.0
  0
LINE
  5
3F
330
1E
100
AcDbEntity
  8
0
100
AcDbLine
 10
24.36485
 20
0.0044999999999845
 30
0.0
 11
24.59045
 21
0.0045049999999845
 31
0.0
  0
LINE
  5
40
330
1E
100
AcDbEntity
  8
0
100
AcDbLine
 10
24.36485
 20
0.0044999999999845
 30
0.0
 11
24.36485
 21
41.0045
 31
0.0
  0
LINE
  5
41
330
1E
100
AcDbEntity
  8
0
100
AcDbLine
 10
24.59045
 20
0.0045049999999845
 30
0.0
 11
27.19835
 21
0.0045049999999845
 31
0.0
  0
LINE
  5
42
330
1E
100
AcDbEntity
  8
0
100
AcDbLine
 10
27.19835
 20
0.0045029999999814
 30
0.0
 11
27.47135
 21
0.0045019999999814
 31
0.0
  0
LINE
  5
43
330
1E
100
AcDbEntity
  8
0
100
AcDbLine
 10
27.19835
 20
0.0045029999999814
 30
0.0
 11
29.9328168029408
 21
0.0045021948846711
 31
0.0
  0
LINE
  5
44
330
1E
100
AcDbEntity
  8
0
100
AcDbLine
 10
27.19835
 20
0.0045029999999814
 30
0.0
 11
29.9420136968782
 21
0.0045019910528019
 31
0.0
  0
LINE
  5
45
330
1E
100
AcDbEntity
  8
0
100
AcDbLine
 10
27.19835
 20
0.0045029999999814
 30
0.0
 11
29.9843078124176
 21
0.0045010536832199
 31
0.0
  0
LINE
  5
46
330
1E
100
AcDbEntity
  8
0
100
AcDbLine
 10
27.19835
 20
0.0045029999999814
 30
0.0
 11
29.9562071003922
 21
0.0045016764826886
 31
0.0
  0
LINE
  5
47
330
1E
100
AcDbEntity
  8
0
100
AcDbLine
 10
2.48945
 20
26.2341
 30
0.0
 11
2.49255
 21
0.004499999999983
 31
0.0
  0
LINE
  5
48
330
1E
100
AcDbEntity
  8
0
100
AcDbLine
 10
2.48945
 20
26.2341
 30
0.0
 11
2.49255
 21
0.0044999999999832
 31
0.0
  0
LINE
  5
49
330
1E
100
AcDbEntity
  8
0
100
AcDbLine
 10
2.48644999999999
 20
34.5156
 30
0.0
 11
2.48945
 21
26.2341
 31
0.0
  0
LINE
  5
4A
330
1E
100
AcDbEntity
  8
0
100
AcDbLine
 10
24.36485
 20
41.0045
 30
0.0
 11
27.19835
 21
41.0045
 31
0.0
  0
LINE
  5
4B
330
1E
100
AcDbEntity
  8
0
100
AcDbLine
 10
24.36485
 20
41.0045
 30
0.0
 11
24.58835
 21
41.0045
 31
0.0
  0
LINE
  5
4C
330
1E
100
AcDbEntity
  8
0
100
AcDbLine
 10
24.36485
 20
41.0045
 30
0.0
 11
24.36485
 21
0.0044999999999832
 31
0.0
  0
LINE
  5
4E
330
1E
100
AcDbEntity
  8
0
100
AcDbLine
 10
24.58835
 20
41.0045
 30
0.0
 11
27.19835
 21
41.0045
 31
0.0
  0
LINE
  5
52
330
1E
100
AcDbEntity
  8
0
100
AcDbLine
 10
2.43935
 20
74.66540000000001
 30
0.0
 11
2.48644999999999
 21
34.5156
 31
0.0
  0
LINE
  5
53
330
1E
100
AcDbEntity
  8
0
100
AcDbLine
 10
2.416349999999999
 20
84.0531
 30
0.0
 11
2.43935
 21
74.66540000000001
 31
0.0
  0
LINE
  5
5D
330
1E
100
AcDbEntity
  8
0
100
AcDbLine
 10
22.55255
 20
130.6214999999999
 30
0.0
 11
23.60485
 21
130.4985
 31
0.0
  0
LINE
  5
5E
330
1E
100
AcDbEntity
  8
0
100
AcDbLine
 10
23.60485
 20
130.4985
 30
0.0
 11
24.69044999999999
 21
130.4075
 31
0.0
  0
LINE
  5
5F
330
1E
100
AcDbEntity
  8
0
100
AcDbLine
 10
24.69044999999999
 20
130.4075
 30
0.0
 11
25.79825
 21
130.3485
 31
0.0
  0
LINE
  5
60
330
1E
100
AcDbEntity
  8
0
100
AcDbLine
 10
25.79825
 20
130.3485
 30
0.0
 11
26.91825
 21
130.3234999999999
 31
0.0
  0
LINE
  5
61
330
1E
100
AcDbEntity
  8
0
100
AcDbLine
 10
26.91825
 20
130.3234999999999
 30
0.0
 11
27.19835
 21
130.3255
 31
0.0
  0
LINE
  5
67
330
1E
100
AcDbEntity
  8
0
100
AcDbLine
 10
24.23445
 20
130.9464999999999
 30
0.0
 11
25.25745
 21
130.8685
 31
0.0
  0
LINE
  5
68
330
1E
100
AcDbEntity
  8
0
100
AcDbLine
 10
23.24265
 20
131.0595
 30
0.0
 11
24.23445
 21
130.9464999999999
 31
0.0
  0
LINE
  5
6C
330
1E
100
AcDbEntity
  8
0
100
AcDbLine
 10
25.25745
 20
130.8685
 30
0.0
 11
26.50605
 21
130.8214999999999
 31
0.0
  0
LINE
  5
6E
330
1E
100
AcDbEntity
  8
0
100
AcDbLine
 10
21.54255
 20
130.7755
 30
0.0
 11
22.55255
 21
130.6214999999999
 31
0.0
  0
LINE
  5
6F
330
1E
100
AcDbEntity
  8
0
100
AcDbLine
 10
20.58305
 20
130.9594999999999
 30
0.0
 11
21.54255
 21
130.7755
 31
0.0
  0
LINE
  5
70
330
1E
100
AcDbEntity
  8
0
100
AcDbLine
 10
26.81535
 20
131.2555
 30
0.0
 11
27.19835
 21
131.2564999999999
 31
0.0
  0
LINE
  5
72
330
1E
100
AcDbEntity
  8
0
100
AcDbLine
 10
22.29225
 20
131.2024999999999
 30
0.0
 11
23.24265
 21
131.0595
 31
0.0
  0
LINE
  5
73
330
1E
100
AcDbEntity
  8
0
100
AcDbLine
 10
19.68404999999999
 20
131.1705
 30
0.0
 11
20.58305
 21
130.9594999999999
 31
0.0
  0
LINE
  5
76
330
1E
100
AcDbEntity
  8
0
100
AcDbLine
 10
16.83984999999999
 20
132.2514999999999
 30
0.0
 11
17.42405
 21
131.9505
 31
0.0
  0
LINE
  5
77
330
1E
100
AcDbEntity
  8
0
100
AcDbLine
 10
17.42405
 20
131.9505
 30
0.0
 11
18.09705
 21
131.6674999999999
 31
0.0
  0
LINE
  5
78
330
1E
100
AcDbEntity
  8
0
100
AcDbLine
 10
18.09705
 20
131.6674999999999
 30
0.0
 11
18.85275
 21
131.4075
 31
0.0
  0
LINE
  5
79
330
1E
100
AcDbEntity
  8
0
100
AcDbLine
 10
25.81445
 20
131.2864999999999
 30
0.0
 11
26.81535
 21
131.2555
 31
0.0
  0
LINE
  5
7B
330
1E
100
AcDbEntity
  8
0
100
AcDbLine
 10
20.50534999999999
 20
131.5914999999999
 30
0.0
 11
21.36605
 21
131.3825
 31
0.0
  0
LINE
  5
7C
330
1E
100
AcDbEntity
  8
0
100
AcDbLine
 10
19.02025
 20
132.0894999999999
 30
0.0
 11
19.72044999999999
 21
131.8274999999999
 31
0.0
  0
LINE
  5
7D
330
1E
100
AcDbEntity
  8
0
100
AcDbLine
 10
19.72044999999999
 20
131.8274999999999
 30
0.0
 11
20.50534999999999
 21
131.5914999999999
 31
0.0
  0
LINE
  5
80
330
1E
100
AcDbEntity
  8
0
100
AcDbLine
 10
21.36605
 20
131.3825
 30
0.0
 11
22.29225
 21
131.2024999999999
 31
0.0
  0
LINE
  5
81
330
1E
100
AcDbEntity
  8
0
100
AcDbLine
 10
21.45585
 20
131.9185
 30
0.0
 11
22.18525
 21
131.7425
 31
0.0
  0
LINE
  5
82
330
1E
100
AcDbEntity
  8
0
100
AcDbLine
 10
20.78885
 20
132.1185
 30
0.0
 11
21.45585
 21
131.9185
 31
0.0
  0
LINE
  5
83
330
1E
100
AcDbEntity
  8
0
100
AcDbLine
 10
22.18525
 20
131.7425
 30
0.0
 11
22.96924999999999
 21
131.5914999999999
 31
0.0
  0
LINE
  5
84
330
1E
100
AcDbEntity
  8
0
100
AcDbLine
 10
22.96924999999999
 20
131.5914999999999
 30
0.0
 11
23.87825
 21
131.4555
 31
0.0
  0
LINE
  5
85
330
1E
100
AcDbEntity
  8
0
100
AcDbLine
 10
23.87825
 20
131.4555
 30
0.0
 11
24.83074999999999
 21
131.3544999999999
 31
0.0
  0
LINE
  5
86
330
1E
100
AcDbEntity
  8
0
100
AcDbLine
 10
24.83074999999999
 20
131.3544999999999
 30
0.0
 11
25.81445
 21
131.2864999999999
 31
0.0
  0
LINE
  5
89
330
1E
100
AcDbEntity
  8
0
100
AcDbLine
 10
18.85275
 20
131.4075
 30
0.0
 11
19.68404999999999
 21
131.1705
 31
0.0
  0
LINE
  5
8B
330
1E
100
AcDbEntity
  8
0
100
AcDbLine
 10
15.28005
 20
133.9145
 30
0.0
 11
15.33355
 21
133.7224999999999
 31
0.0
  0
LINE
  5
8C
330
1E
100
AcDbEntity
  8
0
100
AcDbLine
 10
15.33355
 20
133.7224999999999
 30
0.0
 11
15.52224999999999
 21
133.3704999999999
 31
0.0
  0
LINE
  5
8E
330
1E
100
AcDbEntity
  8
0
100
AcDbLine
 10
15.52224999999999
 20
133.3704999999999
 30
0.0
 11
15.81585
 21
133.0265
 31
0.0
  0
LINE
  5
8F
330
1E
100
AcDbEntity
  8
0
100
AcDbLine
 10
15.81585
 20
133.0265
 30
0.0
 11
15.95705
 21
132.8985
 31
0.0
  0
LINE
  5
97
330
1E
100
AcDbEntity
  8
0
100
AcDbLine
 10
15.95705
 20
132.8985
 30
0.0
 11
16.34955
 21
132.5685
 31
0.0
  0
LINE
  5
98
330
1E
100
AcDbEntity
  8
0
100
AcDbLine
 10
17.90435
 20
132.6745
 30
0.0
 11
18.41285
 21
132.3725
 31
0.0
  0
LINE
  5
99
330
1E
100
AcDbEntity
  8
0
100
AcDbLine
 10
17.20814999999999
 20
133.3214999999999
 30
0.0
 11
17.50075
 21
132.9925
 31
0.0
  0
LINE
  5
9A
330
1E
100
AcDbEntity
  8
0
100
AcDbLine
 10
16.97815
 20
134.1585
 30
0.0
 11
17.09015
 21
134.4815
 31
0.0
  0
LINE
  5
9B
330
1E
100
AcDbEntity
  8
0
100
AcDbLine
 10
16.97415
 20
133.9735
 30
0.0
 11
16.97815
 21
133.7895
 31
0.0
  0
LINE
  5
9C
330
1E
100
AcDbEntity
  8
0
100
AcDbLine
 10
16.97415
 20
133.9735
 30
0.0
 11
16.97815
 21
134.1585
 31
0.0
  0
LINE
  5
9E
330
1E
100
AcDbEntity
  8
0
100
AcDbLine
 10
16.97815
 20
133.7895
 30
0.0
 11
17.20814999999999
 21
133.3214999999999
 31
0.0
  0
LINE
  5
A1
330
1E
100
AcDbEntity
  8
0
100
AcDbLine
 10
17.50075
 20
132.9925
 30
0.0
 11
17.90435
 21
132.6745
 31
0.0
  0
LINE
  5
A4
330
1E
100
AcDbEntity
  8
0
100
AcDbLine
 10
16.34955
 20
132.5685
 30
0.0
 11
16.83984999999999
 21
132.2514999999999
 31
0.0
  0
LINE
  5
A7
330
1E
100
AcDbEntity
  8
0
100
AcDbLine
 10
17.09015
 20
134.4815
 30
0.0
 11
17.30505
 21
134.7995
 31
0.0
  0
LINE
  5
A8
330
1E
100
AcDbEntity
  8
0
100
AcDbLine
 10
17.30505
 20
134.7995
 30
0.0
 11
17.62285
 21
135.1105
 31
0.0
  0
LINE
  5
A9
330
1E
100
AcDbEntity
  8
0
100
AcDbLine
 10
17.62285
 20
135.1105
 30
0.0
 11
18.03754999999999
 21
135.4074999999999
 31
0.0
  0
LINE
  5
AC
330
1E
100
AcDbEntity
  8
0
100
AcDbLine
 10
18.03754999999999
 20
135.4074999999999
 30
0.0
 11
18.54705
 21
135.6914999999999
 31
0.0
  0
LINE
  5
AD
330
1E
100
AcDbEntity
  8
0
100
AcDbLine
 10
15.19835
 20
134.2715
 30
0.0
 11
15.28005
 21
133.9145
 31
0.0
  0
LINE
  5
AF
330
1E
100
AcDbEntity
  8
0
100
AcDbLine
 10
18.41285
 20
132.3725
 30
0.0
 11
19.02025
 21
132.0894999999999
 31
0.0
  0
LINE
  5
B0
330
1E
100
AcDbEntity
  8
0
100
AcDbLine
 10
19.67204999999999
 20
132.5765
 30
0.0
 11
20.19265
 21
132.3375
 31
0.0
  0
LINE
  5
B1
330
1E
100
AcDbEntity
  8
0
100
AcDbLine
 10
19.23205
 20
132.8305
 30
0.0
 11
19.67204999999999
 21
132.5765
 31
0.0
  0
LINE
  5
B2
330
1E
100
AcDbEntity
  8
0
100
AcDbLine
 10
18.87995
 20
133.0964999999999
 30
0.0
 11
19.23205
 21
132.8305
 31
0.0
  0
LINE
  5
B3
330
1E
100
AcDbEntity
  8
0
100
AcDbLine
 10
18.61864999999999
 20
133.3745
 30
0.0
 11
18.87995
 21
133.0964999999999
 31
0.0
  0
LINE
  5
B4
330
1E
100
AcDbEntity
  8
0
100
AcDbLine
 10
20.19265
 20
132.3375
 30
0.0
 11
20.78885
 21
132.1185
 31
0.0
  0
LINE
  5
B5
330
1E
100
AcDbEntity
  8
0
100
AcDbLine
 10
18.45015
 20
133.6585
 30
0.0
 11
18.45015
 21
134.3865
 31
0.0
  0
LINE
  5
B6
330
1E
100
AcDbEntity
  8
0
100
AcDbLine
 10
18.45015
 20
133.6585
 30
0.0
 11
18.61864999999999
 21
133.3745
 31
0.0
  0
LINE
  5
B7
330
1E
100
AcDbEntity
  8
0
100
AcDbLine
 10
18.45015
 20
134.3865
 30
0.0
 11
18.45015
 21
133.6585
 31
0.0
  0
LINE
  5
B8
330
1E
100
AcDbEntity
  8
0
100
AcDbLine
 10
18.45015
 20
134.3865
 30
0.0
 11
18.61864999999999
 21
134.6705
 31
0.0
  0
LINE
  5
B9
330
1E
100
AcDbEntity
  8
0
100
AcDbLine
 10
18.87995
 20
134.9464999999999
 30
0.0
 11
19.23205
 21
135.2144999999999
 31
0.0
  0
LINE
  5
BA
330
1E
100
AcDbEntity
  8
0
100
AcDbLine
 10
18.61864999999999
 20
134.6705
 30
0.0
 11
18.87995
 21
134.9464999999999
 31
0.0
  0
LINE
  5
BB
330
1E
100
AcDbEntity
  8
0
100
AcDbLine
 10
21.35085
 20
134.7544999999999
 30
0.0
 11
22.12874999999999
 21
134.5625
 31
0.0
  0
LINE
  5
BC
330
1E
100
AcDbEntity
  8
0
100
AcDbLine
 10
19.23205
 20
135.2144999999999
 30
0.0
 11
19.67204999999999
 21
135.4675
 31
0.0
  0
LINE
  5
BD
330
1E
100
AcDbEntity
  8
0
100
AcDbLine
 10
19.67204999999999
 20
135.4675
 30
0.0
 11
20.19265
 21
135.7055
 31
0.0
  0
LINE
  5
BE
330
1E
100
AcDbEntity
  8
0
100
AcDbLine
 10
19.14635
 20
135.9565
 30
0.0
 11
19.82635
 21
136.2024999999999
 31
0.0
  0
LINE
  5
BF
330
1E
100
AcDbEntity
  8
0
100
AcDbLine
 10
19.82635
 20
136.2024999999999
 30
0.0
 11
20.58305
 21
136.4254999999999
 31
0.0
  0
LINE
  5
C0
330
1E
100
AcDbEntity
  8
0
100
AcDbLine
 10
18.54705
 20
135.6914999999999
 30
0.0
 11
19.14635
 21
135.9565
 31
0.0
  0
LINE
  5
C1
330
1E
100
AcDbEntity
  8
0
100
AcDbLine
 10
19.6002876433146
 20
135.426236644906
 30
0.0
 11
20.02714999999999
 21
135.2154999999999
 31
0.0
  0
LINE
  5
C2
330
1E
100
AcDbEntity
  8
0
100
AcDbLine
 10
20.19265
 20
135.7055
 30
0.0
 11
20.78885
 21
135.9255
 31
0.0
  0
LINE
  5
C3
330
1E
100
AcDbEntity
  8
0
100
AcDbLine
 10
21.45585
 20
136.1245
 30
0.0
 11
22.18525
 21
136.3005
 31
0.0
  0
LINE
  5
C4
330
1E
100
AcDbEntity
  8
0
100
AcDbLine
 10
20.78885
 20
135.9255
 30
0.0
 11
21.45585
 21
136.1245
 31
0.0
  0
LINE
  5
C5
330
1E
100
AcDbEntity
  8
0
100
AcDbLine
 10
20.02714999999999
 20
135.2154999999999
 30
0.0
 11
20.64764999999999
 21
134.9745
 31
0.0
  0
LINE
  5
C6
330
1E
100
AcDbEntity
  8
0
100
AcDbLine
 10
20.64764999999999
 20
134.9745
 30
0.0
 11
21.35085
 21
134.7544999999999
 31
0.0
  0
LINE
  5
C7
330
1E
100
AcDbEntity
  8
0
100
AcDbLine
 10
22.12874999999999
 20
134.5625
 30
0.0
 11
22.96924999999999
 21
134.3985
 31
0.0
  0
LINE
  5
C8
330
1E
100
AcDbEntity
  8
0
100
AcDbLine
 10
22.96924999999999
 20
134.3985
 30
0.0
 11
23.86315
 21
134.2655
 31
0.0
  0
LINE
  5
C9
330
1E
100
AcDbEntity
  8
0
100
AcDbLine
 10
23.86315
 20
134.2655
 30
0.0
 11
24.79945
 21
134.1634999999999
 31
0.0
  0
LINE
  5
CA
330
1E
100
AcDbEntity
  8
0
100
AcDbLine
 10
24.79945
 20
134.1634999999999
 30
0.0
 11
25.76605
 21
134.0964999999999
 31
0.0
  0
LINE
  5
CB
330
1E
100
AcDbEntity
  8
0
100
AcDbLine
 10
25.76605
 20
134.0964999999999
 30
0.0
 11
26.74974999999999
 21
134.0635
 31
0.0
  0
LINE
  5
CC
330
1E
100
AcDbEntity
  8
0
100
AcDbLine
 10
26.74974999999999
 20
134.0635
 30
0.0
 11
27.19835
 21
134.0635
 31
0.0
  0
LINE
  5
CF
330
1E
100
AcDbEntity
  8
0
100
AcDbLine
 10
27.19835
 20
134.0635
 30
0.0
 11
27.64695
 21
134.0635
 31
0.0
  0
LINE
  5
D0
330
1E
100
AcDbEntity
  8
0
100
AcDbLine
 10
27.19835
 20
131.2564999999999
 30
0.0
 11
27.58135
 21
131.2555
 31
0.0
  0
LINE
  5
D4
330
1E
100
AcDbEntity
  8
0
100
AcDbLine
 10
27.19835
 20
130.3255
 30
0.0
 11
27.68175
 21
130.3234999999999
 31
0.0
  0
LINE
  5
D6
330
1E
100
AcDbEntity
  8
0
100
AcDbLine
 10
22.18525
 20
136.3005
 30
0.0
 11
22.96924999999999
 21
136.4524999999999
 31
0.0
  0
LINE
  5
D7
330
1E
100
AcDbEntity
  8
0
100
AcDbLine
 10
22.96924999999999
 20
136.4524999999999
 30
0.0
 11
23.87825
 21
136.5875
 31
0.0
  0
LINE
  5
D8
330
1E
100
AcDbEntity
  8
0
100
AcDbLine
 10
23.87825
 20
136.5875
 30
0.0
 11
24.83074999999999
 21
136.6904999999999
 31
0.0
  0
LINE
  5
D9
330
1E
100
AcDbEntity
  8
0
100
AcDbLine
 10
20.58305
 20
136.4254999999999
 30
0.0
 11
21.40835
 21
136.6225
 31
0.0
  0
LINE
  5
DA
330
1E
100
AcDbEntity
  8
0
100
AcDbLine
 10
22.29225
 20
136.7924999999999
 30
0.0
 11
23.22645
 21
136.9345
 31
0.0
  0
LINE
  5
DB
330
1E
100
AcDbEntity
  8
0
100
AcDbLine
 10
23.22645
 20
136.9345
 30
0.0
 11
24.20215
 21
137.0454999999999
 31
0.0
  0
LINE
  5
DC
330
1E
100
AcDbEntity
  8
0
100
AcDbLine
 10
21.40835
 20
136.6225
 30
0.0
 11
22.29225
 21
136.7924999999999
 31
0.0
  0
LINE
  5
DD
330
1E
100
AcDbEntity
  8
0
100
AcDbLine
 10
15.19835
 20
137.6734834260866
 30
0.0
 11
15.19835
 21
134.2715
 31
0.0
  0
LINE
  5
DF
330
1E
100
AcDbEntity
  8
0
100
AcDbLine
 10
24.83074999999999
 20
136.6904999999999
 30
0.0
 11
25.81445
 21
136.7574999999999
 31
0.0
  0
LINE
  5
E0
330
1E
100
AcDbEntity
  8
0
100
AcDbLine
 10
24.20215
 20
137.0454999999999
 30
0.0
 11
25.20704999999999
 21
137.1245
 31
0.0
  0
LINE
  5
E1
330
1E
100
AcDbEntity
  8
0
100
AcDbLine
 10
27.19835
 20
136.7874999999999
 30
0.0
 11
27.58135
 21
136.7895
 31
0.0
  0
LINE
  5
E2
330
1E
100
AcDbEntity
  8
0
100
AcDbLine
 10
25.81445
 20
136.7574999999999
 30
0.0
 11
26.81535
 21
136.7895
 31
0.0
  0
LINE
  5
E6
330
1E
100
AcDbEntity
  8
0
100
AcDbLine
 10
26.81535
 20
136.7895
 30
0.0
 11
27.19835
 21
136.7874999999999
 31
0.0
  0
LINE
  5
E8
330
1E
100
AcDbEntity
  8
0
100
AcDbLine
 10
25.20704999999999
 20
137.1245
 30
0.0
 11
26.23415
 21
137.1725
 31
0.0
  0
LINE
  5
ED
330
1E
100
AcDbEntity
  8
0
100
AcDbLine
 10
26.23415
 20
137.1725
 30
0.0
 11
27.19835
 21
137.1845
 31
0.0
  0
LINE
  5
F3
330
1E
100
AcDbEntity
  8
0
100
AcDbLine
 10
1.290377292962729
 20
143.7123715069359
 30
0.0
 11
1.73055
 21
136.2034999999999
 31
0.0
  0
LINE
  5
F4
330
1E
100
AcDbEntity
  8
0
100
AcDbLine
 10
1.73055
 20
136.2034999999999
 30
0.0
 11
2.01325
 21
128.6734999999999
 31
0.0
  0
LINE
  5
F5
330
1E
100
AcDbEntity
  8
0
100
AcDbLine
 10
1.290377292962729
 20
143.7123715069359
 30
0.0
 11
1.73055
 21
136.2034999999999
 31
0.0
  0
LINE
  5
F6
330
1E
100
AcDbEntity
  8
0
100
AcDbLine
 10
2.01325
 20
128.6734999999999
 30
0.0
 11
2.416349999999999
 21
84.0531
 31
0.0
  0
LINE
  5
116
330
1E
100
AcDbEntity
  8
0
100
AcDbLine
 10
3.452949999999999
 20
151.4145
 30
0.0
 11
4.29605
 21
151.2975
 31
0.0
  0
LINE
  5
11F
330
1E
100
AcDbEntity
  8
0
100
AcDbLine
 10
27.19835
 20
41.0045
 30
0.0
 11
29.80835
 21
41.0045
 31
0.0
  0
LINE
  5
120
330
1E
100
AcDbEntity
  8
0
100
AcDbLine
 10
27.19835
 20
41.0045
 30
0.0
 11
30.03185
 21
41.0045
 31
0.0
  0
LINE
  5
121
330
1E
100
AcDbEntity
  8
0
100
AcDbLine
 10
27.19835
 20
0.0045049999999845
 30
0.0
 11
29.80624999999999
 21
0.0045049999999845
 31
0.0
  0
LINE
  5
122
330
1E
100
AcDbEntity
  8
0
100
AcDbLine
 10
29.49654999999999
 20
0.0044999999999814
 30
0.0
 11
31.49255
 21
0.0044999999999814
 31
0.0
  0
LINE
  5
123
330
1E
100
AcDbEntity
  8
0
100
AcDbLine
 10
32.25855
 20
0.0044999999999845
 30
0.0
 11
35.11675
 21
0.0044999999999844
 31
0.0
  0
LINE
  5
125
330
1E
100
AcDbEntity
  8
0
100
AcDbLine
 10
30.03185
 20
0.0044999999999845
 30
0.0
 11
30.63745
 21
0.0044999999999845
 31
0.0
  0
LINE
  5
126
330
1E
100
AcDbEntity
  8
0
100
AcDbLine
 10
30.03185
 20
0.0044999999999845
 30
0.0
 11
30.03185
 21
41.0045
 31
0.0
  0
LINE
  5
12E
330
1E
100
AcDbEntity
  8
0
100
AcDbLine
 10
29.80835
 20
41.0045
 30
0.0
 11
30.03185
 21
41.0045
 31
0.0
  0
LINE
  5
13C
330
1E
100
AcDbEntity
  8
0
100
AcDbLine
 10
30.03185
 20
41.0045
 30
0.0
 11
30.03185
 21
0.0044999999999832
 31
0.0
  0
LINE
  5
13F
330
1E
100
AcDbEntity
  8
0
100
AcDbLine
 10
29.80624999999999
 20
0.0045049999999845
 30
0.0
 11
30.03185
 21
0.0044999999999845
 31
0.0
  0
LINE
  5
157
330
1E
100
AcDbEntity
  8
0
100
AcDbLine
 10
30.63745
 20
0.0044999999999845
 30
0.0
 11
32.25855
 21
0.0044999999999845
 31
0.0
  0
LINE
  5
158
330
1E
100
AcDbEntity
  8
0
100
AcDbLine
 10
27.47135
 20
0.0045019999999814
 30
0.0
 11
29.49654999999999
 21
0.0044999999999814
 31
0.0
  0
LINE
  5
159
330
1E
100
AcDbEntity
  8
0
100
AcDbLine
 10
31.49255
 20
0.0044999999999814
 30
0.0
 11
33.44955
 21
0.0044999999999815
 31
0.0
  0
LINE
  5
15A
330
1E
100
AcDbEntity
  8
0
100
AcDbLine
 10
33.44955
 20
0.0044999999999815
 30
0.0
 11
35.35635
 21
0.0044999999999815
 31
0.0
  0
LINE
  5
15B
330
1E
100
AcDbEntity
  8
0
100
AcDbLine
 10
35.35635
 20
0.0044999999999815
 30
0.0
 11
37.38745
 21
0.0044999999999816
 31
0.0
  0
LINE
  5
15C
330
1E
100
AcDbEntity
  8
0
100
AcDbLine
 10
48.13565
 20
0.0044999999999838
 30
0.0
 11
49.13015
 21
0.0044999999999837
 31
0.0
  0
LINE
  5
195
330
1E
100
AcDbEntity
  8
0
100
AcDbLine
 10
35.11675
 20
0.0044999999999844
 30
0.0
 11
37.84065
 21
0.0044999999999844
 31
0.0
  0
LINE
  5
196
330
1E
100
AcDbEntity
  8
0
100
AcDbLine
 10
45.85485
 20
0.004499999999984
 30
0.0
 11
47.00375
 21
0.0044999999999839
 31
0.0
  0
LINE
  5
197
330
1E
100
AcDbEntity
  8
0
100
AcDbLine
 10
43.05785
 20
0.0044999999999841
 30
0.0
 11
44.51145
 21
0.0044999999999841
 31
0.0
  0
LINE
  5
198
330
1E
100
AcDbEntity
  8
0
100
AcDbLine
 10
44.51145
 20
0.0044999999999841
 30
0.0
 11
45.85485
 21
0.004499999999984
 31
0.0
  0
LINE
  5
199
330
1E
100
AcDbEntity
  8
0
100
AcDbLine
 10
41.50184999999999
 20
0.0044999999999842
 30
0.0
 11
43.05785
 21
0.0044999999999841
 31
0.0
  0
LINE
  5
1AF
330
1E
100
AcDbEntity
  8
0
100
AcDbLine
 10
39.85075
 20
0.0044999999999843
 30
0.0
 11
41.50184999999999
 21
0.0044999999999842
 31
0.0
  0
LINE
  5
1B0
330
1E
100
AcDbEntity
  8
0
100
AcDbLine
 10
37.84065
 20
0.0044999999999844
 30
0.0
 11
39.85075
 21
0.0044999999999843
 31
0.0
  0
LINE
  5
1B1
330
1E
100
AcDbEntity
  8
0
100
AcDbLine
 10
47.00375
 20
0.0044999999999839
 30
0.0
 11
48.13565
 21
0.0044999999999838
 31
0.0
  0
LINE
  5
1B2
330
1E
100
AcDbEntity
  8
0
100
AcDbLine
 10
49.13015
 20
0.0044999999999837
 30
0.0
 11
50.39235
 21
0.0044999999999835
 31
0.0
  0
LINE
  5
1C0
330
1E
100
AcDbEntity
  8
0
100
AcDbLine
 10
0.000250000000002
 20
155.5455
 30
0.0
 11
0.0763499999999996
 21
155.2615
 31
0.0
  0
LINE
  5
1C1
330
1E
100
AcDbEntity
  8
0
100
AcDbLine
 10
-0.198350000000001
 20
156.7994999999999
 30
0.0
 11
-0.165250000000002
 21
157.0765
 31
0.0
  0
LINE
  5
1C2
330
1E
100
AcDbEntity
  8
0
100
AcDbLine
 10
-0.198350000000001
 20
156.7994999999999
 30
0.0
 11
-0.19525
 21
156.5525
 31
0.0
  0
LINE
  5
1C4
330
1E
100
AcDbEntity
  8
0
100
AcDbLine
 10
-0.19525
 20
156.5525
 30
0.0
 11
-0.143150000000002
 21
156.1904999999999
 31
0.0
  0
LINE
  5
1C5
330
1E
100
AcDbEntity
  8
0
100
AcDbLine
 10
-0.165250000000002
 20
157.0765
 30
0.0
 11
0.0122500000000013
 21
157.2924999999999
 31
0.0
  0
LINE
  5
1C6
330
1E
100
AcDbEntity
  8
0
100
AcDbLine
 10
-0.0312456934596165
 20
155.673612865312
 30
0.0
 11
-0.0158500000000026
 21
155.6024999999999
 31
0.0
  0
LINE
  5
1C7
330
1E
100
AcDbEntity
  8
0
100
AcDbLine
 10
0.0122500000000013
 20
157.2924999999999
 30
0.0
 11
0.200749999999996
 21
157.4075
 31
0.0
  0
LINE
  5
1C8
330
1E
100
AcDbEntity
  8
0
100
AcDbLine
 10
-0.0312456934596165
 20
155.673612865312
 30
0.0
 11
-0.0158500000000026
 21
155.6024999999999
 31
0.0
  0
LINE
  5
1CB
330
1E
100
AcDbEntity
  8
0
100
AcDbLine
 10
1.422849999999999
 20
152.6065
 30
0.0
 11
1.857949999999999
 21
152.0564999999999
 31
0.0
  0
LINE
  5
1CD
330
1E
100
AcDbEntity
  8
0
100
AcDbLine
 10
2.174749999999989
 20
151.8274999999999
 30
0.0
 11
2.78825
 21
151.5705
 31
0.0
  0
LINE
  5
1D0
330
1E
100
AcDbEntity
  8
0
100
AcDbLine
 10
2.78825
 20
151.5705
 30
0.0
 11
3.452949999999999
 21
151.4145
 31
0.0
  0
LINE
  5
1D1
330
1E
100
AcDbEntity
  8
0
100
AcDbLine
 10
1.857949999999999
 20
152.0564999999999
 30
0.0
 11
2.174749999999989
 21
151.8274999999999
 31
0.0
  0
LINE
  5
1D2
330
1E
100
AcDbEntity
  8
0
100
AcDbLine
 10
0.200749999999996
 20
157.4075
 30
0.0
 11
0.461349999999997
 21
157.4925
 31
0.0
  0
LINE
  5
1D5
330
1E
100
AcDbEntity
  8
0
100
AcDbLine
 10
14.13795
 20
157.8465
 30
0.0
 11
27.19835
 21
157.9954999999999
 31
0.0
  0
LINE
  5
1D6
330
1E
100
AcDbEntity
  8
0
100
AcDbLine
 10
0.461349999999997
 20
157.4925
 30
0.0
 11
14.13795
 21
157.8465
 31
0.0
  0
LINE
  5
1D7
330
1E
100
AcDbEntity
  8
0
100
AcDbLine
 10
0.0763499999999996
 20
155.2615
 30
0.0
 11
1.189249999999999
 21
151.3474999999999
 31
0.0
  0
LINE
  5
1DB
330
1E
100
AcDbEntity
  8
0
100
AcDbLine
 10
51.17235
 20
0.0044999999999826
 30
0.0
 11
51.51424999999999
 21
0.0044999999999827
 31
0.0
  0
LINE
  5
1DC
330
1E
100
AcDbEntity
  8
0
100
AcDbLine
 10
51.80695
 20
0.0044999999999831
 30
0.0
 11
51.90415
 21
0.004499999999983
 31
0.0
  0
LINE
  5
1DD
330
1E
100
AcDbEntity
  8
0
100
AcDbLine
 10
51.90415
 20
0.0044999999999832
 30
0.0
 11
51.90725
 21
26.23409999999999
 31
0.0
  0
LINE
  5
1DE
330
1E
100
AcDbEntity
  8
0
100
AcDbLine
 10
50.39235
 20
0.0044999999999835
 30
0.0
 11
51.04505
 21
0.0044999999999834
 31
0.0
  0
LINE
  5
1E2
330
1E
100
AcDbEntity
  8
0
100
AcDbLine
 10
51.04505
 20
0.0044999999999834
 30
0.0
 11
51.51925
 21
0.0044999999999832
 31
0.0
  0
LINE
  5
1E3
330
1E
100
AcDbEntity
  8
0
100
AcDbLine
 10
51.51925
 20
0.0044999999999832
 30
0.0
 11
51.80695
 21
0.0044999999999831
 31
0.0
  0
LINE
  5
1E4
330
1E
100
AcDbEntity
  8
0
100
AcDbLine
 10
51.9072076433963
 20
25.8757139446783
 30
0.0
 11
51.90725
 21
26.2341
 31
0.0
  0
LINE
  5
1E5
330
1E
100
AcDbEntity
  8
0
100
AcDbLine
 10
51.90415
 20
0.0044999999999832
 30
0.0
 11
51.90725
 21
26.23409999999999
 31
0.0
  0
LINE
  5
1EE
330
1E
100
AcDbEntity
  8
0
100
AcDbLine
 10
51.90725
 20
26.2341
 30
0.0
 11
51.91024999999999
 21
34.5156
 31
0.0
  0
LINE
  5
1F0
330
1E
100
AcDbEntity
  8
0
100
AcDbLine
 10
51.91024999999999
 20
34.5156
 30
0.0
 11
51.95734999999999
 21
74.66540000000001
 31
0.0
  0
LINE
  5
23A
330
1E
100
AcDbEntity
  8
0
100
AcDbLine
 10
51.95734999999999
 20
74.66540000000001
 30
0.0
 11
51.98035
 21
84.0531
 31
0.0
  0
LINE
  5
25E
330
1E
100
AcDbEntity
  8
0
100
AcDbLine
 10
51.9072076433963
 20
25.8757139446783
 30
0.0
 11
51.90725
 21
26.2341
 31
0.0
  0
LINE
  5
275
330
1E
100
AcDbEntity
  8
0
100
AcDbLine
 10
1.189249999999999
 20
151.3474999999999
 30
0.0
 11
3.504954232519253
 21
145.7840071756913
 31
0.0
  0
LINE
  5
276
330
1E
100
AcDbEntity
  8
0
100
AcDbLine
 10
3.504954232519253
 20
145.7840071756913
 30
0.0
 11
6.13951748637487
 21
142.0352930771279
 31
0.0
  0
LINE
  5
277
330
1E
100
AcDbEntity
  8
0
100
AcDbLine
 10
6.13951748637487
 20
142.0352930771279
 30
0.0
 11
9.756459698998583
 21
138.8221095111679
 31
0.0
  0
LINE
  5
278
330
1E
100
AcDbEntity
  8
0
100
AcDbLine
 10
9.756459698998583
 20
138.8221095111679
 30
0.0
 11
13.10548100565279
 21
137.7064206546844
 31
0.0
  0
LINE
  5
279
330
1E
100
AcDbEntity
  8
0
100
AcDbLine
 10
13.10548100565279
 20
137.7064206546844
 30
0.0
 11
14.35578163823925
 21
137.6617932337474
 31
0.0
  0
LINE
  5
27A
330
1E
100
AcDbEntity
  8
0
100
AcDbLine
 10
14.35578163823925
 20
137.6617932337474
 30
0.0
 11
27.4
 21
137.84
 31
0.0
  0
LINE
  5
27B
330
1E
100
AcDbEntity
  8
0
100
AcDbLine
 10
1.290377292962729
 20
143.7123715069359
 30
0.0
 11
0.000250000000002
 21
155.5455
 31
0.0
  0
LINE
  5
27C
330
1E
100
AcDbEntity
  8
0
100
AcDbLine
 10
0.000250000000002
 20
155.5455
 30
0.0
 11
-0.143150000000002
 21
156.1904999999999
 31
0.0
  0
LINE
  5
283
330
1E
100
AcDbEntity
  8
0
100
AcDbLine
 10
1.422849999999999
 20
152.6065
 30
0.0
 11
0.0763499999999996
 21
155.2615
 31
0.0
  0
LINE
  5
284
330
1E
100
AcDbEntity
  8
0
100
AcDbLine
 10
4.29605
 20
151.2975
 30
0.0
 11
10.42394417504908
 21
150.8400609910731
 31
0.0
  0
LINE
  5
285
330
1E
100
AcDbEntity
  8
0
100
AcDbLine
 10
10.42394417504908
 20
150.8400609910731
 30
0.0
 11
18.16914999999999
 21
150.4894999999999
 31
0.0
  0
LINE
  5
286
330
1E
100
AcDbEntity
  8
0
100
AcDbLine
 10
18.16914999999999
 20
150.4894999999999
 30
0.0
 11
27.2
 21
150.5
 31
0.0
  0
LINE
  5
3B4
330
1E
100
AcDbEntity
  8
0
100
AcDbLine
 10
44.17605582495091
 20
150.8400609910731
 30
0.0
 11
36.43085000000001
 21
150.4894999999999
 31
0.0
  0
LINE
  5
3B5
330
1E
100
AcDbEntity
  8
0
100
AcDbLine
 10
44.84354030100141
 20
138.8221095111679
 30
0.0
 11
41.49451899434721
 21
137.7064206546844
 31
0.0
  0
LINE
  5
3B6
330
1E
100
AcDbEntity
  8
0
100
AcDbLine
 10
54.13865000000001
 20
157.4925
 30
0.0
 11
40.46205
 21
157.8465
 31
0.0
  0
LINE
  5
3B7
330
1E
100
AcDbEntity
  8
0
100
AcDbLine
 10
52.58675
 20
128.6734999999999
 30
0.0
 11
51.98035
 21
84.0531
 31
0.0
  0
LINE
  5
3B8
330
1E
100
AcDbEntity
  8
0
100
AcDbLine
 10
53.41075
 20
151.3474999999999
 30
0.0
 11
51.09504576748075
 21
145.7840071756913
 31
0.0
  0
LINE
  5
3B9
330
1E
100
AcDbEntity
  8
0
100
AcDbLine
 10
52.74205
 20
152.0564999999999
 30
0.0
 11
52.42525000000001
 21
151.8274999999999
 31
0.0
  0
LINE
  5
3BA
330
1E
100
AcDbEntity
  8
0
100
AcDbLine
 10
52.86945
 20
136.2034999999999
 30
0.0
 11
52.58675
 21
128.6734999999999
 31
0.0
  0
LINE
  5
3BB
330
1E
100
AcDbEntity
  8
0
100
AcDbLine
 10
53.17715
 20
152.6065
 30
0.0
 11
54.52365
 21
155.2615
 31
0.0
  0
LINE
  5
3BC
330
1E
100
AcDbEntity
  8
0
100
AcDbLine
 10
53.30962270703727
 20
143.7123715069359
 30
0.0
 11
54.59975
 21
155.5455
 31
0.0
  0
LINE
  5
3BD
330
1E
100
AcDbEntity
  8
0
100
AcDbLine
 10
54.52365
 20
155.2615
 30
0.0
 11
53.41075
 21
151.3474999999999
 31
0.0
  0
LINE
  5
3BE
330
1E
100
AcDbEntity
  8
0
100
AcDbLine
 10
53.30962270703727
 20
143.7123715069359
 30
0.0
 11
52.86945
 21
136.2034999999999
 31
0.0
  0
LINE
  5
3BF
330
1E
100
AcDbEntity
  8
0
100
AcDbLine
 10
53.30962270703727
 20
143.7123715069359
 30
0.0
 11
52.86945
 21
136.2034999999999
 31
0.0
  0
LINE
  5
3C0
330
1E
100
AcDbEntity
  8
0
100
AcDbLine
 10
53.17715
 20
152.6065
 30
0.0
 11
52.74205
 21
152.0564999999999
 31
0.0
  0
LINE
  5
3C1
330
1E
100
AcDbEntity
  8
0
100
AcDbLine
 10
54.59975
 20
155.5455
 30
0.0
 11
54.74315
 21
156.1904999999999
 31
0.0
  0
LINE
  5
3C2
330
1E
100
AcDbEntity
  8
0
100
AcDbLine
 10
54.63124569345962
 20
155.673612865312
 30
0.0
 11
54.61585
 21
155.6024999999999
 31
0.0
  0
LINE
  5
3C3
330
1E
100
AcDbEntity
  8
0
100
AcDbLine
 10
54.63124569345962
 20
155.673612865312
 30
0.0
 11
54.61585
 21
155.6024999999999
 31
0.0
  0
LINE
  5
3C4
330
1E
100
AcDbEntity
  8
0
100
AcDbLine
 10
54.59975
 20
155.5455
 30
0.0
 11
54.52365
 21
155.2615
 31
0.0
  0
LINE
  5
3C5
330
1E
100
AcDbEntity
  8
0
100
AcDbLine
 10
54.76525
 20
157.0765
 30
0.0
 11
54.58775
 21
157.2924999999999
 31
0.0
  0
LINE
  5
3C6
330
1E
100
AcDbEntity
  8
0
100
AcDbLine
 10
54.79525
 20
156.5525
 30
0.0
 11
54.74315
 21
156.1904999999999
 31
0.0
  0
LINE
  5
3C7
330
1E
100
AcDbEntity
  8
0
100
AcDbLine
 10
54.79835
 20
156.7994999999999
 30
0.0
 11
54.79525
 21
156.5525
 31
0.0
  0
LINE
  5
3C8
330
1E
100
AcDbEntity
  8
0
100
AcDbLine
 10
54.79835
 20
156.7994999999999
 30
0.0
 11
54.76525
 21
157.0765
 31
0.0
  0
LINE
  5
3C9
330
1E
100
AcDbEntity
  8
0
100
AcDbLine
 10
54.39925
 20
157.4075
 30
0.0
 11
54.13865000000001
 21
157.4925
 31
0.0
  0
LINE
  5
3CA
330
1E
100
AcDbEntity
  8
0
100
AcDbLine
 10
54.58775
 20
157.2924999999999
 30
0.0
 11
54.39925
 21
157.4075
 31
0.0
  0
LINE
  5
3CB
330
1E
100
AcDbEntity
  8
0
100
AcDbLine
 10
50.30395
 20
151.2975
 30
0.0
 11
44.17605582495091
 21
150.8400609910731
 31
0.0
  0
LINE
  5
3CC
330
1E
100
AcDbEntity
  8
0
100
AcDbLine
 10
48.46048251362513
 20
142.0352930771279
 30
0.0
 11
44.84354030100141
 21
138.8221095111679
 31
0.0
  0
LINE
  5
3CD
330
1E
100
AcDbEntity
  8
0
100
AcDbLine
 10
51.09504576748075
 20
145.7840071756913
 30
0.0
 11
48.46048251362513
 21
142.0352930771279
 31
0.0
  0
LINE
  5
3CE
330
1E
100
AcDbEntity
  8
0
100
AcDbLine
 10
51.81175
 20
151.5705
 30
0.0
 11
51.14705
 21
151.4145
 31
0.0
  0
LINE
  5
3CF
330
1E
100
AcDbEntity
  8
0
100
AcDbLine
 10
52.42525000000001
 20
151.8274999999999
 30
0.0
 11
51.81175
 21
151.5705
 31
0.0
  0
LINE
  5
3D0
330
1E
100
AcDbEntity
  8
0
100
AcDbLine
 10
51.14705
 20
151.4145
 30
0.0
 11
50.30395
 21
151.2975
 31
0.0
  0
LINE
  5
3D1
330
1E
100
AcDbEntity
  8
0
100
AcDbLine
 10
36.43085000000001
 20
150.4894999999999
 30
0.0
 11
27.4
 21
150.5
 31
0.0
  0
LINE
  5
3D2
330
1E
100
AcDbEntity
  8
0
100
AcDbLine
 10
40.24421836176075
 20
137.6617932337474
 30
0.0
 11
27.4
 21
137.84
 31
0.0
  0
LINE
  5
3D3
330
1E
100
AcDbEntity
  8
0
100
AcDbLine
 10
40.46205
 20
157.8465
 30
0.0
 11
27.40165
 21
157.9954999999999
 31
0.0
  0
LINE
  5
3D4
330
1E
100
AcDbEntity
  8
0
100
AcDbLine
 10
32.30774999999999
 20
136.7924999999999
 30
0.0
 11
31.37355
 21
136.9345
 31
0.0
  0
LINE
  5
3D5
330
1E
100
AcDbEntity
  8
0
100
AcDbLine
 10
32.41474999999999
 20
136.3005
 30
0.0
 11
31.63075
 21
136.4524999999999
 31
0.0
  0
LINE
  5
3D6
330
1E
100
AcDbEntity
  8
0
100
AcDbLine
 10
32.47125
 20
134.5625
 30
0.0
 11
31.63075
 21
134.3985
 31
0.0
  0
LINE
  5
3D7
330
1E
100
AcDbEntity
  8
0
100
AcDbLine
 10
32.41474999999999
 20
131.7425
 30
0.0
 11
31.63075
 21
131.5914999999999
 31
0.0
  0
LINE
  5
3D8
330
1E
100
AcDbEntity
  8
0
100
AcDbLine
 10
32.30774999999999
 20
131.2024999999999
 30
0.0
 11
31.35735
 21
131.0595
 31
0.0
  0
LINE
  5
3D9
330
1E
100
AcDbEntity
  8
0
100
AcDbLine
 10
32.04744999999999
 20
130.6214999999999
 30
0.0
 11
30.99515
 21
130.4985
 31
0.0
  0
LINE
  5
3DA
330
1E
100
AcDbEntity
  8
0
100
AcDbLine
 10
37.29495
 20
134.7995
 30
0.0
 11
36.97715
 21
135.1105
 31
0.0
  0
LINE
  5
3DB
330
1E
100
AcDbEntity
  8
0
100
AcDbLine
 10
37.39185
 20
133.3214999999999
 30
0.0
 11
37.09925
 21
132.9925
 31
0.0
  0
LINE
  5
3DC
330
1E
100
AcDbEntity
  8
0
100
AcDbLine
 10
37.17595
 20
131.9505
 30
0.0
 11
36.50294999999999
 21
131.6674999999999
 31
0.0
  0
LINE
  5
3DD
330
1E
100
AcDbEntity
  8
0
100
AcDbLine
 10
41.49451899434721
 20
137.7064206546844
 30
0.0
 11
40.24421836176075
 21
137.6617932337474
 31
0.0
  0
LINE
  5
3DE
330
1E
100
AcDbEntity
  8
0
100
AcDbLine
 10
39.40165
 20
137.6734834260866
 30
0.0
 11
39.40165
 21
134.2715
 31
0.0
  0
LINE
  5
3DF
330
1E
100
AcDbEntity
  8
0
100
AcDbLine
 10
37.50985
 20
134.4815
 30
0.0
 11
37.29495
 21
134.7995
 31
0.0
  0
LINE
  5
3E0
330
1E
100
AcDbEntity
  8
0
100
AcDbLine
 10
38.64295
 20
132.8985
 30
0.0
 11
38.25045
 21
132.5685
 31
0.0
  0
LINE
  5
3E1
330
1E
100
AcDbEntity
  8
0
100
AcDbLine
 10
39.26645
 20
133.7224999999999
 30
0.0
 11
39.07775
 21
133.3704999999999
 31
0.0
  0
LINE
  5
3E2
330
1E
100
AcDbEntity
  8
0
100
AcDbLine
 10
39.40165
 20
134.2715
 30
0.0
 11
39.31995
 21
133.9145
 31
0.0
  0
LINE
  5
3E3
330
1E
100
AcDbEntity
  8
0
100
AcDbLine
 10
39.31995
 20
133.9145
 30
0.0
 11
39.26645
 21
133.7224999999999
 31
0.0
  0
LINE
  5
3E4
330
1E
100
AcDbEntity
  8
0
100
AcDbLine
 10
38.78415
 20
133.0265
 30
0.0
 11
38.64295
 21
132.8985
 31
0.0
  0
LINE
  5
3E5
330
1E
100
AcDbEntity
  8
0
100
AcDbLine
 10
39.07775
 20
133.3704999999999
 30
0.0
 11
38.78415
 21
133.0265
 31
0.0
  0
LINE
  5
3E6
330
1E
100
AcDbEntity
  8
0
100
AcDbLine
 10
38.25045
 20
132.5685
 30
0.0
 11
37.76015
 21
132.2514999999999
 31
0.0
  0
LINE
  5
3E7
330
1E
100
AcDbEntity
  8
0
100
AcDbLine
 10
37.62185
 20
133.7895
 30
0.0
 11
37.39185
 21
133.3214999999999
 31
0.0
  0
LINE
  5
3E8
330
1E
100
AcDbEntity
  8
0
100
AcDbLine
 10
37.62585
 20
133.9735
 30
0.0
 11
37.62185
 21
134.1585
 31
0.0
  0
LINE
  5
3E9
330
1E
100
AcDbEntity
  8
0
100
AcDbLine
 10
37.62585
 20
133.9735
 30
0.0
 11
37.62185
 21
133.7895
 31
0.0
  0
LINE
  5
3EA
330
1E
100
AcDbEntity
  8
0
100
AcDbLine
 10
37.62185
 20
134.1585
 30
0.0
 11
37.50985
 21
134.4815
 31
0.0
  0
LINE
  5
3EB
330
1E
100
AcDbEntity
  8
0
100
AcDbLine
 10
37.76015
 20
132.2514999999999
 30
0.0
 11
37.17595
 21
131.9505
 31
0.0
  0
LINE
  5
3EC
330
1E
100
AcDbEntity
  8
0
100
AcDbLine
 10
34.57285
 20
135.2154999999999
 30
0.0
 11
33.95235
 21
134.9745
 31
0.0
  0
LINE
  5
3ED
330
1E
100
AcDbEntity
  8
0
100
AcDbLine
 10
34.77365
 20
136.2024999999999
 30
0.0
 11
34.01695
 21
136.4254999999999
 31
0.0
  0
LINE
  5
3EE
330
1E
100
AcDbEntity
  8
0
100
AcDbLine
 10
34.92795
 20
135.4675
 30
0.0
 11
34.40735
 21
135.7055
 31
0.0
  0
LINE
  5
3EF
330
1E
100
AcDbEntity
  8
0
100
AcDbLine
 10
34.92795
 20
132.5765
 30
0.0
 11
34.40735
 21
132.3375
 31
0.0
  0
LINE
  5
3F0
330
1E
100
AcDbEntity
  8
0
100
AcDbLine
 10
34.87955
 20
131.8274999999999
 30
0.0
 11
34.09465
 21
131.5914999999999
 31
0.0
  0
LINE
  5
3F1
330
1E
100
AcDbEntity
  8
0
100
AcDbLine
 10
34.91595
 20
131.1705
 30
0.0
 11
34.01695
 21
130.9594999999999
 31
0.0
  0
LINE
  5
3F2
330
1E
100
AcDbEntity
  8
0
100
AcDbLine
 10
36.14985
 20
134.3865
 30
0.0
 11
35.98135
 21
134.6705
 31
0.0
  0
LINE
  5
3F3
330
1E
100
AcDbEntity
  8
0
100
AcDbLine
 10
35.98135
 20
133.3745
 30
0.0
 11
35.72005
 21
133.0964999999999
 31
0.0
  0
LINE
  5
3F4
330
1E
100
AcDbEntity
  8
0
100
AcDbLine
 10
36.18715
 20
132.3725
 30
0.0
 11
35.57975
 21
132.0894999999999
 31
0.0
  0
LINE
  5
3F5
330
1E
100
AcDbEntity
  8
0
100
AcDbLine
 10
36.50294999999999
 20
131.6674999999999
 30
0.0
 11
35.74725
 21
131.4075
 31
0.0
  0
LINE
  5
3F6
330
1E
100
AcDbEntity
  8
0
100
AcDbLine
 10
36.69565
 20
132.6745
 30
0.0
 11
36.18715
 21
132.3725
 31
0.0
  0
LINE
  5
3F7
330
1E
100
AcDbEntity
  8
0
100
AcDbLine
 10
37.09925
 20
132.9925
 30
0.0
 11
36.69565
 21
132.6745
 31
0.0
  0
LINE
  5
3F8
330
1E
100
AcDbEntity
  8
0
100
AcDbLine
 10
36.14985
 20
134.3865
 30
0.0
 11
36.14985
 21
133.6585
 31
0.0
  0
LINE
  5
3F9
330
1E
100
AcDbEntity
  8
0
100
AcDbLine
 10
36.14985
 20
133.6585
 30
0.0
 11
35.98135
 21
133.3745
 31
0.0
  0
LINE
  5
3FA
330
1E
100
AcDbEntity
  8
0
100
AcDbLine
 10
36.14985
 20
133.6585
 30
0.0
 11
36.14985
 21
134.3865
 31
0.0
  0
LINE
  5
3FB
330
1E
100
AcDbEntity
  8
0
100
AcDbLine
 10
35.74725
 20
131.4075
 30
0.0
 11
34.91595
 21
131.1705
 31
0.0
  0
LINE
  5
3FC
330
1E
100
AcDbEntity
  8
0
100
AcDbLine
 10
35.36795
 20
132.8305
 30
0.0
 11
34.92795
 21
132.5765
 31
0.0
  0
LINE
  5
3FD
330
1E
100
AcDbEntity
  8
0
100
AcDbLine
 10
35.57975
 20
132.0894999999999
 30
0.0
 11
34.87955
 21
131.8274999999999
 31
0.0
  0
LINE
  5
3FE
330
1E
100
AcDbEntity
  8
0
100
AcDbLine
 10
35.72005
 20
133.0964999999999
 30
0.0
 11
35.36795
 21
132.8305
 31
0.0
  0
LINE
  5
3FF
330
1E
100
AcDbEntity
  8
0
100
AcDbLine
 10
36.05295
 20
135.6914999999999
 30
0.0
 11
35.45364999999999
 21
135.9565
 31
0.0
  0
LINE
  5
400
330
1E
100
AcDbEntity
  8
0
100
AcDbLine
 10
35.98135
 20
134.6705
 30
0.0
 11
35.72005
 21
134.9464999999999
 31
0.0
  0
LINE
  5
401
330
1E
100
AcDbEntity
  8
0
100
AcDbLine
 10
36.56245
 20
135.4074999999999
 30
0.0
 11
36.05295
 21
135.6914999999999
 31
0.0
  0
LINE
  5
402
330
1E
100
AcDbEntity
  8
0
100
AcDbLine
 10
36.97715
 20
135.1105
 30
0.0
 11
36.56245
 21
135.4074999999999
 31
0.0
  0
LINE
  5
403
330
1E
100
AcDbEntity
  8
0
100
AcDbLine
 10
35.45364999999999
 20
135.9565
 30
0.0
 11
34.77365
 21
136.2024999999999
 31
0.0
  0
LINE
  5
404
330
1E
100
AcDbEntity
  8
0
100
AcDbLine
 10
35.36795
 20
135.2144999999999
 30
0.0
 11
34.92795
 21
135.4675
 31
0.0
  0
LINE
  5
405
330
1E
100
AcDbEntity
  8
0
100
AcDbLine
 10
35.72005
 20
134.9464999999999
 30
0.0
 11
35.36795
 21
135.2144999999999
 31
0.0
  0
LINE
  5
406
330
1E
100
AcDbEntity
  8
0
100
AcDbLine
 10
34.9997123566854
 20
135.426236644906
 30
0.0
 11
34.57285
 21
135.2154999999999
 31
0.0
  0
LINE
  5
407
330
1E
100
AcDbEntity
  8
0
100
AcDbLine
 10
33.81114999999999
 20
132.1185
 30
0.0
 11
33.14414999999999
 21
131.9185
 31
0.0
  0
LINE
  5
408
330
1E
100
AcDbEntity
  8
0
100
AcDbLine
 10
34.09465
 20
131.5914999999999
 30
0.0
 11
33.23395
 21
131.3825
 31
0.0
  0
LINE
  5
409
330
1E
100
AcDbEntity
  8
0
100
AcDbLine
 10
34.01695
 20
130.9594999999999
 30
0.0
 11
33.05745
 21
130.7755
 31
0.0
  0
LINE
  5
40A
330
1E
100
AcDbEntity
  8
0
100
AcDbLine
 10
34.40735
 20
132.3375
 30
0.0
 11
33.81114999999999
 21
132.1185
 31
0.0
  0
LINE
  5
40B
330
1E
100
AcDbEntity
  8
0
100
AcDbLine
 10
33.23395
 20
131.3825
 30
0.0
 11
32.30774999999999
 21
131.2024999999999
 31
0.0
  0
LINE
  5
40C
330
1E
100
AcDbEntity
  8
0
100
AcDbLine
 10
33.05745
 20
130.7755
 30
0.0
 11
32.04744999999999
 21
130.6214999999999
 31
0.0
  0
LINE
  5
40D
330
1E
100
AcDbEntity
  8
0
100
AcDbLine
 10
33.14414999999999
 20
131.9185
 30
0.0
 11
32.41474999999999
 21
131.7425
 31
0.0
  0
LINE
  5
40E
330
1E
100
AcDbEntity
  8
0
100
AcDbLine
 10
34.01695
 20
136.4254999999999
 30
0.0
 11
33.19165
 21
136.6225
 31
0.0
  0
LINE
  5
40F
330
1E
100
AcDbEntity
  8
0
100
AcDbLine
 10
33.95235
 20
134.9745
 30
0.0
 11
33.24915
 21
134.7544999999999
 31
0.0
  0
LINE
  5
410
330
1E
100
AcDbEntity
  8
0
100
AcDbLine
 10
33.81114999999999
 20
135.9255
 30
0.0
 11
33.14414999999999
 21
136.1245
 31
0.0
  0
LINE
  5
411
330
1E
100
AcDbEntity
  8
0
100
AcDbLine
 10
34.40735
 20
135.7055
 30
0.0
 11
33.81114999999999
 21
135.9255
 31
0.0
  0
LINE
  5
412
330
1E
100
AcDbEntity
  8
0
100
AcDbLine
 10
33.19165
 20
136.6225
 30
0.0
 11
32.30774999999999
 21
136.7924999999999
 31
0.0
  0
LINE
  5
413
330
1E
100
AcDbEntity
  8
0
100
AcDbLine
 10
33.14414999999999
 20
136.1245
 30
0.0
 11
32.41474999999999
 21
136.3005
 31
0.0
  0
LINE
  5
414
330
1E
100
AcDbEntity
  8
0
100
AcDbLine
 10
33.24915
 20
134.7544999999999
 30
0.0
 11
32.47125
 21
134.5625
 31
0.0
  0
LINE
  5
415
330
1E
100
AcDbEntity
  8
0
100
AcDbLine
 10
28.36585
 20
137.1725
 30
0.0
 11
26.43745
 21
137.1725
 31
0.0
  0
LINE
  5
416
330
1E
100
AcDbEntity
  8
0
100
AcDbLine
 10
27.40165
 20
130.8114999999999
 30
0.0
 11
26.50605
 21
130.8214999999999
 31
0.0
  0
LINE
  5
417
330
1E
100
AcDbEntity
  8
0
100
AcDbLine
 10
29.39295
 20
137.1245
 30
0.0
 11
28.36585
 21
137.1725
 31
0.0
  0
LINE
  5
418
330
1E
100
AcDbEntity
  8
0
100
AcDbLine
 10
29.76925
 20
136.6904999999999
 30
0.0
 11
28.78555
 21
136.7574999999999
 31
0.0
  0
LINE
  5
419
330
1E
100
AcDbEntity
  8
0
100
AcDbLine
 10
29.80055
 20
134.1634999999999
 30
0.0
 11
28.83395
 21
134.0964999999999
 31
0.0
  0
LINE
  5
41A
330
1E
100
AcDbEntity
  8
0
100
AcDbLine
 10
29.76925
 20
131.3544999999999
 30
0.0
 11
28.78555
 21
131.2864999999999
 31
0.0
  0
LINE
  5
41B
330
1E
100
AcDbEntity
  8
0
100
AcDbLine
 10
30.36555
 20
130.9464999999999
 30
0.0
 11
29.34255
 21
130.8685
 31
0.0
  0
LINE
  5
41C
330
1E
100
AcDbEntity
  8
0
100
AcDbLine
 10
29.90955
 20
130.4075
 30
0.0
 11
28.80175
 21
130.3485
 31
0.0
  0
LINE
  5
41D
330
1E
100
AcDbEntity
  8
0
100
AcDbLine
 10
30.73685
 20
134.2655
 30
0.0
 11
29.80055
 21
134.1634999999999
 31
0.0
  0
LINE
  5
41E
330
1E
100
AcDbEntity
  8
0
100
AcDbLine
 10
30.72175
 20
131.4555
 30
0.0
 11
29.76925
 21
131.3544999999999
 31
0.0
  0
LINE
  5
41F
330
1E
100
AcDbEntity
  8
0
100
AcDbLine
 10
31.35735
 20
131.0595
 30
0.0
 11
30.36555
 21
130.9464999999999
 31
0.0
  0
LINE
  5
420
330
1E
100
AcDbEntity
  8
0
100
AcDbLine
 10
30.99515
 20
130.4985
 30
0.0
 11
29.90955
 21
130.4075
 31
0.0
  0
LINE
  5
421
330
1E
100
AcDbEntity
  8
0
100
AcDbLine
 10
31.63075
 20
131.5914999999999
 30
0.0
 11
30.72175
 21
131.4555
 31
0.0
  0
LINE
  5
422
330
1E
100
AcDbEntity
  8
0
100
AcDbLine
 10
31.63075
 20
134.3985
 30
0.0
 11
30.73685
 21
134.2655
 31
0.0
  0
LINE
  5
423
330
1E
100
AcDbEntity
  8
0
100
AcDbLine
 10
31.37355
 20
136.9345
 30
0.0
 11
30.39785
 21
137.0454999999999
 31
0.0
  0
LINE
  5
424
330
1E
100
AcDbEntity
  8
0
100
AcDbLine
 10
30.72175
 20
136.5875
 30
0.0
 11
29.76925
 21
136.6904999999999
 31
0.0
  0
LINE
  5
425
330
1E
100
AcDbEntity
  8
0
100
AcDbLine
 10
31.63075
 20
136.4524999999999
 30
0.0
 11
30.72175
 21
136.5875
 31
0.0
  0
LINE
  5
426
330
1E
100
AcDbEntity
  8
0
100
AcDbLine
 10
30.39785
 20
137.0454999999999
 30
0.0
 11
29.39295
 21
137.1245
 31
0.0
  0
LINE
  5
427
330
1E
100
AcDbEntity
  8
0
100
AcDbLine
 10
28.83395
 20
134.0964999999999
 30
0.0
 11
27.85025
 21
134.0635
 31
0.0
  0
LINE
  5
428
330
1E
100
AcDbEntity
  8
0
100
AcDbLine
 10
28.78555
 20
131.2864999999999
 30
0.0
 11
27.78465
 21
131.2555
 31
0.0
  0
LINE
  5
429
330
1E
100
AcDbEntity
  8
0
100
AcDbLine
 10
28.29725
 20
130.8214999999999
 30
0.0
 11
27.40165
 21
130.8114999999999
 31
0.0
  0
LINE
  5
42A
330
1E
100
AcDbEntity
  8
0
100
AcDbLine
 10
28.80175
 20
130.3485
 30
0.0
 11
27.68175
 21
130.3234999999999
 31
0.0
  0
LINE
  5
42B
330
1E
100
AcDbEntity
  8
0
100
AcDbLine
 10
29.34255
 20
130.8685
 30
0.0
 11
28.29725
 21
130.8214999999999
 31
0.0
  0
LINE
  5
42C
330
1E
100
AcDbEntity
  8
0
100
AcDbLine
 10
27.78465
 20
131.2555
 30
0.0
 11
27.40165
 21
131.2564999999999
 31
0.0
  0
LINE
  5
42F
330
1E
100
AcDbEntity
  8
0
100
AcDbLine
 10
27.40165
 20
131.2564999999999
 30
0.0
 11
27.01865
 21
131.2555
 31
0.0
  0
LINE
  5
430
330
1E
100
AcDbEntity
  8
0
100
AcDbLine
 10
27.85025
 20
134.0635
 30
0.0
 11
27.40165
 21
134.0635
 31
0.0
  0
LINE
  5
431
330
1E
100
AcDbEntity
  8
0
100
AcDbLine
 10
27.40165
 20
134.0635
 30
0.0
 11
26.95305
 21
134.0635
 31
0.0
  0
LINE
  5
433
330
1E
100
AcDbEntity
  8
0
100
AcDbLine
 10
28.78555
 20
136.7574999999999
 30
0.0
 11
27.78465
 21
136.7895
 31
0.0
  0
LINE
  5
434
330
1E
100
AcDbEntity
  8
0
100
AcDbLine
 10
27.78465
 20
136.7895
 30
0.0
 11
27.40165
 21
136.7874999999999
 31
0.0
  0
LINE
  5
435
330
1E
100
AcDbEntity
  8
0
100
AcDbLine
 10
27.40165
 20
136.7874999999999
 30
0.0
 11
27.01865
 21
136.7895
 31
0.0
  0
ENDSEC
  0
SECTION
  2
OBJECTS
  0
DICTIONARY
  5
C
330
0
100
AcDbDictionary
281
     1
  3
ACAD_GROUP
350
D
  3
ACAD_LAYOUT
350
19
  3
ACAD_MLINESTYLE
350
16
  3
ACAD_PLOTSETTINGS
350
18
  3
ACAD_PLOTSTYLENAME
350
E
  3
AcDbVariableDictionary
350
27E
  0
DICTIONARY
  5
D
102
{ACAD_REACTORS
330
C
102
}
330
C
100
AcDbDictionary
281
     1
  0
DICTIONARY
  5
19
102
{ACAD_REACTORS
330
C
102
}
330
C
100
AcDbDictionary
281
     1
  3
Layout1
350
1D
  3
Model
350
21
  0
DICTIONARY
  5
16
102
{ACAD_REACTORS
330
C
102
}
330
C
100
AcDbDictionary
281
     1
  3
Standard
350
17
  0
DICTIONARY
  5
18
102
{ACAD_REACTORS
330
C
102
}
330
C
100
AcDbDictionary
281
     1
  0
ACDBDICTIONARYWDFLT
  5
E
102
{ACAD_REACTORS
330
C
102
}
330
C
100
AcDbDictionary
281
     1
  3
Normal
350
F
100
AcDbDictionaryWithDefault
340
F
  0
DICTIONARY
  5
27E
102
{ACAD_REACTORS
330
C
102
}
330
C
100
AcDbDictionary
281
     1
  3
DIMASSOC
350
27F
  0
LAYOUT
  5
1D
102
{ACAD_REACTORS
330
19
102
}
330
19
100
AcDbPlotSettings
  1

  2
C:\Programme\AutoCAD LT 2002 Deu\plotters\DWF ePlot (optimized for plotting).pc3
  4

  6

 40
0.0
 41
0.0
 42
0.0
 43
0.0
 44
0.0
 45
0.0
 46
0.0
 47
0.0
 48
0.0
 49
0.0
140
0.0
141
0.0
142
1.0
143
1.0
 70
   688
 72
     0
 73
     0
 74
     5
  7

 75
    16
147
1.0
148
0.0
149
0.0
100
AcDbLayout
  1
Layout1
 70
     1
 71
     1
 10
0.0
 20
0.0
 11
12.0
 21
9.0
 12
0.0
 22
0.0
 32
0.0
 14
1.000000000000000E+20
 24
1.000000000000000E+20
 34
1.000000000000000E+20
 15
-1.000000000000000E+20
 25
-1.000000000000000E+20
 35
-1.000000000000000E+20
146
0.0
 13
0.0
 23
0.0
 33
0.0
 16
1.0
 26
0.0
 36
0.0
 17
0.0
 27
1.0
 37
0.0
 76
     0
330
1A
  0
LAYOUT
  5
21
102
{ACAD_REACTORS
330
19
102
}
330
19
100
AcDbPlotSettings
  1

  2
C:\Programme\AutoCAD LT 2002 Deu\plotters\DWF ePlot (optimized for plotting).pc3
  4

  6

 40
0.0
 41
0.0
 42
0.0
 43
0.0
 44
0.0
 45
0.0
 46
0.0
 47
0.0
 48
0.0
 49
0.0
140
0.0
141
0.0
142
1.0
143
1.0
 70
  1712
 72
     0
 73
     0
 74
     0
  7

 75
     0
147
1.0
148
0.0
149
0.0
100
AcDbLayout
  1
Model
 70
     1
 71
     0
 10
0.0
 20
0.0
 11
12.0
 21
9.0
 12
0.0
 22
0.0
 32
0.0
 14
0.0
 24
0.0
 34
0.0
 15
0.0
 25
0.0
 35
0.0
146
0.0
 13
0.0
 23
0.0
 33
0.0
 16
1.0
 26
0.0
 36
0.0
 17
0.0
 27
1.0
 37
0.0
 76
     0
330
1E
  0
MLINESTYLE
  5
17
102
{ACAD_REACTORS
330
16
102
}
330
16
100
AcDbMlineStyle
  2
STANDARD
 70
     0
  3

 62
   256
 51
90.0
 52
90.0
 71
     2
 49
0.5
 62
   256
  6
BYLAYER
 49
-0.5
 62
   256
  6
BYLAYER
  0
ACDBPLACEHOLDER
  5
F
102
{ACAD_REACTORS
330
E
102
}
330
E
  0
DICTIONARYVAR
  5
27F
102
{ACAD_REACTORS
330
27E
102
}
330
27E
100
DictionaryVariables
280
     0
  1
1
  0
ENDSEC
  0
EOF
