  0
SECTION
  2
HEADER
  9
$ACADVER
  1
AC1015
  9
$ACADMAINTVER
 70
    13
  9
$DWGCODEPAGE
  3
ANSI_1252
  9
$INSBASE
 10
0.0
 20
0.0
 30
0.0
  9
$EXTMIN
 10
-0.0000000000000079
 20
-0.0000000000000036
 30
0.0
  9
$EXTMAX
 10
75.0
 20
64.0
 30
0.0
  9
$LIMMIN
 10
0.0
 20
0.0
  9
$LIMMAX
 10
12.0
 20
9.0
  9
$ORTHOMODE
 70
     0
  9
$REGENMODE
 70
     1
  9
$FILLMODE
 70
     1
  9
$QTEXTMODE
 70
     0
  9
$MIRRTEXT
 70
     1
  9
$LTSCALE
 40
1.0
  9
$ATTMODE
 70
     1
  9
$TEXTSIZE
 40
0.2
  9
$TRACEWID
 40
0.05
  9
$TEXTSTYLE
  7
Standard
  9
$CLAYER
  8
0
  9
$CELTYPE
  6
Continuous
  9
$CECOLOR
 62
   256
  9
$CELTSCALE
 40
1.0
  9
$DISPSILH
 70
     0
  9
$DIMSCALE
 40
1.0
  9
$DIMASZ
 40
0.18
  9
$DIMEXO
 40
0.0625
  9
$DIMDLI
 40
0.38
  9
$DIMRND
 40
0.0
  9
$DIMDLE
 40
0.0
  9
$DIMEXE
 40
0.18
  9
$DIMTP
 40
0.0
  9
$DIMTM
 40
0.0
  9
$DIMTXT
 40
0.18
  9
$DIMCEN
 40
0.09
  9
$DIMTSZ
 40
0.0
  9
$DIMTOL
 70
     0
  9
$DIMLIM
 70
     0
  9
$DIMTIH
 70
     1
  9
$DIMTOH
 70
     1
  9
$DIMSE1
 70
     0
  9
$DIMSE2
 70
     0
  9
$DIMTAD
 70
     0
  9
$DIMZIN
 70
     0
  9
$DIMBLK
  1

  9
$DIMASO
 70
     1
  9
$DIMSHO
 70
     1
  9
$DIMPOST
  1

  9
$DIMAPOST
  1

  9
$DIMALT
 70
     0
  9
$DIMALTD
 70
     2
  9
$DIMALTF
 40
25.4
  9
$DIMLFAC
 40
1.0
  9
$DIMTOFL
 70
     0
  9
$DIMTVP
 40
0.0
  9
$DIMTIX
 70
     0
  9
$DIMSOXD
 70
     0
  9
$DIMSAH
 70
     0
  9
$DIMBLK1
  1

  9
$DIMBLK2
  1

  9
$DIMSTYLE
  2
Standard
  9
$DIMCLRD
 70
     0
  9
$DIMCLRE
 70
     0
  9
$DIMCLRT
 70
     0
  9
$DIMTFAC
 40
1.0
  9
$DIMGAP
 40
0.09
  9
$DIMJUST
 70
     0
  9
$DIMSD1
 70
     0
  9
$DIMSD2
 70
     0
  9
$DIMTOLJ
 70
     1
  9
$DIMTZIN
 70
     0
  9
$DIMALTZ
 70
     0
  9
$DIMALTTZ
 70
     0
  9
$DIMUPT
 70
     0
  9
$DIMDEC
 70
     4
  9
$DIMTDEC
 70
     4
  9
$DIMALTU
 70
     2
  9
$DIMALTTD
 70
     2
  9
$DIMTXSTY
  7
Standard
  9
$DIMAUNIT
 70
     0
  9
$DIMADEC
 70
     0
  9
$DIMALTRND
 40
0.0
  9
$DIMAZIN
 70
     0
  9
$DIMDSEP
 70
    46
  9
$DIMATFIT
 70
     3
  9
$DIMFRAC
 70
     0
  9
$DIMLDRBLK
  1

  9
$DIMLUNIT
 70
     2
  9
$DIMLWD
 70
    -2
  9
$DIMLWE
 70
    -2
  9
$DIMTMOVE
 70
     0
  9
$LUNITS
 70
     2
  9
$LUPREC
 70
     4
  9
$SKETCHINC
 40
0.1
  9
$FILLETRAD
 40
0.0
  9
$AUNITS
 70
     0
  9
$AUPREC
 70
     0
  9
$MENU
  1
.
  9
$ELEVATION
 40
0.0
  9
$PELEVATION
 40
0.0
  9
$THICKNESS
 40
0.0
  9
$LIMCHECK
 70
     0
  9
$CHAMFERA
 40
0.0
  9
$CHAMFERB
 40
0.0
  9
$CHAMFERC
 40
0.0
  9
$CHAMFERD
 40
0.0
  9
$SKPOLY
 70
     0
  9
$TDCREATE
 40
2454779.618057719
  9
$TDUCREATE
 40
2454779.576391053
  9
$TDUPDATE
 40
2454779.620885231
  9
$TDUUPDATE
 40
2454779.579218564
  9
$TDINDWG
 40
0.0028275116
  9
$TDUSRTIMER
 40
0.0028275116
  9
$USRTIMER
 70
     1
  9
$ANGBASE
 50
0.0
  9
$ANGDIR
 70
     0
  9
$PDMODE
 70
     0
  9
$PDSIZE
 40
0.0
  9
$PLINEWID
 40
0.0
  9
$SPLFRAME
 70
     0
  9
$SPLINETYPE
 70
     6
  9
$SPLINESEGS
 70
     8
  9
$HANDSEED
  5
2D8
  9
$SURFTAB1
 70
     6
  9
$SURFTAB2
 70
     6
  9
$SURFTYPE
 70
     6
  9
$SURFU
 70
     6
  9
$SURFV
 70
     6
  9
$UCSBASE
  2

  9
$UCSNAME
  2

  9
$UCSORG
 10
0.0
 20
0.0
 30
0.0
  9
$UCSXDIR
 10
1.0
 20
0.0
 30
0.0
  9
$UCSYDIR
 10
0.0
 20
1.0
 30
0.0
  9
$UCSORTHOREF
  2

  9
$UCSORTHOVIEW
 70
     1
  9
$UCSORGTOP
 10
0.0
 20
0.0
 30
0.0
  9
$UCSORGBOTTOM
 10
0.0
 20
0.0
 30
0.0
  9
$UCSORGLEFT
 10
0.0
 20
0.0
 30
0.0
  9
$UCSORGRIGHT
 10
0.0
 20
0.0
 30
0.0
  9
$UCSORGFRONT
 10
0.0
 20
0.0
 30
0.0
  9
$UCSORGBACK
 10
0.0
 20
0.0
 30
0.0
  9
$PUCSBASE
  2

  9
$PUCSNAME
  2

  9
$PUCSORG
 10
0.0
 20
0.0
 30
0.0
  9
$PUCSXDIR
 10
1.0
 20
0.0
 30
0.0
  9
$PUCSYDIR
 10
0.0
 20
1.0
 30
0.0
  9
$PUCSORTHOREF
  2

  9
$PUCSORTHOVIEW
 70
     0
  9
$PUCSORGTOP
 10
0.0
 20
0.0
 30
0.0
  9
$PUCSORGBOTTOM
 10
0.0
 20
0.0
 30
0.0
  9
$PUCSORGLEFT
 10
0.0
 20
0.0
 30
0.0
  9
$PUCSORGRIGHT
 10
0.0
 20
0.0
 30
0.0
  9
$PUCSORGFRONT
 10
0.0
 20
0.0
 30
0.0
  9
$PUCSORGBACK
 10
0.0
 20
0.0
 30
0.0
  9
$USERI1
 70
     0
  9
$USERI2
 70
     0
  9
$USERI3
 70
     0
  9
$USERI4
 70
     0
  9
$USERI5
 70
     0
  9
$USERR1
 40
0.0
  9
$USERR2
 40
0.0
  9
$USERR3
 40
0.0
  9
$USERR4
 40
0.0
  9
$USERR5
 40
0.0
  9
$WORLDVIEW
 70
     1
  9
$SHADEDGE
 70
     3
  9
$SHADEDIF
 70
    70
  9
$TILEMODE
 70
     1
  9
$MAXACTVP
 70
    64
  9
$PINSBASE
 10
0.0
 20
0.0
 30
0.0
  9
$PLIMCHECK
 70
     0
  9
$PEXTMIN
 10
1.000000000000000E+20
 20
1.000000000000000E+20
 30
1.000000000000000E+20
  9
$PEXTMAX
 10
-1.000000000000000E+20
 20
-1.000000000000000E+20
 30
-1.000000000000000E+20
  9
$PLIMMIN
 10
0.0
 20
0.0
  9
$PLIMMAX
 10
12.0
 20
9.0
  9
$UNITMODE
 70
     0
  9
$VISRETAIN
 70
     1
  9
$PLINEGEN
 70
     0
  9
$PSLTSCALE
 70
     1
  9
$TREEDEPTH
 70
  3020
  9
$CMLSTYLE
  2
Standard
  9
$CMLJUST
 70
     0
  9
$CMLSCALE
 40
1.0
  9
$PROXYGRAPHICS
 70
     1
  9
$MEASUREMENT
 70
     0
  9
$CELWEIGHT
370
    -1
  9
$ENDCAPS
280
     0
  9
$JOINSTYLE
280
     0
  9
$LWDISPLAY
290
     0
  9
$INSUNITS
 70
     0
  9
$HYPERLINKBASE
  1

  9
$STYLESHEET
  1

  9
$XEDIT
290
     1
  9
$CEPSNTYPE
380
     0
  9
$PSTYLEMODE
290
     1
  9
$FINGERPRINTGUID
  2
{57F74FA5-2806-428F-979E-F794399B5D12}
  9
$VERSIONGUID
  2
{986A43C7-9BD7-4A9D-A712-8102CEC8B0FD}
  9
$EXTNAMES
290
     1
  9
$PSVPSCALE
 40
0.0
  9
$OLESTARTUP
290
     0
  0
ENDSEC
  0
SECTION
  2
CLASSES
  0
CLASS
  1
ACDBDICTIONARYWDFLT
  2
AcDbDictionaryWithDefault
  3
AutoCAD 2000
 90
        0
280
     0
281
     0
  0
CLASS
  1
ACDBPLACEHOLDER
  2
AcDbPlaceHolder
  3
AutoCAD 2000
 90
        0
280
     0
281
     0
  0
CLASS
  1
LAYOUT
  2
AcDbLayout
  3
AutoCAD 2000
 90
        0
280
     0
281
     0
  0
CLASS
  1
DICTIONARYVAR
  2
AcDbDictionaryVar
  3
AutoCAD 2000
 90
        0
280
     0
281
     0
  0
ENDSEC
  0
SECTION
  2
TABLES
  0
TABLE
  2
VPORT
  5
8
330
0
100
AcDbSymbolTable
 70
     2
  0
VPORT
  5
2D7
330
8
100
AcDbSymbolTableRecord
100
AcDbViewportTableRecord
  2
*Active
 70
     0
 10
0.0
 20
0.0
 11
1.0
 21
1.0
 12
37.5
 22
31.99999999999999
 13
0.0
 23
0.0
 14
1.0
 24
1.0
 15
0.0
 25
0.0
 16
0.0
 26
0.0
 36
1.0
 17
0.0
 27
0.0
 37
0.0
 40
64.49104859335038
 41
2.078104993597951
 42
50.0
 43
0.0
 44
0.0
 50
0.0
 51
0.0
 71
     0
 72
   100
 73
     1
 74
     3
 75
     0
 76
     0
 77
     0
 78
     0
281
     0
 65
     1
110
0.0
120
0.0
130
0.0
111
1.0
121
0.0
131
0.0
112
0.0
122
1.0
132
0.0
 79
     1
146
0.0
  0
ENDTAB
  0
TABLE
  2
LTYPE
  5
5
330
0
100
AcDbSymbolTable
 70
     1
  0
LTYPE
  5
13
330
5
100
AcDbSymbolTableRecord
100
AcDbLinetypeTableRecord
  2
ByBlock
 70
     0
  3

 72
    65
 73
     0
 40
0.0
  0
LTYPE
  5
14
330
5
100
AcDbSymbolTableRecord
100
AcDbLinetypeTableRecord
  2
ByLayer
 70
     0
  3

 72
    65
 73
     0
 40
0.0
  0
LTYPE
  5
15
330
5
100
AcDbSymbolTableRecord
100
AcDbLinetypeTableRecord
  2
Continuous
 70
     0
  3
Solid line
 72
    65
 73
     0
 40
0.0
  0
ENDTAB
  0
TABLE
  2
LAYER
  5
2
330
0
100
AcDbSymbolTable
 70
     1
  0
LAYER
  5
10
330
2
100
AcDbSymbolTableRecord
100
AcDbLayerTableRecord
  2
0
 70
     0
 62
     7
  6
Continuous
370
    -3
390
F
  0
ENDTAB
  0
TABLE
  2
STYLE
  5
3
330
0
100
AcDbSymbolTable
 70
     1
  0
STYLE
  5
11
330
3
100
AcDbSymbolTableRecord
100
AcDbTextStyleTableRecord
  2
Standard
 70
     0
 40
0.0
 41
1.0
 50
0.0
 71
     0
 42
0.2
  3
txt
  4

  0
ENDTAB
  0
TABLE
  2
VIEW
  5
6
330
0
100
AcDbSymbolTable
 70
     0
  0
ENDTAB
  0
TABLE
  2
UCS
  5
7
330
0
100
AcDbSymbolTable
 70
     0
  0
ENDTAB
  0
TABLE
  2
APPID
  5
9
330
0
100
AcDbSymbolTable
 70
     1
  0
APPID
  5
12
330
9
100
AcDbSymbolTableRecord
100
AcDbRegAppTableRecord
  2
ACAD
 70
     0
  0
ENDTAB
  0
TABLE
  2
DIMSTYLE
  5
A
330
0
100
AcDbSymbolTable
 70
     1
100
AcDbDimStyleTable
 71
     0
  0
DIMSTYLE
105
2D0
330
A
100
AcDbSymbolTableRecord
100
AcDbDimStyleTableRecord
  2
Standard
 70
     0
340
11
  0
ENDTAB
  0
TABLE
  2
BLOCK_RECORD
  5
1
330
0
100
AcDbSymbolTable
 70
     0
  0
BLOCK_RECORD
  5
1E
330
1
100
AcDbSymbolTableRecord
100
AcDbBlockTableRecord
  2
*Model_Space
340
21
  0
BLOCK_RECORD
  5
1A
330
1
100
AcDbSymbolTableRecord
100
AcDbBlockTableRecord
  2
*Paper_Space
340
1D
  0
ENDTAB
  0
ENDSEC
  0
SECTION
  2
BLOCKS
  0
BLOCK
  5
1F
330
1E
100
AcDbEntity
  8
0
100
AcDbBlockBegin
  2
*Model_Space
 70
     0
 10
0.0
 20
0.0
 30
0.0
  3
*Model_Space
  1

  0
ENDBLK
  5
20
330
1E
100
AcDbEntity
  8
0
100
AcDbBlockEnd
  0
BLOCK
  5
1B
330
1A
100
AcDbEntity
 67
     1
  8
0
100
AcDbBlockBegin
  2
*Paper_Space
 70
     0
 10
0.0
 20
0.0
 30
0.0
  3
*Paper_Space
  1

  0
ENDBLK
  5
1C
330
1A
100
AcDbEntity
 67
     1
  8
0
100
AcDbBlockEnd
  0
ENDSEC
  0
SECTION
  2
ENTITIES
  0
LINE
  5
22
330
1E
100
AcDbEntity
  8
0
100
AcDbLine
 10
35.0
 20
19.0
 30
0.0
 11
35.0
 21
19.46799999999999
 31
0.0
  0
LINE
  5
23
330
1E
100
AcDbEntity
  8
0
100
AcDbLine
 10
35.0
 20
19.0
 30
0.0
 11
49.0
 21
19.0
 31
0.0
  0
LINE
  5
24
330
1E
100
AcDbEntity
  8
0
100
AcDbLine
 10
35.0
 20
19.0
 30
0.0
 11
49.0
 21
19.0
 31
0.0
  0
LINE
  5
25
330
1E
100
AcDbEntity
  8
0
100
AcDbLine
 10
33.3
 20
20.0
 30
0.0
 11
35.0
 21
20.0
 31
0.0
  0
LINE
  5
26
330
1E
100
AcDbEntity
  8
0
100
AcDbLine
 10
33.3
 20
20.0
 30
0.0
 11
33.3
 21
20.432
 31
0.0
  0
LINE
  5
27
330
1E
100
AcDbEntity
  8
0
100
AcDbLine
 10
26.4286
 20
22.0
 30
0.0
 11
27.18367
 21
22.0
 31
0.0
  0
LINE
  5
28
330
1E
100
AcDbEntity
  8
0
100
AcDbLine
 10
26.4286
 20
22.0
 30
0.0
 11
26.4286
 21
22.07009999999999
 31
0.0
  0
LINE
  5
29
330
1E
100
AcDbEntity
  8
0
100
AcDbLine
 10
26.4286
 20
22.0
 30
0.0
 11
28.5714
 21
22.0
 31
0.0
  0
LINE
  5
2A
330
1E
100
AcDbEntity
  8
0
100
AcDbLine
 10
26.0
 20
23.5909
 30
0.0
 11
26.0643
 21
22.90909999999999
 31
0.0
  0
LINE
  5
2B
330
1E
100
AcDbEntity
  8
0
100
AcDbLine
 10
26.0
 20
23.5909
 30
0.0
 11
26.0
 21
23.90909999999999
 31
0.0
  0
LINE
  5
2C
330
1E
100
AcDbEntity
  8
0
100
AcDbLine
 10
26.0
 20
25.6685
 30
0.0
 11
26.0
 21
24.9345
 31
0.0
  0
LINE
  5
2D
330
1E
100
AcDbEntity
  8
0
100
AcDbLine
 10
26.0
 20
25.6685
 30
0.0
 11
26.0
 21
26.9049
 31
0.0
  0
LINE
  5
2E
330
1E
100
AcDbEntity
  8
0
100
AcDbLine
 10
26.0
 20
26.0455
 30
0.0
 11
26.0
 21
27.8182
 31
0.0
  0
LINE
  5
2F
330
1E
100
AcDbEntity
  8
0
100
AcDbLine
 10
26.0
 20
26.0455
 30
0.0
 11
26.0
 21
24.7273
 31
0.0
  0
LINE
  5
31
330
1E
100
AcDbEntity
  8
0
100
AcDbLine
 10
26.0
 20
27.8182
 30
0.0
 11
26.0
 21
26.0455
 31
0.0
  0
LINE
  5
32
330
1E
100
AcDbEntity
  8
0
100
AcDbLine
 10
26.0
 20
27.8182
 30
0.0
 11
26.0
 21
29.0
 31
0.0
  0
LINE
  5
33
330
1E
100
AcDbEntity
  8
0
100
AcDbLine
 10
26.0
 20
26.9049
 30
0.0
 11
26.0
 21
25.6685
 31
0.0
  0
LINE
  5
34
330
1E
100
AcDbEntity
  8
0
100
AcDbLine
 10
26.0
 20
26.9049
 30
0.0
 11
26.0
 21
28.56619999999999
 31
0.0
  0
LINE
  5
35
330
1E
100
AcDbEntity
  8
0
100
AcDbLine
 10
26.0
 20
25.6492
 30
0.0
 11
26.0
 21
26.8855
 31
0.0
  0
LINE
  5
36
330
1E
100
AcDbEntity
  8
0
100
AcDbLine
 10
26.0
 20
25.6492
 30
0.0
 11
26.0
 21
24.9345
 31
0.0
  0
LINE
  5
37
330
1E
100
AcDbEntity
  8
0
100
AcDbLine
 10
26.0
 20
24.7273
 30
0.0
 11
26.0
 21
23.90909999999999
 31
0.0
  0
LINE
  5
38
330
1E
100
AcDbEntity
  8
0
100
AcDbLine
 10
26.0
 20
24.7273
 30
0.0
 11
26.0
 21
26.0455
 31
0.0
  0
LINE
  5
3A
330
1E
100
AcDbEntity
  8
0
100
AcDbLine
 10
26.0
 20
26.8855
 30
0.0
 11
26.0
 21
28.5469
 31
0.0
  0
LINE
  5
3B
330
1E
100
AcDbEntity
  8
0
100
AcDbLine
 10
26.0
 20
26.8855
 30
0.0
 11
26.0
 21
25.6492
 31
0.0
  0
LINE
  5
3C
330
1E
100
AcDbEntity
  8
0
100
AcDbLine
 10
-0.0000000000000079
 20
29.07199999999999
 30
0.0
 11
0.384599999999991
 21
29.0
 31
0.0
  0
LINE
  5
3D
330
1E
100
AcDbEntity
  8
0
100
AcDbLine
 10
-0.0000000000000078
 20
29.07199999999999
 30
0.0
 11
0.384599999999991
 21
29.0
 31
0.0
  0
LINE
  5
3E
330
1E
100
AcDbEntity
  8
0
100
AcDbLine
 10
-0.0000000000000078
 20
29.07199999999999
 30
0.0
 11
-0.0000000000000078
 21
29.18
 31
0.0
  0
LINE
  5
3F
330
1E
100
AcDbEntity
  8
0
100
AcDbLine
 10
-0.0000000000000078
 20
29.936
 30
0.0
 11
-0.0000000000000078
 21
30.548
 31
0.0
  0
LINE
  5
40
330
1E
100
AcDbEntity
  8
0
100
AcDbLine
 10
-0.0000000000000077
 20
32.0
 30
0.0
 11
-0.0000000000000076
 21
32.756
 31
0.0
  0
LINE
  5
41
330
1E
100
AcDbEntity
  8
0
100
AcDbLine
 10
-0.0000000000000076
 20
33.452
 30
0.0
 11
-0.0000000000000075
 21
34.064
 31
0.0
  0
LINE
  5
42
330
1E
100
AcDbEntity
  8
0
100
AcDbLine
 10
-0.0000000000000076
 20
32.756
 30
0.0
 11
-0.0000000000000076
 21
33.452
 31
0.0
  0
LINE
  5
43
330
1E
100
AcDbEntity
  8
0
100
AcDbLine
 10
-0.0000000000000075
 20
34.064
 30
0.0
 11
-0.0000000000000075
 21
34.53199999999999
 31
0.0
  0
LINE
  5
44
330
1E
100
AcDbEntity
  8
0
100
AcDbLine
 10
-0.0000000000000075
 20
34.53199999999999
 30
0.0
 11
-0.0000000000000075
 21
34.82
 31
0.0
  0
LINE
  5
45
330
1E
100
AcDbEntity
  8
0
100
AcDbLine
 10
-0.0000000000000075
 20
34.928
 30
0.0
 11
0.384599999999991
 21
35.0
 31
0.0
  0
LINE
  5
46
330
1E
100
AcDbEntity
  8
0
100
AcDbLine
 10
-0.0000000000000075
 20
34.928
 30
0.0
 11
0.384599999999991
 21
35.0
 31
0.0
  0
LINE
  5
47
330
1E
100
AcDbEntity
  8
0
100
AcDbLine
 10
-0.0000000000000075
 20
34.82
 30
0.0
 11
-0.0000000000000075
 21
34.928
 31
0.0
  0
LINE
  5
48
330
1E
100
AcDbEntity
  8
0
100
AcDbLine
 10
-0.0000000000000077
 20
31.244
 30
0.0
 11
-0.0000000000000077
 21
32.0
 31
0.0
  0
LINE
  5
49
330
1E
100
AcDbEntity
  8
0
100
AcDbLine
 10
-0.0000000000000078
 20
30.548
 30
0.0
 11
-0.0000000000000077
 21
31.244
 31
0.0
  0
LINE
  5
4A
330
1E
100
AcDbEntity
  8
0
100
AcDbLine
 10
-0.0000000000000078
 20
29.468
 30
0.0
 11
-0.0000000000000078
 21
29.936
 31
0.0
  0
LINE
  5
4B
330
1E
100
AcDbEntity
  8
0
100
AcDbLine
 10
-0.0000000000000078
 20
29.18
 30
0.0
 11
-0.0000000000000078
 21
29.468
 31
0.0
  0
LINE
  5
4C
330
1E
100
AcDbEntity
  8
0
100
AcDbLine
 10
9.61539999999999
 20
29.0
 30
0.0
 11
9.999999999999991
 21
29.07199999999999
 31
0.0
  0
LINE
  5
4D
330
1E
100
AcDbEntity
  8
0
100
AcDbLine
 10
9.999999999999991
 20
29.0
 30
0.0
 11
26.0
 21
29.0
 31
0.0
  0
LINE
  5
4E
330
1E
100
AcDbEntity
  8
0
100
AcDbLine
 10
9.999999999999991
 20
29.0
 30
0.0
 11
9.999999999999991
 21
29.07199999999999
 31
0.0
  0
LINE
  5
4F
330
1E
100
AcDbEntity
  8
0
100
AcDbLine
 10
9.999999999999991
 20
29.0
 30
0.0
 11
9.999999999999991
 21
29.108
 31
0.0
  0
LINE
  5
50
330
1E
100
AcDbEntity
  8
0
100
AcDbLine
 10
9.999999999999991
 20
29.108
 30
0.0
 11
9.999999999999991
 21
29.0
 31
0.0
  0
LINE
  5
51
330
1E
100
AcDbEntity
  8
0
100
AcDbLine
 10
9.999999999999991
 20
29.108
 30
0.0
 11
9.999999999999991
 21
29.396
 31
0.0
  0
LINE
  5
52
330
1E
100
AcDbEntity
  8
0
100
AcDbLine
 10
9.999999999999991
 20
29.396
 30
0.0
 11
9.999999999999991
 21
29.108
 31
0.0
  0
LINE
  5
53
330
1E
100
AcDbEntity
  8
0
100
AcDbLine
 10
9.999999999999991
 20
29.396
 30
0.0
 11
9.999999999999991
 21
29.876
 31
0.0
  0
LINE
  5
54
330
1E
100
AcDbEntity
  8
0
100
AcDbLine
 10
9.999999999999991
 20
29.876
 30
0.0
 11
9.999999999999991
 21
29.396
 31
0.0
  0
LINE
  5
55
330
1E
100
AcDbEntity
  8
0
100
AcDbLine
 10
9.999999999999991
 20
29.876
 30
0.0
 11
9.999999999999991
 21
30.51199999999999
 31
0.0
  0
LINE
  5
56
330
1E
100
AcDbEntity
  8
0
100
AcDbLine
 10
9.999999999999991
 20
30.51199999999999
 30
0.0
 11
9.999999999999991
 21
29.876
 31
0.0
  0
LINE
  5
57
330
1E
100
AcDbEntity
  8
0
100
AcDbLine
 10
9.999999999999991
 20
30.51199999999999
 30
0.0
 11
9.999999999999991
 21
31.232
 31
0.0
  0
LINE
  5
58
330
1E
100
AcDbEntity
  8
0
100
AcDbLine
 10
9.999999999999991
 20
31.232
 30
0.0
 11
9.999999999999991
 21
30.51199999999999
 31
0.0
  0
LINE
  5
59
330
1E
100
AcDbEntity
  8
0
100
AcDbLine
 10
9.999999999999991
 20
31.232
 30
0.0
 11
9.999999999999991
 21
32.0
 31
0.0
  0
LINE
  5
5A
330
1E
100
AcDbEntity
  8
0
100
AcDbLine
 10
9.999999999999991
 20
32.768
 30
0.0
 11
9.999999999999991
 21
32.0
 31
0.0
  0
LINE
  5
5B
330
1E
100
AcDbEntity
  8
0
100
AcDbLine
 10
9.999999999999991
 20
32.768
 30
0.0
 11
9.999999999999991
 21
33.488
 31
0.0
  0
LINE
  5
5C
330
1E
100
AcDbEntity
  8
0
100
AcDbLine
 10
9.999999999999991
 20
32.756
 30
0.0
 11
9.999999999999991
 21
32.0
 31
0.0
  0
LINE
  5
5D
330
1E
100
AcDbEntity
  8
0
100
AcDbLine
 10
9.999999999999991
 20
32.756
 30
0.0
 11
9.999999999999991
 21
33.452
 31
0.0
  0
LINE
  5
5E
330
1E
100
AcDbEntity
  8
0
100
AcDbLine
 10
9.999999999999991
 20
34.124
 30
0.0
 11
9.999999999999991
 21
33.488
 31
0.0
  0
LINE
  5
5F
330
1E
100
AcDbEntity
  8
0
100
AcDbLine
 10
9.999999999999991
 20
34.124
 30
0.0
 11
9.999999999999991
 21
34.60399999999999
 31
0.0
  0
LINE
  5
60
330
1E
100
AcDbEntity
  8
0
100
AcDbLine
 10
9.999999999999991
 20
33.488
 30
0.0
 11
9.999999999999991
 21
32.768
 31
0.0
  0
LINE
  5
61
330
1E
100
AcDbEntity
  8
0
100
AcDbLine
 10
9.999999999999991
 20
33.488
 30
0.0
 11
9.999999999999991
 21
34.124
 31
0.0
  0
LINE
  5
62
330
1E
100
AcDbEntity
  8
0
100
AcDbLine
 10
9.999999999999991
 20
33.452
 30
0.0
 11
9.999999999999991
 21
32.756
 31
0.0
  0
LINE
  5
63
330
1E
100
AcDbEntity
  8
0
100
AcDbLine
 10
9.999999999999991
 20
33.452
 30
0.0
 11
9.999999999999991
 21
34.064
 31
0.0
  0
LINE
  5
64
330
1E
100
AcDbEntity
  8
0
100
AcDbLine
 10
9.999999999999991
 20
34.064
 30
0.0
 11
9.999999999999991
 21
33.452
 31
0.0
  0
LINE
  5
65
330
1E
100
AcDbEntity
  8
0
100
AcDbLine
 10
9.999999999999991
 20
34.064
 30
0.0
 11
9.999999999999991
 21
34.53199999999999
 31
0.0
  0
LINE
  5
66
330
1E
100
AcDbEntity
  8
0
100
AcDbLine
 10
9.999999999999991
 20
34.89199999999999
 30
0.0
 11
9.999999999999991
 21
34.60399999999999
 31
0.0
  0
LINE
  5
67
330
1E
100
AcDbEntity
  8
0
100
AcDbLine
 10
9.999999999999991
 20
34.89199999999999
 30
0.0
 11
9.999999999999991
 21
35.0
 31
0.0
  0
LINE
  5
68
330
1E
100
AcDbEntity
  8
0
100
AcDbLine
 10
9.999999999999991
 20
34.60399999999999
 30
0.0
 11
9.999999999999991
 21
34.124
 31
0.0
  0
LINE
  5
69
330
1E
100
AcDbEntity
  8
0
100
AcDbLine
 10
9.999999999999991
 20
34.60399999999999
 30
0.0
 11
9.999999999999991
 21
34.89199999999999
 31
0.0
  0
LINE
  5
6A
330
1E
100
AcDbEntity
  8
0
100
AcDbLine
 10
9.999999999999991
 20
34.53199999999999
 30
0.0
 11
9.999999999999991
 21
34.064
 31
0.0
  0
LINE
  5
6B
330
1E
100
AcDbEntity
  8
0
100
AcDbLine
 10
9.999999999999991
 20
34.53199999999999
 30
0.0
 11
9.999999999999991
 21
34.82
 31
0.0
  0
LINE
  5
6C
330
1E
100
AcDbEntity
  8
0
100
AcDbLine
 10
9.999999999999991
 20
34.82
 30
0.0
 11
9.999999999999991
 21
34.53199999999999
 31
0.0
  0
LINE
  5
6D
330
1E
100
AcDbEntity
  8
0
100
AcDbLine
 10
9.999999999999991
 20
34.82
 30
0.0
 11
9.999999999999991
 21
34.928
 31
0.0
  0
LINE
  5
6E
330
1E
100
AcDbEntity
  8
0
100
AcDbLine
 10
9.999999999999991
 20
32.0
 30
0.0
 11
9.999999999999991
 21
31.244
 31
0.0
  0
LINE
  5
6F
330
1E
100
AcDbEntity
  8
0
100
AcDbLine
 10
9.999999999999991
 20
32.0
 30
0.0
 11
9.999999999999991
 21
32.756
 31
0.0
  0
LINE
  5
70
330
1E
100
AcDbEntity
  8
0
100
AcDbLine
 10
9.999999999999991
 20
32.0
 30
0.0
 11
9.999999999999991
 21
31.232
 31
0.0
  0
LINE
  5
71
330
1E
100
AcDbEntity
  8
0
100
AcDbLine
 10
9.999999999999991
 20
32.0
 30
0.0
 11
9.999999999999991
 21
32.768
 31
0.0
  0
LINE
  5
72
330
1E
100
AcDbEntity
  8
0
100
AcDbLine
 10
9.999999999999991
 20
31.244
 30
0.0
 11
9.999999999999991
 21
30.548
 31
0.0
  0
LINE
  5
73
330
1E
100
AcDbEntity
  8
0
100
AcDbLine
 10
9.999999999999991
 20
31.244
 30
0.0
 11
9.999999999999991
 21
32.0
 31
0.0
  0
LINE
  5
74
330
1E
100
AcDbEntity
  8
0
100
AcDbLine
 10
9.999999999999991
 20
30.548
 30
0.0
 11
9.999999999999991
 21
29.936
 31
0.0
  0
LINE
  5
75
330
1E
100
AcDbEntity
  8
0
100
AcDbLine
 10
9.999999999999991
 20
30.548
 30
0.0
 11
9.999999999999991
 21
31.244
 31
0.0
  0
LINE
  5
76
330
1E
100
AcDbEntity
  8
0
100
AcDbLine
 10
9.999999999999991
 20
29.936
 30
0.0
 11
9.999999999999991
 21
29.468
 31
0.0
  0
LINE
  5
77
330
1E
100
AcDbEntity
  8
0
100
AcDbLine
 10
9.999999999999991
 20
29.936
 30
0.0
 11
9.999999999999991
 21
30.548
 31
0.0
  0
LINE
  5
78
330
1E
100
AcDbEntity
  8
0
100
AcDbLine
 10
9.999999999999991
 20
29.468
 30
0.0
 11
9.999999999999991
 21
29.18
 31
0.0
  0
LINE
  5
79
330
1E
100
AcDbEntity
  8
0
100
AcDbLine
 10
9.999999999999991
 20
29.468
 30
0.0
 11
9.999999999999991
 21
29.936
 31
0.0
  0
LINE
  5
7A
330
1E
100
AcDbEntity
  8
0
100
AcDbLine
 10
9.999999999999991
 20
29.18
 30
0.0
 11
9.999999999999991
 21
29.07199999999999
 31
0.0
  0
LINE
  5
7B
330
1E
100
AcDbEntity
  8
0
100
AcDbLine
 10
9.999999999999991
 20
29.18
 30
0.0
 11
9.999999999999991
 21
29.468
 31
0.0
  0
LINE
  5
7C
330
1E
100
AcDbEntity
  8
0
100
AcDbLine
 10
9.61539999999999
 20
35.0
 30
0.0
 11
9.999999999999991
 21
34.928
 31
0.0
  0
LINE
  5
7D
330
1E
100
AcDbEntity
  8
0
100
AcDbLine
 10
0.384599999999991
 20
35.0
 30
0.0
 11
9.61539999999999
 21
35.0
 31
0.0
  0
LINE
  5
7E
330
1E
100
AcDbEntity
  8
0
100
AcDbLine
 10
0.384599999999991
 20
35.0
 30
0.0
 11
9.61539999999999
 21
35.0
 31
0.0
  0
LINE
  5
7F
330
1E
100
AcDbEntity
  8
0
100
AcDbLine
 10
9.999999999999991
 20
35.0
 30
0.0
 11
9.999999999999991
 21
34.928
 31
0.0
  0
LINE
  5
80
330
1E
100
AcDbEntity
  8
0
100
AcDbLine
 10
9.999999999999991
 20
35.0
 30
0.0
 11
26.0
 21
35.0
 31
0.0
  0
LINE
  5
81
330
1E
100
AcDbEntity
  8
0
100
AcDbLine
 10
9.999999999999991
 20
35.0
 30
0.0
 11
9.999999999999991
 21
34.89199999999999
 31
0.0
  0
LINE
  5
82
330
1E
100
AcDbEntity
  8
0
100
AcDbLine
 10
9.999999999999991
 20
34.928
 30
0.0
 11
9.999999999999991
 21
35.0
 31
0.0
  0
LINE
  5
83
330
1E
100
AcDbEntity
  8
0
100
AcDbLine
 10
9.999999999999991
 20
34.928
 30
0.0
 11
9.999999999999991
 21
34.82
 31
0.0
  0
LINE
  5
84
330
1E
100
AcDbEntity
  8
0
100
AcDbLine
 10
26.0
 20
29.108
 30
0.0
 11
26.0
 21
29.396
 31
0.0
  0
LINE
  5
85
330
1E
100
AcDbEntity
  8
0
100
AcDbLine
 10
26.0
 20
29.396
 30
0.0
 11
26.0
 21
29.876
 31
0.0
  0
LINE
  5
86
330
1E
100
AcDbEntity
  8
0
100
AcDbLine
 10
26.0
 20
29.876
 30
0.0
 11
26.0
 21
30.51199999999999
 31
0.0
  0
LINE
  5
87
330
1E
100
AcDbEntity
  8
0
100
AcDbLine
 10
26.0
 20
33.488
 30
0.0
 11
26.0
 21
34.124
 31
0.0
  0
LINE
  5
88
330
1E
100
AcDbEntity
  8
0
100
AcDbLine
 10
26.0
 20
32.768
 30
0.0
 11
26.0
 21
33.488
 31
0.0
  0
LINE
  5
89
330
1E
100
AcDbEntity
  8
0
100
AcDbLine
 10
26.0
 20
32.0
 30
0.0
 11
26.0
 21
32.768
 31
0.0
  0
LINE
  5
8A
330
1E
100
AcDbEntity
  8
0
100
AcDbLine
 10
26.0
 20
30.51199999999999
 30
0.0
 11
26.0
 21
31.232
 31
0.0
  0
LINE
  5
8B
330
1E
100
AcDbEntity
  8
0
100
AcDbLine
 10
26.0
 20
31.232
 30
0.0
 11
26.0
 21
32.0
 31
0.0
  0
LINE
  5
8C
330
1E
100
AcDbEntity
  8
0
100
AcDbLine
 10
26.0
 20
30.2082
 30
0.0
 11
26.0
 21
31.8888
 31
0.0
  0
LINE
  5
8D
330
1E
100
AcDbEntity
  8
0
100
AcDbLine
 10
26.0
 20
30.2082
 30
0.0
 11
26.0
 21
28.5469
 31
0.0
  0
LINE
  5
8E
330
1E
100
AcDbEntity
  8
0
100
AcDbLine
 10
26.0
 20
31.8888
 30
0.0
 11
26.0
 21
33.6081
 31
0.0
  0
LINE
  5
8F
330
1E
100
AcDbEntity
  8
0
100
AcDbLine
 10
26.0
 20
31.8888
 30
0.0
 11
26.0
 21
30.2082
 31
0.0
  0
LINE
  5
90
330
1E
100
AcDbEntity
  8
0
100
AcDbLine
 10
26.0
 20
34.89199999999999
 30
0.0
 11
26.0
 21
35.0
 31
0.0
  0
LINE
  5
91
330
1E
100
AcDbEntity
  8
0
100
AcDbLine
 10
26.0
 20
34.60399999999999
 30
0.0
 11
26.0
 21
34.89199999999999
 31
0.0
  0
LINE
  5
92
330
1E
100
AcDbEntity
  8
0
100
AcDbLine
 10
26.0
 20
34.124
 30
0.0
 11
26.0
 21
34.60399999999999
 31
0.0
  0
LINE
  5
93
330
1E
100
AcDbEntity
  8
0
100
AcDbLine
 10
26.0
 20
33.6081
 30
0.0
 11
26.0
 21
31.8888
 31
0.0
  0
LINE
  5
94
330
1E
100
AcDbEntity
  8
0
100
AcDbLine
 10
26.0
 20
33.6081
 30
0.0
 11
26.0
 21
35.2501
 31
0.0
  0
LINE
  5
95
330
1E
100
AcDbEntity
  8
0
100
AcDbLine
 10
9.999999999999991
 20
29.07199999999999
 30
0.0
 11
9.999999999999991
 21
29.0
 31
0.0
  0
LINE
  5
96
330
1E
100
AcDbEntity
  8
0
100
AcDbLine
 10
9.999999999999991
 20
29.07199999999999
 30
0.0
 11
9.999999999999991
 21
29.18
 31
0.0
  0
LINE
  5
97
330
1E
100
AcDbEntity
  8
0
100
AcDbLine
 10
0.384599999999991
 20
29.0
 30
0.0
 11
9.61539999999999
 21
29.0
 31
0.0
  0
LINE
  5
98
330
1E
100
AcDbEntity
  8
0
100
AcDbLine
 10
0.384599999999991
 20
29.0
 30
0.0
 11
9.61539999999999
 21
29.0
 31
0.0
  0
LINE
  5
99
330
1E
100
AcDbEntity
  8
0
100
AcDbLine
 10
26.0
 20
28.56619999999999
 30
0.0
 11
26.0
 21
26.9049
 31
0.0
  0
LINE
  5
9A
330
1E
100
AcDbEntity
  8
0
100
AcDbLine
 10
26.0
 20
28.56619999999999
 30
0.0
 11
26.0
 21
29.0
 31
0.0
  0
LINE
  5
9B
330
1E
100
AcDbEntity
  8
0
100
AcDbLine
 10
26.0
 20
29.0
 30
0.0
 11
26.0
 21
28.5469
 31
0.0
  0
LINE
  5
9C
330
1E
100
AcDbEntity
  8
0
100
AcDbLine
 10
26.0
 20
29.0
 30
0.0
 11
26.0
 21
28.56619999999999
 31
0.0
  0
LINE
  5
9D
330
1E
100
AcDbEntity
  8
0
100
AcDbLine
 10
26.0
 20
29.0
 30
0.0
 11
26.0
 21
27.8182
 31
0.0
  0
LINE
  5
9E
330
1E
100
AcDbEntity
  8
0
100
AcDbLine
 10
26.0
 20
29.0
 30
0.0
 11
26.0
 21
29.108
 31
0.0
  0
LINE
  5
9F
330
1E
100
AcDbEntity
  8
0
100
AcDbLine
 10
26.0
 20
28.5469
 30
0.0
 11
26.0
 21
29.0
 31
0.0
  0
LINE
  5
A0
330
1E
100
AcDbEntity
  8
0
100
AcDbLine
 10
26.0
 20
28.5469
 30
0.0
 11
26.0
 21
26.8855
 31
0.0
  0
LINE
  5
A1
330
1E
100
AcDbEntity
  8
0
100
AcDbLine
 10
26.0
 20
28.5469
 30
0.0
 11
26.0
 21
30.2082
 31
0.0
  0
LINE
  5
A2
330
1E
100
AcDbEntity
  8
0
100
AcDbLine
 10
26.0
 20
24.68329999999999
 30
0.0
 11
26.0
 21
24.9345
 31
0.0
  0
LINE
  5
A3
330
1E
100
AcDbEntity
  8
0
100
AcDbLine
 10
26.0
 20
23.90909999999999
 30
0.0
 11
26.0
 21
23.5909
 31
0.0
  0
LINE
  5
A4
330
1E
100
AcDbEntity
  8
0
100
AcDbLine
 10
26.0
 20
23.90909999999999
 30
0.0
 11
26.0
 21
24.7273
 31
0.0
  0
LINE
  5
A7
330
1E
100
AcDbEntity
  8
0
100
AcDbLine
 10
26.0
 20
24.9345
 30
0.0
 11
26.0
 21
24.68329999999999
 31
0.0
  0
LINE
  5
A8
330
1E
100
AcDbEntity
  8
0
100
AcDbLine
 10
26.0
 20
24.9345
 30
0.0
 11
26.0
 21
25.6492
 31
0.0
  0
LINE
  5
A9
330
1E
100
AcDbEntity
  8
0
100
AcDbLine
 10
26.0
 20
24.9345
 30
0.0
 11
26.0
 21
25.6685
 31
0.0
  0
LINE
  5
AA
330
1E
100
AcDbEntity
  8
0
100
AcDbLine
 10
26.0
 20
36.1818
 30
0.0
 11
26.0
 21
37.9545
 31
0.0
  0
LINE
  5
AB
330
1E
100
AcDbEntity
  8
0
100
AcDbLine
 10
26.0
 20
36.1818
 30
0.0
 11
26.0
 21
35.0
 31
0.0
  0
LINE
  5
AC
330
1E
100
AcDbEntity
  8
0
100
AcDbLine
 10
26.0
 20
36.8727
 30
0.0
 11
26.0
 21
35.2307
 31
0.0
  0
LINE
  5
AD
330
1E
100
AcDbEntity
  8
0
100
AcDbLine
 10
26.0
 20
36.8727
 30
0.0
 11
26.0
 21
38.3216
 31
0.0
  0
LINE
  5
AE
330
1E
100
AcDbEntity
  8
0
100
AcDbLine
 10
26.0
 20
35.2307
 30
0.0
 11
26.0
 21
35.0
 31
0.0
  0
LINE
  5
AF
330
1E
100
AcDbEntity
  8
0
100
AcDbLine
 10
26.0
 20
35.2307
 30
0.0
 11
26.0
 21
36.8727
 31
0.0
  0
LINE
  5
B0
330
1E
100
AcDbEntity
  8
0
100
AcDbLine
 10
26.0
 20
35.0
 30
0.0
 11
26.0
 21
35.2501
 31
0.0
  0
LINE
  5
B1
330
1E
100
AcDbEntity
  8
0
100
AcDbLine
 10
26.0
 20
35.0
 30
0.0
 11
26.0
 21
36.1818
 31
0.0
  0
LINE
  5
B2
330
1E
100
AcDbEntity
  8
0
100
AcDbLine
 10
26.0
 20
35.0
 30
0.0
 11
26.0
 21
35.2307
 31
0.0
  0
LINE
  5
B3
330
1E
100
AcDbEntity
  8
0
100
AcDbLine
 10
26.0
 20
35.2501
 30
0.0
 11
26.0
 21
35.0
 31
0.0
  0
LINE
  5
B4
330
1E
100
AcDbEntity
  8
0
100
AcDbLine
 10
26.0
 20
35.2501
 30
0.0
 11
26.0
 21
36.9307
 31
0.0
  0
LINE
  5
B5
330
1E
100
AcDbEntity
  8
0
100
AcDbLine
 10
26.0
 20
35.2501
 30
0.0
 11
26.0
 21
33.6081
 31
0.0
  0
LINE
  5
B6
330
1E
100
AcDbEntity
  8
0
100
AcDbLine
 10
26.0
 20
37.9545
 30
0.0
 11
26.0
 21
39.2727
 31
0.0
  0
LINE
  5
B7
330
1E
100
AcDbEntity
  8
0
100
AcDbLine
 10
26.0
 20
37.9545
 30
0.0
 11
26.0
 21
36.1818
 31
0.0
  0
LINE
  5
B8
330
1E
100
AcDbEntity
  8
0
100
AcDbLine
 10
26.0
 20
38.3216
 30
0.0
 11
26.0
 21
36.8727
 31
0.0
  0
LINE
  5
B9
330
1E
100
AcDbEntity
  8
0
100
AcDbLine
 10
26.0
 20
38.3216
 30
0.0
 11
26.0
 21
39.05559999999999
 31
0.0
  0
LINE
  5
BA
330
1E
100
AcDbEntity
  8
0
100
AcDbLine
 10
26.0
 20
39.2727
 30
0.0
 11
26.0
 21
40.09089999999999
 31
0.0
  0
LINE
  5
BB
330
1E
100
AcDbEntity
  8
0
100
AcDbLine
 10
26.0
 20
39.2727
 30
0.0
 11
26.0
 21
37.9545
 31
0.0
  0
LINE
  5
BC
330
1E
100
AcDbEntity
  8
0
100
AcDbLine
 10
26.0
 20
39.05559999999999
 30
0.0
 11
26.0
 21
38.3216
 31
0.0
  0
LINE
  5
BD
330
1E
100
AcDbEntity
  8
0
100
AcDbLine
 10
26.0
 20
39.05559999999999
 30
0.0
 11
26.0
 21
39.3454
 31
0.0
  0
LINE
  5
BE
330
1E
100
AcDbEntity
  8
0
100
AcDbLine
 10
26.0
 20
40.4091
 30
0.0
 11
26.0
 21
40.09089999999999
 31
0.0
  0
LINE
  5
BF
330
1E
100
AcDbEntity
  8
0
100
AcDbLine
 10
26.0
 20
40.4091
 30
0.0
 11
26.0643
 21
41.0909
 31
0.0
  0
LINE
  5
C0
330
1E
100
AcDbEntity
  8
0
100
AcDbLine
 10
26.0
 20
40.09089999999999
 30
0.0
 11
26.0
 21
40.4091
 31
0.0
  0
LINE
  5
C1
330
1E
100
AcDbEntity
  8
0
100
AcDbLine
 10
26.0
 20
40.09089999999999
 30
0.0
 11
26.0
 21
39.2727
 31
0.0
  0
LINE
  5
C4
330
1E
100
AcDbEntity
  8
0
100
AcDbLine
 10
26.0
 20
39.3454
 30
0.0
 11
26.0
 21
38.9977
 31
0.0
  0
LINE
  5
C5
330
1E
100
AcDbEntity
  8
0
100
AcDbLine
 10
26.0
 20
39.3454
 30
0.0
 11
26.0
 21
39.05559999999999
 31
0.0
  0
LINE
  5
C6
330
1E
100
AcDbEntity
  8
0
100
AcDbLine
 10
26.0
 20
38.9977
 30
0.0
 11
26.0
 21
38.26359999999999
 31
0.0
  0
LINE
  5
C7
330
1E
100
AcDbEntity
  8
0
100
AcDbLine
 10
26.0
 20
38.9977
 30
0.0
 11
26.0
 21
39.3454
 31
0.0
  0
LINE
  5
C8
330
1E
100
AcDbEntity
  8
0
100
AcDbLine
 10
26.0
 20
36.9307
 30
0.0
 11
26.0
 21
38.26359999999999
 31
0.0
  0
LINE
  5
C9
330
1E
100
AcDbEntity
  8
0
100
AcDbLine
 10
26.0
 20
36.9307
 30
0.0
 11
26.0
 21
35.2501
 31
0.0
  0
LINE
  5
CC
330
1E
100
AcDbEntity
  8
0
100
AcDbLine
 10
26.0514
 20
29.70909999999999
 30
0.0
 11
26.2143
 21
27.5866
 31
0.0
  0
LINE
  5
CD
330
1E
100
AcDbEntity
  8
0
100
AcDbLine
 10
26.0433
 20
24.3291
 30
0.0
 11
26.0779
 21
25.5455
 31
0.0
  0
LINE
  5
CE
330
1E
100
AcDbEntity
  8
0
100
AcDbLine
 10
26.0433
 20
24.3291
 30
0.0
 11
26.0897
 21
23.11939999999999
 31
0.0
  0
LINE
  5
CF
330
1E
100
AcDbEntity
  8
0
100
AcDbLine
 10
26.0433
 20
39.6709
 30
0.0
 11
26.0897
 21
40.88049999999999
 31
0.0
  0
LINE
  5
D0
330
1E
100
AcDbEntity
  8
0
100
AcDbLine
 10
26.0433
 20
39.6709
 30
0.0
 11
26.0779
 21
38.4545
 31
0.0
  0
LINE
  5
D3
330
1E
100
AcDbEntity
  8
0
100
AcDbLine
 10
26.0514
 20
34.2909
 30
0.0
 11
26.2143
 21
36.4134
 31
0.0
  0
LINE
  5
D4
330
1E
100
AcDbEntity
  8
0
100
AcDbLine
 10
26.0214
 20
32.0
 30
0.0
 11
26.0514
 21
34.2909
 31
0.0
  0
LINE
  5
D5
330
1E
100
AcDbEntity
  8
0
100
AcDbLine
 10
26.0214
 20
32.0
 30
0.0
 11
26.0514
 21
29.70909999999999
 31
0.0
  0
LINE
  5
D6
330
1E
100
AcDbEntity
  8
0
100
AcDbLine
 10
26.4286
 20
22.07009999999999
 30
0.0
 11
26.4286
 21
22.0
 31
0.0
  0
LINE
  5
D7
330
1E
100
AcDbEntity
  8
0
100
AcDbLine
 10
26.2143
 20
22.3825
 30
0.0
 11
26.4286
 21
22.07009999999999
 31
0.0
  0
LINE
  5
D9
330
1E
100
AcDbEntity
  8
0
100
AcDbLine
 10
26.0897
 20
23.11939999999999
 30
0.0
 11
26.2143
 21
22.3825
 31
0.0
  0
LINE
  5
DA
330
1E
100
AcDbEntity
  8
0
100
AcDbLine
 10
26.0779
 20
25.5455
 30
0.0
 11
26.2143
 21
26.3973
 31
0.0
  0
LINE
  5
DE
330
1E
100
AcDbEntity
  8
0
100
AcDbLine
 10
26.2143
 20
27.5866
 30
0.0
 11
26.4286
 21
26.9874
 31
0.0
  0
LINE
  5
E1
330
1E
100
AcDbEntity
  8
0
100
AcDbLine
 10
26.2143
 20
26.3973
 30
0.0
 11
26.4286
 21
26.9874
 31
0.0
  0
LINE
  5
E6
330
1E
100
AcDbEntity
  8
0
100
AcDbLine
 10
26.0897
 20
40.88049999999999
 30
0.0
 11
26.2143
 21
41.6175
 31
0.0
  0
LINE
  5
E7
330
1E
100
AcDbEntity
  8
0
100
AcDbLine
 10
26.0779
 20
38.4545
 30
0.0
 11
26.2143
 21
37.6027
 31
0.0
  0
LINE
  5
EC
330
1E
100
AcDbEntity
  8
0
100
AcDbLine
 10
26.4286
 20
26.9874
 30
0.0
 11
28.5714
 21
26.9874
 31
0.0
  0
LINE
  5
EF
330
1E
100
AcDbEntity
  8
0
100
AcDbLine
 10
26.4286
 20
37.0127
 30
0.0
 11
28.5714
 21
37.0127
 31
0.0
  0
LINE
  5
F1
330
1E
100
AcDbEntity
  8
0
100
AcDbLine
 10
26.2143
 20
36.4134
 30
0.0
 11
26.4286
 21
37.0127
 31
0.0
  0
LINE
  5
F3
330
1E
100
AcDbEntity
  8
0
100
AcDbLine
 10
26.2143
 20
22.22729999999999
 30
0.0
 11
26.4286
 21
22.0
 31
0.0
  0
LINE
  5
F5
330
1E
100
AcDbEntity
  8
0
100
AcDbLine
 10
26.0643
 20
22.90909999999999
 30
0.0
 11
26.2143
 21
22.22729999999999
 31
0.0
  0
LINE
  5
F8
330
1E
100
AcDbEntity
  8
0
100
AcDbLine
 10
26.2143
 20
41.6175
 30
0.0
 11
26.4286
 21
41.9299
 31
0.0
  0
LINE
  5
FA
330
1E
100
AcDbEntity
  8
0
100
AcDbLine
 10
26.4286
 20
42.0
 30
0.0
 11
28.5714
 21
42.0
 31
0.0
  0
LINE
  5
FB
330
1E
100
AcDbEntity
  8
0
100
AcDbLine
 10
26.4286
 20
42.0
 30
0.0
 11
26.4286
 21
41.9299
 31
0.0
  0
LINE
  5
FC
330
1E
100
AcDbEntity
  8
0
100
AcDbLine
 10
26.4286
 20
41.9299
 30
0.0
 11
26.4286
 21
42.0
 31
0.0
  0
LINE
  5
FD
330
1E
100
AcDbEntity
  8
0
100
AcDbLine
 10
26.2143
 20
41.7727
 30
0.0
 11
26.4286
 21
42.0
 31
0.0
  0
LINE
  5
FF
330
1E
100
AcDbEntity
  8
0
100
AcDbLine
 10
26.0643
 20
41.0909
 30
0.0
 11
26.2143
 21
41.7727
 31
0.0
  0
LINE
  5
101
330
1E
100
AcDbEntity
  8
0
100
AcDbLine
 10
26.0
 20
38.26359999999999
 30
0.0
 11
26.0
 21
38.9977
 31
0.0
  0
LINE
  5
102
330
1E
100
AcDbEntity
  8
0
100
AcDbLine
 10
26.0
 20
38.26359999999999
 30
0.0
 11
26.0
 21
36.9307
 31
0.0
  0
LINE
  5
103
330
1E
100
AcDbEntity
  8
0
100
AcDbLine
 10
27.18367
 20
22.0
 30
0.0
 11
27.61225
 21
21.25
 31
0.0
  0
LINE
  5
105
330
1E
100
AcDbEntity
  8
0
100
AcDbLine
 10
27.3579050308413
 20
42.0
 30
0.0
 11
27.61225
 21
42.5792
 31
0.0
  0
LINE
  5
106
330
1E
100
AcDbEntity
  8
0
100
AcDbLine
 10
27.61225
 20
42.5792
 30
0.0
 11
27.61225
 21
42.75
 31
0.0
  0
LINE
  5
107
330
1E
100
AcDbEntity
  8
0
100
AcDbLine
 10
27.3579050308413
 20
22.0
 30
0.0
 11
27.61225
 21
21.42079999999999
 31
0.0
  0
LINE
  5
108
330
1E
100
AcDbEntity
  8
0
100
AcDbLine
 10
27.61225
 20
21.42079999999999
 30
0.0
 11
27.61225
 21
21.25
 31
0.0
  0
LINE
  5
109
330
1E
100
AcDbEntity
  8
0
100
AcDbLine
 10
33.0
 20
20.28799999999999
 30
0.0
 11
33.0
 21
20.72
 31
0.0
  0
LINE
  5
10A
330
1E
100
AcDbEntity
  8
0
100
AcDbLine
 10
33.0
 20
20.28799999999999
 30
0.0
 11
33.3
 21
20.0
 31
0.0
  0
LINE
  5
10B
330
1E
100
AcDbEntity
  8
0
100
AcDbLine
 10
33.0
 20
20.72
 30
0.0
 11
33.0
 21
20.28799999999999
 31
0.0
  0
LINE
  5
10C
330
1E
100
AcDbEntity
  8
0
100
AcDbLine
 10
33.0
 20
20.72
 30
0.0
 11
33.0
 21
21.872
 31
0.0
  0
LINE
  5
10D
330
1E
100
AcDbEntity
  8
0
100
AcDbLine
 10
33.0
 20
20.72
 30
0.0
 11
33.0
 21
21.0
 31
0.0
  0
LINE
  5
10E
330
1E
100
AcDbEntity
  8
0
100
AcDbLine
 10
35.0
 20
20.432
 30
0.0
 11
35.0
 21
21.58399999999999
 31
0.0
  0
LINE
  5
10F
330
1E
100
AcDbEntity
  8
0
100
AcDbLine
 10
33.3
 20
20.432
 30
0.0
 11
33.3
 21
20.0
 31
0.0
  0
LINE
  5
110
330
1E
100
AcDbEntity
  8
0
100
AcDbLine
 10
33.3
 20
20.432
 30
0.0
 11
33.3
 21
21.58399999999999
 31
0.0
  0
LINE
  5
111
330
1E
100
AcDbEntity
  8
0
100
AcDbLine
 10
35.0
 20
20.71599999999999
 30
0.0
 11
35.0
 21
19.46799999999999
 31
0.0
  0
LINE
  5
112
330
1E
100
AcDbEntity
  8
0
100
AcDbLine
 10
35.0
 20
20.71599999999999
 30
0.0
 11
35.0
 21
22.79599999999999
 31
0.0
  0
LINE
  5
113
330
1E
100
AcDbEntity
  8
0
100
AcDbLine
 10
33.0
 20
21.0
 30
0.0
 11
33.0
 21
21.0771
 31
0.0
  0
LINE
  5
114
330
1E
100
AcDbEntity
  8
0
100
AcDbLine
 10
33.0
 20
21.0
 30
0.0
 11
33.0
 21
20.72
 31
0.0
  0
LINE
  5
115
330
1E
100
AcDbEntity
  8
0
100
AcDbLine
 10
28.5714
 20
22.0
 30
0.0
 11
28.5714
 21
22.07009999999999
 31
0.0
  0
LINE
  5
116
330
1E
100
AcDbEntity
  8
0
100
AcDbLine
 10
28.5714
 20
22.0
 30
0.0
 11
28.78569999999999
 21
22.22729999999999
 31
0.0
  0
LINE
  5
117
330
1E
100
AcDbEntity
  8
0
100
AcDbLine
 10
28.78569999999999
 20
22.22729999999999
 30
0.0
 11
28.9357
 21
22.90909999999999
 31
0.0
  0
LINE
  5
11A
330
1E
100
AcDbEntity
  8
0
100
AcDbLine
 10
28.5714
 20
22.07009999999999
 30
0.0
 11
28.78569999999999
 21
22.3825
 31
0.0
  0
LINE
  5
11B
330
1E
100
AcDbEntity
  8
0
100
AcDbLine
 10
28.5714
 20
22.07009999999999
 30
0.0
 11
28.5714
 21
22.0
 31
0.0
  0
LINE
  5
11C
330
1E
100
AcDbEntity
  8
0
100
AcDbLine
 10
31.0
 20
22.0
 30
0.0
 11
33.0
 21
22.0
 31
0.0
  0
LINE
  5
11D
330
1E
100
AcDbEntity
  8
0
100
AcDbLine
 10
31.0
 20
22.0
 30
0.0
 11
31.0
 21
22.36
 31
0.0
  0
LINE
  5
11E
330
1E
100
AcDbEntity
  8
0
100
AcDbLine
 10
33.0
 20
22.0
 30
0.0
 11
33.0
 21
22.36
 31
0.0
  0
LINE
  5
11F
330
1E
100
AcDbEntity
  8
0
100
AcDbLine
 10
28.9357
 20
22.90909999999999
 30
0.0
 11
29.0
 21
23.5909
 31
0.0
  0
LINE
  5
120
330
1E
100
AcDbEntity
  8
0
100
AcDbLine
 10
28.78569999999999
 20
22.3825
 30
0.0
 11
28.9103
 21
23.11939999999999
 31
0.0
  0
LINE
  5
122
330
1E
100
AcDbEntity
  8
0
100
AcDbLine
 10
28.9103
 20
23.11939999999999
 30
0.0
 11
28.9567
 21
24.3291
 31
0.0
  0
LINE
  5
126
330
1E
100
AcDbEntity
  8
0
100
AcDbLine
 10
29.0
 20
23.0
 30
0.0
 11
31.0
 21
23.0
 31
0.0
  0
LINE
  5
127
330
1E
100
AcDbEntity
  8
0
100
AcDbLine
 10
29.0
 20
23.0
 30
0.0
 11
29.0
 21
23.324
 31
0.0
  0
LINE
  5
128
330
1E
100
AcDbEntity
  8
0
100
AcDbLine
 10
31.0
 20
23.0
 30
0.0
 11
31.0
 21
22.36
 31
0.0
  0
LINE
  5
129
330
1E
100
AcDbEntity
  8
0
100
AcDbLine
 10
31.0
 20
23.0
 30
0.0
 11
31.0
 21
23.324
 31
0.0
  0
LINE
  5
12A
330
1E
100
AcDbEntity
  8
0
100
AcDbLine
 10
31.0
 20
22.36
 30
0.0
 11
31.0
 21
22.0
 31
0.0
  0
LINE
  5
12B
330
1E
100
AcDbEntity
  8
0
100
AcDbLine
 10
31.0
 20
22.36
 30
0.0
 11
31.0
 21
23.32
 31
0.0
  0
LINE
  5
12C
330
1E
100
AcDbEntity
  8
0
100
AcDbLine
 10
31.0
 20
22.36
 30
0.0
 11
31.0
 21
23.0
 31
0.0
  0
LINE
  5
12D
330
1E
100
AcDbEntity
  8
0
100
AcDbLine
 10
33.0
 20
22.36
 30
0.0
 11
33.0
 21
23.32
 31
0.0
  0
LINE
  5
12E
330
1E
100
AcDbEntity
  8
0
100
AcDbLine
 10
29.0
 20
23.324
 30
0.0
 11
29.0
 21
23.0
 31
0.0
  0
LINE
  5
12F
330
1E
100
AcDbEntity
  8
0
100
AcDbLine
 10
29.0
 20
23.324
 30
0.0
 11
29.0
 21
24.188
 31
0.0
  0
LINE
  5
130
330
1E
100
AcDbEntity
  8
0
100
AcDbLine
 10
29.0
 20
23.324
 30
0.0
 11
29.0
 21
23.5909
 31
0.0
  0
LINE
  5
131
330
1E
100
AcDbEntity
  8
0
100
AcDbLine
 10
31.0
 20
23.324
 30
0.0
 11
31.0
 21
24.188
 31
0.0
  0
LINE
  5
132
330
1E
100
AcDbEntity
  8
0
100
AcDbLine
 10
31.0
 20
23.32
 30
0.0
 11
31.0
 21
22.36
 31
0.0
  0
LINE
  5
133
330
1E
100
AcDbEntity
  8
0
100
AcDbLine
 10
31.0
 20
23.32
 30
0.0
 11
31.0
 21
24.92
 31
0.0
  0
LINE
  5
134
330
1E
100
AcDbEntity
  8
0
100
AcDbLine
 10
33.0
 20
23.32
 30
0.0
 11
33.0
 21
24.92
 31
0.0
  0
LINE
  5
135
330
1E
100
AcDbEntity
  8
0
100
AcDbLine
 10
29.0
 20
23.5909
 30
0.0
 11
29.0
 21
23.324
 31
0.0
  0
LINE
  5
136
330
1E
100
AcDbEntity
  8
0
100
AcDbLine
 10
33.0
 20
21.872
 30
0.0
 11
33.0
 21
20.72
 31
0.0
  0
LINE
  5
137
330
1E
100
AcDbEntity
  8
0
100
AcDbLine
 10
33.0
 20
21.872
 30
0.0
 11
33.0
 21
23.744
 31
0.0
  0
LINE
  5
138
330
1E
100
AcDbEntity
  8
0
100
AcDbLine
 10
33.0
 20
21.0771
 30
0.0
 11
33.0
 21
21.42079999999999
 31
0.0
  0
LINE
  5
139
330
1E
100
AcDbEntity
  8
0
100
AcDbLine
 10
33.0
 20
21.42079999999999
 30
0.0
 11
33.0
 21
22.0
 31
0.0
  0
LINE
  5
13A
330
1E
100
AcDbEntity
  8
0
100
AcDbLine
 10
29.0
 20
23.90909999999999
 30
0.0
 11
29.0
 21
24.7273
 31
0.0
  0
LINE
  5
13D
330
1E
100
AcDbEntity
  8
0
100
AcDbLine
 10
29.0
 20
24.7273
 30
0.0
 11
29.0
 21
26.0455
 31
0.0
  0
LINE
  5
13E
330
1E
100
AcDbEntity
  8
0
100
AcDbLine
 10
29.0
 20
24.7273
 30
0.0
 11
29.0
 21
23.90909999999999
 31
0.0
  0
LINE
  5
13F
330
1E
100
AcDbEntity
  8
0
100
AcDbLine
 10
28.9221
 20
25.5455
 30
0.0
 11
28.9567
 21
24.3291
 31
0.0
  0
LINE
  5
142
330
1E
100
AcDbEntity
  8
0
100
AcDbLine
 10
29.0
 20
24.188
 30
0.0
 11
29.0
 21
23.324
 31
0.0
  0
LINE
  5
143
330
1E
100
AcDbEntity
  8
0
100
AcDbLine
 10
29.0
 20
24.188
 30
0.0
 11
29.0
 21
25.628
 31
0.0
  0
LINE
  5
144
330
1E
100
AcDbEntity
  8
0
100
AcDbLine
 10
31.0
 20
24.188
 30
0.0
 11
31.0
 21
25.628
 31
0.0
  0
LINE
  5
145
330
1E
100
AcDbEntity
  8
0
100
AcDbLine
 10
29.0
 20
25.628
 30
0.0
 11
29.0
 21
24.188
 31
0.0
  0
LINE
  5
146
330
1E
100
AcDbEntity
  8
0
100
AcDbLine
 10
29.0
 20
25.628
 30
0.0
 11
29.0
 21
27.536
 31
0.0
  0
LINE
  5
147
330
1E
100
AcDbEntity
  8
0
100
AcDbLine
 10
28.5714
 20
26.9874
 30
0.0
 11
28.78569999999999
 21
27.5866
 31
0.0
  0
LINE
  5
14A
330
1E
100
AcDbEntity
  8
0
100
AcDbLine
 10
28.5714
 20
26.9874
 30
0.0
 11
28.78569999999999
 21
26.3973
 31
0.0
  0
LINE
  5
14B
330
1E
100
AcDbEntity
  8
0
100
AcDbLine
 10
29.0
 20
26.0455
 30
0.0
 11
29.0
 21
27.8182
 31
0.0
  0
LINE
  5
14C
330
1E
100
AcDbEntity
  8
0
100
AcDbLine
 10
29.0
 20
26.0455
 30
0.0
 11
29.0
 21
24.7273
 31
0.0
  0
LINE
  5
14D
330
1E
100
AcDbEntity
  8
0
100
AcDbLine
 10
28.78569999999999
 20
26.3973
 30
0.0
 11
28.9221
 21
25.5455
 31
0.0
  0
LINE
  5
151
330
1E
100
AcDbEntity
  8
0
100
AcDbLine
 10
31.0
 20
25.628
 30
0.0
 11
31.0
 21
27.536
 31
0.0
  0
LINE
  5
152
330
1E
100
AcDbEntity
  8
0
100
AcDbLine
 10
31.0
 20
24.92
 30
0.0
 11
31.0
 21
23.32
 31
0.0
  0
LINE
  5
153
330
1E
100
AcDbEntity
  8
0
100
AcDbLine
 10
31.0
 20
24.92
 30
0.0
 11
31.0
 21
27.04
 31
0.0
  0
LINE
  5
159
330
1E
100
AcDbEntity
  8
0
100
AcDbLine
 10
28.78569999999999
 20
27.5866
 30
0.0
 11
28.94859999999999
 21
29.70909999999999
 31
0.0
  0
LINE
  5
15A
330
1E
100
AcDbEntity
  8
0
100
AcDbLine
 10
29.0
 20
27.8182
 30
0.0
 11
29.0
 21
29.8182
 31
0.0
  0
LINE
  5
15B
330
1E
100
AcDbEntity
  8
0
100
AcDbLine
 10
29.0
 20
27.8182
 30
0.0
 11
29.0
 21
26.0455
 31
0.0
  0
LINE
  5
15C
330
1E
100
AcDbEntity
  8
0
100
AcDbLine
 10
29.0
 20
27.536
 30
0.0
 11
29.0
 21
25.628
 31
0.0
  0
LINE
  5
15D
330
1E
100
AcDbEntity
  8
0
100
AcDbLine
 10
29.0
 20
27.536
 30
0.0
 11
29.0
 21
29.69599999999999
 31
0.0
  0
LINE
  5
15E
330
1E
100
AcDbEntity
  8
0
100
AcDbLine
 10
31.0
 20
27.536
 30
0.0
 11
31.0
 21
29.69599999999999
 31
0.0
  0
LINE
  5
15F
330
1E
100
AcDbEntity
  8
0
100
AcDbLine
 10
31.0
 20
27.04
 30
0.0
 11
31.0
 21
24.92
 31
0.0
  0
LINE
  5
160
330
1E
100
AcDbEntity
  8
0
100
AcDbLine
 10
31.0
 20
27.04
 30
0.0
 11
31.0
 21
29.44
 31
0.0
  0
LINE
  5
161
330
1E
100
AcDbEntity
  8
0
100
AcDbLine
 10
33.0
 20
27.04
 30
0.0
 11
33.0
 21
29.44
 31
0.0
  0
LINE
  5
162
330
1E
100
AcDbEntity
  8
0
100
AcDbLine
 10
29.0
 20
29.8182
 30
0.0
 11
29.0
 21
27.8182
 31
0.0
  0
LINE
  5
163
330
1E
100
AcDbEntity
  8
0
100
AcDbLine
 10
29.0
 20
29.8182
 30
0.0
 11
29.0
 21
32.0
 31
0.0
  0
LINE
  5
164
330
1E
100
AcDbEntity
  8
0
100
AcDbLine
 10
28.94859999999999
 20
29.70909999999999
 30
0.0
 11
28.9786
 21
32.0
 31
0.0
  0
LINE
  5
166
330
1E
100
AcDbEntity
  8
0
100
AcDbLine
 10
28.94859999999999
 20
29.70909999999999
 30
0.0
 11
29.0
 21
29.8182
 31
0.0
  0
LINE
  5
167
330
1E
100
AcDbEntity
  8
0
100
AcDbLine
 10
29.0
 20
29.69599999999999
 30
0.0
 11
29.0
 21
27.536
 31
0.0
  0
LINE
  5
168
330
1E
100
AcDbEntity
  8
0
100
AcDbLine
 10
29.0
 20
29.69599999999999
 30
0.0
 11
29.0
 21
32.0
 31
0.0
  0
LINE
  5
169
330
1E
100
AcDbEntity
  8
0
100
AcDbLine
 10
31.0
 20
29.69599999999999
 30
0.0
 11
31.0
 21
32.0
 31
0.0
  0
LINE
  5
16A
330
1E
100
AcDbEntity
  8
0
100
AcDbLine
 10
29.0
 20
32.0
 30
0.0
 11
29.0
 21
29.69599999999999
 31
0.0
  0
LINE
  5
16B
330
1E
100
AcDbEntity
  8
0
100
AcDbLine
 10
29.0
 20
32.0
 30
0.0
 11
29.0
 21
34.304
 31
0.0
  0
LINE
  5
16C
330
1E
100
AcDbEntity
  8
0
100
AcDbLine
 10
29.0
 20
32.0
 30
0.0
 11
29.0
 21
34.1818
 31
0.0
  0
LINE
  5
16D
330
1E
100
AcDbEntity
  8
0
100
AcDbLine
 10
29.0
 20
32.0
 30
0.0
 11
29.0
 21
29.8182
 31
0.0
  0
LINE
  5
16E
330
1E
100
AcDbEntity
  8
0
100
AcDbLine
 10
31.0
 20
29.44
 30
0.0
 11
31.0
 21
27.04
 31
0.0
  0
LINE
  5
16F
330
1E
100
AcDbEntity
  8
0
100
AcDbLine
 10
31.0
 20
29.44
 30
0.0
 11
31.0
 21
32.0
 31
0.0
  0
LINE
  5
170
330
1E
100
AcDbEntity
  8
0
100
AcDbLine
 10
33.0
 20
29.44
 30
0.0
 11
33.0
 21
32.0
 31
0.0
  0
LINE
  5
171
330
1E
100
AcDbEntity
  8
0
100
AcDbLine
 10
31.0
 20
32.0
 30
0.0
 11
31.0
 21
29.44
 31
0.0
  0
LINE
  5
172
330
1E
100
AcDbEntity
  8
0
100
AcDbLine
 10
31.0
 20
32.0
 30
0.0
 11
31.0
 21
34.56
 31
0.0
  0
LINE
  5
173
330
1E
100
AcDbEntity
  8
0
100
AcDbLine
 10
31.0
 20
32.0
 30
0.0
 11
31.0
 21
34.304
 31
0.0
  0
LINE
  5
174
330
1E
100
AcDbEntity
  8
0
100
AcDbLine
 10
33.0
 20
28.976
 30
0.0
 11
33.0
 21
26.19199999999999
 31
0.0
  0
LINE
  5
175
330
1E
100
AcDbEntity
  8
0
100
AcDbLine
 10
33.0
 20
28.976
 30
0.0
 11
33.0
 21
32.0
 31
0.0
  0
LINE
  5
176
330
1E
100
AcDbEntity
  8
0
100
AcDbLine
 10
33.0
 20
26.19199999999999
 30
0.0
 11
33.0
 21
23.744
 31
0.0
  0
LINE
  5
177
330
1E
100
AcDbEntity
  8
0
100
AcDbLine
 10
33.0
 20
26.19199999999999
 30
0.0
 11
33.0
 21
28.976
 31
0.0
  0
LINE
  5
178
330
1E
100
AcDbEntity
  8
0
100
AcDbLine
 10
28.78569999999999
 20
36.4134
 30
0.0
 11
28.94859999999999
 21
34.2909
 31
0.0
  0
LINE
  5
179
330
1E
100
AcDbEntity
  8
0
100
AcDbLine
 10
29.0
 20
36.1818
 30
0.0
 11
29.0
 21
34.1818
 31
0.0
  0
LINE
  5
17A
330
1E
100
AcDbEntity
  8
0
100
AcDbLine
 10
29.0
 20
34.1818
 30
0.0
 11
29.0
 21
32.0
 31
0.0
  0
LINE
  5
17B
330
1E
100
AcDbEntity
  8
0
100
AcDbLine
 10
29.0
 20
34.1818
 30
0.0
 11
29.0
 21
36.1818
 31
0.0
  0
LINE
  5
17C
330
1E
100
AcDbEntity
  8
0
100
AcDbLine
 10
28.94859999999999
 20
34.2909
 30
0.0
 11
28.9786
 21
32.0
 31
0.0
  0
LINE
  5
184
330
1E
100
AcDbEntity
  8
0
100
AcDbLine
 10
29.0
 20
36.46399999999999
 30
0.0
 11
29.0
 21
34.304
 31
0.0
  0
LINE
  5
185
330
1E
100
AcDbEntity
  8
0
100
AcDbLine
 10
29.0
 20
36.46399999999999
 30
0.0
 11
29.0
 21
38.372
 31
0.0
  0
LINE
  5
186
330
1E
100
AcDbEntity
  8
0
100
AcDbLine
 10
31.0
 20
36.46399999999999
 30
0.0
 11
31.0
 21
38.372
 31
0.0
  0
LINE
  5
187
330
1E
100
AcDbEntity
  8
0
100
AcDbLine
 10
31.0
 20
34.304
 30
0.0
 11
31.0
 21
36.46399999999999
 31
0.0
  0
LINE
  5
188
330
1E
100
AcDbEntity
  8
0
100
AcDbLine
 10
29.0
 20
34.304
 30
0.0
 11
29.0
 21
32.0
 31
0.0
  0
LINE
  5
189
330
1E
100
AcDbEntity
  8
0
100
AcDbLine
 10
29.0
 20
34.304
 30
0.0
 11
29.0
 21
36.46399999999999
 31
0.0
  0
LINE
  5
18C
330
1E
100
AcDbEntity
  8
0
100
AcDbLine
 10
28.78569999999999
 20
37.6027
 30
0.0
 11
28.9221
 21
38.4545
 31
0.0
  0
LINE
  5
18E
330
1E
100
AcDbEntity
  8
0
100
AcDbLine
 10
28.5714
 20
37.0127
 30
0.0
 11
28.78569999999999
 21
36.4134
 31
0.0
  0
LINE
  5
190
330
1E
100
AcDbEntity
  8
0
100
AcDbLine
 10
28.5714
 20
37.0127
 30
0.0
 11
28.78569999999999
 21
37.6027
 31
0.0
  0
LINE
  5
192
330
1E
100
AcDbEntity
  8
0
100
AcDbLine
 10
31.0
 20
36.96
 30
0.0
 11
31.0
 21
34.56
 31
0.0
  0
LINE
  5
193
330
1E
100
AcDbEntity
  8
0
100
AcDbLine
 10
31.0
 20
36.96
 30
0.0
 11
31.0
 21
39.07999999999999
 31
0.0
  0
LINE
  5
194
330
1E
100
AcDbEntity
  8
0
100
AcDbLine
 10
33.0
 20
36.96
 30
0.0
 11
33.0
 21
39.07999999999999
 31
0.0
  0
LINE
  5
195
330
1E
100
AcDbEntity
  8
0
100
AcDbLine
 10
33.0
 20
34.56
 30
0.0
 11
33.0
 21
36.96
 31
0.0
  0
LINE
  5
196
330
1E
100
AcDbEntity
  8
0
100
AcDbLine
 10
31.0
 20
34.56
 30
0.0
 11
31.0
 21
32.0
 31
0.0
  0
LINE
  5
197
330
1E
100
AcDbEntity
  8
0
100
AcDbLine
 10
31.0
 20
34.56
 30
0.0
 11
31.0
 21
36.96
 31
0.0
  0
LINE
  5
198
330
1E
100
AcDbEntity
  8
0
100
AcDbLine
 10
33.0
 20
32.0
 30
0.0
 11
33.0
 21
35.024
 31
0.0
  0
LINE
  5
199
330
1E
100
AcDbEntity
  8
0
100
AcDbLine
 10
33.0
 20
32.0
 30
0.0
 11
33.0
 21
28.976
 31
0.0
  0
LINE
  5
19A
330
1E
100
AcDbEntity
  8
0
100
AcDbLine
 10
33.0
 20
32.0
 30
0.0
 11
33.0
 21
34.56
 31
0.0
  0
LINE
  5
19B
330
1E
100
AcDbEntity
  8
0
100
AcDbLine
 10
33.0
 20
35.024
 30
0.0
 11
33.0
 21
32.0
 31
0.0
  0
LINE
  5
19C
330
1E
100
AcDbEntity
  8
0
100
AcDbLine
 10
33.0
 20
35.024
 30
0.0
 11
33.0
 21
37.808
 31
0.0
  0
LINE
  5
19D
330
1E
100
AcDbEntity
  8
0
100
AcDbLine
 10
29.0
 20
37.9545
 30
0.0
 11
29.0
 21
39.2727
 31
0.0
  0
LINE
  5
19E
330
1E
100
AcDbEntity
  8
0
100
AcDbLine
 10
28.9221
 20
38.4545
 30
0.0
 11
28.9567
 21
39.6709
 31
0.0
  0
LINE
  5
1A1
330
1E
100
AcDbEntity
  8
0
100
AcDbLine
 10
31.0
 20
38.372
 30
0.0
 11
31.0
 21
39.81199999999999
 31
0.0
  0
LINE
  5
1A2
330
1E
100
AcDbEntity
  8
0
100
AcDbLine
 10
29.0
 20
38.372
 30
0.0
 11
29.0
 21
36.46399999999999
 31
0.0
  0
LINE
  5
1A3
330
1E
100
AcDbEntity
  8
0
100
AcDbLine
 10
29.0
 20
38.372
 30
0.0
 11
29.0
 21
39.81199999999999
 31
0.0
  0
LINE
  5
1A4
330
1E
100
AcDbEntity
  8
0
100
AcDbLine
 10
29.0
 20
39.2727
 30
0.0
 11
29.0
 21
40.09089999999999
 31
0.0
  0
LINE
  5
1A5
330
1E
100
AcDbEntity
  8
0
100
AcDbLine
 10
29.0
 20
39.2727
 30
0.0
 11
29.0
 21
37.9545
 31
0.0
  0
LINE
  5
1A8
330
1E
100
AcDbEntity
  8
0
100
AcDbLine
 10
29.0
 20
40.09089999999999
 30
0.0
 11
29.0
 21
39.2727
 31
0.0
  0
LINE
  5
1A9
330
1E
100
AcDbEntity
  8
0
100
AcDbLine
 10
31.0
 20
39.81199999999999
 30
0.0
 11
31.0
 21
40.676
 31
0.0
  0
LINE
  5
1AA
330
1E
100
AcDbEntity
  8
0
100
AcDbLine
 10
29.0
 20
39.81199999999999
 30
0.0
 11
29.0
 21
38.372
 31
0.0
  0
LINE
  5
1AB
330
1E
100
AcDbEntity
  8
0
100
AcDbLine
 10
29.0
 20
39.81199999999999
 30
0.0
 11
29.0
 21
40.676
 31
0.0
  0
LINE
  5
1AC
330
1E
100
AcDbEntity
  8
0
100
AcDbLine
 10
28.5714
 20
42.0
 30
0.0
 11
28.5714
 21
41.9299
 31
0.0
  0
LINE
  5
1AD
330
1E
100
AcDbEntity
  8
0
100
AcDbLine
 10
28.5714
 20
42.0
 30
0.0
 11
28.78569999999999
 21
41.7727
 31
0.0
  0
LINE
  5
1AF
330
1E
100
AcDbEntity
  8
0
100
AcDbLine
 10
28.78569999999999
 20
41.7727
 30
0.0
 11
28.9357
 21
41.0909
 31
0.0
  0
LINE
  5
1B0
330
1E
100
AcDbEntity
  8
0
100
AcDbLine
 10
28.5714
 20
41.9299
 30
0.0
 11
28.78569999999999
 21
41.6175
 31
0.0
  0
LINE
  5
1B1
330
1E
100
AcDbEntity
  8
0
100
AcDbLine
 10
28.5714
 20
41.9299
 30
0.0
 11
28.5714
 21
42.0
 31
0.0
  0
LINE
  5
1B2
330
1E
100
AcDbEntity
  8
0
100
AcDbLine
 10
28.78569999999999
 20
41.6175
 30
0.0
 11
28.9103
 21
40.88049999999999
 31
0.0
  0
LINE
  5
1B3
330
1E
100
AcDbEntity
  8
0
100
AcDbLine
 10
28.9357
 20
41.0909
 30
0.0
 11
29.0
 21
40.4091
 31
0.0
  0
LINE
  5
1B6
330
1E
100
AcDbEntity
  8
0
100
AcDbLine
 10
28.9103
 20
40.88049999999999
 30
0.0
 11
28.9567
 21
39.6709
 31
0.0
  0
LINE
  5
1B8
330
1E
100
AcDbEntity
  8
0
100
AcDbLine
 10
29.0
 20
40.676
 30
0.0
 11
29.0
 21
41.0
 31
0.0
  0
LINE
  5
1B9
330
1E
100
AcDbEntity
  8
0
100
AcDbLine
 10
29.0
 20
40.676
 30
0.0
 11
29.0
 21
40.4091
 31
0.0
  0
LINE
  5
1BA
330
1E
100
AcDbEntity
  8
0
100
AcDbLine
 10
29.0
 20
40.676
 30
0.0
 11
29.0
 21
39.81199999999999
 31
0.0
  0
LINE
  5
1BB
330
1E
100
AcDbEntity
  8
0
100
AcDbLine
 10
31.0
 20
40.676
 30
0.0
 11
31.0
 21
41.0
 31
0.0
  0
LINE
  5
1BC
330
1E
100
AcDbEntity
  8
0
100
AcDbLine
 10
29.0
 20
41.0
 30
0.0
 11
31.0
 21
41.0
 31
0.0
  0
LINE
  5
1BD
330
1E
100
AcDbEntity
  8
0
100
AcDbLine
 10
29.0
 20
41.0
 30
0.0
 11
29.0
 21
40.676
 31
0.0
  0
LINE
  5
1BE
330
1E
100
AcDbEntity
  8
0
100
AcDbLine
 10
29.0
 20
40.4091
 30
0.0
 11
29.0
 21
40.676
 31
0.0
  0
LINE
  5
1BF
330
1E
100
AcDbEntity
  8
0
100
AcDbLine
 10
31.0
 20
40.68
 30
0.0
 11
31.0
 21
39.07999999999999
 31
0.0
  0
LINE
  5
1C0
330
1E
100
AcDbEntity
  8
0
100
AcDbLine
 10
31.0
 20
40.68
 30
0.0
 11
31.0
 21
41.64
 31
0.0
  0
LINE
  5
1C1
330
1E
100
AcDbEntity
  8
0
100
AcDbLine
 10
31.0
 20
39.07999999999999
 30
0.0
 11
31.0
 21
36.96
 31
0.0
  0
LINE
  5
1C2
330
1E
100
AcDbEntity
  8
0
100
AcDbLine
 10
31.0
 20
39.07999999999999
 30
0.0
 11
31.0
 21
40.68
 31
0.0
  0
LINE
  5
1C3
330
1E
100
AcDbEntity
  8
0
100
AcDbLine
 10
31.0
 20
41.64
 30
0.0
 11
31.0
 21
42.0
 31
0.0
  0
LINE
  5
1C4
330
1E
100
AcDbEntity
  8
0
100
AcDbLine
 10
31.0
 20
41.64
 30
0.0
 11
31.0
 21
41.0
 31
0.0
  0
LINE
  5
1C5
330
1E
100
AcDbEntity
  8
0
100
AcDbLine
 10
31.0
 20
41.64
 30
0.0
 11
31.0
 21
40.68
 31
0.0
  0
LINE
  5
1C6
330
1E
100
AcDbEntity
  8
0
100
AcDbLine
 10
31.0
 20
42.0
 30
0.0
 11
33.0
 21
42.0
 31
0.0
  0
LINE
  5
1C7
330
1E
100
AcDbEntity
  8
0
100
AcDbLine
 10
31.0
 20
42.0
 30
0.0
 11
31.0
 21
41.64
 31
0.0
  0
LINE
  5
1C8
330
1E
100
AcDbEntity
  8
0
100
AcDbLine
 10
33.0
 20
41.64
 30
0.0
 11
33.0
 21
42.0
 31
0.0
  0
LINE
  5
1C9
330
1E
100
AcDbEntity
  8
0
100
AcDbLine
 10
33.0
 20
40.68
 30
0.0
 11
33.0
 21
41.64
 31
0.0
  0
LINE
  5
1CA
330
1E
100
AcDbEntity
  8
0
100
AcDbLine
 10
33.0
 20
39.07999999999999
 30
0.0
 11
33.0
 21
40.68
 31
0.0
  0
LINE
  5
1CB
330
1E
100
AcDbEntity
  8
0
100
AcDbLine
 10
31.0
 20
41.0
 30
0.0
 11
31.0
 21
41.64
 31
0.0
  0
LINE
  5
1CC
330
1E
100
AcDbEntity
  8
0
100
AcDbLine
 10
33.0
 20
37.808
 30
0.0
 11
33.0
 21
35.024
 31
0.0
  0
LINE
  5
1CD
330
1E
100
AcDbEntity
  8
0
100
AcDbLine
 10
33.0
 20
37.808
 30
0.0
 11
33.0
 21
40.25599999999999
 31
0.0
  0
LINE
  5
1CE
330
1E
100
AcDbEntity
  8
0
100
AcDbLine
 10
33.0
 20
40.25599999999999
 30
0.0
 11
33.0
 21
37.808
 31
0.0
  0
LINE
  5
1CF
330
1E
100
AcDbEntity
  8
0
100
AcDbLine
 10
33.0
 20
40.25599999999999
 30
0.0
 11
33.0
 21
42.128
 31
0.0
  0
LINE
  5
1D0
330
1E
100
AcDbEntity
  8
0
100
AcDbLine
 10
33.0
 20
42.128
 30
0.0
 11
33.0
 21
42.0
 31
0.0
  0
LINE
  5
1D1
330
1E
100
AcDbEntity
  8
0
100
AcDbLine
 10
33.0
 20
42.128
 30
0.0
 11
33.0
 21
43.28
 31
0.0
  0
LINE
  5
1D2
330
1E
100
AcDbEntity
  8
0
100
AcDbLine
 10
33.0
 20
42.128
 30
0.0
 11
33.0
 21
40.25599999999999
 31
0.0
  0
LINE
  5
1D3
330
1E
100
AcDbEntity
  8
0
100
AcDbLine
 10
33.0
 20
24.92
 30
0.0
 11
33.0
 21
23.744
 31
0.0
  0
LINE
  5
1D4
330
1E
100
AcDbEntity
  8
0
100
AcDbLine
 10
33.0
 20
24.92
 30
0.0
 11
33.0
 21
27.04
 31
0.0
  0
LINE
  5
1D5
330
1E
100
AcDbEntity
  8
0
100
AcDbLine
 10
33.0
 20
42.5792
 30
0.0
 11
33.0
 21
42.9229
 31
0.0
  0
LINE
  5
1D6
330
1E
100
AcDbEntity
  8
0
100
AcDbLine
 10
33.0
 20
42.0
 30
0.0
 11
33.0
 21
42.5792
 31
0.0
  0
LINE
  5
1D7
330
1E
100
AcDbEntity
  8
0
100
AcDbLine
 10
33.0
 20
42.0
 30
0.0
 11
33.0
 21
42.128
 31
0.0
  0
LINE
  5
1D8
330
1E
100
AcDbEntity
  8
0
100
AcDbLine
 10
33.0
 20
23.744
 30
0.0
 11
33.0
 21
24.9
 31
0.0
  0
LINE
  5
1D9
330
1E
100
AcDbEntity
  8
0
100
AcDbLine
 10
33.0
 20
23.744
 30
0.0
 11
33.0
 21
24.92
 31
0.0
  0
LINE
  5
1DA
330
1E
100
AcDbEntity
  8
0
100
AcDbLine
 10
33.0
 20
23.744
 30
0.0
 11
33.0
 21
26.19199999999999
 31
0.0
  0
LINE
  5
1DB
330
1E
100
AcDbEntity
  8
0
100
AcDbLine
 10
35.0
 20
21.58399999999999
 30
0.0
 11
35.0
 21
23.504
 31
0.0
  0
LINE
  5
1DC
330
1E
100
AcDbEntity
  8
0
100
AcDbLine
 10
33.3
 20
21.58399999999999
 30
0.0
 11
33.3
 21
20.432
 31
0.0
  0
LINE
  5
1DD
330
1E
100
AcDbEntity
  8
0
100
AcDbLine
 10
33.3
 20
21.58399999999999
 30
0.0
 11
33.3
 21
23.504
 31
0.0
  0
LINE
  5
1DE
330
1E
100
AcDbEntity
  8
0
100
AcDbLine
 10
33.3
 20
28.928
 30
0.0
 11
33.3
 21
26.048
 31
0.0
  0
LINE
  5
1DF
330
1E
100
AcDbEntity
  8
0
100
AcDbLine
 10
33.3
 20
28.928
 30
0.0
 11
33.3
 21
32.0
 31
0.0
  0
LINE
  5
1E0
330
1E
100
AcDbEntity
  8
0
100
AcDbLine
 10
33.3
 20
26.048
 30
0.0
 11
33.3
 21
23.504
 31
0.0
  0
LINE
  5
1E1
330
1E
100
AcDbEntity
  8
0
100
AcDbLine
 10
33.3
 20
26.048
 30
0.0
 11
33.3
 21
28.928
 31
0.0
  0
LINE
  5
1E2
330
1E
100
AcDbEntity
  8
0
100
AcDbLine
 10
33.3
 20
23.504
 30
0.0
 11
33.3
 21
21.58399999999999
 31
0.0
  0
LINE
  5
1E3
330
1E
100
AcDbEntity
  8
0
100
AcDbLine
 10
33.3
 20
23.504
 30
0.0
 11
33.3
 21
26.048
 31
0.0
  0
LINE
  5
1E4
330
1E
100
AcDbEntity
  8
0
100
AcDbLine
 10
35.0
 20
26.048
 30
0.0
 11
35.0
 21
28.928
 31
0.0
  0
LINE
  5
1E5
330
1E
100
AcDbEntity
  8
0
100
AcDbLine
 10
35.0
 20
23.504
 30
0.0
 11
35.0
 21
26.048
 31
0.0
  0
LINE
  5
1E6
330
1E
100
AcDbEntity
  8
0
100
AcDbLine
 10
33.3
 20
32.0
 30
0.0
 11
33.3
 21
35.07199999999999
 31
0.0
  0
LINE
  5
1E7
330
1E
100
AcDbEntity
  8
0
100
AcDbLine
 10
33.3
 20
32.0
 30
0.0
 11
33.3
 21
28.928
 31
0.0
  0
LINE
  5
1E8
330
1E
100
AcDbEntity
  8
0
100
AcDbLine
 10
35.0
 20
22.79599999999999
 30
0.0
 11
35.0
 21
20.71599999999999
 31
0.0
  0
LINE
  5
1E9
330
1E
100
AcDbEntity
  8
0
100
AcDbLine
 10
35.0
 20
22.79599999999999
 30
0.0
 11
35.0
 21
25.552
 31
0.0
  0
LINE
  5
1EA
330
1E
100
AcDbEntity
  8
0
100
AcDbLine
 10
35.0
 20
25.552
 30
0.0
 11
35.0
 21
28.672
 31
0.0
  0
LINE
  5
1EB
330
1E
100
AcDbEntity
  8
0
100
AcDbLine
 10
35.0
 20
25.552
 30
0.0
 11
35.0
 21
22.79599999999999
 31
0.0
  0
LINE
  5
1EC
330
1E
100
AcDbEntity
  8
0
100
AcDbLine
 10
33.3
 20
35.07199999999999
 30
0.0
 11
33.3
 21
32.0
 31
0.0
  0
LINE
  5
1ED
330
1E
100
AcDbEntity
  8
0
100
AcDbLine
 10
33.3
 20
35.07199999999999
 30
0.0
 11
33.3
 21
37.95199999999999
 31
0.0
  0
LINE
  5
1EE
330
1E
100
AcDbEntity
  8
0
100
AcDbLine
 10
35.0
 20
35.07199999999999
 30
0.0
 11
35.0
 21
37.95199999999999
 31
0.0
  0
LINE
  5
1EF
330
1E
100
AcDbEntity
  8
0
100
AcDbLine
 10
33.3
 20
37.95199999999999
 30
0.0
 11
33.3
 21
35.07199999999999
 31
0.0
  0
LINE
  5
1F0
330
1E
100
AcDbEntity
  8
0
100
AcDbLine
 10
33.3
 20
37.95199999999999
 30
0.0
 11
33.3
 21
40.496
 31
0.0
  0
LINE
  5
1F1
330
1E
100
AcDbEntity
  8
0
100
AcDbLine
 10
35.0
 20
37.95199999999999
 30
0.0
 11
35.0
 21
40.496
 31
0.0
  0
LINE
  5
1F2
330
1E
100
AcDbEntity
  8
0
100
AcDbLine
 10
33.3
 20
40.496
 30
0.0
 11
33.3
 21
37.95199999999999
 31
0.0
  0
LINE
  5
1F3
330
1E
100
AcDbEntity
  8
0
100
AcDbLine
 10
33.3
 20
40.496
 30
0.0
 11
33.3
 21
42.416
 31
0.0
  0
LINE
  5
1F4
330
1E
100
AcDbEntity
  8
0
100
AcDbLine
 10
35.0
 20
40.496
 30
0.0
 11
35.0
 21
42.416
 31
0.0
  0
LINE
  5
1F5
330
1E
100
AcDbEntity
  8
0
100
AcDbLine
 10
33.3
 20
42.416
 30
0.0
 11
33.3
 21
40.496
 31
0.0
  0
LINE
  5
1F6
330
1E
100
AcDbEntity
  8
0
100
AcDbLine
 10
33.3
 20
42.416
 30
0.0
 11
33.3
 21
43.568
 31
0.0
  0
LINE
  5
1F7
330
1E
100
AcDbEntity
  8
0
100
AcDbLine
 10
35.0
 20
42.416
 30
0.0
 11
35.0
 21
43.568
 31
0.0
  0
LINE
  5
1F8
330
1E
100
AcDbEntity
  8
0
100
AcDbLine
 10
35.0
 20
41.20399999999999
 30
0.0
 11
35.0
 21
38.448
 31
0.0
  0
LINE
  5
1F9
330
1E
100
AcDbEntity
  8
0
100
AcDbLine
 10
35.0
 20
41.20399999999999
 30
0.0
 11
35.0
 21
43.284
 31
0.0
  0
LINE
  5
1FA
330
1E
100
AcDbEntity
  8
0
100
AcDbLine
 10
35.0
 20
38.448
 30
0.0
 11
35.0
 21
35.328
 31
0.0
  0
LINE
  5
1FB
330
1E
100
AcDbEntity
  8
0
100
AcDbLine
 10
35.0
 20
38.448
 30
0.0
 11
35.0
 21
41.20399999999999
 31
0.0
  0
LINE
  5
1FC
330
1E
100
AcDbEntity
  8
0
100
AcDbLine
 10
35.0
 20
35.328
 30
0.0
 11
35.0
 21
32.0
 31
0.0
  0
LINE
  5
1FD
330
1E
100
AcDbEntity
  8
0
100
AcDbLine
 10
35.0
 20
35.328
 30
0.0
 11
35.0
 21
38.448
 31
0.0
  0
LINE
  5
1FE
330
1E
100
AcDbEntity
  8
0
100
AcDbLine
 10
35.0
 20
32.0
 30
0.0
 11
35.0
 21
28.672
 31
0.0
  0
LINE
  5
1FF
330
1E
100
AcDbEntity
  8
0
100
AcDbLine
 10
35.0
 20
32.0
 30
0.0
 11
35.0
 21
35.328
 31
0.0
  0
LINE
  5
200
330
1E
100
AcDbEntity
  8
0
100
AcDbLine
 10
35.0
 20
32.0
 30
0.0
 11
35.0
 21
35.07199999999999
 31
0.0
  0
LINE
  5
201
330
1E
100
AcDbEntity
  8
0
100
AcDbLine
 10
28.22449
 20
21.0
 30
0.0
 11
33.0
 21
21.0
 31
0.0
  0
LINE
  5
202
330
1E
100
AcDbEntity
  8
0
100
AcDbLine
 10
27.61225
 20
21.25
 30
0.0
 11
28.22449
 21
21.0
 31
0.0
  0
LINE
  5
203
330
1E
100
AcDbEntity
  8
0
100
AcDbLine
 10
27.61225
 20
21.25
 30
0.0
 11
27.61225
 21
21.42079999999999
 31
0.0
  0
LINE
  5
204
330
1E
100
AcDbEntity
  8
0
100
AcDbLine
 10
33.0
 20
43.0
 30
0.0
 11
33.0
 21
43.28
 31
0.0
  0
LINE
  5
205
330
1E
100
AcDbEntity
  8
0
100
AcDbLine
 10
33.0
 20
42.9229
 30
0.0
 11
33.0
 21
43.0
 31
0.0
  0
LINE
  5
206
330
1E
100
AcDbEntity
  8
0
100
AcDbLine
 10
27.61225
 20
42.75
 30
0.0
 11
28.22449
 21
43.0
 31
0.0
  0
LINE
  5
207
330
1E
100
AcDbEntity
  8
0
100
AcDbLine
 10
27.61225
 20
42.75
 30
0.0
 11
27.61225
 21
42.5792
 31
0.0
  0
LINE
  5
208
330
1E
100
AcDbEntity
  8
0
100
AcDbLine
 10
27.18367
 20
42.0
 30
0.0
 11
27.61225
 21
42.75
 31
0.0
  0
LINE
  5
20A
330
1E
100
AcDbEntity
  8
0
100
AcDbLine
 10
33.0
 20
43.28
 30
0.0
 11
33.0
 21
42.128
 31
0.0
  0
LINE
  5
20B
330
1E
100
AcDbEntity
  8
0
100
AcDbLine
 10
33.0
 20
43.28
 30
0.0
 11
33.0
 21
43.71199999999999
 31
0.0
  0
LINE
  5
20C
330
1E
100
AcDbEntity
  8
0
100
AcDbLine
 10
33.0
 20
43.28
 30
0.0
 11
33.0
 21
43.0
 31
0.0
  0
LINE
  5
20D
330
1E
100
AcDbEntity
  8
0
100
AcDbLine
 10
33.3
 20
43.568
 30
0.0
 11
33.3
 21
42.416
 31
0.0
  0
LINE
  5
20E
330
1E
100
AcDbEntity
  8
0
100
AcDbLine
 10
33.3
 20
43.568
 30
0.0
 11
33.3
 21
44.0
 31
0.0
  0
LINE
  5
20F
330
1E
100
AcDbEntity
  8
0
100
AcDbLine
 10
35.0
 20
43.568
 30
0.0
 11
35.0
 21
44.0
 31
0.0
  0
LINE
  5
210
330
1E
100
AcDbEntity
  8
0
100
AcDbLine
 10
33.3
 20
44.0
 30
0.0
 11
35.0
 21
44.0
 31
0.0
  0
LINE
  5
211
330
1E
100
AcDbEntity
  8
0
100
AcDbLine
 10
33.3
 20
44.0
 30
0.0
 11
33.3
 21
43.568
 31
0.0
  0
LINE
  5
212
330
1E
100
AcDbEntity
  8
0
100
AcDbLine
 10
35.0
 20
43.284
 30
0.0
 11
35.0
 21
41.20399999999999
 31
0.0
  0
LINE
  5
213
330
1E
100
AcDbEntity
  8
0
100
AcDbLine
 10
35.0
 20
43.284
 30
0.0
 11
35.0
 21
44.53199999999999
 31
0.0
  0
LINE
  5
214
330
1E
100
AcDbEntity
  8
0
100
AcDbLine
 10
33.0
 20
43.71199999999999
 30
0.0
 11
33.0
 21
43.28
 31
0.0
  0
LINE
  5
215
330
1E
100
AcDbEntity
  8
0
100
AcDbLine
 10
33.0
 20
43.71199999999999
 30
0.0
 11
33.3
 21
44.0
 31
0.0
  0
LINE
  5
216
330
1E
100
AcDbEntity
  8
0
100
AcDbLine
 10
28.22449
 20
43.0
 30
0.0
 11
33.0
 21
43.0
 31
0.0
  0
LINE
  5
217
330
1E
100
AcDbEntity
  8
0
100
AcDbLine
 10
35.0
 20
44.0
 30
0.0
 11
35.0
 21
44.53199999999999
 31
0.0
  0
LINE
  5
218
330
1E
100
AcDbEntity
  8
0
100
AcDbLine
 10
35.0
 20
45.0
 30
0.0
 11
35.0
 21
44.53199999999999
 31
0.0
  0
LINE
  5
219
330
1E
100
AcDbEntity
  8
0
100
AcDbLine
 10
35.0
 20
45.0
 30
0.0
 11
49.0
 21
45.0
 31
0.0
  0
LINE
  5
21A
330
1E
100
AcDbEntity
  8
0
100
AcDbLine
 10
35.0
 20
44.53199999999999
 30
0.0
 11
35.0
 21
44.0
 31
0.0
  0
LINE
  5
21B
330
1E
100
AcDbEntity
  8
0
100
AcDbLine
 10
35.0
 20
44.53199999999999
 30
0.0
 11
35.0
 21
45.0
 31
0.0
  0
LINE
  5
21C
330
1E
100
AcDbEntity
  8
0
100
AcDbLine
 10
35.0
 20
44.53199999999999
 30
0.0
 11
35.0
 21
43.284
 31
0.0
  0
LINE
  5
21D
330
1E
100
AcDbEntity
  8
0
100
AcDbLine
 10
35.0
 20
20.0
 30
0.0
 11
35.0
 21
19.46799999999999
 31
0.0
  0
LINE
  5
21E
330
1E
100
AcDbEntity
  8
0
100
AcDbLine
 10
35.0
 20
20.0
 30
0.0
 11
35.0
 21
20.432
 31
0.0
  0
LINE
  5
21F
330
1E
100
AcDbEntity
  8
0
100
AcDbLine
 10
35.0
 20
28.928
 30
0.0
 11
35.0
 21
28.672
 31
0.0
  0
LINE
  5
220
330
1E
100
AcDbEntity
  8
0
100
AcDbLine
 10
35.0
 20
28.928
 30
0.0
 11
35.0
 21
32.0
 31
0.0
  0
LINE
  5
221
330
1E
100
AcDbEntity
  8
0
100
AcDbLine
 10
35.0
 20
19.46799999999999
 30
0.0
 11
35.0
 21
20.0
 31
0.0
  0
LINE
  5
222
330
1E
100
AcDbEntity
  8
0
100
AcDbLine
 10
35.0
 20
19.46799999999999
 30
0.0
 11
35.0
 21
19.0
 31
0.0
  0
LINE
  5
223
330
1E
100
AcDbEntity
  8
0
100
AcDbLine
 10
35.0
 20
19.46799999999999
 30
0.0
 11
35.0
 21
20.71599999999999
 31
0.0
  0
LINE
  5
224
330
1E
100
AcDbEntity
  8
0
100
AcDbLine
 10
49.0
 20
10.0
 30
0.0
 11
49.0
 21
19.0
 31
0.0
  0
LINE
  5
225
330
1E
100
AcDbEntity
  8
0
100
AcDbLine
 10
49.0
 20
10.0
 30
0.0
 11
49.0
 21
-0.0000000000000018
 31
0.0
  0
LINE
  5
226
330
1E
100
AcDbEntity
  8
0
100
AcDbLine
 10
49.0
 20
10.0
 30
0.0
 11
49.468
 21
10.0
 31
0.0
  0
LINE
  5
227
330
1E
100
AcDbEntity
  8
0
100
AcDbLine
 10
49.0
 20
10.0
 30
0.0
 11
49.0
 21
19.0
 31
0.0
  0
LINE
  5
228
330
1E
100
AcDbEntity
  8
0
100
AcDbLine
 10
49.0
 20
-0.0000000000000017
 30
0.0
 11
49.3756
 21
-0.0000000000000017
 31
0.0
  0
LINE
  5
229
330
1E
100
AcDbEntity
  8
0
100
AcDbLine
 10
49.0
 20
-0.0000000000000017
 30
0.0
 11
49.0
 21
10.0
 31
0.0
  0
LINE
  5
22A
330
1E
100
AcDbEntity
  8
0
100
AcDbLine
 10
63.0
 20
-0.0000000000000025
 30
0.0
 11
63.0
 21
6.0
 31
0.0
  0
LINE
  5
22B
330
1E
100
AcDbEntity
  8
0
100
AcDbLine
 10
65.328
 20
-0.0000000000000027
 30
0.0
 11
68.44800000000001
 21
-0.0000000000000028
 31
0.0
  0
LINE
  5
22C
330
1E
100
AcDbEntity
  8
0
100
AcDbLine
 10
61.0
 20
-0.0000000000000024
 30
0.0
 11
61.0
 21
6.0
 31
0.0
  0
LINE
  5
22D
330
1E
100
AcDbEntity
  8
0
100
AcDbLine
 10
61.0
 20
-0.0000000000000024
 30
0.0
 11
63.0
 21
-0.0000000000000025
 31
0.0
  0
LINE
  5
22E
330
1E
100
AcDbEntity
  8
0
100
AcDbLine
 10
62.0
 20
-0.0000000000000024
 30
0.0
 11
64.8526
 21
-0.0000000000000026
 31
0.0
  0
LINE
  5
22F
330
1E
100
AcDbEntity
  8
0
100
AcDbLine
 10
62.0
 20
-0.0000000000000024
 30
0.0
 11
65.328
 21
-0.0000000000000027
 31
0.0
  0
LINE
  5
230
330
1E
100
AcDbEntity
  8
0
100
AcDbLine
 10
73.62439999999999
 20
-0.0000000000000032
 30
0.0
 11
74.62439999999999
 21
-0.0000000000000032
 31
0.0
  0
LINE
  5
231
330
1E
100
AcDbEntity
  8
0
100
AcDbLine
 10
73.62439999999999
 20
-0.0000000000000036
 30
0.0
 11
73.62439999999999
 21
6.0
 31
0.0
  0
LINE
  5
232
330
1E
100
AcDbEntity
  8
0
100
AcDbLine
 10
74.62439999999999
 20
-0.0000000000000032
 30
0.0
 11
74.62439999999999
 21
6.0
 31
0.0
  0
LINE
  5
233
330
1E
100
AcDbEntity
  8
0
100
AcDbLine
 10
74.53199999999999
 20
-0.0000000000000032
 30
0.0
 11
75.0
 21
-0.0000000000000032
 31
0.0
  0
LINE
  5
234
330
1E
100
AcDbEntity
  8
0
100
AcDbLine
 10
75.0
 20
-0.0000000000000032
 30
0.0
 11
75.0
 21
10.0
 31
0.0
  0
LINE
  5
235
330
1E
100
AcDbEntity
  8
0
100
AcDbLine
 10
73.62439999999999
 20
-0.0000000000000032
 30
0.0
 11
74.53199999999999
 21
-0.0000000000000032
 31
0.0
  0
LINE
  5
236
330
1E
100
AcDbEntity
  8
0
100
AcDbLine
 10
73.62439999999999
 20
-0.0000000000000032
 30
0.0
 11
73.62439999999999
 21
6.0
 31
0.0
  0
LINE
  5
237
330
1E
100
AcDbEntity
  8
0
100
AcDbLine
 10
73.62439999999999
 20
-0.0000000000000032
 30
0.0
 11
74.62439999999999
 21
-0.0000000000000032
 31
0.0
  0
LINE
  5
238
330
1E
100
AcDbEntity
  8
0
100
AcDbLine
 10
71.89230000000001
 20
-0.0000000000000031
 30
0.0
 11
73.62439999999999
 21
-0.0000000000000032
 31
0.0
  0
LINE
  5
239
330
1E
100
AcDbEntity
  8
0
100
AcDbLine
 10
73.28399999999999
 20
-0.0000000000000031
 30
0.0
 11
74.62439999999999
 21
-0.0000000000000032
 31
0.0
  0
LINE
  5
23A
330
1E
100
AcDbEntity
  8
0
100
AcDbLine
 10
71.204
 20
-0.000000000000003
 30
0.0
 11
71.672
 21
-0.000000000000003
 31
0.0
  0
LINE
  5
23B
330
1E
100
AcDbEntity
  8
0
100
AcDbLine
 10
71.204
 20
-0.000000000000003
 30
0.0
 11
73.28399999999999
 21
-0.0000000000000031
 31
0.0
  0
LINE
  5
23C
330
1E
100
AcDbEntity
  8
0
100
AcDbLine
 10
69.8891
 20
-0.0000000000000029
 30
0.0
 11
71.672
 21
-0.000000000000003
 31
0.0
  0
LINE
  5
23D
330
1E
100
AcDbEntity
  8
0
100
AcDbLine
 10
73.28399999999999
 20
-0.0000000000000031
 30
0.0
 11
74.53199999999999
 21
-0.0000000000000032
 31
0.0
  0
LINE
  5
23E
330
1E
100
AcDbEntity
  8
0
100
AcDbLine
 10
68.44800000000001
 20
-0.0000000000000028
 30
0.0
 11
69.8891
 21
-0.0000000000000029
 31
0.0
  0
LINE
  5
23F
330
1E
100
AcDbEntity
  8
0
100
AcDbLine
 10
68.44800000000001
 20
-0.0000000000000028
 30
0.0
 11
71.204
 21
-0.000000000000003
 31
0.0
  0
LINE
  5
240
330
1E
100
AcDbEntity
  8
0
100
AcDbLine
 10
54.1109
 20
-0.000000000000002
 30
0.0
 11
56.4731
 21
-0.0000000000000021
 31
0.0
  0
LINE
  5
241
330
1E
100
AcDbEntity
  8
0
100
AcDbLine
 10
55.552
 20
-0.0000000000000021
 30
0.0
 11
58.672
 21
-0.0000000000000022
 31
0.0
  0
LINE
  5
242
330
1E
100
AcDbEntity
  8
0
100
AcDbLine
 10
49.3756
 20
6.0
 30
0.0
 11
49.3756
 21
-0.0000000000000018
 31
0.0
  0
LINE
  5
243
330
1E
100
AcDbEntity
  8
0
100
AcDbLine
 10
49.3756
 20
6.0
 30
0.0
 11
50.3756
 21
6.0
 31
0.0
  0
LINE
  5
244
330
1E
100
AcDbEntity
  8
0
100
AcDbLine
 10
51.2583
 20
-0.0000000000000018
 30
0.0
 11
52.1077
 21
-0.0000000000000018
 31
0.0
  0
LINE
  5
245
330
1E
100
AcDbEntity
  8
0
100
AcDbLine
 10
50.716
 20
-0.0000000000000018
 30
0.0
 11
52.79600000000001
 21
-0.0000000000000019
 31
0.0
  0
LINE
  5
246
330
1E
100
AcDbEntity
  8
0
100
AcDbLine
 10
51.1077
 20
-0.0000000000000018
 30
0.0
 11
52.1077
 21
-0.0000000000000018
 31
0.0
  0
LINE
  5
247
330
1E
100
AcDbEntity
  8
0
100
AcDbLine
 10
50.3756
 20
-0.0000000000000017
 30
0.0
 11
52.1077
 21
-0.0000000000000018
 31
0.0
  0
LINE
  5
248
330
1E
100
AcDbEntity
  8
0
100
AcDbLine
 10
50.3756
 20
-0.0000000000000017
 30
0.0
 11
50.8571
 21
-0.0000000000000018
 31
0.0
  0
LINE
  5
249
330
1E
100
AcDbEntity
  8
0
100
AcDbLine
 10
50.3756
 20
-0.0000000000000017
 30
0.0
 11
50.3756
 21
6.0
 31
0.0
  0
LINE
  5
24A
330
1E
100
AcDbEntity
  8
0
100
AcDbLine
 10
50.3756
 20
6.0
 30
0.0
 11
50.3756
 21
-0.0000000000000018
 31
0.0
  0
LINE
  5
24C
330
1E
100
AcDbEntity
  8
0
100
AcDbLine
 10
49.468
 20
10.0
 30
0.0
 11
50.716
 21
10.0
 31
0.0
  0
LINE
  5
24D
330
1E
100
AcDbEntity
  8
0
100
AcDbLine
 10
50.716
 20
10.0
 30
0.0
 11
52.79600000000001
 21
10.0
 31
0.0
  0
LINE
  5
24E
330
1E
100
AcDbEntity
  8
0
100
AcDbLine
 10
49.468
 20
54.0
 30
0.0
 11
50.716
 21
54.0
 31
0.0
  0
LINE
  5
24F
330
1E
100
AcDbEntity
  8
0
100
AcDbLine
 10
50.716
 20
54.0
 30
0.0
 11
52.79600000000001
 21
54.0
 31
0.0
  0
LINE
  5
250
330
1E
100
AcDbEntity
  8
0
100
AcDbLine
 10
49.468
 20
-0.0000000000000017
 30
0.0
 11
50.3756
 21
-0.0000000000000017
 31
0.0
  0
LINE
  5
251
330
1E
100
AcDbEntity
  8
0
100
AcDbLine
 10
49.3756
 20
-0.0000000000000017
 30
0.0
 11
50.8571
 21
-0.0000000000000018
 31
0.0
  0
LINE
  5
252
330
1E
100
AcDbEntity
  8
0
100
AcDbLine
 10
49.3756
 20
-0.0000000000000017
 30
0.0
 11
50.716
 21
-0.0000000000000018
 31
0.0
  0
LINE
  5
253
330
1E
100
AcDbEntity
  8
0
100
AcDbLine
 10
49.3756
 20
-0.0000000000000017
 30
0.0
 11
49.3756
 21
6.0
 31
0.0
  0
LINE
  5
254
330
1E
100
AcDbEntity
  8
0
100
AcDbLine
 10
49.3756
 20
-0.0000000000000017
 30
0.0
 11
51.1077
 21
-0.0000000000000018
 31
0.0
  0
LINE
  5
255
330
1E
100
AcDbEntity
  8
0
100
AcDbLine
 10
49.3756
 20
-0.0000000000000017
 30
0.0
 11
50.3756
 21
-0.0000000000000017
 31
0.0
  0
LINE
  5
256
330
1E
100
AcDbEntity
  8
0
100
AcDbLine
 10
52.1077
 20
-0.0000000000000018
 30
0.0
 11
52.32800000000001
 21
-0.0000000000000019
 31
0.0
  0
LINE
  5
257
330
1E
100
AcDbEntity
  8
0
100
AcDbLine
 10
52.79600000000001
 20
10.0
 30
0.0
 11
55.552
 21
10.0
 31
0.0
  0
LINE
  5
258
330
1E
100
AcDbEntity
  8
0
100
AcDbLine
 10
55.552
 20
10.0
 30
0.0
 11
58.672
 21
10.0
 31
0.0
  0
LINE
  5
259
330
1E
100
AcDbEntity
  8
0
100
AcDbLine
 10
52.79600000000001
 20
54.0
 30
0.0
 11
55.552
 21
54.0
 31
0.0
  0
LINE
  5
25A
330
1E
100
AcDbEntity
  8
0
100
AcDbLine
 10
55.552
 20
54.0
 30
0.0
 11
58.672
 21
54.0
 31
0.0
  0
LINE
  5
25B
330
1E
100
AcDbEntity
  8
0
100
AcDbLine
 10
52.32800000000001
 20
-0.0000000000000019
 30
0.0
 11
52.79600000000001
 21
-0.0000000000000019
 31
0.0
  0
LINE
  5
25C
330
1E
100
AcDbEntity
  8
0
100
AcDbLine
 10
52.32800000000001
 20
-0.0000000000000019
 30
0.0
 11
54.1109
 21
-0.000000000000002
 31
0.0
  0
LINE
  5
25D
330
1E
100
AcDbEntity
  8
0
100
AcDbLine
 10
52.79600000000001
 20
-0.0000000000000019
 30
0.0
 11
54.1109
 21
-0.000000000000002
 31
0.0
  0
LINE
  5
25E
330
1E
100
AcDbEntity
  8
0
100
AcDbLine
 10
52.79600000000001
 20
-0.0000000000000019
 30
0.0
 11
55.552
 21
-0.0000000000000021
 31
0.0
  0
LINE
  5
25F
330
1E
100
AcDbEntity
  8
0
100
AcDbLine
 10
63.0
 20
6.0
 30
0.0
 11
63.0
 21
-0.0000000000000027
 31
0.0
  0
LINE
  5
260
330
1E
100
AcDbEntity
  8
0
100
AcDbLine
 10
61.0
 20
6.0
 30
0.0
 11
61.0
 21
-0.0000000000000027
 31
0.0
  0
LINE
  5
261
330
1E
100
AcDbEntity
  8
0
100
AcDbLine
 10
61.0
 20
6.0
 30
0.0
 11
63.0
 21
6.0
 31
0.0
  0
LINE
  5
263
330
1E
100
AcDbEntity
  8
0
100
AcDbLine
 10
73.62439999999999
 20
6.0
 30
0.0
 11
74.62439999999999
 21
6.0
 31
0.0
  0
LINE
  5
264
330
1E
100
AcDbEntity
  8
0
100
AcDbLine
 10
74.62439999999999
 20
6.0
 30
0.0
 11
74.62439999999999
 21
-0.0000000000000036
 31
0.0
  0
LINE
  5
265
330
1E
100
AcDbEntity
  8
0
100
AcDbLine
 10
74.53199999999999
 20
10.0
 30
0.0
 11
75.0
 21
10.0
 31
0.0
  0
LINE
  5
266
330
1E
100
AcDbEntity
  8
0
100
AcDbLine
 10
73.28399999999999
 20
10.0
 30
0.0
 11
74.53199999999999
 21
10.0
 31
0.0
  0
LINE
  5
267
330
1E
100
AcDbEntity
  8
0
100
AcDbLine
 10
71.204
 20
10.0
 30
0.0
 11
73.28399999999999
 21
10.0
 31
0.0
  0
LINE
  5
268
330
1E
100
AcDbEntity
  8
0
100
AcDbLine
 10
68.44800000000001
 20
10.0
 30
0.0
 11
71.204
 21
10.0
 31
0.0
  0
LINE
  5
269
330
1E
100
AcDbEntity
  8
0
100
AcDbLine
 10
58.672
 20
-0.0000000000000022
 30
0.0
 11
61.0
 21
-0.0000000000000024
 31
0.0
  0
LINE
  5
26A
330
1E
100
AcDbEntity
  8
0
100
AcDbLine
 10
58.672
 20
-0.0000000000000022
 30
0.0
 11
62.0
 21
-0.0000000000000024
 31
0.0
  0
LINE
  5
26B
330
1E
100
AcDbEntity
  8
0
100
AcDbLine
 10
58.672
 20
10.0
 30
0.0
 11
62.0
 21
10.0
 31
0.0
  0
LINE
  5
26C
330
1E
100
AcDbEntity
  8
0
100
AcDbLine
 10
60.0
 20
21.49999999999999
 30
0.0
 11
60.0
 21
20.5
 31
0.0
  0
LINE
  5
26D
330
1E
100
AcDbEntity
  8
0
100
AcDbLine
 10
60.0
 20
21.49999999999999
 30
0.0
 11
60.0
 21
32.0
 31
0.0
  0
LINE
  5
26E
330
1E
100
AcDbEntity
  8
0
100
AcDbLine
 10
60.0
 20
20.5
 30
0.0
 11
60.0
 21
19.69999999999999
 31
0.0
  0
LINE
  5
26F
330
1E
100
AcDbEntity
  8
0
100
AcDbLine
 10
60.0
 20
20.5
 30
0.0
 11
60.0
 21
21.49999999999999
 31
0.0
  0
LINE
  5
270
330
1E
100
AcDbEntity
  8
0
100
AcDbLine
 10
60.0
 20
19.69999999999999
 30
0.0
 11
60.0
 21
19.19999999999999
 31
0.0
  0
LINE
  5
271
330
1E
100
AcDbEntity
  8
0
100
AcDbLine
 10
60.0
 20
19.69999999999999
 30
0.0
 11
60.0
 21
20.5
 31
0.0
  0
LINE
  5
272
330
1E
100
AcDbEntity
  8
0
100
AcDbLine
 10
60.0
 20
19.19999999999999
 30
0.0
 11
60.0
 21
19.0
 31
0.0
  0
LINE
  5
273
330
1E
100
AcDbEntity
  8
0
100
AcDbLine
 10
60.0
 20
19.19999999999999
 30
0.0
 11
60.0
 21
19.69999999999999
 31
0.0
  0
LINE
  5
274
330
1E
100
AcDbEntity
  8
0
100
AcDbLine
 10
60.0
 20
19.0
 30
0.0
 11
64.0
 21
19.0
 31
0.0
  0
LINE
  5
275
330
1E
100
AcDbEntity
  8
0
100
AcDbLine
 10
60.0
 20
19.0
 30
0.0
 11
60.0
 21
19.19999999999999
 31
0.0
  0
LINE
  5
276
330
1E
100
AcDbEntity
  8
0
100
AcDbLine
 10
60.0
 20
32.0
 30
0.0
 11
60.0
 21
42.5
 31
0.0
  0
LINE
  5
277
330
1E
100
AcDbEntity
  8
0
100
AcDbLine
 10
60.0
 20
32.0
 30
0.0
 11
60.0
 21
21.49999999999999
 31
0.0
  0
LINE
  5
278
330
1E
100
AcDbEntity
  8
0
100
AcDbLine
 10
60.0
 20
42.5
 30
0.0
 11
60.0
 21
32.0
 31
0.0
  0
LINE
  5
279
330
1E
100
AcDbEntity
  8
0
100
AcDbLine
 10
60.0
 20
42.5
 30
0.0
 11
60.0
 21
43.5
 31
0.0
  0
LINE
  5
27A
330
1E
100
AcDbEntity
  8
0
100
AcDbLine
 10
60.0
 20
43.5
 30
0.0
 11
60.0
 21
42.5
 31
0.0
  0
LINE
  5
27B
330
1E
100
AcDbEntity
  8
0
100
AcDbLine
 10
60.0
 20
43.5
 30
0.0
 11
60.0
 21
44.29999999999999
 31
0.0
  0
LINE
  5
27C
330
1E
100
AcDbEntity
  8
0
100
AcDbLine
 10
60.0
 20
44.29999999999999
 30
0.0
 11
60.0
 21
43.5
 31
0.0
  0
LINE
  5
27D
330
1E
100
AcDbEntity
  8
0
100
AcDbLine
 10
60.0
 20
44.29999999999999
 30
0.0
 11
60.0
 21
44.79999999999999
 31
0.0
  0
LINE
  5
27E
330
1E
100
AcDbEntity
  8
0
100
AcDbLine
 10
60.0
 20
44.79999999999999
 30
0.0
 11
60.0
 21
44.29999999999999
 31
0.0
  0
LINE
  5
27F
330
1E
100
AcDbEntity
  8
0
100
AcDbLine
 10
60.0
 20
44.79999999999999
 30
0.0
 11
60.0
 21
45.0
 31
0.0
  0
LINE
  5
280
330
1E
100
AcDbEntity
  8
0
100
AcDbLine
 10
60.0
 20
45.0
 30
0.0
 11
64.0
 21
45.0
 31
0.0
  0
LINE
  5
281
330
1E
100
AcDbEntity
  8
0
100
AcDbLine
 10
60.0
 20
45.0
 30
0.0
 11
60.0
 21
44.79999999999999
 31
0.0
  0
LINE
  5
282
330
1E
100
AcDbEntity
  8
0
100
AcDbLine
 10
62.0
 20
10.0
 30
0.0
 11
65.328
 21
10.0
 31
0.0
  0
LINE
  5
283
330
1E
100
AcDbEntity
  8
0
100
AcDbLine
 10
64.0
 20
21.49999999999999
 30
0.0
 11
64.0
 21
32.0
 31
0.0
  0
LINE
  5
284
330
1E
100
AcDbEntity
  8
0
100
AcDbLine
 10
64.0
 20
21.49999999999999
 30
0.0
 11
64.0
 21
20.5
 31
0.0
  0
LINE
  5
285
330
1E
100
AcDbEntity
  8
0
100
AcDbLine
 10
64.0
 20
20.5
 30
0.0
 11
64.0
 21
21.49999999999999
 31
0.0
  0
LINE
  5
286
330
1E
100
AcDbEntity
  8
0
100
AcDbLine
 10
64.0
 20
20.5
 30
0.0
 11
64.0
 21
19.69999999999999
 31
0.0
  0
LINE
  5
287
330
1E
100
AcDbEntity
  8
0
100
AcDbLine
 10
64.0
 20
19.69999999999999
 30
0.0
 11
64.0
 21
20.5
 31
0.0
  0
LINE
  5
288
330
1E
100
AcDbEntity
  8
0
100
AcDbLine
 10
64.0
 20
19.69999999999999
 30
0.0
 11
64.0
 21
19.19999999999999
 31
0.0
  0
LINE
  5
289
330
1E
100
AcDbEntity
  8
0
100
AcDbLine
 10
64.0
 20
19.19999999999999
 30
0.0
 11
64.0
 21
19.69999999999999
 31
0.0
  0
LINE
  5
28A
330
1E
100
AcDbEntity
  8
0
100
AcDbLine
 10
64.0
 20
19.19999999999999
 30
0.0
 11
64.0
 21
19.0
 31
0.0
  0
LINE
  5
28B
330
1E
100
AcDbEntity
  8
0
100
AcDbLine
 10
64.0
 20
19.0
 30
0.0
 11
64.0
 21
19.19999999999999
 31
0.0
  0
LINE
  5
28C
330
1E
100
AcDbEntity
  8
0
100
AcDbLine
 10
64.0
 20
32.0
 30
0.0
 11
64.0
 21
42.5
 31
0.0
  0
LINE
  5
28D
330
1E
100
AcDbEntity
  8
0
100
AcDbLine
 10
64.0
 20
32.0
 30
0.0
 11
64.0
 21
21.49999999999999
 31
0.0
  0
LINE
  5
28E
330
1E
100
AcDbEntity
  8
0
100
AcDbLine
 10
64.0
 20
42.5
 30
0.0
 11
64.0
 21
43.5
 31
0.0
  0
LINE
  5
28F
330
1E
100
AcDbEntity
  8
0
100
AcDbLine
 10
64.0
 20
42.5
 30
0.0
 11
64.0
 21
32.0
 31
0.0
  0
LINE
  5
290
330
1E
100
AcDbEntity
  8
0
100
AcDbLine
 10
64.0
 20
43.5
 30
0.0
 11
64.0
 21
44.29999999999999
 31
0.0
  0
LINE
  5
291
330
1E
100
AcDbEntity
  8
0
100
AcDbLine
 10
64.0
 20
43.5
 30
0.0
 11
64.0
 21
42.5
 31
0.0
  0
LINE
  5
292
330
1E
100
AcDbEntity
  8
0
100
AcDbLine
 10
64.0
 20
45.0
 30
0.0
 11
64.0
 21
44.79999999999999
 31
0.0
  0
LINE
  5
293
330
1E
100
AcDbEntity
  8
0
100
AcDbLine
 10
64.0
 20
44.29999999999999
 30
0.0
 11
64.0
 21
44.79999999999999
 31
0.0
  0
LINE
  5
294
330
1E
100
AcDbEntity
  8
0
100
AcDbLine
 10
64.0
 20
44.29999999999999
 30
0.0
 11
64.0
 21
43.5
 31
0.0
  0
LINE
  5
295
330
1E
100
AcDbEntity
  8
0
100
AcDbLine
 10
64.0
 20
44.79999999999999
 30
0.0
 11
64.0
 21
45.0
 31
0.0
  0
LINE
  5
296
330
1E
100
AcDbEntity
  8
0
100
AcDbLine
 10
64.0
 20
44.79999999999999
 30
0.0
 11
64.0
 21
44.29999999999999
 31
0.0
  0
LINE
  5
297
330
1E
100
AcDbEntity
  8
0
100
AcDbLine
 10
65.328
 20
10.0
 30
0.0
 11
68.44800000000001
 21
10.0
 31
0.0
  0
LINE
  5
298
330
1E
100
AcDbEntity
  8
0
100
AcDbLine
 10
75.0
 20
32.0
 30
0.0
 11
75.0
 21
54.0
 31
0.0
  0
LINE
  5
299
330
1E
100
AcDbEntity
  8
0
100
AcDbLine
 10
74.53199999999999
 20
54.0
 30
0.0
 11
75.0
 21
54.0
 31
0.0
  0
LINE
  5
29A
330
1E
100
AcDbEntity
  8
0
100
AcDbLine
 10
73.28399999999999
 20
54.0
 30
0.0
 11
74.53199999999999
 21
54.0
 31
0.0
  0
LINE
  5
29B
330
1E
100
AcDbEntity
  8
0
100
AcDbLine
 10
71.204
 20
54.0
 30
0.0
 11
73.28399999999999
 21
54.0
 31
0.0
  0
LINE
  5
29C
330
1E
100
AcDbEntity
  8
0
100
AcDbLine
 10
68.44800000000001
 20
54.0
 30
0.0
 11
71.204
 21
54.0
 31
0.0
  0
LINE
  5
29D
330
1E
100
AcDbEntity
  8
0
100
AcDbLine
 10
65.328
 20
54.0
 30
0.0
 11
68.44800000000001
 21
54.0
 31
0.0
  0
LINE
  5
29E
330
1E
100
AcDbEntity
  8
0
100
AcDbLine
 10
62.0
 20
54.0
 30
0.0
 11
65.328
 21
54.0
 31
0.0
  0
LINE
  5
29F
330
1E
100
AcDbEntity
  8
0
100
AcDbLine
 10
75.0
 20
54.0
 30
0.0
 11
75.0
 21
64.0
 31
0.0
  0
LINE
  5
2A0
330
1E
100
AcDbEntity
  8
0
100
AcDbLine
 10
75.0
 20
54.0
 30
0.0
 11
75.0
 21
32.0
 31
0.0
  0
LINE
  5
2A1
330
1E
100
AcDbEntity
  8
0
100
AcDbLine
 10
58.672
 20
54.0
 30
0.0
 11
62.0
 21
54.0
 31
0.0
  0
LINE
  5
2A2
330
1E
100
AcDbEntity
  8
0
100
AcDbLine
 10
75.0
 20
10.0
 30
0.0
 11
75.0
 21
32.0
 31
0.0
  0
LINE
  5
2A3
330
1E
100
AcDbEntity
  8
0
100
AcDbLine
 10
75.0
 20
10.0
 30
0.0
 11
75.0
 21
-0.0000000000000036
 31
0.0
  0
LINE
  5
2A4
330
1E
100
AcDbEntity
  8
0
100
AcDbLine
 10
56.4731
 20
-0.0000000000000021
 30
0.0
 11
58.672
 21
-0.0000000000000022
 31
0.0
  0
LINE
  5
2A5
330
1E
100
AcDbEntity
  8
0
100
AcDbLine
 10
59.1474
 20
-0.0000000000000023
 30
0.0
 11
61.0
 21
-0.0000000000000024
 31
0.0
  0
LINE
  5
2A6
330
1E
100
AcDbEntity
  8
0
100
AcDbLine
 10
59.1474
 20
-0.0000000000000023
 30
0.0
 11
62.0
 21
-0.0000000000000024
 31
0.0
  0
LINE
  5
2A7
330
1E
100
AcDbEntity
  8
0
100
AcDbLine
 10
49.0
 20
45.0
 30
0.0
 11
49.0
 21
54.0
 31
0.0
  0
LINE
  5
2A8
330
1E
100
AcDbEntity
  8
0
100
AcDbLine
 10
50.3756
 20
58.0
 30
0.0
 11
50.3756
 21
64.0
 31
0.0
  0
LINE
  5
2AA
330
1E
100
AcDbEntity
  8
0
100
AcDbLine
 10
49.3756
 20
64.0
 30
0.0
 11
50.3756
 21
64.0
 31
0.0
  0
LINE
  5
2AB
330
1E
100
AcDbEntity
  8
0
100
AcDbLine
 10
50.3756
 20
64.0
 30
0.0
 11
50.3756
 21
58.0
 31
0.0
  0
LINE
  5
2AC
330
1E
100
AcDbEntity
  8
0
100
AcDbLine
 10
50.3756
 20
64.0
 30
0.0
 11
50.716
 21
64.0
 31
0.0
  0
LINE
  5
2AE
330
1E
100
AcDbEntity
  8
0
100
AcDbLine
 10
49.3756
 20
58.0
 30
0.0
 11
49.3756
 21
64.0
 31
0.0
  0
LINE
  5
2AF
330
1E
100
AcDbEntity
  8
0
100
AcDbLine
 10
49.3756
 20
58.0
 30
0.0
 11
50.3756
 21
58.0
 31
0.0
  0
LINE
  5
2B0
330
1E
100
AcDbEntity
  8
0
100
AcDbLine
 10
50.716
 20
64.0
 30
0.0
 11
52.79600000000001
 21
64.0
 31
0.0
  0
LINE
  5
2B1
330
1E
100
AcDbEntity
  8
0
100
AcDbLine
 10
52.79600000000001
 20
64.0
 30
0.0
 11
55.552
 21
64.0
 31
0.0
  0
LINE
  5
2B2
330
1E
100
AcDbEntity
  8
0
100
AcDbLine
 10
63.0
 20
58.0
 30
0.0
 11
63.0
 21
64.0
 31
0.0
  0
LINE
  5
2B3
330
1E
100
AcDbEntity
  8
0
100
AcDbLine
 10
61.0
 20
64.0
 30
0.0
 11
61.0
 21
58.0
 31
0.0
  0
LINE
  5
2B4
330
1E
100
AcDbEntity
  8
0
100
AcDbLine
 10
61.0
 20
64.0
 30
0.0
 11
63.0
 21
64.0
 31
0.0
  0
LINE
  5
2B5
330
1E
100
AcDbEntity
  8
0
100
AcDbLine
 10
61.0
 20
58.0
 30
0.0
 11
61.0
 21
64.0
 31
0.0
  0
LINE
  5
2B6
330
1E
100
AcDbEntity
  8
0
100
AcDbLine
 10
61.0
 20
58.0
 30
0.0
 11
63.0
 21
58.0
 31
0.0
  0
LINE
  5
2B8
330
1E
100
AcDbEntity
  8
0
100
AcDbLine
 10
74.62439999999999
 20
58.0
 30
0.0
 11
74.62439999999999
 21
64.0
 31
0.0
  0
LINE
  5
2B9
330
1E
100
AcDbEntity
  8
0
100
AcDbLine
 10
73.62439999999999
 20
58.0
 30
0.0
 11
74.62439999999999
 21
58.0
 31
0.0
  0
LINE
  5
2BA
330
1E
100
AcDbEntity
  8
0
100
AcDbLine
 10
73.62439999999999
 20
58.0
 30
0.0
 11
73.62439999999999
 21
64.0
 31
0.0
  0
LINE
  5
2BB
330
1E
100
AcDbEntity
  8
0
100
AcDbLine
 10
73.28399999999999
 20
64.0
 30
0.0
 11
73.62439999999999
 21
64.0
 31
0.0
  0
LINE
  5
2BC
330
1E
100
AcDbEntity
  8
0
100
AcDbLine
 10
73.62439999999999
 20
64.0
 30
0.0
 11
73.62439999999999
 21
58.0
 31
0.0
  0
LINE
  5
2BD
330
1E
100
AcDbEntity
  8
0
100
AcDbLine
 10
73.62439999999999
 20
64.0
 30
0.0
 11
74.62439999999999
 21
64.0
 31
0.0
  0
LINE
  5
2BE
330
1E
100
AcDbEntity
  8
0
100
AcDbLine
 10
73.78319999999999
 20
58.0
 30
0.0
 11
74.62439999999999
 21
58.0
 31
0.0
  0
LINE
  5
2BF
330
1E
100
AcDbEntity
  8
0
100
AcDbLine
 10
75.0
 20
64.0
 30
0.0
 11
75.0
 21
54.0
 31
0.0
  0
LINE
  5
2C0
330
1E
100
AcDbEntity
  8
0
100
AcDbLine
 10
74.62439999999999
 20
64.0
 30
0.0
 11
75.0
 21
64.0
 31
0.0
  0
LINE
  5
2C1
330
1E
100
AcDbEntity
  8
0
100
AcDbLine
 10
74.62439999999999
 20
64.0
 30
0.0
 11
74.62439999999999
 21
58.0
 31
0.0
  0
LINE
  5
2C2
330
1E
100
AcDbEntity
  8
0
100
AcDbLine
 10
71.204
 20
64.0
 30
0.0
 11
73.28399999999999
 21
64.0
 31
0.0
  0
LINE
  5
2C3
330
1E
100
AcDbEntity
  8
0
100
AcDbLine
 10
68.44800000000001
 20
64.0
 30
0.0
 11
71.204
 21
64.0
 31
0.0
  0
LINE
  5
2C4
330
1E
100
AcDbEntity
  8
0
100
AcDbLine
 10
65.328
 20
64.0
 30
0.0
 11
68.44800000000001
 21
64.0
 31
0.0
  0
LINE
  5
2C5
330
1E
100
AcDbEntity
  8
0
100
AcDbLine
 10
63.0
 20
64.0
 30
0.0
 11
65.328
 21
64.0
 31
0.0
  0
LINE
  5
2C6
330
1E
100
AcDbEntity
  8
0
100
AcDbLine
 10
63.0
 20
64.0
 30
0.0
 11
63.0
 21
58.0
 31
0.0
  0
LINE
  5
2C7
330
1E
100
AcDbEntity
  8
0
100
AcDbLine
 10
55.552
 20
64.0
 30
0.0
 11
58.672
 21
64.0
 31
0.0
  0
LINE
  5
2C8
330
1E
100
AcDbEntity
  8
0
100
AcDbLine
 10
58.672
 20
64.0
 30
0.0
 11
61.0
 21
64.0
 31
0.0
  0
LINE
  5
2C9
330
1E
100
AcDbEntity
  8
0
100
AcDbLine
 10
49.0
 20
64.0
 30
0.0
 11
49.0
 21
54.0
 31
0.0
  0
LINE
  5
2CA
330
1E
100
AcDbEntity
  8
0
100
AcDbLine
 10
49.0
 20
64.0
 30
0.0
 11
49.3756
 21
64.0
 31
0.0
  0
LINE
  5
2CB
330
1E
100
AcDbEntity
  8
0
100
AcDbLine
 10
49.0
 20
54.0
 30
0.0
 11
49.0
 21
64.0
 31
0.0
  0
LINE
  5
2CC
330
1E
100
AcDbEntity
  8
0
100
AcDbLine
 10
49.0
 20
54.0
 30
0.0
 11
49.0
 21
45.0
 31
0.0
  0
LINE
  5
2CD
330
1E
100
AcDbEntity
  8
0
100
AcDbLine
 10
49.0
 20
54.0
 30
0.0
 11
49.468
 21
54.0
 31
0.0
  0
LINE
  5
2CE
330
1E
100
AcDbEntity
  8
0
100
AcDbLine
 10
35.0
 20
28.672
 30
0.0
 11
35.0
 21
28.928
 31
0.0
  0
LINE
  5
2CF
330
1E
100
AcDbEntity
  8
0
100
AcDbLine
 10
35.0
 20
28.672
 30
0.0
 11
35.0
 21
32.0
 31
0.0
  0
LINE
  5
2D4
330
1E
100
AcDbEntity
  8
0
100
AcDbLine
 10
26.4286
 20
37.0127
 30
0.0
 11
26.2143
 21
37.6027
 31
0.0
  0
ENDSEC
  0
SECTION
  2
OBJECTS
  0
DICTIONARY
  5
C
330
0
100
AcDbDictionary
281
     1
  3
ACAD_GROUP
350
D
  3
ACAD_LAYOUT
350
19
  3
ACAD_MLINESTYLE
350
16
  3
ACAD_PLOTSETTINGS
350
18
  3
ACAD_PLOTSTYLENAME
350
E
  3
AcDbVariableDictionary
350
2D5
  0
DICTIONARY
  5
D
102
{ACAD_REACTORS
330
C
102
}
330
C
100
AcDbDictionary
281
     1
  0
DICTIONARY
  5
19
102
{ACAD_REACTORS
330
C
102
}
330
C
100
AcDbDictionary
281
     1
  3
Layout1
350
1D
  3
Model
350
21
  0
DICTIONARY
  5
16
102
{ACAD_REACTORS
330
C
102
}
330
C
100
AcDbDictionary
281
     1
  3
Standard
350
17
  0
DICTIONARY
  5
18
102
{ACAD_REACTORS
330
C
102
}
330
C
100
AcDbDictionary
281
     1
  0
ACDBDICTIONARYWDFLT
  5
E
102
{ACAD_REACTORS
330
C
102
}
330
C
100
AcDbDictionary
281
     1
  3
Normal
350
F
100
AcDbDictionaryWithDefault
340
F
  0
DICTIONARY
  5
2D5
102
{ACAD_REACTORS
330
C
102
}
330
C
100
AcDbDictionary
281
     1
  3
DIMASSOC
350
2D6
  0
LAYOUT
  5
1D
102
{ACAD_REACTORS
330
19
102
}
330
19
100
AcDbPlotSettings
  1

  2
hp deskjet 980c series
  4

  6

 40
0.0
 41
0.0
 42
0.0
 43
0.0
 44
0.0
 45
0.0
 46
0.0
 47
0.0
 48
0.0
 49
0.0
140
0.0
141
0.0
142
1.0
143
1.0
 70
   688
 72
     0
 73
     0
 74
     5
  7

 75
    16
147
1.0
148
0.0
149
0.0
100
AcDbLayout
  1
Layout1
 70
     1
 71
     1
 10
0.0
 20
0.0
 11
12.0
 21
9.0
 12
0.0
 22
0.0
 32
0.0
 14
1.000000000000000E+20
 24
1.000000000000000E+20
 34
1.000000000000000E+20
 15
-1.000000000000000E+20
 25
-1.000000000000000E+20
 35
-1.000000000000000E+20
146
0.0
 13
0.0
 23
0.0
 33
0.0
 16
1.0
 26
0.0
 36
0.0
 17
0.0
 27
1.0
 37
0.0
 76
     0
330
1A
  0
LAYOUT
  5
21
102
{ACAD_REACTORS
330
19
102
}
330
19
100
AcDbPlotSettings
  1

  2
hp deskjet 980c series
  4

  6

 40
0.0
 41
0.0
 42
0.0
 43
0.0
 44
0.0
 45
0.0
 46
0.0
 47
0.0
 48
0.0
 49
0.0
140
0.0
141
0.0
142
1.0
143
1.0
 70
  1712
 72
     0
 73
     0
 74
     0
  7

 75
     0
147
1.0
148
0.0
149
0.0
100
AcDbLayout
  1
Model
 70
     1
 71
     0
 10
0.0
 20
0.0
 11
12.0
 21
9.0
 12
0.0
 22
0.0
 32
0.0
 14
0.0
 24
0.0
 34
0.0
 15
0.0
 25
0.0
 35
0.0
146
0.0
 13
0.0
 23
0.0
 33
0.0
 16
1.0
 26
0.0
 36
0.0
 17
0.0
 27
1.0
 37
0.0
 76
     0
330
1E
  0
MLINESTYLE
  5
17
102
{ACAD_REACTORS
330
16
102
}
330
16
100
AcDbMlineStyle
  2
STANDARD
 70
     0
  3

 62
   256
 51
90.0
 52
90.0
 71
     2
 49
0.5
 62
   256
  6
BYLAYER
 49
-0.5
 62
   256
  6
BYLAYER
  0
ACDBPLACEHOLDER
  5
F
102
{ACAD_REACTORS
330
E
102
}
330
E
  0
DICTIONARYVAR
  5
2D6
102
{ACAD_REACTORS
330
2D5
102
}
330
2D5
100
DictionaryVariables
280
     0
  1
1
  0
ENDSEC
  0
EOF
