  0
SECTION
  2
HEADER
  9
$ACADVER
  1
AC1015
  9
$ACADMAINTVER
 70
    13
  9
$DWGCODEPAGE
  3
ANSI_1252
  9
$INSBASE
 10
0.0
 20
0.0
 30
0.0
  9
$EXTMIN
 10
-0.0000000000000026
 20
-0.0000000000000033
 30
0.0
  9
$EXTMAX
 10
250.0
 20
64.0
 30
0.0
  9
$LIMMIN
 10
0.0
 20
0.0
  9
$LIMMAX
 10
12.0
 20
9.0
  9
$ORTHOMODE
 70
     0
  9
$REGENMODE
 70
     1
  9
$FILLMODE
 70
     1
  9
$QTEXTMODE
 70
     0
  9
$MIRRTEXT
 70
     1
  9
$LTSCALE
 40
1.0
  9
$ATTMODE
 70
     1
  9
$TEXTSIZE
 40
0.2
  9
$TRACEWID
 40
0.05
  9
$TEXTSTYLE
  7
Standard
  9
$CLAYER
  8
0
  9
$CELTYPE
  6
Continuous
  9
$CECOLOR
 62
   256
  9
$CELTSCALE
 40
1.0
  9
$DISPSILH
 70
     0
  9
$DIMSCALE
 40
1.0
  9
$DIMASZ
 40
0.18
  9
$DIMEXO
 40
0.0625
  9
$DIMDLI
 40
0.38
  9
$DIMRND
 40
0.0
  9
$DIMDLE
 40
0.0
  9
$DIMEXE
 40
0.18
  9
$DIMTP
 40
0.0
  9
$DIMTM
 40
0.0
  9
$DIMTXT
 40
0.18
  9
$DIMCEN
 40
0.09
  9
$DIMTSZ
 40
0.0
  9
$DIMTOL
 70
     0
  9
$DIMLIM
 70
     0
  9
$DIMTIH
 70
     1
  9
$DIMTOH
 70
     1
  9
$DIMSE1
 70
     0
  9
$DIMSE2
 70
     0
  9
$DIMTAD
 70
     0
  9
$DIMZIN
 70
     0
  9
$DIMBLK
  1

  9
$DIMASO
 70
     1
  9
$DIMSHO
 70
     1
  9
$DIMPOST
  1

  9
$DIMAPOST
  1

  9
$DIMALT
 70
     0
  9
$DIMALTD
 70
     2
  9
$DIMALTF
 40
25.4
  9
$DIMLFAC
 40
1.0
  9
$DIMTOFL
 70
     0
  9
$DIMTVP
 40
0.0
  9
$DIMTIX
 70
     0
  9
$DIMSOXD
 70
     0
  9
$DIMSAH
 70
     0
  9
$DIMBLK1
  1

  9
$DIMBLK2
  1

  9
$DIMSTYLE
  2
Standard
  9
$DIMCLRD
 70
     0
  9
$DIMCLRE
 70
     0
  9
$DIMCLRT
 70
     0
  9
$DIMTFAC
 40
1.0
  9
$DIMGAP
 40
0.09
  9
$DIMJUST
 70
     0
  9
$DIMSD1
 70
     0
  9
$DIMSD2
 70
     0
  9
$DIMTOLJ
 70
     1
  9
$DIMTZIN
 70
     0
  9
$DIMALTZ
 70
     0
  9
$DIMALTTZ
 70
     0
  9
$DIMUPT
 70
     0
  9
$DIMDEC
 70
     4
  9
$DIMTDEC
 70
     4
  9
$DIMALTU
 70
     2
  9
$DIMALTTD
 70
     2
  9
$DIMTXSTY
  7
Standard
  9
$DIMAUNIT
 70
     0
  9
$DIMADEC
 70
     0
  9
$DIMALTRND
 40
0.0
  9
$DIMAZIN
 70
     0
  9
$DIMDSEP
 70
    46
  9
$DIMATFIT
 70
     3
  9
$DIMFRAC
 70
     0
  9
$DIMLDRBLK
  1

  9
$DIMLUNIT
 70
     2
  9
$DIMLWD
 70
    -2
  9
$DIMLWE
 70
    -2
  9
$DIMTMOVE
 70
     0
  9
$LUNITS
 70
     2
  9
$LUPREC
 70
     4
  9
$SKETCHINC
 40
0.1
  9
$FILLETRAD
 40
0.0
  9
$AUNITS
 70
     0
  9
$AUPREC
 70
     0
  9
$MENU
  1
.
  9
$ELEVATION
 40
0.0
  9
$PELEVATION
 40
0.0
  9
$THICKNESS
 40
0.0
  9
$LIMCHECK
 70
     0
  9
$CHAMFERA
 40
0.0
  9
$CHAMFERB
 40
0.0
  9
$CHAMFERC
 40
0.0
  9
$CHAMFERD
 40
0.0
  9
$SKPOLY
 70
     0
  9
$TDCREATE
 40
2454779.680563321
  9
$TDUCREATE
 40
2454779.638896655
  9
$TDUPDATE
 40
2454779.688135659
  9
$TDUUPDATE
 40
2454779.646468993
  9
$TDINDWG
 40
0.0075723380
  9
$TDUSRTIMER
 40
0.0075723380
  9
$USRTIMER
 70
     1
  9
$ANGBASE
 50
0.0
  9
$ANGDIR
 70
     0
  9
$PDMODE
 70
     0
  9
$PDSIZE
 40
0.0
  9
$PLINEWID
 40
0.0
  9
$SPLFRAME
 70
     0
  9
$SPLINETYPE
 70
     6
  9
$SPLINESEGS
 70
     8
  9
$HANDSEED
  5
878
  9
$SURFTAB1
 70
     6
  9
$SURFTAB2
 70
     6
  9
$SURFTYPE
 70
     6
  9
$SURFU
 70
     6
  9
$SURFV
 70
     6
  9
$UCSBASE
  2

  9
$UCSNAME
  2

  9
$UCSORG
 10
0.0
 20
0.0
 30
0.0
  9
$UCSXDIR
 10
1.0
 20
0.0
 30
0.0
  9
$UCSYDIR
 10
0.0
 20
1.0
 30
0.0
  9
$UCSORTHOREF
  2

  9
$UCSORTHOVIEW
 70
     1
  9
$UCSORGTOP
 10
0.0
 20
0.0
 30
0.0
  9
$UCSORGBOTTOM
 10
0.0
 20
0.0
 30
0.0
  9
$UCSORGLEFT
 10
0.0
 20
0.0
 30
0.0
  9
$UCSORGRIGHT
 10
0.0
 20
0.0
 30
0.0
  9
$UCSORGFRONT
 10
0.0
 20
0.0
 30
0.0
  9
$UCSORGBACK
 10
0.0
 20
0.0
 30
0.0
  9
$PUCSBASE
  2

  9
$PUCSNAME
  2

  9
$PUCSORG
 10
0.0
 20
0.0
 30
0.0
  9
$PUCSXDIR
 10
1.0
 20
0.0
 30
0.0
  9
$PUCSYDIR
 10
0.0
 20
1.0
 30
0.0
  9
$PUCSORTHOREF
  2

  9
$PUCSORTHOVIEW
 70
     0
  9
$PUCSORGTOP
 10
0.0
 20
0.0
 30
0.0
  9
$PUCSORGBOTTOM
 10
0.0
 20
0.0
 30
0.0
  9
$PUCSORGLEFT
 10
0.0
 20
0.0
 30
0.0
  9
$PUCSORGRIGHT
 10
0.0
 20
0.0
 30
0.0
  9
$PUCSORGFRONT
 10
0.0
 20
0.0
 30
0.0
  9
$PUCSORGBACK
 10
0.0
 20
0.0
 30
0.0
  9
$USERI1
 70
     0
  9
$USERI2
 70
     0
  9
$USERI3
 70
     0
  9
$USERI4
 70
     0
  9
$USERI5
 70
     0
  9
$USERR1
 40
0.0
  9
$USERR2
 40
0.0
  9
$USERR3
 40
0.0
  9
$USERR4
 40
0.0
  9
$USERR5
 40
0.0
  9
$WORLDVIEW
 70
     1
  9
$SHADEDGE
 70
     3
  9
$SHADEDIF
 70
    70
  9
$TILEMODE
 70
     1
  9
$MAXACTVP
 70
    64
  9
$PINSBASE
 10
0.0
 20
0.0
 30
0.0
  9
$PLIMCHECK
 70
     0
  9
$PEXTMIN
 10
1.000000000000000E+20
 20
1.000000000000000E+20
 30
1.000000000000000E+20
  9
$PEXTMAX
 10
-1.000000000000000E+20
 20
-1.000000000000000E+20
 30
-1.000000000000000E+20
  9
$PLIMMIN
 10
0.0
 20
0.0
  9
$PLIMMAX
 10
12.0
 20
9.0
  9
$UNITMODE
 70
     0
  9
$VISRETAIN
 70
     1
  9
$PLINEGEN
 70
     0
  9
$PSLTSCALE
 70
     1
  9
$TREEDEPTH
 70
  3020
  9
$CMLSTYLE
  2
Standard
  9
$CMLJUST
 70
     0
  9
$CMLSCALE
 40
1.0
  9
$PROXYGRAPHICS
 70
     1
  9
$MEASUREMENT
 70
     0
  9
$CELWEIGHT
370
    -1
  9
$ENDCAPS
280
     0
  9
$JOINSTYLE
280
     0
  9
$LWDISPLAY
290
     0
  9
$INSUNITS
 70
     0
  9
$HYPERLINKBASE
  1

  9
$STYLESHEET
  1

  9
$XEDIT
290
     1
  9
$CEPSNTYPE
380
     0
  9
$PSTYLEMODE
290
     1
  9
$FINGERPRINTGUID
  2
{71C8CB14-5679-4EFD-A376-E1464DF30934}
  9
$VERSIONGUID
  2
{25DEBE4C-6821-4497-A122-BD6B5B859CCB}
  9
$EXTNAMES
290
     1
  9
$PSVPSCALE
 40
0.0
  9
$OLESTARTUP
290
     0
  0
ENDSEC
  0
SECTION
  2
CLASSES
  0
CLASS
  1
ACDBDICTIONARYWDFLT
  2
AcDbDictionaryWithDefault
  3
AutoCAD 2000
 90
        0
280
     0
281
     0
  0
CLASS
  1
ACDBPLACEHOLDER
  2
AcDbPlaceHolder
  3
AutoCAD 2000
 90
        0
280
     0
281
     0
  0
CLASS
  1
LAYOUT
  2
AcDbLayout
  3
AutoCAD 2000
 90
        0
280
     0
281
     0
  0
CLASS
  1
DICTIONARYVAR
  2
AcDbDictionaryVar
  3
AutoCAD 2000
 90
        0
280
     0
281
     0
  0
ENDSEC
  0
SECTION
  2
TABLES
  0
TABLE
  2
VPORT
  5
8
330
0
100
AcDbSymbolTable
 70
     2
  0
VPORT
  5
877
330
8
100
AcDbSymbolTableRecord
100
AcDbViewportTableRecord
  2
*Active
 70
     0
 10
0.0
 20
0.0
 11
1.0
 21
1.0
 12
125.0
 22
31.99999999999999
 13
0.0
 23
0.0
 14
1.0
 24
1.0
 15
0.0
 25
0.0
 16
0.0
 26
0.0
 36
1.0
 17
0.0
 27
0.0
 37
0.0
 40
120.7463752280184
 41
2.078104993597951
 42
50.0
 43
0.0
 44
0.0
 50
0.0
 51
0.0
 71
     0
 72
   100
 73
     1
 74
     3
 75
     0
 76
     0
 77
     0
 78
     0
281
     0
 65
     1
110
0.0
120
0.0
130
0.0
111
1.0
121
0.0
131
0.0
112
0.0
122
1.0
132
0.0
 79
     1
146
0.0
  0
ENDTAB
  0
TABLE
  2
LTYPE
  5
5
330
0
100
AcDbSymbolTable
 70
     1
  0
LTYPE
  5
13
330
5
100
AcDbSymbolTableRecord
100
AcDbLinetypeTableRecord
  2
ByBlock
 70
     0
  3

 72
    65
 73
     0
 40
0.0
  0
LTYPE
  5
14
330
5
100
AcDbSymbolTableRecord
100
AcDbLinetypeTableRecord
  2
ByLayer
 70
     0
  3

 72
    65
 73
     0
 40
0.0
  0
LTYPE
  5
15
330
5
100
AcDbSymbolTableRecord
100
AcDbLinetypeTableRecord
  2
Continuous
 70
     0
  3
Solid line
 72
    65
 73
     0
 40
0.0
  0
ENDTAB
  0
TABLE
  2
LAYER
  5
2
330
0
100
AcDbSymbolTable
 70
     1
  0
LAYER
  5
10
330
2
100
AcDbSymbolTableRecord
100
AcDbLayerTableRecord
  2
0
 70
     0
 62
     7
  6
Continuous
370
    -3
390
F
  0
ENDTAB
  0
TABLE
  2
STYLE
  5
3
330
0
100
AcDbSymbolTable
 70
     1
  0
STYLE
  5
11
330
3
100
AcDbSymbolTableRecord
100
AcDbTextStyleTableRecord
  2
Standard
 70
     0
 40
0.0
 41
1.0
 50
0.0
 71
     0
 42
0.2
  3
txt
  4

  0
ENDTAB
  0
TABLE
  2
VIEW
  5
6
330
0
100
AcDbSymbolTable
 70
     0
  0
ENDTAB
  0
TABLE
  2
UCS
  5
7
330
0
100
AcDbSymbolTable
 70
     0
  0
ENDTAB
  0
TABLE
  2
APPID
  5
9
330
0
100
AcDbSymbolTable
 70
     1
  0
APPID
  5
12
330
9
100
AcDbSymbolTableRecord
100
AcDbRegAppTableRecord
  2
ACAD
 70
     0
  0
ENDTAB
  0
TABLE
  2
DIMSTYLE
  5
A
330
0
100
AcDbSymbolTable
 70
     1
100
AcDbDimStyleTable
 71
     0
  0
DIMSTYLE
105
65C
330
A
100
AcDbSymbolTableRecord
100
AcDbDimStyleTableRecord
  2
Standard
 70
     0
340
11
  0
ENDTAB
  0
TABLE
  2
BLOCK_RECORD
  5
1
330
0
100
AcDbSymbolTable
 70
     0
  0
BLOCK_RECORD
  5
1E
330
1
100
AcDbSymbolTableRecord
100
AcDbBlockTableRecord
  2
*Model_Space
340
21
  0
BLOCK_RECORD
  5
1A
330
1
100
AcDbSymbolTableRecord
100
AcDbBlockTableRecord
  2
*Paper_Space
340
1D
  0
ENDTAB
  0
ENDSEC
  0
SECTION
  2
BLOCKS
  0
BLOCK
  5
1F
330
1E
100
AcDbEntity
  8
0
100
AcDbBlockBegin
  2
*Model_Space
 70
     0
 10
0.0
 20
0.0
 30
0.0
  3
*Model_Space
  1

  0
ENDBLK
  5
20
330
1E
100
AcDbEntity
  8
0
100
AcDbBlockEnd
  0
BLOCK
  5
1B
330
1A
100
AcDbEntity
 67
     1
  8
0
100
AcDbBlockBegin
  2
*Paper_Space
 70
     0
 10
0.0
 20
0.0
 30
0.0
  3
*Paper_Space
  1

  0
ENDBLK
  5
1C
330
1A
100
AcDbEntity
 67
     1
  8
0
100
AcDbBlockEnd
  0
ENDSEC
  0
SECTION
  2
ENTITIES
  0
LINE
  5
22
330
1E
100
AcDbEntity
  8
0
100
AcDbLine
 10
1.5
 20
19.19999999999999
 30
0.0
 11
2.5
 21
19.0
 31
0.0
  0
LINE
  5
23
330
1E
100
AcDbEntity
  8
0
100
AcDbLine
 10
11.0
 20
-0.0000000000000025
 30
0.0
 11
11.0
 21
6.0
 31
0.0
  0
LINE
  5
24
330
1E
100
AcDbEntity
  8
0
100
AcDbLine
 10
11.0
 20
-0.0000000000000025
 30
0.0
 11
13.0
 21
-0.0000000000000025
 31
0.0
  0
LINE
  5
25
330
1E
100
AcDbEntity
  8
0
100
AcDbLine
 10
11.0
 20
-0.0000000000000024
 30
0.0
 11
11.0
 21
6.0
 31
0.0
  0
LINE
  5
26
330
1E
100
AcDbEntity
  8
0
100
AcDbLine
 10
11.0
 20
-0.0000000000000024
 30
0.0
 11
13.0
 21
-0.0000000000000024
 31
0.0
  0
LINE
  5
27
330
1E
100
AcDbEntity
  8
0
100
AcDbLine
 10
11.0
 20
6.0
 30
0.0
 11
12.1872
 21
6.0
 31
0.0
  0
LINE
  5
28
330
1E
100
AcDbEntity
  8
0
100
AcDbLine
 10
11.0
 20
6.0
 30
0.0
 11
11.0
 21
-0.0000000000000027
 31
0.0
  0
LINE
  5
29
330
1E
100
AcDbEntity
  8
0
100
AcDbLine
 10
12.0
 20
6.0
 30
0.0
 11
12.0
 21
10.0
 31
0.0
  0
LINE
  5
2A
330
1E
100
AcDbEntity
  8
0
100
AcDbLine
 10
12.0
 20
19.0
 30
0.0
 11
12.0
 21
10.0
 31
0.0
  0
LINE
  5
2B
330
1E
100
AcDbEntity
  8
0
100
AcDbLine
 10
12.0
 20
10.0
 30
0.0
 11
12.0
 21
6.0
 31
0.0
  0
LINE
  5
2C
330
1E
100
AcDbEntity
  8
0
100
AcDbLine
 10
12.0
 20
10.0
 30
0.0
 11
12.468
 21
10.0
 31
0.0
  0
LINE
  5
2D
330
1E
100
AcDbEntity
  8
0
100
AcDbLine
 10
12.0
 20
10.0
 30
0.0
 11
12.0
 21
19.0
 31
0.0
  0
LINE
  5
2E
330
1E
100
AcDbEntity
  8
0
100
AcDbLine
 10
13.71599999999999
 20
-0.0000000000000028
 30
0.0
 11
15.796
 21
-0.000000000000003
 31
0.0
  0
LINE
  5
2F
330
1E
100
AcDbEntity
  8
0
100
AcDbLine
 10
12.468
 20
-0.0000000000000027
 30
0.0
 11
13.71599999999999
 21
-0.0000000000000028
 31
0.0
  0
LINE
  5
30
330
1E
100
AcDbEntity
  8
0
100
AcDbLine
 10
17.134
 20
-0.0000000000000032
 30
0.0
 11
18.86599999999999
 21
-0.0000000000000032
 31
0.0
  0
LINE
  5
31
330
1E
100
AcDbEntity
  8
0
100
AcDbLine
 10
17.134
 20
-0.0000000000000032
 30
0.0
 11
18.134
 21
-0.0000000000000031
 31
0.0
  0
LINE
  5
32
330
1E
100
AcDbEntity
  8
0
100
AcDbLine
 10
18.86599999999999
 20
-0.0000000000000032
 30
0.0
 11
19.866
 21
-0.0000000000000031
 31
0.0
  0
LINE
  5
33
330
1E
100
AcDbEntity
  8
0
100
AcDbLine
 10
21.67199999999999
 20
-0.0000000000000032
 30
0.0
 11
25.0
 21
-0.0000000000000032
 31
0.0
  0
LINE
  5
34
330
1E
100
AcDbEntity
  8
0
100
AcDbLine
 10
18.55199999999999
 20
-0.0000000000000031
 30
0.0
 11
21.67199999999999
 21
-0.0000000000000032
 31
0.0
  0
LINE
  5
35
330
1E
100
AcDbEntity
  8
0
100
AcDbLine
 10
15.796
 20
-0.000000000000003
 30
0.0
 11
18.55199999999999
 21
-0.0000000000000031
 31
0.0
  0
LINE
  5
36
330
1E
100
AcDbEntity
  8
0
100
AcDbLine
 10
18.134
 20
-0.0000000000000031
 30
0.0
 11
19.866
 21
-0.0000000000000031
 31
0.0
  0
LINE
  5
37
330
1E
100
AcDbEntity
  8
0
100
AcDbLine
 10
22.1474
 20
-0.0000000000000031
 30
0.0
 11
25.0
 21
-0.0000000000000031
 31
0.0
  0
LINE
  5
38
330
1E
100
AcDbEntity
  8
0
100
AcDbLine
 10
19.47309999999999
 20
-0.000000000000003
 30
0.0
 11
22.1474
 21
-0.0000000000000031
 31
0.0
  0
LINE
  5
39
330
1E
100
AcDbEntity
  8
0
100
AcDbLine
 10
17.1109
 20
-0.0000000000000029
 30
0.0
 11
19.47309999999999
 21
-0.000000000000003
 31
0.0
  0
LINE
  5
3A
330
1E
100
AcDbEntity
  8
0
100
AcDbLine
 10
15.32799999999999
 20
-0.0000000000000028
 30
0.0
 11
17.1109
 21
-0.0000000000000029
 31
0.0
  0
LINE
  5
3B
330
1E
100
AcDbEntity
  8
0
100
AcDbLine
 10
14.2583
 20
-0.0000000000000026
 30
0.0
 11
15.32799999999999
 21
-0.0000000000000028
 31
0.0
  0
LINE
  5
3C
330
1E
100
AcDbEntity
  8
0
100
AcDbLine
 10
25.0
 20
-0.0000000000000031
 30
0.0
 11
27.8526
 21
-0.0000000000000031
 31
0.0
  0
LINE
  5
3D
330
1E
100
AcDbEntity
  8
0
100
AcDbLine
 10
25.0
 20
-0.0000000000000032
 30
0.0
 11
28.328
 21
-0.0000000000000032
 31
0.0
  0
LINE
  5
3E
330
1E
100
AcDbEntity
  8
0
100
AcDbLine
 10
14.2583
 20
-0.0000000000000023
 30
0.0
 11
15.32799999999999
 21
-0.0000000000000021
 31
0.0
  0
LINE
  5
3F
330
1E
100
AcDbEntity
  8
0
100
AcDbLine
 10
13.8571
 20
-0.0000000000000024
 30
0.0
 11
14.2583
 21
-0.0000000000000023
 31
0.0
  0
LINE
  5
40
330
1E
100
AcDbEntity
  8
0
100
AcDbLine
 10
13.8571
 20
-0.0000000000000024
 30
0.0
 11
14.2583
 21
-0.0000000000000026
 31
0.0
  0
LINE
  5
41
330
1E
100
AcDbEntity
  8
0
100
AcDbLine
 10
15.32799999999999
 20
-0.0000000000000021
 30
0.0
 11
17.1109
 21
-0.000000000000002
 31
0.0
  0
LINE
  5
42
330
1E
100
AcDbEntity
  8
0
100
AcDbLine
 10
17.1109
 20
-0.000000000000002
 30
0.0
 11
19.47309999999999
 21
-0.0000000000000019
 31
0.0
  0
LINE
  5
43
330
1E
100
AcDbEntity
  8
0
100
AcDbLine
 10
18.134
 20
-0.0000000000000018
 30
0.0
 11
19.866
 21
-0.0000000000000018
 31
0.0
  0
LINE
  5
44
330
1E
100
AcDbEntity
  8
0
100
AcDbLine
 10
25.0
 20
-0.0000000000000018
 30
0.0
 11
27.8526
 21
-0.0000000000000018
 31
0.0
  0
LINE
  5
45
330
1E
100
AcDbEntity
  8
0
100
AcDbLine
 10
22.1474
 20
-0.0000000000000018
 30
0.0
 11
25.0
 21
-0.0000000000000018
 31
0.0
  0
LINE
  5
46
330
1E
100
AcDbEntity
  8
0
100
AcDbLine
 10
19.47309999999999
 20
-0.0000000000000019
 30
0.0
 11
22.1474
 21
-0.0000000000000018
 31
0.0
  0
LINE
  5
47
330
1E
100
AcDbEntity
  8
0
100
AcDbLine
 10
17.134
 20
6.0
 30
0.0
 11
18.86599999999999
 21
6.0
 31
0.0
  0
LINE
  5
48
330
1E
100
AcDbEntity
  8
0
100
AcDbLine
 10
17.134
 20
6.0
 30
0.0
 11
17.134
 21
-0.0000000000000018
 31
0.0
  0
LINE
  5
49
330
1E
100
AcDbEntity
  8
0
100
AcDbLine
 10
17.134
 20
-0.0000000000000017
 30
0.0
 11
17.134
 21
6.0
 31
0.0
  0
LINE
  5
4A
330
1E
100
AcDbEntity
  8
0
100
AcDbLine
 10
17.134
 20
-0.0000000000000017
 30
0.0
 11
18.86599999999999
 21
-0.0000000000000017
 31
0.0
  0
LINE
  5
4B
330
1E
100
AcDbEntity
  8
0
100
AcDbLine
 10
17.134
 20
-0.0000000000000017
 30
0.0
 11
18.134
 21
-0.0000000000000018
 31
0.0
  0
LINE
  5
4D
330
1E
100
AcDbEntity
  8
0
100
AcDbLine
 10
18.86599999999999
 20
6.0
 30
0.0
 11
18.86599999999999
 21
-0.0000000000000018
 31
0.0
  0
LINE
  5
4E
330
1E
100
AcDbEntity
  8
0
100
AcDbLine
 10
18.86599999999999
 20
-0.0000000000000017
 30
0.0
 11
19.866
 21
-0.0000000000000018
 31
0.0
  0
LINE
  5
4F
330
1E
100
AcDbEntity
  8
0
100
AcDbLine
 10
18.86599999999999
 20
-0.0000000000000017
 30
0.0
 11
18.86599999999999
 21
6.0
 31
0.0
  0
LINE
  5
50
330
1E
100
AcDbEntity
  8
0
100
AcDbLine
 10
25.0
 20
-0.0000000000000017
 30
0.0
 11
28.328
 21
-0.0000000000000017
 31
0.0
  0
LINE
  5
51
330
1E
100
AcDbEntity
  8
0
100
AcDbLine
 10
25.0
 20
10.0
 30
0.0
 11
28.328
 21
10.0
 31
0.0
  0
LINE
  5
52
330
1E
100
AcDbEntity
  8
0
100
AcDbLine
 10
21.67199999999999
 20
10.0
 30
0.0
 11
25.0
 21
10.0
 31
0.0
  0
LINE
  5
53
330
1E
100
AcDbEntity
  8
0
100
AcDbLine
 10
21.67199999999999
 20
-0.0000000000000017
 30
0.0
 11
25.0
 21
-0.0000000000000017
 31
0.0
  0
LINE
  5
54
330
1E
100
AcDbEntity
  8
0
100
AcDbLine
 10
18.55199999999999
 20
10.0
 30
0.0
 11
21.67199999999999
 21
10.0
 31
0.0
  0
LINE
  5
55
330
1E
100
AcDbEntity
  8
0
100
AcDbLine
 10
18.55199999999999
 20
-0.0000000000000018
 30
0.0
 11
21.67199999999999
 21
-0.0000000000000017
 31
0.0
  0
LINE
  5
56
330
1E
100
AcDbEntity
  8
0
100
AcDbLine
 10
15.796
 20
10.0
 30
0.0
 11
18.55199999999999
 21
10.0
 31
0.0
  0
LINE
  5
57
330
1E
100
AcDbEntity
  8
0
100
AcDbLine
 10
15.796
 20
-0.0000000000000019
 30
0.0
 11
18.55199999999999
 21
-0.0000000000000018
 31
0.0
  0
LINE
  5
58
330
1E
100
AcDbEntity
  8
0
100
AcDbLine
 10
13.71599999999999
 20
10.0
 30
0.0
 11
15.796
 21
10.0
 31
0.0
  0
LINE
  5
59
330
1E
100
AcDbEntity
  8
0
100
AcDbLine
 10
13.71599999999999
 20
-0.0000000000000021
 30
0.0
 11
15.796
 21
-0.0000000000000019
 31
0.0
  0
LINE
  5
5A
330
1E
100
AcDbEntity
  8
0
100
AcDbLine
 10
12.468
 20
10.0
 30
0.0
 11
13.71599999999999
 21
10.0
 31
0.0
  0
LINE
  5
5B
330
1E
100
AcDbEntity
  8
0
100
AcDbLine
 10
12.468
 20
-0.0000000000000022
 30
0.0
 11
13.71599999999999
 21
-0.0000000000000021
 31
0.0
  0
LINE
  5
5C
330
1E
100
AcDbEntity
  8
0
100
AcDbLine
 10
12.0
 20
-0.0000000000000024
 30
0.0
 11
12.468
 21
-0.0000000000000022
 31
0.0
  0
LINE
  5
5D
330
1E
100
AcDbEntity
  8
0
100
AcDbLine
 10
12.0
 20
-0.0000000000000024
 30
0.0
 11
12.468
 21
-0.0000000000000027
 31
0.0
  0
LINE
  5
5E
330
1E
100
AcDbEntity
  8
0
100
AcDbLine
 10
2.5
 20
19.0
 30
0.0
 11
12.0
 21
19.0
 31
0.0
  0
LINE
  5
5F
330
1E
100
AcDbEntity
  8
0
100
AcDbLine
 10
2.5
 20
19.0
 30
0.0
 11
12.1914545454545
 21
19.0
 31
0.0
  0
LINE
  5
60
330
1E
100
AcDbEntity
  8
0
100
AcDbLine
 10
2.5
 20
19.0
 30
0.0
 11
12.1914545454545
 21
19.0
 31
0.0
  0
LINE
  5
61
330
1E
100
AcDbEntity
  8
0
100
AcDbLine
 10
2.5
 20
19.0
 30
0.0
 11
12.0
 21
19.0
 31
0.0
  0
LINE
  5
62
330
1E
100
AcDbEntity
  8
0
100
AcDbLine
 10
21.67199999999999
 20
19.46799999999999
 30
0.0
 11
25.0
 21
19.0
 31
0.0
  0
LINE
  5
63
330
1E
100
AcDbEntity
  8
0
100
AcDbLine
 10
27.8526
 20
-0.0000000000000031
 30
0.0
 11
30.5269
 21
-0.000000000000003
 31
0.0
  0
LINE
  5
64
330
1E
100
AcDbEntity
  8
0
100
AcDbLine
 10
28.328
 20
-0.0000000000000032
 30
0.0
 11
31.448
 21
-0.0000000000000031
 31
0.0
  0
LINE
  5
65
330
1E
100
AcDbEntity
  8
0
100
AcDbLine
 10
27.8526
 20
-0.0000000000000018
 30
0.0
 11
30.5269
 21
-0.0000000000000019
 31
0.0
  0
LINE
  5
66
330
1E
100
AcDbEntity
  8
0
100
AcDbLine
 10
28.328
 20
-0.0000000000000017
 30
0.0
 11
31.448
 21
-0.0000000000000018
 31
0.0
  0
LINE
  5
67
330
1E
100
AcDbEntity
  8
0
100
AcDbLine
 10
30.134
 20
-0.0000000000000031
 30
0.0
 11
31.134
 21
-0.0000000000000032
 31
0.0
  0
LINE
  5
68
330
1E
100
AcDbEntity
  8
0
100
AcDbLine
 10
30.134
 20
-0.0000000000000031
 30
0.0
 11
31.866
 21
-0.0000000000000031
 31
0.0
  0
LINE
  5
69
330
1E
100
AcDbEntity
  8
0
100
AcDbLine
 10
30.134
 20
-0.0000000000000018
 30
0.0
 11
31.134
 21
-0.0000000000000017
 31
0.0
  0
LINE
  5
6A
330
1E
100
AcDbEntity
  8
0
100
AcDbLine
 10
30.134
 20
-0.0000000000000018
 30
0.0
 11
31.866
 21
-0.0000000000000018
 31
0.0
  0
LINE
  5
6B
330
1E
100
AcDbEntity
  8
0
100
AcDbLine
 10
30.5269
 20
-0.000000000000003
 30
0.0
 11
32.8891
 21
-0.0000000000000029
 31
0.0
  0
LINE
  5
6C
330
1E
100
AcDbEntity
  8
0
100
AcDbLine
 10
31.134
 20
-0.0000000000000032
 30
0.0
 11
32.86599999999999
 21
-0.0000000000000032
 31
0.0
  0
LINE
  5
6D
330
1E
100
AcDbEntity
  8
0
100
AcDbLine
 10
31.448
 20
-0.0000000000000031
 30
0.0
 11
34.204
 21
-0.000000000000003
 31
0.0
  0
LINE
  5
6E
330
1E
100
AcDbEntity
  8
0
100
AcDbLine
 10
30.5269
 20
-0.0000000000000019
 30
0.0
 11
32.8891
 21
-0.000000000000002
 31
0.0
  0
LINE
  5
70
330
1E
100
AcDbEntity
  8
0
100
AcDbLine
 10
31.134
 20
6.0
 30
0.0
 11
32.86599999999999
 21
6.0
 31
0.0
  0
LINE
  5
71
330
1E
100
AcDbEntity
  8
0
100
AcDbLine
 10
31.134
 20
6.0
 30
0.0
 11
31.134
 21
-0.0000000000000018
 31
0.0
  0
LINE
  5
72
330
1E
100
AcDbEntity
  8
0
100
AcDbLine
 10
31.134
 20
-0.0000000000000017
 30
0.0
 11
32.86599999999999
 21
-0.0000000000000017
 31
0.0
  0
LINE
  5
73
330
1E
100
AcDbEntity
  8
0
100
AcDbLine
 10
31.134
 20
-0.0000000000000017
 30
0.0
 11
31.134
 21
6.0
 31
0.0
  0
LINE
  5
74
330
1E
100
AcDbEntity
  8
0
100
AcDbLine
 10
31.448
 20
-0.0000000000000018
 30
0.0
 11
34.204
 21
-0.0000000000000019
 31
0.0
  0
LINE
  5
75
330
1E
100
AcDbEntity
  8
0
100
AcDbLine
 10
28.328
 20
10.0
 30
0.0
 11
31.448
 21
10.0
 31
0.0
  0
LINE
  5
76
330
1E
100
AcDbEntity
  8
0
100
AcDbLine
 10
31.448
 20
10.0
 30
0.0
 11
34.204
 21
10.0
 31
0.0
  0
LINE
  5
77
330
1E
100
AcDbEntity
  8
0
100
AcDbLine
 10
25.0
 20
19.0
 30
0.0
 11
28.328
 21
19.46799999999999
 31
0.0
  0
LINE
  5
78
330
1E
100
AcDbEntity
  8
0
100
AcDbLine
 10
-0.0000000000000026
 20
21.49999999999999
 30
0.0
 11
0.199999999999997
 21
20.5
 31
0.0
  0
LINE
  5
79
330
1E
100
AcDbEntity
  8
0
100
AcDbLine
 10
-0.0000000000000026
 20
21.49999999999999
 30
0.0
 11
-0.0000000000000026
 21
32.0
 31
0.0
  0
LINE
  5
7A
330
1E
100
AcDbEntity
  8
0
100
AcDbLine
 10
0.199999999999997
 20
20.5
 30
0.0
 11
0.699999999999998
 21
19.69999999999999
 31
0.0
  0
LINE
  5
7B
330
1E
100
AcDbEntity
  8
0
100
AcDbLine
 10
0.199999999999997
 20
20.5
 30
0.0
 11
0.699999999999998
 21
19.69999999999999
 31
0.0
  0
LINE
  5
7C
330
1E
100
AcDbEntity
  8
0
100
AcDbLine
 10
0.699999999999998
 20
19.69999999999999
 30
0.0
 11
1.5
 21
19.19999999999999
 31
0.0
  0
LINE
  5
7D
330
1E
100
AcDbEntity
  8
0
100
AcDbLine
 10
21.928
 20
20.432
 30
0.0
 11
25.0
 21
20.0
 31
0.0
  0
LINE
  5
7E
330
1E
100
AcDbEntity
  8
0
100
AcDbLine
 10
25.0
 20
20.28799999999999
 30
0.0
 11
28.024
 21
20.72
 31
0.0
  0
LINE
  5
7F
330
1E
100
AcDbEntity
  8
0
100
AcDbLine
 10
28.07199999999999
 20
20.432
 30
0.0
 11
30.952
 21
21.58399999999999
 31
0.0
  0
LINE
  5
80
330
1E
100
AcDbEntity
  8
0
100
AcDbLine
 10
25.0
 20
20.0
 30
0.0
 11
28.07199999999999
 21
20.432
 31
0.0
  0
LINE
  5
81
330
1E
100
AcDbEntity
  8
0
100
AcDbLine
 10
21.97599999999999
 20
20.72
 30
0.0
 11
25.0
 21
20.28799999999999
 31
0.0
  0
LINE
  5
82
330
1E
100
AcDbEntity
  8
0
100
AcDbLine
 10
25.5203
 20
22.07009999999999
 30
0.0
 11
26.1123
 21
22.3825
 31
0.0
  0
LINE
  5
83
330
1E
100
AcDbEntity
  8
0
100
AcDbLine
 10
25.0
 20
22.0
 30
0.0
 11
25.5203
 21
22.07009999999999
 31
0.0
  0
LINE
  5
84
330
1E
100
AcDbEntity
  8
0
100
AcDbLine
 10
24.4797
 20
22.07009999999999
 30
0.0
 11
25.0
 21
22.0
 31
0.0
  0
LINE
  5
87
330
1E
100
AcDbEntity
  8
0
100
AcDbLine
 10
25.52822395810599
 20
22.0742814941087
 30
0.0
 11
27.56
 21
22.36
 31
0.0
  0
LINE
  5
88
330
1E
100
AcDbEntity
  8
0
100
AcDbLine
 10
27.56
 20
22.36
 30
0.0
 11
29.96
 21
23.32
 31
0.0
  0
LINE
  5
89
330
1E
100
AcDbEntity
  8
0
100
AcDbLine
 10
26.1123
 20
22.3825
 30
0.0
 11
27.4479
 21
23.11939999999999
 31
0.0
  0
LINE
  5
8A
330
1E
100
AcDbEntity
  8
0
100
AcDbLine
 10
23.8877
 20
22.3825
 30
0.0
 11
24.4797
 21
22.07009999999999
 31
0.0
  0
LINE
  5
8D
330
1E
100
AcDbEntity
  8
0
100
AcDbLine
 10
22.44
 20
22.36
 30
0.0
 11
24.471776041894
 21
22.0742814941087
 31
0.0
  0
LINE
  5
8E
330
1E
100
AcDbEntity
  8
0
100
AcDbLine
 10
19.192
 20
21.872
 30
0.0
 11
21.97599999999999
 21
20.72
 31
0.0
  0
LINE
  5
8F
330
1E
100
AcDbEntity
  8
0
100
AcDbLine
 10
19.04799999999999
 20
21.58399999999999
 30
0.0
 11
21.928
 21
20.432
 31
0.0
  0
LINE
  5
90
330
1E
100
AcDbEntity
  8
0
100
AcDbLine
 10
30.808
 20
21.872
 30
0.0
 11
33.256
 21
23.744
 31
0.0
  0
LINE
  5
91
330
1E
100
AcDbEntity
  8
0
100
AcDbLine
 10
28.024
 20
20.72
 30
0.0
 11
30.808
 21
21.872
 31
0.0
  0
LINE
  5
92
330
1E
100
AcDbEntity
  8
0
100
AcDbLine
 10
30.952
 20
21.58399999999999
 30
0.0
 11
33.496
 21
23.504
 31
0.0
  0
LINE
  5
93
330
1E
100
AcDbEntity
  8
0
100
AcDbLine
 10
18.55199999999999
 20
20.71599999999999
 30
0.0
 11
21.67199999999999
 21
19.46799999999999
 31
0.0
  0
LINE
  5
94
330
1E
100
AcDbEntity
  8
0
100
AcDbLine
 10
15.796
 20
22.79599999999999
 30
0.0
 11
18.55199999999999
 21
20.71599999999999
 31
0.0
  0
LINE
  5
95
330
1E
100
AcDbEntity
  8
0
100
AcDbLine
 10
28.328
 20
19.46799999999999
 30
0.0
 11
31.448
 21
20.71599999999999
 31
0.0
  0
LINE
  5
96
330
1E
100
AcDbEntity
  8
0
100
AcDbLine
 10
31.866
 20
-0.0000000000000031
 30
0.0
 11
32.86599999999999
 21
-0.0000000000000032
 31
0.0
  0
LINE
  5
97
330
1E
100
AcDbEntity
  8
0
100
AcDbLine
 10
32.8891
 20
-0.0000000000000029
 30
0.0
 11
34.672
 21
-0.0000000000000028
 31
0.0
  0
LINE
  5
98
330
1E
100
AcDbEntity
  8
0
100
AcDbLine
 10
34.204
 20
-0.000000000000003
 30
0.0
 11
36.284
 21
-0.0000000000000028
 31
0.0
  0
LINE
  5
99
330
1E
100
AcDbEntity
  8
0
100
AcDbLine
 10
32.8891
 20
-0.000000000000002
 30
0.0
 11
34.672
 21
-0.0000000000000021
 31
0.0
  0
LINE
  5
9A
330
1E
100
AcDbEntity
  8
0
100
AcDbLine
 10
32.86599999999999
 20
6.0
 30
0.0
 11
32.86599999999999
 21
-0.0000000000000018
 31
0.0
  0
LINE
  5
9B
330
1E
100
AcDbEntity
  8
0
100
AcDbLine
 10
32.86599999999999
 20
-0.0000000000000017
 30
0.0
 11
32.86599999999999
 21
6.0
 31
0.0
  0
LINE
  5
9C
330
1E
100
AcDbEntity
  8
0
100
AcDbLine
 10
31.866
 20
-0.0000000000000018
 30
0.0
 11
32.86599999999999
 21
-0.0000000000000017
 31
0.0
  0
LINE
  5
9D
330
1E
100
AcDbEntity
  8
0
100
AcDbLine
 10
34.204
 20
-0.0000000000000019
 30
0.0
 11
36.284
 21
-0.0000000000000021
 31
0.0
  0
LINE
  5
9E
330
1E
100
AcDbEntity
  8
0
100
AcDbLine
 10
34.672
 20
-0.0000000000000028
 30
0.0
 11
35.7417
 21
-0.0000000000000026
 31
0.0
  0
LINE
  5
9F
330
1E
100
AcDbEntity
  8
0
100
AcDbLine
 10
35.7417
 20
-0.0000000000000026
 30
0.0
 11
36.1429
 21
-0.0000000000000024
 31
0.0
  0
LINE
  5
A0
330
1E
100
AcDbEntity
  8
0
100
AcDbLine
 10
36.284
 20
-0.0000000000000028
 30
0.0
 11
37.53199999999999
 21
-0.0000000000000027
 31
0.0
  0
LINE
  5
A1
330
1E
100
AcDbEntity
  8
0
100
AcDbLine
 10
34.672
 20
-0.0000000000000021
 30
0.0
 11
35.7417
 21
-0.0000000000000023
 31
0.0
  0
LINE
  5
A2
330
1E
100
AcDbEntity
  8
0
100
AcDbLine
 10
36.284
 20
-0.0000000000000021
 30
0.0
 11
37.53199999999999
 21
-0.0000000000000022
 31
0.0
  0
LINE
  5
A3
330
1E
100
AcDbEntity
  8
0
100
AcDbLine
 10
35.7417
 20
-0.0000000000000023
 30
0.0
 11
36.1429
 21
-0.0000000000000024
 31
0.0
  0
LINE
  5
A4
330
1E
100
AcDbEntity
  8
0
100
AcDbLine
 10
34.204
 20
10.0
 30
0.0
 11
36.284
 21
10.0
 31
0.0
  0
LINE
  5
A5
330
1E
100
AcDbEntity
  8
0
100
AcDbLine
 10
36.284
 20
10.0
 30
0.0
 11
37.53199999999999
 21
10.0
 31
0.0
  0
LINE
  5
A6
330
1E
100
AcDbEntity
  8
0
100
AcDbLine
 10
31.448
 20
20.71599999999999
 30
0.0
 11
34.204
 21
22.79599999999999
 31
0.0
  0
LINE
  5
A7
330
1E
100
AcDbEntity
  8
0
100
AcDbLine
 10
27.4479
 20
23.11939999999999
 30
0.0
 11
29.5813
 21
24.3291
 31
0.0
  0
LINE
  5
AC
330
1E
100
AcDbEntity
  8
0
100
AcDbLine
 10
22.55209999999999
 20
23.11939999999999
 30
0.0
 11
23.8877
 21
22.3825
 31
0.0
  0
LINE
  5
B0
330
1E
100
AcDbEntity
  8
0
100
AcDbLine
 10
29.96
 20
23.32
 30
0.0
 11
32.08
 21
24.92
 31
0.0
  0
LINE
  5
B1
330
1E
100
AcDbEntity
  8
0
100
AcDbLine
 10
20.04
 20
23.32
 30
0.0
 11
22.44
 21
22.36
 31
0.0
  0
LINE
  5
B2
330
1E
100
AcDbEntity
  8
0
100
AcDbLine
 10
16.744
 20
23.744
 30
0.0
 11
19.192
 21
21.872
 31
0.0
  0
LINE
  5
B3
330
1E
100
AcDbEntity
  8
0
100
AcDbLine
 10
16.504
 20
23.504
 30
0.0
 11
19.04799999999999
 21
21.58399999999999
 31
0.0
  0
LINE
  5
B7
330
1E
100
AcDbEntity
  8
0
100
AcDbLine
 10
29.0174463433799
 20
24.009378537352
 30
0.0
 11
29.464
 21
24.188
 31
0.0
  0
LINE
  5
B8
330
1E
100
AcDbEntity
  8
0
100
AcDbLine
 10
29.464
 20
24.188
 30
0.0
 11
29.8614870300223
 21
24.4879902113376
 31
0.0
  0
LINE
  5
B9
330
1E
100
AcDbEntity
  8
0
100
AcDbLine
 10
25.0356
 20
24.68329999999999
 30
0.0
 11
26.8266
 21
24.9345
 31
0.0
  0
LINE
  5
BA
330
1E
100
AcDbEntity
  8
0
100
AcDbLine
 10
29.5813
 20
24.3291
 30
0.0
 11
31.72629999999999
 21
25.5455
 31
0.0
  0
LINE
  5
BC
330
1E
100
AcDbEntity
  8
0
100
AcDbLine
 10
20.4187
 20
24.3291
 30
0.0
 11
22.55209999999999
 21
23.11939999999999
 31
0.0
  0
LINE
  5
BF
330
1E
100
AcDbEntity
  8
0
100
AcDbLine
 10
20.53599999999999
 20
24.188
 30
0.0
 11
20.9825536566201
 21
24.009378537352
 31
0.0
  0
LINE
  5
C0
330
1E
100
AcDbEntity
  8
0
100
AcDbLine
 10
20.13851296997769
 20
24.4879902113376
 30
0.0
 11
20.53599999999999
 21
24.188
 31
0.0
  0
LINE
  5
C1
330
1E
100
AcDbEntity
  8
0
100
AcDbLine
 10
18.2737
 20
25.5455
 30
0.0
 11
20.4187
 21
24.3291
 31
0.0
  0
LINE
  5
C2
330
1E
100
AcDbEntity
  8
0
100
AcDbLine
 10
26.8266
 20
24.9345
 30
0.0
 11
28.5767
 21
25.6685
 31
0.0
  0
LINE
  5
C3
330
1E
100
AcDbEntity
  8
0
100
AcDbLine
 10
31.72629999999999
 20
25.5455
 30
0.0
 11
33.2286
 21
26.3973
 31
0.0
  0
LINE
  5
C4
330
1E
100
AcDbEntity
  8
0
100
AcDbLine
 10
23.2297
 20
24.9345
 30
0.0
 11
25.0356
 21
24.68329999999999
 31
0.0
  0
LINE
  5
C5
330
1E
100
AcDbEntity
  8
0
100
AcDbLine
 10
32.08
 20
24.92
 30
0.0
 11
33.1697677579973
 21
26.3639422793464
 31
0.0
  0
LINE
  5
C6
330
1E
100
AcDbEntity
  8
0
100
AcDbLine
 10
17.92
 20
24.92
 30
0.0
 11
20.04
 21
23.32
 31
0.0
  0
LINE
  5
C7
330
1E
100
AcDbEntity
  8
0
100
AcDbLine
 10
33.256
 20
23.744
 30
0.0
 11
35.128
 21
26.19199999999999
 31
0.0
  0
LINE
  5
C8
330
1E
100
AcDbEntity
  8
0
100
AcDbLine
 10
33.496
 20
23.504
 30
0.0
 11
35.41599999999999
 21
26.048
 31
0.0
  0
LINE
  5
CA
330
1E
100
AcDbEntity
  8
0
100
AcDbLine
 10
28.5767
 20
25.6685
 30
0.0
 11
30.1406
 21
26.9049
 31
0.0
  0
LINE
  5
CB
330
1E
100
AcDbEntity
  8
0
100
AcDbLine
 10
21.461
 20
25.6492
 30
0.0
 11
23.2297
 21
24.9345
 31
0.0
  0
LINE
  5
CC
330
1E
100
AcDbEntity
  8
0
100
AcDbLine
 10
14.872
 20
26.19199999999999
 30
0.0
 11
16.744
 21
23.744
 31
0.0
  0
LINE
  5
CD
330
1E
100
AcDbEntity
  8
0
100
AcDbLine
 10
14.584
 20
26.048
 30
0.0
 11
16.504
 21
23.504
 31
0.0
  0
LINE
  5
CE
330
1E
100
AcDbEntity
  8
0
100
AcDbLine
 10
16.7714
 20
26.3973
 30
0.0
 11
18.2737
 21
25.5455
 31
0.0
  0
LINE
  5
D5
330
1E
100
AcDbEntity
  8
0
100
AcDbLine
 10
16.18949999999999
 20
27.13639999999999
 30
0.0
 11
16.7714
 21
26.3973
 31
0.0
  0
LINE
  5
D6
330
1E
100
AcDbEntity
  8
0
100
AcDbLine
 10
16.0
 20
27.5866
 30
0.0
 11
16.0
 21
29.70909999999999
 31
0.0
  0
LINE
  5
D8
330
1E
100
AcDbEntity
  8
0
100
AcDbLine
 10
16.0
 20
27.5866
 30
0.0
 11
16.18949999999999
 21
27.13639999999999
 31
0.0
  0
LINE
  5
DA
330
1E
100
AcDbEntity
  8
0
100
AcDbLine
 10
30.1406
 20
26.9049
 30
0.0
 11
31.20179999999999
 21
28.56619999999999
 31
0.0
  0
LINE
  5
DB
330
1E
100
AcDbEntity
  8
0
100
AcDbLine
 10
34.0
 20
26.9874
 30
0.0
 11
34.0
 21
27.5866
 31
0.0
  0
LINE
  5
DC
330
1E
100
AcDbEntity
  8
0
100
AcDbLine
 10
33.7684
 20
26.70339999999999
 30
0.0
 11
34.0
 21
26.9874
 31
0.0
  0
LINE
  5
DD
330
1E
100
AcDbEntity
  8
0
100
AcDbLine
 10
34.0
 20
27.5866
 30
0.0
 11
34.0
 21
29.70909999999999
 31
0.0
  0
LINE
  5
DE
330
1E
100
AcDbEntity
  8
0
100
AcDbLine
 10
34.0
 20
27.5866
 30
0.0
 11
34.0
 21
26.9874
 31
0.0
  0
LINE
  5
E1
330
1E
100
AcDbEntity
  8
0
100
AcDbLine
 10
33.2286
 20
26.3973
 30
0.0
 11
33.7684
 21
26.70339999999999
 31
0.0
  0
LINE
  5
E3
330
1E
100
AcDbEntity
  8
0
100
AcDbLine
 10
19.89709999999999
 20
26.8855
 30
0.0
 11
21.461
 21
25.6492
 31
0.0
  0
LINE
  5
E4
330
1E
100
AcDbEntity
  8
0
100
AcDbLine
 10
31.20179999999999
 20
28.56619999999999
 30
0.0
 11
31.8535
 21
30.1888
 31
0.0
  0
LINE
  5
E5
330
1E
100
AcDbEntity
  8
0
100
AcDbLine
 10
18.77819999999999
 20
28.5469
 30
0.0
 11
19.89709999999999
 21
26.8855
 31
0.0
  0
LINE
  5
E6
330
1E
100
AcDbEntity
  8
0
100
AcDbLine
 10
34.0
 20
27.84
 30
0.0
 11
34.64
 21
29.44
 31
0.0
  0
LINE
  5
E7
330
1E
100
AcDbEntity
  8
0
100
AcDbLine
 10
16.8302322420027
 20
26.3639422793464
 30
0.0
 11
17.92
 21
24.92
 31
0.0
  0
LINE
  5
E8
330
1E
100
AcDbEntity
  8
0
100
AcDbLine
 10
35.128
 20
26.19199999999999
 30
0.0
 11
36.28
 21
28.976
 31
0.0
  0
LINE
  5
E9
330
1E
100
AcDbEntity
  8
0
100
AcDbLine
 10
35.41599999999999
 20
26.048
 30
0.0
 11
36.568
 21
28.928
 31
0.0
  0
LINE
  5
EA
330
1E
100
AcDbEntity
  8
0
100
AcDbLine
 10
13.71599999999999
 20
25.552
 30
0.0
 11
15.796
 21
22.79599999999999
 31
0.0
  0
LINE
  5
EB
330
1E
100
AcDbEntity
  8
0
100
AcDbLine
 10
12.468
 20
28.672
 30
0.0
 11
13.71599999999999
 21
25.552
 31
0.0
  0
LINE
  5
EC
330
1E
100
AcDbEntity
  8
0
100
AcDbLine
 10
34.204
 20
22.79599999999999
 30
0.0
 11
36.284
 21
25.552
 31
0.0
  0
LINE
  5
ED
330
1E
100
AcDbEntity
  8
0
100
AcDbLine
 10
37.0
 20
-0.0000000000000024
 30
0.0
 11
39.0
 21
-0.0000000000000024
 31
0.0
  0
LINE
  5
EE
330
1E
100
AcDbEntity
  8
0
100
AcDbLine
 10
37.0
 20
-0.0000000000000025
 30
0.0
 11
39.0
 21
-0.0000000000000025
 31
0.0
  0
LINE
  5
EF
330
1E
100
AcDbEntity
  8
0
100
AcDbLine
 10
37.53199999999999
 20
-0.0000000000000027
 30
0.0
 11
38.0
 21
-0.0000000000000024
 31
0.0
  0
LINE
  5
F0
330
1E
100
AcDbEntity
  8
0
100
AcDbLine
 10
37.8128
 20
6.0
 30
0.0
 11
39.0
 21
6.0
 31
0.0
  0
LINE
  5
F1
330
1E
100
AcDbEntity
  8
0
100
AcDbLine
 10
38.0
 20
10.0
 30
0.0
 11
38.0
 21
6.0
 31
0.0
  0
LINE
  5
F2
330
1E
100
AcDbEntity
  8
0
100
AcDbLine
 10
38.0
 20
10.0
 30
0.0
 11
38.0
 21
19.0
 31
0.0
  0
LINE
  5
F3
330
1E
100
AcDbEntity
  8
0
100
AcDbLine
 10
38.0
 20
6.0
 30
0.0
 11
38.0
 21
10.0
 31
0.0
  0
LINE
  5
F4
330
1E
100
AcDbEntity
  8
0
100
AcDbLine
 10
37.53199999999999
 20
-0.0000000000000022
 30
0.0
 11
38.0
 21
-0.0000000000000024
 31
0.0
  0
LINE
  5
F5
330
1E
100
AcDbEntity
  8
0
100
AcDbLine
 10
37.53199999999999
 20
10.0
 30
0.0
 11
38.0
 21
10.0
 31
0.0
  0
LINE
  5
F6
330
1E
100
AcDbEntity
  8
0
100
AcDbLine
 10
36.284
 20
25.552
 30
0.0
 11
37.53199999999999
 21
28.672
 31
0.0
  0
LINE
  5
F7
330
1E
100
AcDbEntity
  8
0
100
AcDbLine
 10
-0.0000000000000026
 20
32.0
 30
0.0
 11
-0.0000000000000026
 21
42.5
 31
0.0
  0
LINE
  5
F8
330
1E
100
AcDbEntity
  8
0
100
AcDbLine
 10
-0.0000000000000026
 20
32.0
 30
0.0
 11
-0.0000000000000026
 21
21.49999999999999
 31
0.0
  0
LINE
  5
F9
330
1E
100
AcDbEntity
  8
0
100
AcDbLine
 10
-0.0000000000000026
 20
42.5
 30
0.0
 11
0.199999999999997
 21
43.5
 31
0.0
  0
LINE
  5
FA
330
1E
100
AcDbEntity
  8
0
100
AcDbLine
 10
-0.0000000000000026
 20
42.5
 30
0.0
 11
-0.0000000000000026
 21
32.0
 31
0.0
  0
LINE
  5
FB
330
1E
100
AcDbEntity
  8
0
100
AcDbLine
 10
13.432
 20
28.928
 30
0.0
 11
14.584
 21
26.048
 31
0.0
  0
LINE
  5
FC
330
1E
100
AcDbEntity
  8
0
100
AcDbLine
 10
15.36
 20
34.56
 30
0.0
 11
16.0
 21
36.15999999999999
 31
0.0
  0
LINE
  5
FD
330
1E
100
AcDbEntity
  8
0
100
AcDbLine
 10
15.0
 20
32.0
 30
0.0
 11
15.36
 21
29.44
 31
0.0
  0
LINE
  5
FE
330
1E
100
AcDbEntity
  8
0
100
AcDbLine
 10
15.0
 20
32.0
 30
0.0
 11
15.36
 21
34.56
 31
0.0
  0
LINE
  5
FF
330
1E
100
AcDbEntity
  8
0
100
AcDbLine
 10
24.244
 20
29.18
 30
0.0
 11
25.0
 21
29.07199999999999
 31
0.0
  0
LINE
  5
100
330
1E
100
AcDbEntity
  8
0
100
AcDbLine
 10
25.0
 20
29.07199999999999
 30
0.0
 11
25.756
 21
29.18
 31
0.0
  0
LINE
  5
101
330
1E
100
AcDbEntity
  8
0
100
AcDbLine
 10
25.756
 20
29.18
 30
0.0
 11
26.45199999999999
 21
29.468
 31
0.0
  0
LINE
  5
104
330
1E
100
AcDbEntity
  8
0
100
AcDbLine
 10
16.0
 20
29.70909999999999
 30
0.0
 11
16.0
 21
32.0
 31
0.0
  0
LINE
  5
105
330
1E
100
AcDbEntity
  8
0
100
AcDbLine
 10
16.0
 20
29.70909999999999
 30
0.0
 11
16.0
 21
27.5866
 31
0.0
  0
LINE
  5
106
330
1E
100
AcDbEntity
  8
0
100
AcDbLine
 10
23.548
 20
29.468
 30
0.0
 11
24.244
 21
29.18
 31
0.0
  0
LINE
  5
107
330
1E
100
AcDbEntity
  8
0
100
AcDbLine
 10
22.936
 20
29.936
 30
0.0
 11
23.548
 21
29.468
 31
0.0
  0
LINE
  5
109
330
1E
100
AcDbEntity
  8
0
100
AcDbLine
 10
27.064
 20
29.936
 30
0.0
 11
27.53199999999999
 21
30.548
 31
0.0
  0
LINE
  5
10A
330
1E
100
AcDbEntity
  8
0
100
AcDbLine
 10
26.45199999999999
 20
29.468
 30
0.0
 11
27.064
 21
29.936
 31
0.0
  0
LINE
  5
10B
330
1E
100
AcDbEntity
  8
0
100
AcDbLine
 10
31.8535
 20
30.1888
 30
0.0
 11
32.0582
 21
31.9274
 31
0.0
  0
LINE
  5
10C
330
1E
100
AcDbEntity
  8
0
100
AcDbLine
 10
34.0
 20
29.70909999999999
 30
0.0
 11
34.0
 21
27.5866
 31
0.0
  0
LINE
  5
10D
330
1E
100
AcDbEntity
  8
0
100
AcDbLine
 10
34.0
 20
29.70909999999999
 30
0.0
 11
34.0
 21
32.0
 31
0.0
  0
LINE
  5
10E
330
1E
100
AcDbEntity
  8
0
100
AcDbLine
 10
22.468
 20
30.548
 30
0.0
 11
22.936
 21
29.936
 31
0.0
  0
LINE
  5
111
330
1E
100
AcDbEntity
  8
0
100
AcDbLine
 10
27.53199999999999
 20
30.548
 30
0.0
 11
27.82
 21
31.244
 31
0.0
  0
LINE
  5
112
330
1E
100
AcDbEntity
  8
0
100
AcDbLine
 10
22.07199999999999
 20
32.0
 30
0.0
 11
22.17999999999999
 21
31.244
 31
0.0
  0
LINE
  5
113
330
1E
100
AcDbEntity
  8
0
100
AcDbLine
 10
22.07199999999999
 20
32.0
 30
0.0
 11
22.17999999999999
 21
32.756
 31
0.0
  0
LINE
  5
114
330
1E
100
AcDbEntity
  8
0
100
AcDbLine
 10
22.17999999999999
 20
31.244
 30
0.0
 11
22.468
 21
30.548
 31
0.0
  0
LINE
  5
117
330
1E
100
AcDbEntity
  8
0
100
AcDbLine
 10
27.82
 20
31.244
 30
0.0
 11
27.928
 21
32.0
 31
0.0
  0
LINE
  5
119
330
1E
100
AcDbEntity
  8
0
100
AcDbLine
 10
34.0
 20
32.0
 30
0.0
 11
34.0
 21
29.70909999999999
 31
0.0
  0
LINE
  5
11A
330
1E
100
AcDbEntity
  8
0
100
AcDbLine
 10
34.0
 20
32.0
 30
0.0
 11
34.0
 21
34.2909
 31
0.0
  0
LINE
  5
11B
330
1E
100
AcDbEntity
  8
0
100
AcDbLine
 10
18.16379999999999
 20
30.2082
 30
0.0
 11
18.77819999999999
 21
28.5469
 31
0.0
  0
LINE
  5
11C
330
1E
100
AcDbEntity
  8
0
100
AcDbLine
 10
17.9218
 20
31.8888
 30
0.0
 11
18.108
 21
33.6081
 31
0.0
  0
LINE
  5
11D
330
1E
100
AcDbEntity
  8
0
100
AcDbLine
 10
17.9218
 20
31.8888
 30
0.0
 11
18.16379999999999
 21
30.2082
 31
0.0
  0
LINE
  5
11E
330
1E
100
AcDbEntity
  8
0
100
AcDbLine
 10
22.17999999999999
 20
32.756
 30
0.0
 11
22.468
 21
33.452
 31
0.0
  0
LINE
  5
120
330
1E
100
AcDbEntity
  8
0
100
AcDbLine
 10
27.82
 20
32.756
 30
0.0
 11
27.928
 21
32.0
 31
0.0
  0
LINE
  5
121
330
1E
100
AcDbEntity
  8
0
100
AcDbLine
 10
22.468
 20
33.452
 30
0.0
 11
22.936
 21
34.064
 31
0.0
  0
LINE
  5
123
330
1E
100
AcDbEntity
  8
0
100
AcDbLine
 10
27.53199999999999
 20
33.452
 30
0.0
 11
27.82
 21
32.756
 31
0.0
  0
LINE
  5
125
330
1E
100
AcDbEntity
  8
0
100
AcDbLine
 10
31.8535
 20
33.6081
 30
0.0
 11
32.0582
 21
31.9274
 31
0.0
  0
LINE
  5
126
330
1E
100
AcDbEntity
  8
0
100
AcDbLine
 10
22.936
 20
34.064
 30
0.0
 11
23.548
 21
34.53199999999999
 31
0.0
  0
LINE
  5
128
330
1E
100
AcDbEntity
  8
0
100
AcDbLine
 10
23.548
 20
34.53199999999999
 30
0.0
 11
24.244
 21
34.82
 31
0.0
  0
LINE
  5
129
330
1E
100
AcDbEntity
  8
0
100
AcDbLine
 10
24.244
 20
34.82
 30
0.0
 11
25.0
 21
34.928
 31
0.0
  0
LINE
  5
12C
330
1E
100
AcDbEntity
  8
0
100
AcDbLine
 10
25.756
 20
34.82
 30
0.0
 11
26.45199999999999
 21
34.53199999999999
 31
0.0
  0
LINE
  5
12D
330
1E
100
AcDbEntity
  8
0
100
AcDbLine
 10
25.0
 20
34.928
 30
0.0
 11
25.756
 21
34.82
 31
0.0
  0
LINE
  5
12E
330
1E
100
AcDbEntity
  8
0
100
AcDbLine
 10
27.064
 20
34.064
 30
0.0
 11
27.53199999999999
 21
33.452
 31
0.0
  0
LINE
  5
12F
330
1E
100
AcDbEntity
  8
0
100
AcDbLine
 10
26.45199999999999
 20
34.53199999999999
 30
0.0
 11
27.064
 21
34.064
 31
0.0
  0
LINE
  5
133
330
1E
100
AcDbEntity
  8
0
100
AcDbLine
 10
34.0
 20
34.2909
 30
0.0
 11
34.0
 21
32.0
 31
0.0
  0
LINE
  5
134
330
1E
100
AcDbEntity
  8
0
100
AcDbLine
 10
34.0
 20
34.2909
 30
0.0
 11
34.0
 21
36.4134
 31
0.0
  0
LINE
  5
135
330
1E
100
AcDbEntity
  8
0
100
AcDbLine
 10
18.108
 20
33.6081
 30
0.0
 11
18.6683
 21
35.2501
 31
0.0
  0
LINE
  5
136
330
1E
100
AcDbEntity
  8
0
100
AcDbLine
 10
16.0
 20
34.2909
 30
0.0
 11
16.0
 21
32.0
 31
0.0
  0
LINE
  5
137
330
1E
100
AcDbEntity
  8
0
100
AcDbLine
 10
16.0
 20
34.2909
 30
0.0
 11
16.0
 21
36.4134
 31
0.0
  0
LINE
  5
138
330
1E
100
AcDbEntity
  8
0
100
AcDbLine
 10
16.0
 20
32.0
 30
0.0
 11
16.0
 21
34.2909
 31
0.0
  0
LINE
  5
139
330
1E
100
AcDbEntity
  8
0
100
AcDbLine
 10
16.0
 20
32.0
 30
0.0
 11
16.0
 21
29.70909999999999
 31
0.0
  0
LINE
  5
13A
330
1E
100
AcDbEntity
  8
0
100
AcDbLine
 10
34.64
 20
34.56
 30
0.0
 11
35.0
 21
32.0
 31
0.0
  0
LINE
  5
13B
330
1E
100
AcDbEntity
  8
0
100
AcDbLine
 10
34.64
 20
29.44
 30
0.0
 11
35.0
 21
32.0
 31
0.0
  0
LINE
  5
13C
330
1E
100
AcDbEntity
  8
0
100
AcDbLine
 10
15.36
 20
29.44
 30
0.0
 11
16.0
 21
27.84
 31
0.0
  0
LINE
  5
13D
330
1E
100
AcDbEntity
  8
0
100
AcDbLine
 10
15.36
 20
29.44
 30
0.0
 11
16.0
 21
27.84
 31
0.0
  0
LINE
  5
13E
330
1E
100
AcDbEntity
  8
0
100
AcDbLine
 10
13.72
 20
28.976
 30
0.0
 11
14.872
 21
26.19199999999999
 31
0.0
  0
LINE
  5
13F
330
1E
100
AcDbEntity
  8
0
100
AcDbLine
 10
13.288
 20
32.0
 30
0.0
 11
13.72
 21
35.024
 31
0.0
  0
LINE
  5
140
330
1E
100
AcDbEntity
  8
0
100
AcDbLine
 10
13.288
 20
32.0
 30
0.0
 11
13.72
 21
28.976
 31
0.0
  0
LINE
  5
141
330
1E
100
AcDbEntity
  8
0
100
AcDbLine
 10
13.72
 20
35.024
 30
0.0
 11
14.872
 21
37.808
 31
0.0
  0
LINE
  5
142
330
1E
100
AcDbEntity
  8
0
100
AcDbLine
 10
13.0
 20
32.0
 30
0.0
 11
13.432
 21
35.07199999999999
 31
0.0
  0
LINE
  5
143
330
1E
100
AcDbEntity
  8
0
100
AcDbLine
 10
13.0
 20
32.0
 30
0.0
 11
13.432
 21
28.928
 31
0.0
  0
LINE
  5
144
330
1E
100
AcDbEntity
  8
0
100
AcDbLine
 10
31.3322
 20
35.2307
 30
0.0
 11
31.8535
 21
33.6081
 31
0.0
  0
LINE
  5
145
330
1E
100
AcDbEntity
  8
0
100
AcDbLine
 10
18.6683
 20
35.2501
 30
0.0
 11
19.76679999999999
 21
36.9307
 31
0.0
  0
LINE
  5
146
330
1E
100
AcDbEntity
  8
0
100
AcDbLine
 10
13.432
 20
35.07199999999999
 30
0.0
 11
14.584
 21
37.95199999999999
 31
0.0
  0
LINE
  5
147
330
1E
100
AcDbEntity
  8
0
100
AcDbLine
 10
36.28
 20
35.024
 30
0.0
 11
36.71199999999999
 21
32.0
 31
0.0
  0
LINE
  5
148
330
1E
100
AcDbEntity
  8
0
100
AcDbLine
 10
36.568
 20
35.07199999999999
 30
0.0
 11
37.0
 21
32.0
 31
0.0
  0
LINE
  5
149
330
1E
100
AcDbEntity
  8
0
100
AcDbLine
 10
36.28
 20
28.976
 30
0.0
 11
36.71199999999999
 21
32.0
 31
0.0
  0
LINE
  5
14A
330
1E
100
AcDbEntity
  8
0
100
AcDbLine
 10
36.568
 20
28.928
 30
0.0
 11
37.0
 21
32.0
 31
0.0
  0
LINE
  5
14B
330
1E
100
AcDbEntity
  8
0
100
AcDbLine
 10
37.53199999999999
 20
35.328
 30
0.0
 11
38.0
 21
32.0
 31
0.0
  0
LINE
  5
14D
330
1E
100
AcDbEntity
  8
0
100
AcDbLine
 10
16.18949999999999
 20
36.8637
 30
0.0
 11
16.7714
 21
37.6027
 31
0.0
  0
LINE
  5
14E
330
1E
100
AcDbEntity
  8
0
100
AcDbLine
 10
16.7714
 20
37.6027
 30
0.0
 11
18.2737
 21
38.4545
 31
0.0
  0
LINE
  5
155
330
1E
100
AcDbEntity
  8
0
100
AcDbLine
 10
16.0
 20
36.4134
 30
0.0
 11
16.0
 21
34.2909
 31
0.0
  0
LINE
  5
157
330
1E
100
AcDbEntity
  8
0
100
AcDbLine
 10
16.0
 20
36.4134
 30
0.0
 11
16.18949999999999
 21
36.8637
 31
0.0
  0
LINE
  5
158
330
1E
100
AcDbEntity
  8
0
100
AcDbLine
 10
18.2737
 20
38.4545
 30
0.0
 11
20.4187
 21
39.6709
 31
0.0
  0
LINE
  5
159
330
1E
100
AcDbEntity
  8
0
100
AcDbLine
 10
19.76679999999999
 20
36.9307
 30
0.0
 11
21.2935
 21
38.26359999999999
 31
0.0
  0
LINE
  5
15A
330
1E
100
AcDbEntity
  8
0
100
AcDbLine
 10
28.5898
 20
38.3216
 30
0.0
 11
30.23369999999999
 21
36.8727
 31
0.0
  0
LINE
  5
15D
330
1E
100
AcDbEntity
  8
0
100
AcDbLine
 10
30.23369999999999
 20
36.8727
 30
0.0
 11
31.3322
 21
35.2307
 31
0.0
  0
LINE
  5
15E
330
1E
100
AcDbEntity
  8
0
100
AcDbLine
 10
31.72629999999999
 20
38.4545
 30
0.0
 11
33.2286
 21
37.6027
 31
0.0
  0
LINE
  5
160
330
1E
100
AcDbEntity
  8
0
100
AcDbLine
 10
33.2286
 20
37.6027
 30
0.0
 11
33.8106
 21
36.8637
 31
0.0
  0
LINE
  5
162
330
1E
100
AcDbEntity
  8
0
100
AcDbLine
 10
26.8211
 20
39.05559999999999
 30
0.0
 11
28.5898
 21
38.3216
 31
0.0
  0
LINE
  5
163
330
1E
100
AcDbEntity
  8
0
100
AcDbLine
 10
22.94859999999999
 20
38.9977
 30
0.0
 11
24.9407
 21
39.3454
 31
0.0
  0
LINE
  5
164
330
1E
100
AcDbEntity
  8
0
100
AcDbLine
 10
21.2935
 20
38.26359999999999
 30
0.0
 11
22.94859999999999
 21
38.9977
 31
0.0
  0
LINE
  5
165
330
1E
100
AcDbEntity
  8
0
100
AcDbLine
 10
17.92
 20
39.07999999999999
 30
0.0
 11
20.04
 21
40.68
 31
0.0
  0
LINE
  5
166
330
1E
100
AcDbEntity
  8
0
100
AcDbLine
 10
16.8302322420027
 20
37.6360577206536
 30
0.0
 11
17.92
 21
39.07999999999999
 31
0.0
  0
LINE
  5
168
330
1E
100
AcDbEntity
  8
0
100
AcDbLine
 10
24.9407
 20
39.3454
 30
0.0
 11
26.8211
 21
39.05559999999999
 31
0.0
  0
LINE
  5
169
330
1E
100
AcDbEntity
  8
0
100
AcDbLine
 10
20.4187
 20
39.6709
 30
0.0
 11
22.55209999999999
 21
40.88049999999999
 31
0.0
  0
LINE
  5
16B
330
1E
100
AcDbEntity
  8
0
100
AcDbLine
 10
20.53599999999999
 20
39.81199999999999
 30
0.0
 11
20.9827119357736
 21
39.99068477430939
 31
0.0
  0
LINE
  5
16C
330
1E
100
AcDbEntity
  8
0
100
AcDbLine
 10
20.13851296997769
 20
39.5120097886624
 30
0.0
 11
20.53599999999999
 21
39.81199999999999
 31
0.0
  0
LINE
  5
170
330
1E
100
AcDbEntity
  8
0
100
AcDbLine
 10
29.0172880642264
 20
39.99068477430939
 30
0.0
 11
29.464
 21
39.81199999999999
 31
0.0
  0
LINE
  5
171
330
1E
100
AcDbEntity
  8
0
100
AcDbLine
 10
29.5813
 20
39.6709
 30
0.0
 11
31.72629999999999
 21
38.4545
 31
0.0
  0
LINE
  5
173
330
1E
100
AcDbEntity
  8
0
100
AcDbLine
 10
29.464
 20
39.81199999999999
 30
0.0
 11
29.8614870300223
 21
39.5120097886624
 31
0.0
  0
LINE
  5
174
330
1E
100
AcDbEntity
  8
0
100
AcDbLine
 10
32.08
 20
39.07999999999999
 30
0.0
 11
33.1697677579973
 21
37.6360577206536
 31
0.0
  0
LINE
  5
175
330
1E
100
AcDbEntity
  8
0
100
AcDbLine
 10
14.872
 20
37.808
 30
0.0
 11
16.744
 21
40.25599999999999
 31
0.0
  0
LINE
  5
176
330
1E
100
AcDbEntity
  8
0
100
AcDbLine
 10
16.744
 20
40.25599999999999
 30
0.0
 11
19.192
 21
42.128
 31
0.0
  0
LINE
  5
177
330
1E
100
AcDbEntity
  8
0
100
AcDbLine
 10
14.584
 20
37.95199999999999
 30
0.0
 11
16.504
 21
40.496
 31
0.0
  0
LINE
  5
179
330
1E
100
AcDbEntity
  8
0
100
AcDbLine
 10
20.04
 20
40.68
 30
0.0
 11
22.44
 21
41.64
 31
0.0
  0
LINE
  5
17A
330
1E
100
AcDbEntity
  8
0
100
AcDbLine
 10
27.4479
 20
40.88049999999999
 30
0.0
 11
29.5813
 21
39.6709
 31
0.0
  0
LINE
  5
17E
330
1E
100
AcDbEntity
  8
0
100
AcDbLine
 10
22.55209999999999
 20
40.88049999999999
 30
0.0
 11
23.8877
 21
41.6175
 31
0.0
  0
LINE
  5
17F
330
1E
100
AcDbEntity
  8
0
100
AcDbLine
 10
29.96
 20
40.68
 30
0.0
 11
32.08
 21
39.07999999999999
 31
0.0
  0
LINE
  5
180
330
1E
100
AcDbEntity
  8
0
100
AcDbLine
 10
16.504
 20
40.496
 30
0.0
 11
19.04799999999999
 21
42.416
 31
0.0
  0
LINE
  5
181
330
1E
100
AcDbEntity
  8
0
100
AcDbLine
 10
33.256
 20
40.25599999999999
 30
0.0
 11
35.128
 21
37.808
 31
0.0
  0
LINE
  5
182
330
1E
100
AcDbEntity
  8
0
100
AcDbLine
 10
33.8106
 20
36.8637
 30
0.0
 11
34.0
 21
36.4134
 31
0.0
  0
LINE
  5
186
330
1E
100
AcDbEntity
  8
0
100
AcDbLine
 10
34.0
 20
36.4134
 30
0.0
 11
34.0
 21
34.2909
 31
0.0
  0
LINE
  5
188
330
1E
100
AcDbEntity
  8
0
100
AcDbLine
 10
34.0
 20
36.15999999999999
 30
0.0
 11
34.64
 21
34.56
 31
0.0
  0
LINE
  5
189
330
1E
100
AcDbEntity
  8
0
100
AcDbLine
 10
35.128
 20
37.808
 30
0.0
 11
36.28
 21
35.024
 31
0.0
  0
LINE
  5
18A
330
1E
100
AcDbEntity
  8
0
100
AcDbLine
 10
35.41599999999999
 20
37.95199999999999
 30
0.0
 11
36.568
 21
35.07199999999999
 31
0.0
  0
LINE
  5
18B
330
1E
100
AcDbEntity
  8
0
100
AcDbLine
 10
33.496
 20
40.496
 30
0.0
 11
35.41599999999999
 21
37.95199999999999
 31
0.0
  0
LINE
  5
18C
330
1E
100
AcDbEntity
  8
0
100
AcDbLine
 10
34.204
 20
41.20399999999999
 30
0.0
 11
36.284
 21
38.448
 31
0.0
  0
LINE
  5
18D
330
1E
100
AcDbEntity
  8
0
100
AcDbLine
 10
36.284
 20
38.448
 30
0.0
 11
37.53199999999999
 21
35.328
 31
0.0
  0
LINE
  5
18E
330
1E
100
AcDbEntity
  8
0
100
AcDbLine
 10
26.1123
 20
41.6175
 30
0.0
 11
27.4479
 21
40.88049999999999
 31
0.0
  0
LINE
  5
18F
330
1E
100
AcDbEntity
  8
0
100
AcDbLine
 10
23.8877
 20
41.6175
 30
0.0
 11
24.4797
 21
41.9299
 31
0.0
  0
LINE
  5
192
330
1E
100
AcDbEntity
  8
0
100
AcDbLine
 10
22.44
 20
41.64
 30
0.0
 11
24.4717760418939
 21
41.92571850589129
 31
0.0
  0
LINE
  5
196
330
1E
100
AcDbEntity
  8
0
100
AcDbLine
 10
24.4797
 20
41.9299
 30
0.0
 11
25.0
 21
42.0
 31
0.0
  0
LINE
  5
197
330
1E
100
AcDbEntity
  8
0
100
AcDbLine
 10
25.5203
 20
41.9299
 30
0.0
 11
26.1123
 21
41.6175
 31
0.0
  0
LINE
  5
198
330
1E
100
AcDbEntity
  8
0
100
AcDbLine
 10
25.5282239581061
 20
41.92571850589129
 30
0.0
 11
27.56
 21
41.64
 31
0.0
  0
LINE
  5
19A
330
1E
100
AcDbEntity
  8
0
100
AcDbLine
 10
25.0
 20
42.0
 30
0.0
 11
25.5203
 21
41.9299
 31
0.0
  0
LINE
  5
19B
330
1E
100
AcDbEntity
  8
0
100
AcDbLine
 10
27.56
 20
41.64
 30
0.0
 11
29.96
 21
40.68
 31
0.0
  0
LINE
  5
19C
330
1E
100
AcDbEntity
  8
0
100
AcDbLine
 10
19.192
 20
42.128
 30
0.0
 11
21.97599999999999
 21
43.28
 31
0.0
  0
LINE
  5
19D
330
1E
100
AcDbEntity
  8
0
100
AcDbLine
 10
19.04799999999999
 20
42.416
 30
0.0
 11
21.928
 21
43.568
 31
0.0
  0
LINE
  5
19E
330
1E
100
AcDbEntity
  8
0
100
AcDbLine
 10
30.808
 20
42.128
 30
0.0
 11
33.256
 21
40.25599999999999
 31
0.0
  0
LINE
  5
19F
330
1E
100
AcDbEntity
  8
0
100
AcDbLine
 10
30.952
 20
42.416
 30
0.0
 11
33.496
 21
40.496
 31
0.0
  0
LINE
  5
1A0
330
1E
100
AcDbEntity
  8
0
100
AcDbLine
 10
15.796
 20
41.20399999999999
 30
0.0
 11
18.55199999999999
 21
43.284
 31
0.0
  0
LINE
  5
1A1
330
1E
100
AcDbEntity
  8
0
100
AcDbLine
 10
13.71599999999999
 20
38.448
 30
0.0
 11
15.796
 21
41.20399999999999
 31
0.0
  0
LINE
  5
1A2
330
1E
100
AcDbEntity
  8
0
100
AcDbLine
 10
12.468
 20
35.328
 30
0.0
 11
13.71599999999999
 21
38.448
 31
0.0
  0
LINE
  5
1A3
330
1E
100
AcDbEntity
  8
0
100
AcDbLine
 10
12.0
 20
32.0
 30
0.0
 11
12.468
 21
28.672
 31
0.0
  0
LINE
  5
1A4
330
1E
100
AcDbEntity
  8
0
100
AcDbLine
 10
12.0
 20
32.0
 30
0.0
 11
12.468
 21
35.328
 31
0.0
  0
LINE
  5
1A5
330
1E
100
AcDbEntity
  8
0
100
AcDbLine
 10
37.53199999999999
 20
28.672
 30
0.0
 11
38.0
 21
32.0
 31
0.0
  0
LINE
  5
1A6
330
1E
100
AcDbEntity
  8
0
100
AcDbLine
 10
39.0
 20
6.0
 30
0.0
 11
39.0
 21
-0.0000000000000027
 31
0.0
  0
LINE
  5
1A7
330
1E
100
AcDbEntity
  8
0
100
AcDbLine
 10
39.0
 20
-0.0000000000000024
 30
0.0
 11
39.0
 21
6.0
 31
0.0
  0
LINE
  5
1A8
330
1E
100
AcDbEntity
  8
0
100
AcDbLine
 10
57.0
 20
19.0
 30
0.0
 11
57.0
 21
19.46799999999999
 31
0.0
  0
LINE
  5
1A9
330
1E
100
AcDbEntity
  8
0
100
AcDbLine
 10
57.0
 20
19.46799999999999
 30
0.0
 11
57.0
 21
19.0
 31
0.0
  0
LINE
  5
1AA
330
1E
100
AcDbEntity
  8
0
100
AcDbLine
 10
57.0
 20
19.46799999999999
 30
0.0
 11
57.0
 21
20.71599999999999
 31
0.0
  0
LINE
  5
1AB
330
1E
100
AcDbEntity
  8
0
100
AcDbLine
 10
57.0
 20
20.71599999999999
 30
0.0
 11
57.0
 21
19.46799999999999
 31
0.0
  0
LINE
  5
1AC
330
1E
100
AcDbEntity
  8
0
100
AcDbLine
 10
57.0
 20
20.71599999999999
 30
0.0
 11
57.0
 21
22.79599999999999
 31
0.0
  0
LINE
  5
1AD
330
1E
100
AcDbEntity
  8
0
100
AcDbLine
 10
57.0
 20
22.79599999999999
 30
0.0
 11
57.0
 21
20.71599999999999
 31
0.0
  0
LINE
  5
1AE
330
1E
100
AcDbEntity
  8
0
100
AcDbLine
 10
57.0
 20
22.79599999999999
 30
0.0
 11
57.0
 21
25.552
 31
0.0
  0
LINE
  5
1AF
330
1E
100
AcDbEntity
  8
0
100
AcDbLine
 10
57.0
 20
25.552
 30
0.0
 11
57.0
 21
22.79599999999999
 31
0.0
  0
LINE
  5
1B0
330
1E
100
AcDbEntity
  8
0
100
AcDbLine
 10
57.0
 20
25.552
 30
0.0
 11
57.0
 21
28.672
 31
0.0
  0
LINE
  5
1B1
330
1E
100
AcDbEntity
  8
0
100
AcDbLine
 10
57.0
 20
28.672
 30
0.0
 11
57.0
 21
25.552
 31
0.0
  0
LINE
  5
1B2
330
1E
100
AcDbEntity
  8
0
100
AcDbLine
 10
57.0
 20
28.672
 30
0.0
 11
57.0
 21
32.0
 31
0.0
  0
LINE
  5
1B3
330
1E
100
AcDbEntity
  8
0
100
AcDbLine
 10
57.0
 20
41.20399999999999
 30
0.0
 11
57.0
 21
38.448
 31
0.0
  0
LINE
  5
1B4
330
1E
100
AcDbEntity
  8
0
100
AcDbLine
 10
57.0
 20
41.20399999999999
 30
0.0
 11
57.0
 21
43.284
 31
0.0
  0
LINE
  5
1B5
330
1E
100
AcDbEntity
  8
0
100
AcDbLine
 10
57.0
 20
38.448
 30
0.0
 11
57.0
 21
35.328
 31
0.0
  0
LINE
  5
1B6
330
1E
100
AcDbEntity
  8
0
100
AcDbLine
 10
57.0
 20
38.448
 30
0.0
 11
57.0
 21
41.20399999999999
 31
0.0
  0
LINE
  5
1B7
330
1E
100
AcDbEntity
  8
0
100
AcDbLine
 10
57.0
 20
35.328
 30
0.0
 11
57.0
 21
32.0
 31
0.0
  0
LINE
  5
1B8
330
1E
100
AcDbEntity
  8
0
100
AcDbLine
 10
57.0
 20
35.328
 30
0.0
 11
57.0
 21
38.448
 31
0.0
  0
LINE
  5
1B9
330
1E
100
AcDbEntity
  8
0
100
AcDbLine
 10
57.0
 20
32.0
 30
0.0
 11
57.0
 21
28.672
 31
0.0
  0
LINE
  5
1BA
330
1E
100
AcDbEntity
  8
0
100
AcDbLine
 10
57.0
 20
32.0
 30
0.0
 11
57.0
 21
35.328
 31
0.0
  0
LINE
  5
1BB
330
1E
100
AcDbEntity
  8
0
100
AcDbLine
 10
38.0
 20
19.0
 30
0.0
 11
57.0
 21
19.0
 31
0.0
  0
LINE
  5
1BC
330
1E
100
AcDbEntity
  8
0
100
AcDbLine
 10
38.0
 20
19.0
 30
0.0
 11
38.0
 21
10.0
 31
0.0
  0
LINE
  5
1BD
330
1E
100
AcDbEntity
  8
0
100
AcDbLine
 10
0.199999999999997
 20
43.5
 30
0.0
 11
0.699999999999998
 21
44.29999999999999
 31
0.0
  0
LINE
  5
1BE
330
1E
100
AcDbEntity
  8
0
100
AcDbLine
 10
0.199999999999997
 20
43.5
 30
0.0
 11
0.699999999999998
 21
44.29999999999999
 31
0.0
  0
LINE
  5
1BF
330
1E
100
AcDbEntity
  8
0
100
AcDbLine
 10
0.699999999999998
 20
44.29999999999999
 30
0.0
 11
1.5
 21
44.79999999999999
 31
0.0
  0
LINE
  5
1C0
330
1E
100
AcDbEntity
  8
0
100
AcDbLine
 10
21.97599999999999
 20
43.28
 30
0.0
 11
25.0
 21
43.71199999999999
 31
0.0
  0
LINE
  5
1C1
330
1E
100
AcDbEntity
  8
0
100
AcDbLine
 10
21.928
 20
43.568
 30
0.0
 11
25.0
 21
44.0
 31
0.0
  0
LINE
  5
1C2
330
1E
100
AcDbEntity
  8
0
100
AcDbLine
 10
25.0
 20
43.71199999999999
 30
0.0
 11
28.024
 21
43.28
 31
0.0
  0
LINE
  5
1C3
330
1E
100
AcDbEntity
  8
0
100
AcDbLine
 10
28.024
 20
43.28
 30
0.0
 11
30.808
 21
42.128
 31
0.0
  0
LINE
  5
1C4
330
1E
100
AcDbEntity
  8
0
100
AcDbLine
 10
28.07199999999999
 20
43.568
 30
0.0
 11
30.952
 21
42.416
 31
0.0
  0
LINE
  5
1C5
330
1E
100
AcDbEntity
  8
0
100
AcDbLine
 10
25.0
 20
44.0
 30
0.0
 11
28.07199999999999
 21
43.568
 31
0.0
  0
LINE
  5
1C6
330
1E
100
AcDbEntity
  8
0
100
AcDbLine
 10
28.328
 20
44.53199999999999
 30
0.0
 11
31.448
 21
43.284
 31
0.0
  0
LINE
  5
1C7
330
1E
100
AcDbEntity
  8
0
100
AcDbLine
 10
31.448
 20
43.284
 30
0.0
 11
34.204
 21
41.20399999999999
 31
0.0
  0
LINE
  5
1C8
330
1E
100
AcDbEntity
  8
0
100
AcDbLine
 10
21.67199999999999
 20
44.53199999999999
 30
0.0
 11
25.0
 21
45.0
 31
0.0
  0
LINE
  5
1C9
330
1E
100
AcDbEntity
  8
0
100
AcDbLine
 10
18.55199999999999
 20
43.284
 30
0.0
 11
21.67199999999999
 21
44.53199999999999
 31
0.0
  0
LINE
  5
1CA
330
1E
100
AcDbEntity
  8
0
100
AcDbLine
 10
12.0
 20
45.0
 30
0.0
 11
12.0
 21
54.0
 31
0.0
  0
LINE
  5
1CB
330
1E
100
AcDbEntity
  8
0
100
AcDbLine
 10
2.5
 20
45.0
 30
0.0
 11
12.2765454545455
 21
45.0
 31
0.0
  0
LINE
  5
1CC
330
1E
100
AcDbEntity
  8
0
100
AcDbLine
 10
1.5
 20
44.79999999999999
 30
0.0
 11
2.5
 21
45.0
 31
0.0
  0
LINE
  5
1CD
330
1E
100
AcDbEntity
  8
0
100
AcDbLine
 10
2.5
 20
45.0
 30
0.0
 11
12.2765454545455
 21
45.0
 31
0.0
  0
LINE
  5
1CE
330
1E
100
AcDbEntity
  8
0
100
AcDbLine
 10
25.0
 20
45.0
 30
0.0
 11
28.328
 21
44.53199999999999
 31
0.0
  0
LINE
  5
1CF
330
1E
100
AcDbEntity
  8
0
100
AcDbLine
 10
11.0
 20
58.0
 30
0.0
 11
12.1872
 21
58.0
 31
0.0
  0
LINE
  5
1D0
330
1E
100
AcDbEntity
  8
0
100
AcDbLine
 10
11.0
 20
58.0
 30
0.0
 11
11.0
 21
64.0
 31
0.0
  0
LINE
  5
1D1
330
1E
100
AcDbEntity
  8
0
100
AcDbLine
 10
11.0
 20
58.0
 30
0.0
 11
12.0
 21
58.0
 31
0.0
  0
LINE
  5
1D2
330
1E
100
AcDbEntity
  8
0
100
AcDbLine
 10
11.0
 20
64.0
 30
0.0
 11
11.0
 21
58.0
 31
0.0
  0
LINE
  5
1D3
330
1E
100
AcDbEntity
  8
0
100
AcDbLine
 10
11.0
 20
64.0
 30
0.0
 11
12.0
 21
64.0
 31
0.0
  0
LINE
  5
1D4
330
1E
100
AcDbEntity
  8
0
100
AcDbLine
 10
12.0
 20
64.0
 30
0.0
 11
12.468
 21
64.0
 31
0.0
  0
LINE
  5
1D5
330
1E
100
AcDbEntity
  8
0
100
AcDbLine
 10
12.0
 20
58.0
 30
0.0
 11
12.0
 21
54.0
 31
0.0
  0
LINE
  5
1D6
330
1E
100
AcDbEntity
  8
0
100
AcDbLine
 10
25.0
 20
54.0
 30
0.0
 11
28.328
 21
54.0
 31
0.0
  0
LINE
  5
1D7
330
1E
100
AcDbEntity
  8
0
100
AcDbLine
 10
28.328
 20
54.0
 30
0.0
 11
31.448
 21
54.0
 31
0.0
  0
LINE
  5
1D8
330
1E
100
AcDbEntity
  8
0
100
AcDbLine
 10
31.448
 20
54.0
 30
0.0
 11
34.204
 21
54.0
 31
0.0
  0
LINE
  5
1D9
330
1E
100
AcDbEntity
  8
0
100
AcDbLine
 10
34.204
 20
54.0
 30
0.0
 11
36.284
 21
54.0
 31
0.0
  0
LINE
  5
1DA
330
1E
100
AcDbEntity
  8
0
100
AcDbLine
 10
36.284
 20
54.0
 30
0.0
 11
37.53199999999999
 21
54.0
 31
0.0
  0
LINE
  5
1DB
330
1E
100
AcDbEntity
  8
0
100
AcDbLine
 10
38.0
 20
54.0
 30
0.0
 11
38.0
 21
58.0
 31
0.0
  0
LINE
  5
1DC
330
1E
100
AcDbEntity
  8
0
100
AcDbLine
 10
38.0
 20
54.0
 30
0.0
 11
38.0
 21
45.0
 31
0.0
  0
LINE
  5
1DD
330
1E
100
AcDbEntity
  8
0
100
AcDbLine
 10
37.53199999999999
 20
54.0
 30
0.0
 11
38.0
 21
54.0
 31
0.0
  0
LINE
  5
1DE
330
1E
100
AcDbEntity
  8
0
100
AcDbLine
 10
21.67199999999999
 20
54.0
 30
0.0
 11
25.0
 21
54.0
 31
0.0
  0
LINE
  5
1DF
330
1E
100
AcDbEntity
  8
0
100
AcDbLine
 10
18.55199999999999
 20
54.0
 30
0.0
 11
21.67199999999999
 21
54.0
 31
0.0
  0
LINE
  5
1E0
330
1E
100
AcDbEntity
  8
0
100
AcDbLine
 10
15.796
 20
54.0
 30
0.0
 11
18.55199999999999
 21
54.0
 31
0.0
  0
LINE
  5
1E1
330
1E
100
AcDbEntity
  8
0
100
AcDbLine
 10
13.71599999999999
 20
54.0
 30
0.0
 11
15.796
 21
54.0
 31
0.0
  0
LINE
  5
1E2
330
1E
100
AcDbEntity
  8
0
100
AcDbLine
 10
17.134
 20
58.0
 30
0.0
 11
18.86599999999999
 21
58.0
 31
0.0
  0
LINE
  5
1E3
330
1E
100
AcDbEntity
  8
0
100
AcDbLine
 10
17.134
 20
58.0
 30
0.0
 11
17.134
 21
64.0
 31
0.0
  0
LINE
  5
1E4
330
1E
100
AcDbEntity
  8
0
100
AcDbLine
 10
17.134
 20
58.0
 30
0.0
 11
18.134
 21
58.0
 31
0.0
  0
LINE
  5
1E5
330
1E
100
AcDbEntity
  8
0
100
AcDbLine
 10
17.134
 20
64.0
 30
0.0
 11
17.134
 21
58.0
 31
0.0
  0
LINE
  5
1E6
330
1E
100
AcDbEntity
  8
0
100
AcDbLine
 10
17.134
 20
64.0
 30
0.0
 11
18.86599999999999
 21
64.0
 31
0.0
  0
LINE
  5
1E7
330
1E
100
AcDbEntity
  8
0
100
AcDbLine
 10
18.86599999999999
 20
64.0
 30
0.0
 11
18.86599999999999
 21
58.0
 31
0.0
  0
LINE
  5
1E8
330
1E
100
AcDbEntity
  8
0
100
AcDbLine
 10
18.86599999999999
 20
64.0
 30
0.0
 11
19.866
 21
64.0
 31
0.0
  0
LINE
  5
1EA
330
1E
100
AcDbEntity
  8
0
100
AcDbLine
 10
18.86599999999999
 20
58.0
 30
0.0
 11
18.86599999999999
 21
64.0
 31
0.0
  0
LINE
  5
1EC
330
1E
100
AcDbEntity
  8
0
100
AcDbLine
 10
31.134
 20
58.0
 30
0.0
 11
32.86599999999999
 21
58.0
 31
0.0
  0
LINE
  5
1ED
330
1E
100
AcDbEntity
  8
0
100
AcDbLine
 10
31.134
 20
58.0
 30
0.0
 11
31.134
 21
64.0
 31
0.0
  0
LINE
  5
1EE
330
1E
100
AcDbEntity
  8
0
100
AcDbLine
 10
32.86599999999999
 20
58.0
 30
0.0
 11
32.86599999999999
 21
64.0
 31
0.0
  0
LINE
  5
1EF
330
1E
100
AcDbEntity
  8
0
100
AcDbLine
 10
30.134
 20
64.0
 30
0.0
 11
31.134
 21
64.0
 31
0.0
  0
LINE
  5
1F0
330
1E
100
AcDbEntity
  8
0
100
AcDbLine
 10
31.134
 20
64.0
 30
0.0
 11
31.134
 21
58.0
 31
0.0
  0
LINE
  5
1F1
330
1E
100
AcDbEntity
  8
0
100
AcDbLine
 10
31.134
 20
64.0
 30
0.0
 11
32.86599999999999
 21
64.0
 31
0.0
  0
LINE
  5
1F2
330
1E
100
AcDbEntity
  8
0
100
AcDbLine
 10
32.5504
 20
58.0
 30
0.0
 11
32.86599999999999
 21
58.0
 31
0.0
  0
LINE
  5
1F3
330
1E
100
AcDbEntity
  8
0
100
AcDbLine
 10
25.0
 20
64.0
 30
0.0
 11
28.328
 21
64.0
 31
0.0
  0
LINE
  5
1F4
330
1E
100
AcDbEntity
  8
0
100
AcDbLine
 10
28.328
 20
64.0
 30
0.0
 11
30.134
 21
64.0
 31
0.0
  0
LINE
  5
1F5
330
1E
100
AcDbEntity
  8
0
100
AcDbLine
 10
32.86599999999999
 20
64.0
 30
0.0
 11
34.204
 21
64.0
 31
0.0
  0
LINE
  5
1F6
330
1E
100
AcDbEntity
  8
0
100
AcDbLine
 10
32.86599999999999
 20
64.0
 30
0.0
 11
32.86599999999999
 21
58.0
 31
0.0
  0
LINE
  5
1F7
330
1E
100
AcDbEntity
  8
0
100
AcDbLine
 10
34.204
 20
64.0
 30
0.0
 11
36.284
 21
64.0
 31
0.0
  0
LINE
  5
1F8
330
1E
100
AcDbEntity
  8
0
100
AcDbLine
 10
37.7192
 20
58.0
 30
0.0
 11
39.0
 21
58.0
 31
0.0
  0
LINE
  5
1F9
330
1E
100
AcDbEntity
  8
0
100
AcDbLine
 10
39.0
 20
58.0
 30
0.0
 11
39.0
 21
64.0
 31
0.0
  0
LINE
  5
1FA
330
1E
100
AcDbEntity
  8
0
100
AcDbLine
 10
38.0
 20
64.0
 30
0.0
 11
39.0
 21
64.0
 31
0.0
  0
LINE
  5
1FB
330
1E
100
AcDbEntity
  8
0
100
AcDbLine
 10
39.0
 20
64.0
 30
0.0
 11
39.0
 21
58.0
 31
0.0
  0
LINE
  5
1FC
330
1E
100
AcDbEntity
  8
0
100
AcDbLine
 10
38.0
 20
58.0
 30
0.0
 11
38.0
 21
54.0
 31
0.0
  0
LINE
  5
1FD
330
1E
100
AcDbEntity
  8
0
100
AcDbLine
 10
38.0
 20
58.0
 30
0.0
 11
39.0
 21
58.0
 31
0.0
  0
LINE
  5
1FE
330
1E
100
AcDbEntity
  8
0
100
AcDbLine
 10
36.284
 20
64.0
 30
0.0
 11
37.53199999999999
 21
64.0
 31
0.0
  0
LINE
  5
1FF
330
1E
100
AcDbEntity
  8
0
100
AcDbLine
 10
37.53199999999999
 20
64.0
 30
0.0
 11
38.0
 21
64.0
 31
0.0
  0
LINE
  5
200
330
1E
100
AcDbEntity
  8
0
100
AcDbLine
 10
21.67199999999999
 20
64.0
 30
0.0
 11
25.0
 21
64.0
 31
0.0
  0
LINE
  5
201
330
1E
100
AcDbEntity
  8
0
100
AcDbLine
 10
19.866
 20
64.0
 30
0.0
 11
21.67199999999999
 21
64.0
 31
0.0
  0
LINE
  5
202
330
1E
100
AcDbEntity
  8
0
100
AcDbLine
 10
15.796
 20
64.0
 30
0.0
 11
17.134
 21
64.0
 31
0.0
  0
LINE
  5
203
330
1E
100
AcDbEntity
  8
0
100
AcDbLine
 10
13.71599999999999
 20
64.0
 30
0.0
 11
15.796
 21
64.0
 31
0.0
  0
LINE
  5
204
330
1E
100
AcDbEntity
  8
0
100
AcDbLine
 10
12.468
 20
64.0
 30
0.0
 11
13.71599999999999
 21
64.0
 31
0.0
  0
LINE
  5
205
330
1E
100
AcDbEntity
  8
0
100
AcDbLine
 10
12.468
 20
54.0
 30
0.0
 11
13.71599999999999
 21
54.0
 31
0.0
  0
LINE
  5
206
330
1E
100
AcDbEntity
  8
0
100
AcDbLine
 10
12.0
 20
54.0
 30
0.0
 11
12.468
 21
54.0
 31
0.0
  0
LINE
  5
207
330
1E
100
AcDbEntity
  8
0
100
AcDbLine
 10
12.0
 20
54.0
 30
0.0
 11
12.0
 21
58.0
 31
0.0
  0
LINE
  5
208
330
1E
100
AcDbEntity
  8
0
100
AcDbLine
 10
12.0
 20
54.0
 30
0.0
 11
12.0
 21
45.0
 31
0.0
  0
LINE
  5
209
330
1E
100
AcDbEntity
  8
0
100
AcDbLine
 10
38.0
 20
45.0
 30
0.0
 11
57.0
 21
45.0
 31
0.0
  0
LINE
  5
20A
330
1E
100
AcDbEntity
  8
0
100
AcDbLine
 10
38.0
 20
45.0
 30
0.0
 11
38.0
 21
54.0
 31
0.0
  0
LINE
  5
20B
330
1E
100
AcDbEntity
  8
0
100
AcDbLine
 10
57.0
 20
45.0
 30
0.0
 11
57.0
 21
44.53199999999999
 31
0.0
  0
LINE
  5
20C
330
1E
100
AcDbEntity
  8
0
100
AcDbLine
 10
57.0
 20
44.53199999999999
 30
0.0
 11
57.0
 21
43.284
 31
0.0
  0
LINE
  5
20D
330
1E
100
AcDbEntity
  8
0
100
AcDbLine
 10
57.0
 20
44.53199999999999
 30
0.0
 11
57.0
 21
45.0
 31
0.0
  0
LINE
  5
20E
330
1E
100
AcDbEntity
  8
0
100
AcDbLine
 10
57.0
 20
43.284
 30
0.0
 11
57.0
 21
41.20399999999999
 31
0.0
  0
LINE
  5
20F
330
1E
100
AcDbEntity
  8
0
100
AcDbLine
 10
57.0
 20
43.284
 30
0.0
 11
57.0
 21
44.53199999999999
 31
0.0
  0
LINE
  5
210
330
1E
100
AcDbEntity
  8
0
100
AcDbLine
 10
57.0
 20
43.0
 30
0.0
 11
97.0
 21
43.0
 31
0.0
  0
LINE
  5
211
330
1E
100
AcDbEntity
  8
0
100
AcDbLine
 10
97.0
 20
19.0
 30
0.0
 11
97.0
 21
19.46799999999999
 31
0.0
  0
LINE
  5
212
330
1E
100
AcDbEntity
  8
0
100
AcDbLine
 10
97.0
 20
19.0
 30
0.0
 11
112.0
 21
19.0
 31
0.0
  0
LINE
  5
213
330
1E
100
AcDbEntity
  8
0
100
AcDbLine
 10
97.0
 20
19.46799999999999
 30
0.0
 11
97.0
 21
20.71599999999999
 31
0.0
  0
LINE
  5
214
330
1E
100
AcDbEntity
  8
0
100
AcDbLine
 10
97.0
 20
19.46799999999999
 30
0.0
 11
97.0
 21
19.0
 31
0.0
  0
LINE
  5
215
330
1E
100
AcDbEntity
  8
0
100
AcDbLine
 10
97.0
 20
20.71599999999999
 30
0.0
 11
97.0
 21
21.0
 31
0.0
  0
LINE
  5
216
330
1E
100
AcDbEntity
  8
0
100
AcDbLine
 10
97.0
 20
20.71599999999999
 30
0.0
 11
97.0
 21
19.46799999999999
 31
0.0
  0
LINE
  5
217
330
1E
100
AcDbEntity
  8
0
100
AcDbLine
 10
97.0
 20
20.71599999999999
 30
0.0
 11
97.0
 21
22.79599999999999
 31
0.0
  0
LINE
  5
218
330
1E
100
AcDbEntity
  8
0
100
AcDbLine
 10
97.0
 20
21.0
 30
0.0
 11
97.0
 21
21.396
 31
0.0
  0
LINE
  5
219
330
1E
100
AcDbEntity
  8
0
100
AcDbLine
 10
97.0
 20
21.0
 30
0.0
 11
97.0
 21
20.71599999999999
 31
0.0
  0
LINE
  5
21A
330
1E
100
AcDbEntity
  8
0
100
AcDbLine
 10
97.0
 20
22.79599999999999
 30
0.0
 11
97.0
 21
20.71599999999999
 31
0.0
  0
LINE
  5
21B
330
1E
100
AcDbEntity
  8
0
100
AcDbLine
 10
97.0
 20
22.79599999999999
 30
0.0
 11
97.0
 21
25.552
 31
0.0
  0
LINE
  5
21C
330
1E
100
AcDbEntity
  8
0
100
AcDbLine
 10
97.0
 20
21.396
 30
0.0
 11
97.0
 21
22.452
 31
0.0
  0
LINE
  5
21D
330
1E
100
AcDbEntity
  8
0
100
AcDbLine
 10
97.0
 20
22.452
 30
0.0
 11
97.0
 21
24.212
 31
0.0
  0
LINE
  5
21E
330
1E
100
AcDbEntity
  8
0
100
AcDbLine
 10
97.0
 20
25.552
 30
0.0
 11
97.0
 21
22.79599999999999
 31
0.0
  0
LINE
  5
21F
330
1E
100
AcDbEntity
  8
0
100
AcDbLine
 10
97.0
 20
25.552
 30
0.0
 11
97.0
 21
28.672
 31
0.0
  0
LINE
  5
220
330
1E
100
AcDbEntity
  8
0
100
AcDbLine
 10
97.0
 20
28.672
 30
0.0
 11
97.0
 21
25.552
 31
0.0
  0
LINE
  5
221
330
1E
100
AcDbEntity
  8
0
100
AcDbLine
 10
97.0
 20
28.672
 30
0.0
 11
97.0
 21
32.0
 31
0.0
  0
LINE
  5
222
330
1E
100
AcDbEntity
  8
0
100
AcDbLine
 10
97.0
 20
24.212
 30
0.0
 11
97.0
 21
26.544
 31
0.0
  0
LINE
  5
226
330
1E
100
AcDbEntity
  8
0
100
AcDbLine
 10
111.3639999999999
 20
0.214299999999998
 30
0.0
 11
112.386
 21
-0.0000000000000024
 31
0.0
  0
LINE
  5
227
330
1E
100
AcDbEntity
  8
0
100
AcDbLine
 10
111.3639999999999
 20
0.214299999999998
 30
0.0
 11
112.386
 21
-0.0000000000000024
 31
0.0
  0
LINE
  5
228
330
1E
100
AcDbEntity
  8
0
100
AcDbLine
 10
110.341
 20
0.714299999999998
 30
0.0
 11
110.5739999999999
 21
0.714299999999998
 31
0.0
  0
LINE
  5
229
330
1E
100
AcDbEntity
  8
0
100
AcDbLine
 10
110.341
 20
0.714299999999998
 30
0.0
 11
111.3639999999999
 21
0.214299999999998
 31
0.0
  0
LINE
  5
22A
330
1E
100
AcDbEntity
  8
0
100
AcDbLine
 10
110.341
 20
0.714299999999998
 30
0.0
 11
111.3639999999999
 21
0.214299999999998
 31
0.0
  0
LINE
  5
22B
330
1E
100
AcDbEntity
  8
0
100
AcDbLine
 10
110.0
 20
13.5714
 30
0.0
 11
110.341
 21
14.2857
 31
0.0
  0
LINE
  5
22C
330
1E
100
AcDbEntity
  8
0
100
AcDbLine
 10
110.0
 20
13.5714
 30
0.0
 11
110.0
 21
1.4286
 31
0.0
  0
LINE
  5
22E
330
1E
100
AcDbEntity
  8
0
100
AcDbLine
 10
110.341
 20
14.2857
 30
0.0
 11
110.5739999999999
 21
14.2857
 31
0.0
  0
LINE
  5
22F
330
1E
100
AcDbEntity
  8
0
100
AcDbLine
 10
110.341
 20
14.2857
 30
0.0
 11
111.3639999999999
 21
14.7857
 31
0.0
  0
LINE
  5
230
330
1E
100
AcDbEntity
  8
0
100
AcDbLine
 10
110.0
 20
1.4286
 30
0.0
 11
110.341
 21
0.714299999999998
 31
0.0
  0
LINE
  5
231
330
1E
100
AcDbEntity
  8
0
100
AcDbLine
 10
110.0
 20
1.4286
 30
0.0
 11
110.0
 21
13.5714
 31
0.0
  0
LINE
  5
233
330
1E
100
AcDbEntity
  8
0
100
AcDbLine
 10
111.3639999999999
 20
14.7857
 30
0.0
 11
112.386
 21
15.0
 31
0.0
  0
LINE
  5
234
330
1E
100
AcDbEntity
  8
0
100
AcDbLine
 10
110.5739999999999
 20
14.2857
 30
0.0
 11
111.6789999999999
 21
14.70099999999999
 31
0.0
  0
LINE
  5
235
330
1E
100
AcDbEntity
  8
0
100
AcDbLine
 10
110.5739999999999
 20
0.714299999999998
 30
0.0
 11
111.6789999999999
 21
0.298999999999998
 31
0.0
  0
LINE
  5
238
330
1E
100
AcDbEntity
  8
0
100
AcDbLine
 10
111.6789999999999
 20
14.70099999999999
 30
0.0
 11
113.494
 21
14.8556
 31
0.0
  0
LINE
  5
23B
330
1E
100
AcDbEntity
  8
0
100
AcDbLine
 10
111.6789999999999
 20
0.298999999999998
 30
0.0
 11
113.494
 21
0.144399999999998
 31
0.0
  0
LINE
  5
23E
330
1E
100
AcDbEntity
  8
0
100
AcDbLine
 10
112.386
 20
-0.0000000000000024
 30
0.0
 11
112.8639999999999
 21
-0.0000000000000022
 31
0.0
  0
LINE
  5
23F
330
1E
100
AcDbEntity
  8
0
100
AcDbLine
 10
112.386
 20
-0.0000000000000024
 30
0.0
 11
112.8639999999999
 21
-0.0000000000000027
 31
0.0
  0
LINE
  5
240
330
1E
100
AcDbEntity
  8
0
100
AcDbLine
 10
112.386
 20
15.0
 30
0.0
 11
112.8639999999999
 21
15.0
 31
0.0
  0
LINE
  5
241
330
1E
100
AcDbEntity
  8
0
100
AcDbLine
 10
114.402
 20
-0.0000000000000026
 30
0.0
 11
115.5029999999999
 21
-0.0000000000000028
 31
0.0
  0
LINE
  5
242
330
1E
100
AcDbEntity
  8
0
100
AcDbLine
 10
112.8639999999999
 20
-0.0000000000000027
 30
0.0
 11
114.091
 21
-0.0000000000000029
 31
0.0
  0
LINE
  5
243
330
1E
100
AcDbEntity
  8
0
100
AcDbLine
 10
114.091
 20
-0.0000000000000029
 30
0.0
 11
116.0679999999999
 21
-0.000000000000003
 31
0.0
  0
LINE
  5
244
330
1E
100
AcDbEntity
  8
0
100
AcDbLine
 10
118.727
 20
-0.0000000000000032
 30
0.0
 11
121.727
 21
-0.0000000000000033
 31
0.0
  0
LINE
  5
245
330
1E
100
AcDbEntity
  8
0
100
AcDbLine
 10
121.727
 20
-0.0000000000000033
 30
0.0
 11
125.0
 21
-0.0000000000000033
 31
0.0
  0
LINE
  5
246
330
1E
100
AcDbEntity
  8
0
100
AcDbLine
 10
122.2829999999999
 20
-0.0000000000000031
 30
0.0
 11
124.891
 21
-0.0000000000000031
 31
0.0
  0
LINE
  5
247
330
1E
100
AcDbEntity
  8
0
100
AcDbLine
 10
119.8489999999999
 20
-0.000000000000003
 30
0.0
 11
122.2829999999999
 21
-0.0000000000000031
 31
0.0
  0
LINE
  5
248
330
1E
100
AcDbEntity
  8
0
100
AcDbLine
 10
117.357
 20
-0.0000000000000029
 30
0.0
 11
119.8489999999999
 21
-0.000000000000003
 31
0.0
  0
LINE
  5
249
330
1E
100
AcDbEntity
  8
0
100
AcDbLine
 10
116.0679999999999
 20
-0.000000000000003
 30
0.0
 11
118.727
 21
-0.0000000000000032
 31
0.0
  0
LINE
  5
24A
330
1E
100
AcDbEntity
  8
0
100
AcDbLine
 10
115.5029999999999
 20
-0.0000000000000028
 30
0.0
 11
117.357
 21
-0.0000000000000029
 31
0.0
  0
LINE
  5
24C
330
1E
100
AcDbEntity
  8
0
100
AcDbLine
 10
115.4739999999999
 20
-0.0000000000000021
 30
0.0
 11
117.3279999999999
 21
-0.000000000000002
 31
0.0
  0
LINE
  5
24D
330
1E
100
AcDbEntity
  8
0
100
AcDbLine
 10
114.402
 20
-0.0000000000000023
 30
0.0
 11
115.4739999999999
 21
-0.0000000000000021
 31
0.0
  0
LINE
  5
24E
330
1E
100
AcDbEntity
  8
0
100
AcDbLine
 10
112.8639999999999
 20
-0.0000000000000022
 30
0.0
 11
114.091
 21
-0.000000000000002
 31
0.0
  0
LINE
  5
250
330
1E
100
AcDbEntity
  8
0
100
AcDbLine
 10
117.3279999999999
 20
-0.000000000000002
 30
0.0
 11
119.8199999999999
 21
-0.0000000000000019
 31
0.0
  0
LINE
  5
251
330
1E
100
AcDbEntity
  8
0
100
AcDbLine
 10
122.312
 20
-0.0000000000000018
 30
0.0
 11
124.8329999999999
 21
-0.0000000000000018
 31
0.0
  0
LINE
  5
252
330
1E
100
AcDbEntity
  8
0
100
AcDbLine
 10
119.8199999999999
 20
-0.0000000000000019
 30
0.0
 11
122.312
 21
-0.0000000000000018
 31
0.0
  0
LINE
  5
253
330
1E
100
AcDbEntity
  8
0
100
AcDbLine
 10
114.0249999999999
 20
-0.0000000000000025
 30
0.0
 11
114.402
 21
-0.0000000000000023
 31
0.0
  0
LINE
  5
254
330
1E
100
AcDbEntity
  8
0
100
AcDbLine
 10
114.0249999999999
 20
-0.0000000000000025
 30
0.0
 11
114.402
 21
-0.0000000000000026
 31
0.0
  0
LINE
  5
255
330
1E
100
AcDbEntity
  8
0
100
AcDbLine
 10
125.0
 20
-0.0000000000000033
 30
0.0
 11
128.2729999999999
 21
-0.0000000000000033
 31
0.0
  0
LINE
  5
256
330
1E
100
AcDbEntity
  8
0
100
AcDbLine
 10
124.891
 20
-0.0000000000000031
 30
0.0
 11
127.412
 21
-0.0000000000000031
 31
0.0
  0
LINE
  5
257
330
1E
100
AcDbEntity
  8
0
100
AcDbLine
 10
133.932
 20
-0.000000000000003
 30
0.0
 11
135.9089999999999
 21
-0.0000000000000029
 31
0.0
  0
LINE
  5
258
330
1E
100
AcDbEntity
  8
0
100
AcDbLine
 10
132.309
 20
-0.0000000000000029
 30
0.0
 11
134.482
 21
-0.0000000000000028
 31
0.0
  0
LINE
  5
259
330
1E
100
AcDbEntity
  8
0
100
AcDbLine
 10
131.2729999999999
 20
-0.0000000000000032
 30
0.0
 11
133.932
 21
-0.000000000000003
 31
0.0
  0
LINE
  5
25A
330
1E
100
AcDbEntity
  8
0
100
AcDbLine
 10
129.846
 20
-0.0000000000000031
 30
0.0
 11
132.309
 21
-0.0000000000000029
 31
0.0
  0
LINE
  5
25B
330
1E
100
AcDbEntity
  8
0
100
AcDbLine
 10
128.2729999999999
 20
-0.0000000000000033
 30
0.0
 11
131.2729999999999
 21
-0.0000000000000032
 31
0.0
  0
LINE
  5
25C
330
1E
100
AcDbEntity
  8
0
100
AcDbLine
 10
127.412
 20
-0.0000000000000031
 30
0.0
 11
129.846
 21
-0.0000000000000031
 31
0.0
  0
LINE
  5
25D
330
1E
100
AcDbEntity
  8
0
100
AcDbLine
 10
127.412
 20
-0.0000000000000018
 30
0.0
 11
129.875
 21
-0.0000000000000018
 31
0.0
  0
LINE
  5
25E
330
1E
100
AcDbEntity
  8
0
100
AcDbLine
 10
129.875
 20
-0.0000000000000018
 30
0.0
 11
132.396
 21
-0.000000000000002
 31
0.0
  0
LINE
  5
25F
330
1E
100
AcDbEntity
  8
0
100
AcDbLine
 10
132.396
 20
-0.000000000000002
 30
0.0
 11
134.395
 21
-0.0000000000000021
 31
0.0
  0
LINE
  5
260
330
1E
100
AcDbEntity
  8
0
100
AcDbLine
 10
124.8329999999999
 20
-0.0000000000000018
 30
0.0
 11
127.412
 21
-0.0000000000000018
 31
0.0
  0
LINE
  5
261
330
1E
100
AcDbEntity
  8
0
100
AcDbLine
 10
113.494
 20
0.144399999999998
 30
0.0
 11
115.318
 21
0.259699999999998
 31
0.0
  0
LINE
  5
266
330
1E
100
AcDbEntity
  8
0
100
AcDbLine
 10
114.091
 20
15.0
 30
0.0
 11
116.0679999999999
 21
15.0
 31
0.0
  0
LINE
  5
267
330
1E
100
AcDbEntity
  8
0
100
AcDbLine
 10
112.8639999999999
 20
15.0
 30
0.0
 11
114.091
 21
15.0
 31
0.0
  0
LINE
  5
268
330
1E
100
AcDbEntity
  8
0
100
AcDbLine
 10
113.494
 20
14.8556
 30
0.0
 11
115.318
 21
14.74029999999999
 31
0.0
  0
LINE
  5
26C
330
1E
100
AcDbEntity
  8
0
100
AcDbLine
 10
116.596
 20
0.714299999999998
 30
0.0
 11
117.7049999999999
 21
0.714299999999998
 31
0.0
  0
LINE
  5
26E
330
1E
100
AcDbEntity
  8
0
100
AcDbLine
 10
116.0679999999999
 20
15.0
 30
0.0
 11
118.727
 21
15.0
 31
0.0
  0
LINE
  5
26F
330
1E
100
AcDbEntity
  8
0
100
AcDbLine
 10
115.318
 20
14.74029999999999
 30
0.0
 11
116.596
 21
14.2857
 31
0.0
  0
LINE
  5
273
330
1E
100
AcDbEntity
  8
0
100
AcDbLine
 10
115.318
 20
0.259699999999998
 30
0.0
 11
116.596
 21
0.714299999999998
 31
0.0
  0
LINE
  5
278
330
1E
100
AcDbEntity
  8
0
100
AcDbLine
 10
117.7049999999999
 20
14.2857
 30
0.0
 11
118.3799999999999
 21
14.2857
 31
0.0
  0
LINE
  5
27A
330
1E
100
AcDbEntity
  8
0
100
AcDbLine
 10
117.7049999999999
 20
0.714299999999998
 30
0.0
 11
118.3799999999999
 21
0.714299999999998
 31
0.0
  0
LINE
  5
281
330
1E
100
AcDbEntity
  8
0
100
AcDbLine
 10
118.3799999999999
 20
14.2857
 30
0.0
 11
121.564
 21
14.8286
 31
0.0
  0
LINE
  5
282
330
1E
100
AcDbEntity
  8
0
100
AcDbLine
 10
118.3799999999999
 20
0.714299999999998
 30
0.0
 11
121.564
 21
0.171399999999998
 31
0.0
  0
LINE
  5
283
330
1E
100
AcDbEntity
  8
0
100
AcDbLine
 10
121.564
 20
14.8286
 30
0.0
 11
125.0
 21
14.9286
 31
0.0
  0
LINE
  5
285
330
1E
100
AcDbEntity
  8
0
100
AcDbLine
 10
121.727
 20
15.0
 30
0.0
 11
125.0
 21
15.0
 31
0.0
  0
LINE
  5
286
330
1E
100
AcDbEntity
  8
0
100
AcDbLine
 10
121.564
 20
0.171399999999998
 30
0.0
 11
125.0
 21
0.0713999999999984
 31
0.0
  0
LINE
  5
287
330
1E
100
AcDbEntity
  8
0
100
AcDbLine
 10
118.727
 20
15.0
 30
0.0
 11
121.727
 21
15.0
 31
0.0
  0
LINE
  5
28A
330
1E
100
AcDbEntity
  8
0
100
AcDbLine
 10
116.596
 20
14.2857
 30
0.0
 11
117.7049999999999
 21
14.2857
 31
0.0
  0
LINE
  5
28C
330
1E
100
AcDbEntity
  8
0
100
AcDbLine
 10
125.0
 20
15.0
 30
0.0
 11
128.2729999999999
 21
15.0
 31
0.0
  0
LINE
  5
28E
330
1E
100
AcDbEntity
  8
0
100
AcDbLine
 10
128.2729999999999
 20
15.0
 30
0.0
 11
131.2729999999999
 21
15.0
 31
0.0
  0
LINE
  5
291
330
1E
100
AcDbEntity
  8
0
100
AcDbLine
 10
132.2959999999999
 20
0.714299999999998
 30
0.0
 11
133.4039999999999
 21
0.714299999999998
 31
0.0
  0
LINE
  5
294
330
1E
100
AcDbEntity
  8
0
100
AcDbLine
 10
133.4039999999999
 20
0.714299999999998
 30
0.0
 11
134.682
 21
0.259699999999998
 31
0.0
  0
LINE
  5
296
330
1E
100
AcDbEntity
  8
0
100
AcDbLine
 10
131.2729999999999
 20
15.0
 30
0.0
 11
133.932
 21
15.0
 31
0.0
  0
LINE
  5
298
330
1E
100
AcDbEntity
  8
0
100
AcDbLine
 10
132.2959999999999
 20
14.2857
 30
0.0
 11
133.4039999999999
 21
14.2857
 31
0.0
  0
LINE
  5
29F
330
1E
100
AcDbEntity
  8
0
100
AcDbLine
 10
133.932
 20
15.0
 30
0.0
 11
135.9089999999999
 21
15.0
 31
0.0
  0
LINE
  5
2A2
330
1E
100
AcDbEntity
  8
0
100
AcDbLine
 10
133.4039999999999
 20
14.2857
 30
0.0
 11
134.682
 21
14.74029999999999
 31
0.0
  0
LINE
  5
2A6
330
1E
100
AcDbEntity
  8
0
100
AcDbLine
 10
131.62
 20
14.2857
 30
0.0
 11
132.2959999999999
 21
14.2857
 31
0.0
  0
LINE
  5
2A8
330
1E
100
AcDbEntity
  8
0
100
AcDbLine
 10
131.62
 20
0.714299999999998
 30
0.0
 11
132.2959999999999
 21
0.714299999999998
 31
0.0
  0
LINE
  5
2A9
330
1E
100
AcDbEntity
  8
0
100
AcDbLine
 10
128.436
 20
14.8286
 30
0.0
 11
131.62
 21
14.2857
 31
0.0
  0
LINE
  5
2AC
330
1E
100
AcDbEntity
  8
0
100
AcDbLine
 10
128.436
 20
0.171399999999998
 30
0.0
 11
131.62
 21
0.714299999999998
 31
0.0
  0
LINE
  5
2AD
330
1E
100
AcDbEntity
  8
0
100
AcDbLine
 10
125.0
 20
14.9286
 30
0.0
 11
128.436
 21
14.8286
 31
0.0
  0
LINE
  5
2AE
330
1E
100
AcDbEntity
  8
0
100
AcDbLine
 10
125.0
 20
0.0713999999999984
 30
0.0
 11
128.436
 21
0.171399999999998
 31
0.0
  0
LINE
  5
2AF
330
1E
100
AcDbEntity
  8
0
100
AcDbLine
 10
134.482
 20
-0.0000000000000028
 30
0.0
 11
135.583
 21
-0.0000000000000026
 31
0.0
  0
LINE
  5
2B0
330
1E
100
AcDbEntity
  8
0
100
AcDbLine
 10
135.9089999999999
 20
-0.0000000000000029
 30
0.0
 11
137.1359999999999
 21
-0.0000000000000027
 31
0.0
  0
LINE
  5
2B1
330
1E
100
AcDbEntity
  8
0
100
AcDbLine
 10
135.583
 20
-0.0000000000000026
 30
0.0
 11
136.0179999999999
 21
-0.0000000000000024
 31
0.0
  0
LINE
  5
2B2
330
1E
100
AcDbEntity
  8
0
100
AcDbLine
 10
135.497
 20
-0.0000000000000023
 30
0.0
 11
136.0179999999999
 21
-0.0000000000000024
 31
0.0
  0
LINE
  5
2B3
330
1E
100
AcDbEntity
  8
0
100
AcDbLine
 10
134.682
 20
14.74029999999999
 30
0.0
 11
136.5059999999999
 21
14.8556
 31
0.0
  0
LINE
  5
2B4
330
1E
100
AcDbEntity
  8
0
100
AcDbLine
 10
134.682
 20
0.259699999999998
 30
0.0
 11
136.5059999999999
 21
0.144399999999998
 31
0.0
  0
LINE
  5
2B5
330
1E
100
AcDbEntity
  8
0
100
AcDbLine
 10
134.395
 20
-0.0000000000000021
 30
0.0
 11
135.497
 21
-0.0000000000000023
 31
0.0
  0
LINE
  5
2B6
330
1E
100
AcDbEntity
  8
0
100
AcDbLine
 10
137.1359999999999
 20
-0.0000000000000027
 30
0.0
 11
137.614
 21
-0.0000000000000024
 31
0.0
  0
LINE
  5
2BA
330
1E
100
AcDbEntity
  8
0
100
AcDbLine
 10
136.5059999999999
 20
0.144399999999998
 30
0.0
 11
138.321
 21
0.298999999999998
 31
0.0
  0
LINE
  5
2BC
330
1E
100
AcDbEntity
  8
0
100
AcDbLine
 10
136.5059999999999
 20
14.8556
 30
0.0
 11
138.321
 21
14.70099999999999
 31
0.0
  0
LINE
  5
2BD
330
1E
100
AcDbEntity
  8
0
100
AcDbLine
 10
135.9089999999999
 20
15.0
 30
0.0
 11
137.1359999999999
 21
15.0
 31
0.0
  0
LINE
  5
2C1
330
1E
100
AcDbEntity
  8
0
100
AcDbLine
 10
137.1359999999999
 20
15.0
 30
0.0
 11
137.614
 21
15.0
 31
0.0
  0
LINE
  5
2C2
330
1E
100
AcDbEntity
  8
0
100
AcDbLine
 10
134.204
 20
15.0
 30
0.0
 11
136.284
 21
15.0
 31
0.0
  0
LINE
  5
2C3
330
1E
100
AcDbEntity
  8
0
100
AcDbLine
 10
136.284
 20
15.0
 30
0.0
 11
137.532
 21
15.0
 31
0.0
  0
LINE
  5
2C4
330
1E
100
AcDbEntity
  8
0
100
AcDbLine
 10
137.614
 20
-0.0000000000000024
 30
0.0
 11
138.636
 21
0.214299999999998
 31
0.0
  0
LINE
  5
2C5
330
1E
100
AcDbEntity
  8
0
100
AcDbLine
 10
137.614
 20
-0.0000000000000024
 30
0.0
 11
138.636
 21
0.214299999999998
 31
0.0
  0
LINE
  5
2C6
330
1E
100
AcDbEntity
  8
0
100
AcDbLine
 10
138.321
 20
0.298999999999998
 30
0.0
 11
139.426
 21
0.7142999999999971
 31
0.0
  0
LINE
  5
2C7
330
1E
100
AcDbEntity
  8
0
100
AcDbLine
 10
138.636
 20
0.214299999999998
 30
0.0
 11
139.6589999999999
 21
0.714299999999998
 31
0.0
  0
LINE
  5
2CA
330
1E
100
AcDbEntity
  8
0
100
AcDbLine
 10
138.636
 20
0.214299999999998
 30
0.0
 11
139.6589999999999
 21
0.714299999999998
 31
0.0
  0
LINE
  5
2CB
330
1E
100
AcDbEntity
  8
0
100
AcDbLine
 10
139.6589999999999
 20
0.714299999999998
 30
0.0
 11
140.0
 21
1.4286
 31
0.0
  0
LINE
  5
2CC
330
1E
100
AcDbEntity
  8
0
100
AcDbLine
 10
139.426
 20
0.714299999999998
 30
0.0
 11
139.6589999999999
 21
0.714299999999998
 31
0.0
  0
LINE
  5
2CD
330
1E
100
AcDbEntity
  8
0
100
AcDbLine
 10
140.0
 20
13.5714
 30
0.0
 11
140.0
 21
1.4286
 31
0.0
  0
LINE
  5
2CE
330
1E
100
AcDbEntity
  8
0
100
AcDbLine
 10
139.6589999999999
 20
14.2857
 30
0.0
 11
140.0
 21
13.5714
 31
0.0
  0
LINE
  5
2CF
330
1E
100
AcDbEntity
  8
0
100
AcDbLine
 10
139.426
 20
14.2857
 30
0.0
 11
139.6589999999999
 21
14.2857
 31
0.0
  0
LINE
  5
2D0
330
1E
100
AcDbEntity
  8
0
100
AcDbLine
 10
138.636
 20
14.7857
 30
0.0
 11
139.6589999999999
 21
14.2857
 31
0.0
  0
LINE
  5
2D1
330
1E
100
AcDbEntity
  8
0
100
AcDbLine
 10
140.0
 20
1.4286
 30
0.0
 11
140.0
 21
13.5714
 31
0.0
  0
LINE
  5
2D2
330
1E
100
AcDbEntity
  8
0
100
AcDbLine
 10
138.321
 20
14.70099999999999
 30
0.0
 11
139.426
 21
14.2857
 31
0.0
  0
LINE
  5
2D5
330
1E
100
AcDbEntity
  8
0
100
AcDbLine
 10
138.321
 20
0.298999999999998
 30
0.0
 11
139.426
 21
0.714299999999998
 31
0.0
  0
LINE
  5
2D6
330
1E
100
AcDbEntity
  8
0
100
AcDbLine
 10
137.614
 20
15.0
 30
0.0
 11
138.0
 21
15.0
 31
0.0
  0
LINE
  5
2D7
330
1E
100
AcDbEntity
  8
0
100
AcDbLine
 10
137.614
 20
15.0
 30
0.0
 11
138.636
 21
14.7857
 31
0.0
  0
LINE
  5
2D8
330
1E
100
AcDbEntity
  8
0
100
AcDbLine
 10
138.0
 20
15.0
 30
0.0
 11
138.0
 21
19.0
 31
0.0
  0
LINE
  5
2D9
330
1E
100
AcDbEntity
  8
0
100
AcDbLine
 10
137.532
 20
15.0
 30
0.0
 11
138.0
 21
15.0
 31
0.0
  0
LINE
  5
2DA
330
1E
100
AcDbEntity
  8
0
100
AcDbLine
 10
113.716
 20
15.0
 30
0.0
 11
115.796
 21
15.0
 31
0.0
  0
LINE
  5
2DB
330
1E
100
AcDbEntity
  8
0
100
AcDbLine
 10
112.4679999999999
 20
15.0
 30
0.0
 11
113.716
 21
15.0
 31
0.0
  0
LINE
  5
2DC
330
1E
100
AcDbEntity
  8
0
100
AcDbLine
 10
112.0
 20
19.0
 30
0.0
 11
112.0
 21
15.0
 31
0.0
  0
LINE
  5
2DD
330
1E
100
AcDbEntity
  8
0
100
AcDbLine
 10
112.0
 20
15.0
 30
0.0
 11
112.4679999999999
 21
15.0
 31
0.0
  0
LINE
  5
2DE
330
1E
100
AcDbEntity
  8
0
100
AcDbLine
 10
112.0
 20
15.0
 30
0.0
 11
112.386
 21
15.0
 31
0.0
  0
LINE
  5
2DF
330
1E
100
AcDbEntity
  8
0
100
AcDbLine
 10
112.0
 20
15.0
 30
0.0
 11
112.0
 21
19.0
 31
0.0
  0
LINE
  5
350
330
1E
100
AcDbEntity
  8
0
100
AcDbLine
 10
153.0
 20
19.0
 30
0.0
 11
153.0
 21
19.46799999999999
 31
0.0
  0
LINE
  5
351
330
1E
100
AcDbEntity
  8
0
100
AcDbLine
 10
125.0
 20
19.0
 30
0.0
 11
128.3279999999999
 21
19.46799999999999
 31
0.0
  0
LINE
  5
352
330
1E
100
AcDbEntity
  8
0
100
AcDbLine
 10
128.3279999999999
 20
19.46799999999999
 30
0.0
 11
131.4479999999999
 21
20.71599999999999
 31
0.0
  0
LINE
  5
353
330
1E
100
AcDbEntity
  8
0
100
AcDbLine
 10
121.672
 20
19.46799999999999
 30
0.0
 11
125.0
 21
19.0
 31
0.0
  0
LINE
  5
354
330
1E
100
AcDbEntity
  8
0
100
AcDbLine
 10
121.9279999999999
 20
20.432
 30
0.0
 11
125.0
 21
20.0
 31
0.0
  0
LINE
  5
355
330
1E
100
AcDbEntity
  8
0
100
AcDbLine
 10
125.0
 20
20.28799999999999
 30
0.0
 11
128.024
 21
20.72
 31
0.0
  0
LINE
  5
356
330
1E
100
AcDbEntity
  8
0
100
AcDbLine
 10
128.072
 20
20.432
 30
0.0
 11
130.952
 21
21.58399999999999
 31
0.0
  0
LINE
  5
357
330
1E
100
AcDbEntity
  8
0
100
AcDbLine
 10
125.0
 20
20.0
 30
0.0
 11
128.072
 21
20.432
 31
0.0
  0
LINE
  5
358
330
1E
100
AcDbEntity
  8
0
100
AcDbLine
 10
153.0
 20
19.46799999999999
 30
0.0
 11
153.0
 21
19.0
 31
0.0
  0
LINE
  5
359
330
1E
100
AcDbEntity
  8
0
100
AcDbLine
 10
153.0
 20
19.46799999999999
 30
0.0
 11
153.0
 21
20.71599999999999
 31
0.0
  0
LINE
  5
35A
330
1E
100
AcDbEntity
  8
0
100
AcDbLine
 10
118.552
 20
20.71599999999999
 30
0.0
 11
121.672
 21
19.46799999999999
 31
0.0
  0
LINE
  5
35B
330
1E
100
AcDbEntity
  8
0
100
AcDbLine
 10
121.9759999999999
 20
20.72
 30
0.0
 11
125.0
 21
20.28799999999999
 31
0.0
  0
LINE
  5
35C
330
1E
100
AcDbEntity
  8
0
100
AcDbLine
 10
115.796
 20
22.79599999999999
 30
0.0
 11
118.552
 21
20.71599999999999
 31
0.0
  0
LINE
  5
35D
330
1E
100
AcDbEntity
  8
0
100
AcDbLine
 10
119.192
 20
21.872
 30
0.0
 11
121.9759999999999
 21
20.72
 31
0.0
  0
LINE
  5
35E
330
1E
100
AcDbEntity
  8
0
100
AcDbLine
 10
119.0479999999999
 20
21.58399999999999
 30
0.0
 11
121.9279999999999
 21
20.432
 31
0.0
  0
LINE
  5
35F
330
1E
100
AcDbEntity
  8
0
100
AcDbLine
 10
122.28
 20
22.2314
 30
0.0
 11
123.764
 21
21.42079999999999
 31
0.0
  0
LINE
  5
362
330
1E
100
AcDbEntity
  8
0
100
AcDbLine
 10
113.716
 20
25.552
 30
0.0
 11
115.796
 21
22.79599999999999
 31
0.0
  0
LINE
  5
363
330
1E
100
AcDbEntity
  8
0
100
AcDbLine
 10
116.744
 20
23.744
 30
0.0
 11
119.192
 21
21.872
 31
0.0
  0
LINE
  5
364
330
1E
100
AcDbEntity
  8
0
100
AcDbLine
 10
116.5039999999999
 20
23.504
 30
0.0
 11
119.0479999999999
 21
21.58399999999999
 31
0.0
  0
LINE
  5
366
330
1E
100
AcDbEntity
  8
0
100
AcDbLine
 10
121.0679999999999
 20
25.01409999999999
 30
0.0
 11
123.0329999999999
 21
24.2279
 31
0.0
  0
LINE
  5
368
330
1E
100
AcDbEntity
  8
0
100
AcDbLine
 10
119.91
 20
23.56199999999999
 30
0.0
 11
122.28
 21
22.2314
 31
0.0
  0
LINE
  5
36B
330
1E
100
AcDbEntity
  8
0
100
AcDbLine
 10
117.526
 20
24.9
 30
0.0
 11
119.91
 21
23.56199999999999
 31
0.0
  0
LINE
  5
36D
330
1E
100
AcDbEntity
  8
0
100
AcDbLine
 10
131.4479999999999
 20
20.71599999999999
 30
0.0
 11
134.204
 21
22.79599999999999
 31
0.0
  0
LINE
  5
36F
330
1E
100
AcDbEntity
  8
0
100
AcDbLine
 10
128.024
 20
20.72
 30
0.0
 11
130.8079999999999
 21
21.872
 31
0.0
  0
LINE
  5
371
330
1E
100
AcDbEntity
  8
0
100
AcDbLine
 10
130.8079999999999
 20
21.872
 30
0.0
 11
133.2559999999999
 21
23.744
 31
0.0
  0
LINE
  5
372
330
1E
100
AcDbEntity
  8
0
100
AcDbLine
 10
130.952
 20
21.58399999999999
 30
0.0
 11
133.496
 21
23.504
 31
0.0
  0
LINE
  5
373
330
1E
100
AcDbEntity
  8
0
100
AcDbLine
 10
134.204
 20
22.79599999999999
 30
0.0
 11
136.284
 21
25.552
 31
0.0
  0
LINE
  5
374
330
1E
100
AcDbEntity
  8
0
100
AcDbLine
 10
127.72
 20
22.2314
 30
0.0
 11
130.09
 21
23.56199999999999
 31
0.0
  0
LINE
  5
375
330
1E
100
AcDbEntity
  8
0
100
AcDbLine
 10
126.236
 20
21.42079999999999
 30
0.0
 11
127.72
 21
22.2314
 31
0.0
  0
LINE
  5
376
330
1E
100
AcDbEntity
  8
0
100
AcDbLine
 10
127.0299999999999
 20
24.2279
 30
0.0
 11
128.9739999999999
 21
25.0354
 31
0.0
  0
LINE
  5
377
330
1E
100
AcDbEntity
  8
0
100
AcDbLine
 10
128.9739999999999
 20
25.0354
 30
0.0
 11
130.712
 21
26.3953
 31
0.0
  0
LINE
  5
378
330
1E
100
AcDbEntity
  8
0
100
AcDbLine
 10
125.04
 20
23.95169999999999
 30
0.0
 11
127.0299999999999
 21
24.2279
 31
0.0
  0
LINE
  5
379
330
1E
100
AcDbEntity
  8
0
100
AcDbLine
 10
130.09
 20
23.56199999999999
 30
0.0
 11
132.474
 21
24.9
 31
0.0
  0
LINE
  5
37A
330
1E
100
AcDbEntity
  8
0
100
AcDbLine
 10
136.284
 20
25.552
 30
0.0
 11
137.532
 21
28.672
 31
0.0
  0
LINE
  5
37B
330
1E
100
AcDbEntity
  8
0
100
AcDbLine
 10
133.2559999999999
 20
23.744
 30
0.0
 11
135.1279999999999
 21
26.19199999999999
 31
0.0
  0
LINE
  5
37C
330
1E
100
AcDbEntity
  8
0
100
AcDbLine
 10
133.496
 20
23.504
 30
0.0
 11
135.416
 21
26.048
 31
0.0
  0
LINE
  5
37D
330
1E
100
AcDbEntity
  8
0
100
AcDbLine
 10
132.474
 20
24.9
 30
0.0
 11
134.143
 21
25.837
 31
0.0
  0
LINE
  5
385
330
1E
100
AcDbEntity
  8
0
100
AcDbLine
 10
125.0
 20
21.25
 30
0.0
 11
126.236
 21
21.42079999999999
 31
0.0
  0
LINE
  5
387
330
1E
100
AcDbEntity
  8
0
100
AcDbLine
 10
123.764
 20
21.42079999999999
 30
0.0
 11
125.0
 21
21.25
 31
0.0
  0
LINE
  5
389
330
1E
100
AcDbEntity
  8
0
100
AcDbLine
 10
123.0329999999999
 20
24.2279
 30
0.0
 11
125.04
 21
23.95169999999999
 31
0.0
  0
LINE
  5
38A
330
1E
100
AcDbEntity
  8
0
100
AcDbLine
 10
153.0
 20
20.71599999999999
 30
0.0
 11
153.0
 21
19.46799999999999
 31
0.0
  0
LINE
  5
38B
330
1E
100
AcDbEntity
  8
0
100
AcDbLine
 10
153.0
 20
20.71599999999999
 30
0.0
 11
153.0
 21
22.79599999999999
 31
0.0
  0
LINE
  5
38C
330
1E
100
AcDbEntity
  8
0
100
AcDbLine
 10
153.0
 20
22.79599999999999
 30
0.0
 11
153.0
 21
20.71599999999999
 31
0.0
  0
LINE
  5
38D
330
1E
100
AcDbEntity
  8
0
100
AcDbLine
 10
153.0
 20
22.79599999999999
 30
0.0
 11
153.0
 21
25.552
 31
0.0
  0
LINE
  5
38E
330
1E
100
AcDbEntity
  8
0
100
AcDbLine
 10
114.872
 20
26.19199999999999
 30
0.0
 11
116.744
 21
23.744
 31
0.0
  0
LINE
  5
38F
330
1E
100
AcDbEntity
  8
0
100
AcDbLine
 10
114.5839999999999
 20
26.048
 30
0.0
 11
116.5039999999999
 21
23.504
 31
0.0
  0
LINE
  5
392
330
1E
100
AcDbEntity
  8
0
100
AcDbLine
 10
115.0
 20
26.4861
 30
0.0
 11
115.0
 21
27.14529999999999
 31
0.0
  0
LINE
  5
393
330
1E
100
AcDbEntity
  8
0
100
AcDbLine
 10
115.0
 20
26.4861
 30
0.0
 11
115.257
 21
26.1737
 31
0.0
  0
LINE
  5
394
330
1E
100
AcDbEntity
  8
0
100
AcDbLine
 10
112.4679999999999
 20
28.672
 30
0.0
 11
113.716
 21
25.552
 31
0.0
  0
LINE
  5
395
330
1E
100
AcDbEntity
  8
0
100
AcDbLine
 10
113.7199999999999
 20
28.976
 30
0.0
 11
114.872
 21
26.19199999999999
 31
0.0
  0
LINE
  5
396
330
1E
100
AcDbEntity
  8
0
100
AcDbLine
 10
113.4319999999999
 20
28.928
 30
0.0
 11
114.5839999999999
 21
26.048
 31
0.0
  0
LINE
  5
397
330
1E
100
AcDbEntity
  8
0
100
AcDbLine
 10
115.0
 20
27.14529999999999
 30
0.0
 11
115.0
 21
29.48
 31
0.0
  0
LINE
  5
398
330
1E
100
AcDbEntity
  8
0
100
AcDbLine
 10
115.0
 20
27.14529999999999
 30
0.0
 11
115.0
 21
26.4861
 31
0.0
  0
LINE
  5
39B
330
1E
100
AcDbEntity
  8
0
100
AcDbLine
 10
134.143
 20
25.837
 30
0.0
 11
134.7899999999999
 21
26.65
 31
0.0
  0
LINE
  5
39C
330
1E
100
AcDbEntity
  8
0
100
AcDbLine
 10
135.1279999999999
 20
26.19199999999999
 30
0.0
 11
136.28
 21
28.976
 31
0.0
  0
LINE
  5
39D
330
1E
100
AcDbEntity
  8
0
100
AcDbLine
 10
135.416
 20
26.048
 30
0.0
 11
136.5679999999999
 21
28.928
 31
0.0
  0
LINE
  5
39E
330
1E
100
AcDbEntity
  8
0
100
AcDbLine
 10
130.712
 20
26.3953
 30
0.0
 11
131.891
 21
28.2228
 31
0.0
  0
LINE
  5
39F
330
1E
100
AcDbEntity
  8
0
100
AcDbLine
 10
131.891
 20
28.2228
 30
0.0
 11
132.615
 21
30.0077
 31
0.0
  0
LINE
  5
3A3
330
1E
100
AcDbEntity
  8
0
100
AcDbLine
 10
136.28
 20
28.976
 30
0.0
 11
136.712
 21
32.0
 31
0.0
  0
LINE
  5
3A4
330
1E
100
AcDbEntity
  8
0
100
AcDbLine
 10
137.532
 20
28.672
 30
0.0
 11
138.0
 21
32.0
 31
0.0
  0
LINE
  5
3A5
330
1E
100
AcDbEntity
  8
0
100
AcDbLine
 10
136.5679999999999
 20
28.928
 30
0.0
 11
137.0
 21
32.0
 31
0.0
  0
LINE
  5
3A6
330
1E
100
AcDbEntity
  8
0
100
AcDbLine
 10
135.0
 20
27.14529999999999
 30
0.0
 11
135.0
 21
29.48
 31
0.0
  0
LINE
  5
3A8
330
1E
100
AcDbEntity
  8
0
100
AcDbLine
 10
134.7899999999999
 20
26.65
 30
0.0
 11
135.0
 21
27.14529999999999
 31
0.0
  0
LINE
  5
3A9
330
1E
100
AcDbEntity
  8
0
100
AcDbLine
 10
119.33
 20
26.3741
 30
0.0
 11
121.0679999999999
 21
25.01409999999999
 31
0.0
  0
LINE
  5
3AA
330
1E
100
AcDbEntity
  8
0
100
AcDbLine
 10
118.087
 20
28.20149999999999
 30
0.0
 11
119.33
 21
26.3741
 31
0.0
  0
LINE
  5
3AB
330
1E
100
AcDbEntity
  8
0
100
AcDbLine
 10
115.857
 20
25.837
 30
0.0
 11
117.526
 21
24.9
 31
0.0
  0
LINE
  5
3AD
330
1E
100
AcDbEntity
  8
0
100
AcDbLine
 10
115.257
 20
26.1737
 30
0.0
 11
115.857
 21
25.837
 31
0.0
  0
LINE
  5
3AE
330
1E
100
AcDbEntity
  8
0
100
AcDbLine
 10
153.0
 20
25.552
 30
0.0
 11
153.0
 21
22.79599999999999
 31
0.0
  0
LINE
  5
3AF
330
1E
100
AcDbEntity
  8
0
100
AcDbLine
 10
153.0
 20
25.552
 30
0.0
 11
153.0
 21
28.672
 31
0.0
  0
LINE
  5
431
330
1E
100
AcDbEntity
  8
0
100
AcDbLine
 10
153.0
 20
28.672
 30
0.0
 11
153.0
 21
25.552
 31
0.0
  0
LINE
  5
432
330
1E
100
AcDbEntity
  8
0
100
AcDbLine
 10
153.0
 20
28.672
 30
0.0
 11
153.0
 21
32.0
 31
0.0
  0
LINE
  5
433
330
1E
100
AcDbEntity
  8
0
100
AcDbLine
 10
138.0
 20
19.0
 30
0.0
 11
153.0
 21
19.0
 31
0.0
  0
LINE
  5
434
330
1E
100
AcDbEntity
  8
0
100
AcDbLine
 10
138.0
 20
19.0
 30
0.0
 11
138.0
 21
15.0
 31
0.0
  0
LINE
  5
435
330
1E
100
AcDbEntity
  8
0
100
AcDbLine
 10
97.0
 20
26.544
 30
0.0
 11
97.0
 21
29.184
 31
0.0
  0
LINE
  5
436
330
1E
100
AcDbEntity
  8
0
100
AcDbLine
 10
97.0
 20
38.448
 30
0.0
 11
97.0
 21
35.328
 31
0.0
  0
LINE
  5
437
330
1E
100
AcDbEntity
  8
0
100
AcDbLine
 10
97.0
 20
38.448
 30
0.0
 11
97.0
 21
41.20399999999999
 31
0.0
  0
LINE
  5
438
330
1E
100
AcDbEntity
  8
0
100
AcDbLine
 10
97.0
 20
35.328
 30
0.0
 11
97.0
 21
32.0
 31
0.0
  0
LINE
  5
439
330
1E
100
AcDbEntity
  8
0
100
AcDbLine
 10
97.0
 20
35.328
 30
0.0
 11
97.0
 21
38.448
 31
0.0
  0
LINE
  5
43A
330
1E
100
AcDbEntity
  8
0
100
AcDbLine
 10
97.0
 20
41.20399999999999
 30
0.0
 11
97.0
 21
38.448
 31
0.0
  0
LINE
  5
43B
330
1E
100
AcDbEntity
  8
0
100
AcDbLine
 10
97.0
 20
41.20399999999999
 30
0.0
 11
97.0
 21
43.284
 31
0.0
  0
LINE
  5
43C
330
1E
100
AcDbEntity
  8
0
100
AcDbLine
 10
97.0
 20
43.0
 30
0.0
 11
97.0
 21
43.284
 31
0.0
  0
LINE
  5
43D
330
1E
100
AcDbEntity
  8
0
100
AcDbLine
 10
97.0
 20
45.0
 30
0.0
 11
97.0
 21
44.53199999999999
 31
0.0
  0
LINE
  5
43E
330
1E
100
AcDbEntity
  8
0
100
AcDbLine
 10
97.0
 20
45.0
 30
0.0
 11
112.0
 21
45.0
 31
0.0
  0
LINE
  5
43F
330
1E
100
AcDbEntity
  8
0
100
AcDbLine
 10
97.0
 20
44.53199999999999
 30
0.0
 11
97.0
 21
43.284
 31
0.0
  0
LINE
  5
440
330
1E
100
AcDbEntity
  8
0
100
AcDbLine
 10
97.0
 20
44.53199999999999
 30
0.0
 11
97.0
 21
45.0
 31
0.0
  0
LINE
  5
441
330
1E
100
AcDbEntity
  8
0
100
AcDbLine
 10
97.0
 20
43.284
 30
0.0
 11
97.0
 21
41.20399999999999
 31
0.0
  0
LINE
  5
442
330
1E
100
AcDbEntity
  8
0
100
AcDbLine
 10
97.0
 20
43.284
 30
0.0
 11
97.0
 21
44.53199999999999
 31
0.0
  0
LINE
  5
443
330
1E
100
AcDbEntity
  8
0
100
AcDbLine
 10
97.0
 20
43.284
 30
0.0
 11
97.0
 21
43.0
 31
0.0
  0
LINE
  5
444
330
1E
100
AcDbEntity
  8
0
100
AcDbLine
 10
97.0
 20
42.60399999999999
 30
0.0
 11
97.0
 21
43.0
 31
0.0
  0
LINE
  5
445
330
1E
100
AcDbEntity
  8
0
100
AcDbLine
 10
97.0
 20
41.548
 30
0.0
 11
97.0
 21
42.60399999999999
 31
0.0
  0
LINE
  5
446
330
1E
100
AcDbEntity
  8
0
100
AcDbLine
 10
97.0
 20
39.788
 30
0.0
 11
97.0
 21
41.548
 31
0.0
  0
LINE
  5
447
330
1E
100
AcDbEntity
  8
0
100
AcDbLine
 10
97.0
 20
37.45599999999999
 30
0.0
 11
97.0
 21
39.788
 31
0.0
  0
LINE
  5
448
330
1E
100
AcDbEntity
  8
0
100
AcDbLine
 10
97.0
 20
34.816
 30
0.0
 11
97.0
 21
37.45599999999999
 31
0.0
  0
LINE
  5
449
330
1E
100
AcDbEntity
  8
0
100
AcDbLine
 10
112.0
 20
32.0
 30
0.0
 11
112.4679999999999
 21
28.672
 31
0.0
  0
LINE
  5
44A
330
1E
100
AcDbEntity
  8
0
100
AcDbLine
 10
112.0
 20
32.0
 30
0.0
 11
112.4679999999999
 21
35.328
 31
0.0
  0
LINE
  5
44B
330
1E
100
AcDbEntity
  8
0
100
AcDbLine
 10
113.2879999999999
 20
32.0
 30
0.0
 11
113.7199999999999
 21
35.024
 31
0.0
  0
LINE
  5
44C
330
1E
100
AcDbEntity
  8
0
100
AcDbLine
 10
113.2879999999999
 20
32.0
 30
0.0
 11
113.7199999999999
 21
28.976
 31
0.0
  0
LINE
  5
44D
330
1E
100
AcDbEntity
  8
0
100
AcDbLine
 10
113.0
 20
32.0
 30
0.0
 11
113.4319999999999
 21
35.07199999999999
 31
0.0
  0
LINE
  5
44E
330
1E
100
AcDbEntity
  8
0
100
AcDbLine
 10
113.0
 20
32.0
 30
0.0
 11
113.4319999999999
 21
28.928
 31
0.0
  0
LINE
  5
44F
330
1E
100
AcDbEntity
  8
0
100
AcDbLine
 10
115.0
 20
29.48
 30
0.0
 11
115.0
 21
32.0
 31
0.0
  0
LINE
  5
450
330
1E
100
AcDbEntity
  8
0
100
AcDbLine
 10
115.0
 20
29.48
 30
0.0
 11
115.0
 21
27.14529999999999
 31
0.0
  0
LINE
  5
468
330
1E
100
AcDbEntity
  8
0
100
AcDbLine
 10
132.615
 20
30.0077
 30
0.0
 11
132.842
 21
31.9202
 31
0.0
  0
LINE
  5
469
330
1E
100
AcDbEntity
  8
0
100
AcDbLine
 10
135.0
 20
29.48
 30
0.0
 11
135.0
 21
27.14529999999999
 31
0.0
  0
LINE
  5
46A
330
1E
100
AcDbEntity
  8
0
100
AcDbLine
 10
135.0
 20
29.48
 30
0.0
 11
135.0
 21
32.0
 31
0.0
  0
LINE
  5
46B
330
1E
100
AcDbEntity
  8
0
100
AcDbLine
 10
117.4039999999999
 20
30.029
 30
0.0
 11
118.087
 21
28.20149999999999
 31
0.0
  0
LINE
  5
483
330
1E
100
AcDbEntity
  8
0
100
AcDbLine
 10
135.0
 20
32.0
 30
0.0
 11
135.0
 21
29.48
 31
0.0
  0
LINE
  5
484
330
1E
100
AcDbEntity
  8
0
100
AcDbLine
 10
135.0
 20
32.0
 30
0.0
 11
135.0
 21
34.52
 31
0.0
  0
LINE
  5
485
330
1E
100
AcDbEntity
  8
0
100
AcDbLine
 10
117.135
 20
31.8777
 30
0.0
 11
117.342
 21
33.7689
 31
0.0
  0
LINE
  5
486
330
1E
100
AcDbEntity
  8
0
100
AcDbLine
 10
117.135
 20
31.8777
 30
0.0
 11
117.4039999999999
 21
30.029
 31
0.0
  0
LINE
  5
487
330
1E
100
AcDbEntity
  8
0
100
AcDbLine
 10
115.0
 20
32.0
 30
0.0
 11
115.0
 21
34.52
 31
0.0
  0
LINE
  5
488
330
1E
100
AcDbEntity
  8
0
100
AcDbLine
 10
115.0
 20
32.0
 30
0.0
 11
115.0
 21
29.48
 31
0.0
  0
LINE
  5
489
330
1E
100
AcDbEntity
  8
0
100
AcDbLine
 10
112.4679999999999
 20
35.328
 30
0.0
 11
113.716
 21
38.448
 31
0.0
  0
LINE
  5
48A
330
1E
100
AcDbEntity
  8
0
100
AcDbLine
 10
113.7199999999999
 20
35.024
 30
0.0
 11
114.872
 21
37.808
 31
0.0
  0
LINE
  5
48B
330
1E
100
AcDbEntity
  8
0
100
AcDbLine
 10
113.4319999999999
 20
35.07199999999999
 30
0.0
 11
114.5839999999999
 21
37.95199999999999
 31
0.0
  0
LINE
  5
48C
330
1E
100
AcDbEntity
  8
0
100
AcDbLine
 10
114.872
 20
37.808
 30
0.0
 11
116.744
 21
40.25599999999999
 31
0.0
  0
LINE
  5
48D
330
1E
100
AcDbEntity
  8
0
100
AcDbLine
 10
113.716
 20
38.448
 30
0.0
 11
115.796
 21
41.20399999999999
 31
0.0
  0
LINE
  5
48E
330
1E
100
AcDbEntity
  8
0
100
AcDbLine
 10
114.5839999999999
 20
37.95199999999999
 30
0.0
 11
116.5039999999999
 21
40.496
 31
0.0
  0
LINE
  5
48F
330
1E
100
AcDbEntity
  8
0
100
AcDbLine
 10
115.0
 20
37.5139
 30
0.0
 11
115.0
 21
36.8547
 31
0.0
  0
LINE
  5
490
330
1E
100
AcDbEntity
  8
0
100
AcDbLine
 10
115.0
 20
37.5139
 30
0.0
 11
115.257
 21
37.8263
 31
0.0
  0
LINE
  5
491
330
1E
100
AcDbEntity
  8
0
100
AcDbLine
 10
115.0
 20
36.8547
 30
0.0
 11
115.0
 21
34.52
 31
0.0
  0
LINE
  5
492
330
1E
100
AcDbEntity
  8
0
100
AcDbLine
 10
115.0
 20
36.8547
 30
0.0
 11
115.0
 21
37.5139
 31
0.0
  0
LINE
  5
496
330
1E
100
AcDbEntity
  8
0
100
AcDbLine
 10
117.342
 20
33.7689
 30
0.0
 11
117.965
 21
35.5751
 31
0.0
  0
LINE
  5
497
330
1E
100
AcDbEntity
  8
0
100
AcDbLine
 10
132.615
 20
33.7689
 30
0.0
 11
132.842
 21
31.9202
 31
0.0
  0
LINE
  5
498
330
1E
100
AcDbEntity
  8
0
100
AcDbLine
 10
136.28
 20
35.024
 30
0.0
 11
136.712
 21
32.0
 31
0.0
  0
LINE
  5
499
330
1E
100
AcDbEntity
  8
0
100
AcDbLine
 10
137.532
 20
35.328
 30
0.0
 11
138.0
 21
32.0
 31
0.0
  0
LINE
  5
49A
330
1E
100
AcDbEntity
  8
0
100
AcDbLine
 10
136.5679999999999
 20
35.07199999999999
 30
0.0
 11
137.0
 21
32.0
 31
0.0
  0
LINE
  5
49B
330
1E
100
AcDbEntity
  8
0
100
AcDbLine
 10
135.0
 20
34.52
 30
0.0
 11
135.0
 21
32.0
 31
0.0
  0
LINE
  5
49C
330
1E
100
AcDbEntity
  8
0
100
AcDbLine
 10
135.0
 20
34.52
 30
0.0
 11
135.0
 21
36.8547
 31
0.0
  0
LINE
  5
4A0
330
1E
100
AcDbEntity
  8
0
100
AcDbLine
 10
135.0
 20
36.8547
 30
0.0
 11
135.0
 21
34.52
 31
0.0
  0
LINE
  5
4A1
330
1E
100
AcDbEntity
  8
0
100
AcDbLine
 10
135.0
 20
36.8547
 30
0.0
 11
135.0
 21
37.5139
 31
0.0
  0
LINE
  5
4A2
330
1E
100
AcDbEntity
  8
0
100
AcDbLine
 10
130.8149999999999
 20
37.36
 30
0.0
 11
132.0359999999999
 21
35.5538
 31
0.0
  0
LINE
  5
4A3
330
1E
100
AcDbEntity
  8
0
100
AcDbLine
 10
132.0359999999999
 20
35.5538
 30
0.0
 11
132.615
 21
33.7689
 31
0.0
  0
LINE
  5
4A4
330
1E
100
AcDbEntity
  8
0
100
AcDbLine
 10
117.965
 20
35.5751
 30
0.0
 11
119.185
 21
37.4238
 31
0.0
  0
LINE
  5
4A5
330
1E
100
AcDbEntity
  8
0
100
AcDbLine
 10
135.1279999999999
 20
37.808
 30
0.0
 11
136.28
 21
35.024
 31
0.0
  0
LINE
  5
4A6
330
1E
100
AcDbEntity
  8
0
100
AcDbLine
 10
135.416
 20
37.95199999999999
 30
0.0
 11
136.5679999999999
 21
35.07199999999999
 31
0.0
  0
LINE
  5
4A7
330
1E
100
AcDbEntity
  8
0
100
AcDbLine
 10
134.7429999999999
 20
37.8263
 30
0.0
 11
135.0
 21
37.5139
 31
0.0
  0
LINE
  5
4A8
330
1E
100
AcDbEntity
  8
0
100
AcDbLine
 10
135.0
 20
37.5139
 30
0.0
 11
135.0
 21
36.8547
 31
0.0
  0
LINE
  5
4A9
330
1E
100
AcDbEntity
  8
0
100
AcDbLine
 10
134.143
 20
38.1629
 30
0.0
 11
134.7429999999999
 21
37.8263
 31
0.0
  0
LINE
  5
4AB
330
1E
100
AcDbEntity
  8
0
100
AcDbLine
 10
136.284
 20
38.448
 30
0.0
 11
137.532
 21
35.328
 31
0.0
  0
LINE
  5
4AC
330
1E
100
AcDbEntity
  8
0
100
AcDbLine
 10
115.857
 20
38.1629
 30
0.0
 11
117.526
 21
39.1
 31
0.0
  0
LINE
  5
4AE
330
1E
100
AcDbEntity
  8
0
100
AcDbLine
 10
115.257
 20
37.8263
 30
0.0
 11
115.857
 21
38.1629
 31
0.0
  0
LINE
  5
4AF
330
1E
100
AcDbEntity
  8
0
100
AcDbLine
 10
119.185
 20
37.4238
 30
0.0
 11
120.882
 21
38.89
 31
0.0
  0
LINE
  5
4B0
330
1E
100
AcDbEntity
  8
0
100
AcDbLine
 10
115.0
 20
34.52
 30
0.0
 11
115.0
 21
32.0
 31
0.0
  0
LINE
  5
4B1
330
1E
100
AcDbEntity
  8
0
100
AcDbLine
 10
115.0
 20
34.52
 30
0.0
 11
115.0
 21
36.8547
 31
0.0
  0
LINE
  5
4B2
330
1E
100
AcDbEntity
  8
0
100
AcDbLine
 10
116.744
 20
40.25599999999999
 30
0.0
 11
119.192
 21
42.128
 31
0.0
  0
LINE
  5
4B3
330
1E
100
AcDbEntity
  8
0
100
AcDbLine
 10
118.552
 20
43.284
 30
0.0
 11
121.672
 21
44.53199999999999
 31
0.0
  0
LINE
  5
4B4
330
1E
100
AcDbEntity
  8
0
100
AcDbLine
 10
115.796
 20
41.20399999999999
 30
0.0
 11
118.552
 21
43.284
 31
0.0
  0
LINE
  5
4B5
330
1E
100
AcDbEntity
  8
0
100
AcDbLine
 10
116.5039999999999
 20
40.496
 30
0.0
 11
119.0479999999999
 21
42.416
 31
0.0
  0
LINE
  5
4B6
330
1E
100
AcDbEntity
  8
0
100
AcDbLine
 10
119.192
 20
42.128
 30
0.0
 11
121.9759999999999
 21
43.28
 31
0.0
  0
LINE
  5
4B7
330
1E
100
AcDbEntity
  8
0
100
AcDbLine
 10
119.0479999999999
 20
42.416
 30
0.0
 11
121.9279999999999
 21
43.568
 31
0.0
  0
LINE
  5
4B8
330
1E
100
AcDbEntity
  8
0
100
AcDbLine
 10
117.526
 20
39.1
 30
0.0
 11
119.91
 21
40.438
 31
0.0
  0
LINE
  5
4B9
330
1E
100
AcDbEntity
  8
0
100
AcDbLine
 10
128.9889999999999
 20
38.95369999999999
 30
0.0
 11
130.8149999999999
 21
37.36
 31
0.0
  0
LINE
  5
4BA
330
1E
100
AcDbEntity
  8
0
100
AcDbLine
 10
132.474
 20
39.1
 30
0.0
 11
134.143
 21
38.1629
 31
0.0
  0
LINE
  5
4BC
330
1E
100
AcDbEntity
  8
0
100
AcDbLine
 10
127.0229999999999
 20
39.7612
 30
0.0
 11
128.9889999999999
 21
38.95369999999999
 31
0.0
  0
LINE
  5
4C0
330
1E
100
AcDbEntity
  8
0
100
AcDbLine
 10
133.2559999999999
 20
40.25599999999999
 30
0.0
 11
135.1279999999999
 21
37.808
 31
0.0
  0
LINE
  5
4C1
330
1E
100
AcDbEntity
  8
0
100
AcDbLine
 10
134.204
 20
41.20399999999999
 30
0.0
 11
136.284
 21
38.448
 31
0.0
  0
LINE
  5
4C2
330
1E
100
AcDbEntity
  8
0
100
AcDbLine
 10
133.496
 20
40.496
 30
0.0
 11
135.416
 21
37.95199999999999
 31
0.0
  0
LINE
  5
4C3
330
1E
100
AcDbEntity
  8
0
100
AcDbLine
 10
130.09
 20
40.438
 30
0.0
 11
132.474
 21
39.1
 31
0.0
  0
LINE
  5
4C5
330
1E
100
AcDbEntity
  8
0
100
AcDbLine
 10
127.72
 20
41.7686
 30
0.0
 11
130.09
 21
40.438
 31
0.0
  0
LINE
  5
4C7
330
1E
100
AcDbEntity
  8
0
100
AcDbLine
 10
124.9339999999999
 20
40.0799
 30
0.0
 11
127.0229999999999
 21
39.7612
 31
0.0
  0
LINE
  5
4C8
330
1E
100
AcDbEntity
  8
0
100
AcDbLine
 10
122.721
 20
39.69749999999999
 30
0.0
 11
124.9339999999999
 21
40.0799
 31
0.0
  0
LINE
  5
4C9
330
1E
100
AcDbEntity
  8
0
100
AcDbLine
 10
120.882
 20
38.89
 30
0.0
 11
122.721
 21
39.69749999999999
 31
0.0
  0
LINE
  5
4CA
330
1E
100
AcDbEntity
  8
0
100
AcDbLine
 10
121.9759999999999
 20
43.28
 30
0.0
 11
125.0
 21
43.71199999999999
 31
0.0
  0
LINE
  5
4CB
330
1E
100
AcDbEntity
  8
0
100
AcDbLine
 10
125.0
 20
42.75
 30
0.0
 11
126.236
 21
42.5792
 31
0.0
  0
LINE
  5
4CD
330
1E
100
AcDbEntity
  8
0
100
AcDbLine
 10
130.8079999999999
 20
42.128
 30
0.0
 11
133.2559999999999
 21
40.25599999999999
 31
0.0
  0
LINE
  5
4CE
330
1E
100
AcDbEntity
  8
0
100
AcDbLine
 10
130.952
 20
42.416
 30
0.0
 11
133.496
 21
40.496
 31
0.0
  0
LINE
  5
4CF
330
1E
100
AcDbEntity
  8
0
100
AcDbLine
 10
126.236
 20
42.5792
 30
0.0
 11
127.72
 21
41.7686
 31
0.0
  0
LINE
  5
4D3
330
1E
100
AcDbEntity
  8
0
100
AcDbLine
 10
131.4479999999999
 20
43.284
 30
0.0
 11
134.204
 21
41.20399999999999
 31
0.0
  0
LINE
  5
4D4
330
1E
100
AcDbEntity
  8
0
100
AcDbLine
 10
128.024
 20
43.28
 30
0.0
 11
130.8079999999999
 21
42.128
 31
0.0
  0
LINE
  5
4D7
330
1E
100
AcDbEntity
  8
0
100
AcDbLine
 10
123.764
 20
42.5792
 30
0.0
 11
125.0
 21
42.75
 31
0.0
  0
LINE
  5
4DA
330
1E
100
AcDbEntity
  8
0
100
AcDbLine
 10
122.28
 20
41.7686
 30
0.0
 11
123.764
 21
42.5792
 31
0.0
  0
LINE
  5
4DC
330
1E
100
AcDbEntity
  8
0
100
AcDbLine
 10
119.91
 20
40.438
 30
0.0
 11
122.28
 21
41.7686
 31
0.0
  0
LINE
  5
4DD
330
1E
100
AcDbEntity
  8
0
100
AcDbLine
 10
121.9279999999999
 20
43.568
 30
0.0
 11
125.0
 21
44.0
 31
0.0
  0
LINE
  5
4DE
330
1E
100
AcDbEntity
  8
0
100
AcDbLine
 10
125.0
 20
43.71199999999999
 30
0.0
 11
128.024
 21
43.28
 31
0.0
  0
LINE
  5
4DF
330
1E
100
AcDbEntity
  8
0
100
AcDbLine
 10
128.072
 20
43.568
 30
0.0
 11
130.952
 21
42.416
 31
0.0
  0
LINE
  5
4E1
330
1E
100
AcDbEntity
  8
0
100
AcDbLine
 10
121.672
 20
44.53199999999999
 30
0.0
 11
125.0
 21
45.0
 31
0.0
  0
LINE
  5
4E2
330
1E
100
AcDbEntity
  8
0
100
AcDbLine
 10
125.0
 20
45.0
 30
0.0
 11
128.3279999999999
 21
44.53199999999999
 31
0.0
  0
LINE
  5
4E3
330
1E
100
AcDbEntity
  8
0
100
AcDbLine
 10
128.3279999999999
 20
44.53199999999999
 30
0.0
 11
131.4479999999999
 21
43.284
 31
0.0
  0
LINE
  5
4E4
330
1E
100
AcDbEntity
  8
0
100
AcDbLine
 10
125.0
 20
44.0
 30
0.0
 11
128.072
 21
43.568
 31
0.0
  0
LINE
  5
4E5
330
1E
100
AcDbEntity
  8
0
100
AcDbLine
 10
138.0
 20
45.0
 30
0.0
 11
153.0
 21
45.0
 31
0.0
  0
LINE
  5
56E
330
1E
100
AcDbEntity
  8
0
100
AcDbLine
 10
153.0
 20
45.0
 30
0.0
 11
153.0
 21
44.53199999999999
 31
0.0
  0
LINE
  5
56F
330
1E
100
AcDbEntity
  8
0
100
AcDbLine
 10
153.0
 20
44.53199999999999
 30
0.0
 11
153.0
 21
43.284
 31
0.0
  0
LINE
  5
570
330
1E
100
AcDbEntity
  8
0
100
AcDbLine
 10
153.0
 20
44.53199999999999
 30
0.0
 11
153.0
 21
45.0
 31
0.0
  0
LINE
  5
571
330
1E
100
AcDbEntity
  8
0
100
AcDbLine
 10
153.0
 20
43.284
 30
0.0
 11
153.0
 21
41.20399999999999
 31
0.0
  0
LINE
  5
572
330
1E
100
AcDbEntity
  8
0
100
AcDbLine
 10
153.0
 20
43.284
 30
0.0
 11
153.0
 21
44.53199999999999
 31
0.0
  0
LINE
  5
573
330
1E
100
AcDbEntity
  8
0
100
AcDbLine
 10
153.0
 20
41.20399999999999
 30
0.0
 11
153.0
 21
38.448
 31
0.0
  0
LINE
  5
574
330
1E
100
AcDbEntity
  8
0
100
AcDbLine
 10
153.0
 20
41.20399999999999
 30
0.0
 11
153.0
 21
43.284
 31
0.0
  0
LINE
  5
575
330
1E
100
AcDbEntity
  8
0
100
AcDbLine
 10
153.0
 20
38.448
 30
0.0
 11
153.0
 21
35.328
 31
0.0
  0
LINE
  5
576
330
1E
100
AcDbEntity
  8
0
100
AcDbLine
 10
153.0
 20
38.448
 30
0.0
 11
153.0
 21
41.20399999999999
 31
0.0
  0
LINE
  5
653
330
1E
100
AcDbEntity
  8
0
100
AcDbLine
 10
153.0
 20
35.328
 30
0.0
 11
153.0
 21
32.0
 31
0.0
  0
LINE
  5
654
330
1E
100
AcDbEntity
  8
0
100
AcDbLine
 10
153.0
 20
35.328
 30
0.0
 11
153.0
 21
38.448
 31
0.0
  0
LINE
  5
655
330
1E
100
AcDbEntity
  8
0
100
AcDbLine
 10
153.0
 20
32.0
 30
0.0
 11
153.0
 21
28.672
 31
0.0
  0
LINE
  5
656
330
1E
100
AcDbEntity
  8
0
100
AcDbLine
 10
153.0
 20
32.0
 30
0.0
 11
153.0
 21
35.328
 31
0.0
  0
LINE
  5
657
330
1E
100
AcDbEntity
  8
0
100
AcDbLine
 10
97.0
 20
32.0
 30
0.0
 11
97.0
 21
34.816
 31
0.0
  0
LINE
  5
658
330
1E
100
AcDbEntity
  8
0
100
AcDbLine
 10
97.0
 20
32.0
 30
0.0
 11
97.0
 21
28.672
 31
0.0
  0
LINE
  5
659
330
1E
100
AcDbEntity
  8
0
100
AcDbLine
 10
97.0
 20
32.0
 30
0.0
 11
97.0
 21
35.328
 31
0.0
  0
LINE
  5
65A
330
1E
100
AcDbEntity
  8
0
100
AcDbLine
 10
97.0
 20
29.184
 30
0.0
 11
97.0
 21
32.0
 31
0.0
  0
LINE
  5
65B
330
1E
100
AcDbEntity
  8
0
100
AcDbLine
 10
57.0
 20
21.0
 30
0.0
 11
97.0
 21
21.0
 31
0.0
  0
LINE
  5
660
330
1E
100
AcDbEntity
  8
0
100
AcDbLine
 10
121.727
 20
49.0
 30
0.0
 11
125.0
 21
49.0
 31
0.0
  0
LINE
  5
661
330
1E
100
AcDbEntity
  8
0
100
AcDbLine
 10
121.564
 20
49.17139999999999
 30
0.0
 11
125.0
 21
49.0714
 31
0.0
  0
LINE
  5
662
330
1E
100
AcDbEntity
  8
0
100
AcDbLine
 10
121.564
 20
63.8286
 30
0.0
 11
125.0
 21
63.9286
 31
0.0
  0
LINE
  5
663
330
1E
100
AcDbEntity
  8
0
100
AcDbLine
 10
122.312
 20
64.0
 30
0.0
 11
124.8329999999999
 21
64.0
 31
0.0
  0
LINE
  5
664
330
1E
100
AcDbEntity
  8
0
100
AcDbLine
 10
122.2829999999999
 20
64.0
 30
0.0
 11
124.891
 21
64.0
 31
0.0
  0
LINE
  5
665
330
1E
100
AcDbEntity
  8
0
100
AcDbLine
 10
121.727
 20
64.0
 30
0.0
 11
125.0
 21
64.0
 31
0.0
  0
LINE
  5
666
330
1E
100
AcDbEntity
  8
0
100
AcDbLine
 10
110.0
 20
62.57139999999999
 30
0.0
 11
110.0
 21
50.42860000000001
 31
0.0
  0
LINE
  5
667
330
1E
100
AcDbEntity
  8
0
100
AcDbLine
 10
110.0
 20
50.42860000000001
 30
0.0
 11
110.0
 21
62.57139999999999
 31
0.0
  0
LINE
  5
668
330
1E
100
AcDbEntity
  8
0
100
AcDbLine
 10
111.3639999999999
 20
63.78569999999999
 30
0.0
 11
112.386
 21
64.0
 31
0.0
  0
LINE
  5
669
330
1E
100
AcDbEntity
  8
0
100
AcDbLine
 10
111.3639999999999
 20
63.78569999999999
 30
0.0
 11
112.386
 21
64.0
 31
0.0
  0
LINE
  5
66A
330
1E
100
AcDbEntity
  8
0
100
AcDbLine
 10
111.6789999999999
 20
63.701
 30
0.0
 11
113.494
 21
63.8556
 31
0.0
  0
LINE
  5
66B
330
1E
100
AcDbEntity
  8
0
100
AcDbLine
 10
110.0
 20
62.57139999999999
 30
0.0
 11
110.341
 21
63.2857
 31
0.0
  0
LINE
  5
66C
330
1E
100
AcDbEntity
  8
0
100
AcDbLine
 10
110.5739999999999
 20
63.2857
 30
0.0
 11
111.6789999999999
 21
63.701
 31
0.0
  0
LINE
  5
66D
330
1E
100
AcDbEntity
  8
0
100
AcDbLine
 10
110.341
 20
63.2857
 30
0.0
 11
111.3639999999999
 21
63.78569999999999
 31
0.0
  0
LINE
  5
66E
330
1E
100
AcDbEntity
  8
0
100
AcDbLine
 10
110.341
 20
63.2857
 30
0.0
 11
111.3639999999999
 21
63.78569999999999
 31
0.0
  0
LINE
  5
66F
330
1E
100
AcDbEntity
  8
0
100
AcDbLine
 10
110.341
 20
63.2857
 30
0.0
 11
110.5739999999999
 21
63.2857
 31
0.0
  0
LINE
  5
670
330
1E
100
AcDbEntity
  8
0
100
AcDbLine
 10
117.7049999999999
 20
63.2857
 30
0.0
 11
118.3799999999999
 21
63.2857
 31
0.0
  0
LINE
  5
671
330
1E
100
AcDbEntity
  8
0
100
AcDbLine
 10
117.3279999999999
 20
64.0
 30
0.0
 11
119.8199999999999
 21
64.0
 31
0.0
  0
LINE
  5
672
330
1E
100
AcDbEntity
  8
0
100
AcDbLine
 10
116.0679999999999
 20
64.0
 30
0.0
 11
118.727
 21
64.0
 31
0.0
  0
LINE
  5
673
330
1E
100
AcDbEntity
  8
0
100
AcDbLine
 10
117.357
 20
64.0
 30
0.0
 11
119.8489999999999
 21
64.0
 31
0.0
  0
LINE
  5
674
330
1E
100
AcDbEntity
  8
0
100
AcDbLine
 10
115.318
 20
63.74030000000001
 30
0.0
 11
116.596
 21
63.2857
 31
0.0
  0
LINE
  5
675
330
1E
100
AcDbEntity
  8
0
100
AcDbLine
 10
114.402
 20
64.0
 30
0.0
 11
115.4739999999999
 21
64.0
 31
0.0
  0
LINE
  5
676
330
1E
100
AcDbEntity
  8
0
100
AcDbLine
 10
114.091
 20
64.0
 30
0.0
 11
116.0679999999999
 21
64.0
 31
0.0
  0
LINE
  5
677
330
1E
100
AcDbEntity
  8
0
100
AcDbLine
 10
114.402
 20
64.0
 30
0.0
 11
115.5029999999999
 21
64.0
 31
0.0
  0
LINE
  5
678
330
1E
100
AcDbEntity
  8
0
100
AcDbLine
 10
112.8639999999999
 20
64.0
 30
0.0
 11
114.091
 21
64.0
 31
0.0
  0
LINE
  5
679
330
1E
100
AcDbEntity
  8
0
100
AcDbLine
 10
112.8639999999999
 20
64.0
 30
0.0
 11
114.091
 21
64.0
 31
0.0
  0
LINE
  5
67A
330
1E
100
AcDbEntity
  8
0
100
AcDbLine
 10
113.494
 20
63.8556
 30
0.0
 11
115.318
 21
63.74030000000001
 31
0.0
  0
LINE
  5
67B
330
1E
100
AcDbEntity
  8
0
100
AcDbLine
 10
112.386
 20
64.0
 30
0.0
 11
112.8639999999999
 21
64.0
 31
0.0
  0
LINE
  5
67C
330
1E
100
AcDbEntity
  8
0
100
AcDbLine
 10
112.386
 20
64.0
 30
0.0
 11
112.8639999999999
 21
64.0
 31
0.0
  0
LINE
  5
67D
330
1E
100
AcDbEntity
  8
0
100
AcDbLine
 10
114.0249999999999
 20
64.0
 30
0.0
 11
114.402
 21
64.0
 31
0.0
  0
LINE
  5
67E
330
1E
100
AcDbEntity
  8
0
100
AcDbLine
 10
114.0249999999999
 20
64.0
 30
0.0
 11
114.402
 21
64.0
 31
0.0
  0
LINE
  5
67F
330
1E
100
AcDbEntity
  8
0
100
AcDbLine
 10
115.4739999999999
 20
64.0
 30
0.0
 11
117.3279999999999
 21
64.0
 31
0.0
  0
LINE
  5
680
330
1E
100
AcDbEntity
  8
0
100
AcDbLine
 10
115.5029999999999
 20
64.0
 30
0.0
 11
117.357
 21
64.0
 31
0.0
  0
LINE
  5
681
330
1E
100
AcDbEntity
  8
0
100
AcDbLine
 10
116.596
 20
63.2857
 30
0.0
 11
117.7049999999999
 21
63.2857
 31
0.0
  0
LINE
  5
682
330
1E
100
AcDbEntity
  8
0
100
AcDbLine
 10
118.3799999999999
 20
63.2857
 30
0.0
 11
121.564
 21
63.8286
 31
0.0
  0
LINE
  5
683
330
1E
100
AcDbEntity
  8
0
100
AcDbLine
 10
119.8199999999999
 20
64.0
 30
0.0
 11
122.312
 21
64.0
 31
0.0
  0
LINE
  5
684
330
1E
100
AcDbEntity
  8
0
100
AcDbLine
 10
119.8489999999999
 20
64.0
 30
0.0
 11
122.2829999999999
 21
64.0
 31
0.0
  0
LINE
  5
685
330
1E
100
AcDbEntity
  8
0
100
AcDbLine
 10
118.727
 20
64.0
 30
0.0
 11
121.727
 21
64.0
 31
0.0
  0
LINE
  5
686
330
1E
100
AcDbEntity
  8
0
100
AcDbLine
 10
112.0
 20
49.0
 30
0.0
 11
112.386
 21
49.0
 31
0.0
  0
LINE
  5
687
330
1E
100
AcDbEntity
  8
0
100
AcDbLine
 10
112.0
 20
49.0
 30
0.0
 11
112.4679999999999
 21
49.0
 31
0.0
  0
LINE
  5
688
330
1E
100
AcDbEntity
  8
0
100
AcDbLine
 10
111.3639999999999
 20
49.2143
 30
0.0
 11
112.386
 21
49.0
 31
0.0
  0
LINE
  5
689
330
1E
100
AcDbEntity
  8
0
100
AcDbLine
 10
111.6789999999999
 20
49.29899999999999
 30
0.0
 11
113.494
 21
49.14439999999999
 31
0.0
  0
LINE
  5
68A
330
1E
100
AcDbEntity
  8
0
100
AcDbLine
 10
112.0
 20
49.0
 30
0.0
 11
112.0
 21
45.0
 31
0.0
  0
LINE
  5
68B
330
1E
100
AcDbEntity
  8
0
100
AcDbLine
 10
112.0
 20
45.0
 30
0.0
 11
112.0
 21
49.0
 31
0.0
  0
LINE
  5
68C
330
1E
100
AcDbEntity
  8
0
100
AcDbLine
 10
110.5739999999999
 20
49.7143
 30
0.0
 11
111.6789999999999
 21
49.29899999999999
 31
0.0
  0
LINE
  5
68D
330
1E
100
AcDbEntity
  8
0
100
AcDbLine
 10
110.341
 20
49.7143
 30
0.0
 11
111.3639999999999
 21
49.2143
 31
0.0
  0
LINE
  5
68E
330
1E
100
AcDbEntity
  8
0
100
AcDbLine
 10
110.0
 20
50.42860000000001
 30
0.0
 11
110.341
 21
49.7143
 31
0.0
  0
LINE
  5
68F
330
1E
100
AcDbEntity
  8
0
100
AcDbLine
 10
110.341
 20
49.7143
 30
0.0
 11
110.5739999999999
 21
49.7143
 31
0.0
  0
LINE
  5
690
330
1E
100
AcDbEntity
  8
0
100
AcDbLine
 10
116.0679999999999
 20
49.0
 30
0.0
 11
118.727
 21
49.0
 31
0.0
  0
LINE
  5
691
330
1E
100
AcDbEntity
  8
0
100
AcDbLine
 10
117.7049999999999
 20
49.7143
 30
0.0
 11
118.3799999999999
 21
49.7143
 31
0.0
  0
LINE
  5
692
330
1E
100
AcDbEntity
  8
0
100
AcDbLine
 10
115.318
 20
49.2597
 30
0.0
 11
116.596
 21
49.7143
 31
0.0
  0
LINE
  5
693
330
1E
100
AcDbEntity
  8
0
100
AcDbLine
 10
116.596
 20
49.7143
 30
0.0
 11
117.7049999999999
 21
49.7143
 31
0.0
  0
LINE
  5
694
330
1E
100
AcDbEntity
  8
0
100
AcDbLine
 10
113.716
 20
49.0
 30
0.0
 11
115.796
 21
49.0
 31
0.0
  0
LINE
  5
695
330
1E
100
AcDbEntity
  8
0
100
AcDbLine
 10
114.091
 20
49.0
 30
0.0
 11
116.0679999999999
 21
49.0
 31
0.0
  0
LINE
  5
696
330
1E
100
AcDbEntity
  8
0
100
AcDbLine
 10
112.8639999999999
 20
49.0
 30
0.0
 11
114.091
 21
49.0
 31
0.0
  0
LINE
  5
697
330
1E
100
AcDbEntity
  8
0
100
AcDbLine
 10
113.494
 20
49.14439999999999
 30
0.0
 11
115.318
 21
49.2597
 31
0.0
  0
LINE
  5
698
330
1E
100
AcDbEntity
  8
0
100
AcDbLine
 10
112.4679999999999
 20
49.0
 30
0.0
 11
113.716
 21
49.0
 31
0.0
  0
LINE
  5
699
330
1E
100
AcDbEntity
  8
0
100
AcDbLine
 10
112.386
 20
49.0
 30
0.0
 11
112.8639999999999
 21
49.0
 31
0.0
  0
LINE
  5
69A
330
1E
100
AcDbEntity
  8
0
100
AcDbLine
 10
118.3799999999999
 20
49.7143
 30
0.0
 11
121.564
 21
49.17139999999999
 31
0.0
  0
LINE
  5
69B
330
1E
100
AcDbEntity
  8
0
100
AcDbLine
 10
118.727
 20
49.0
 30
0.0
 11
121.727
 21
49.0
 31
0.0
  0
LINE
  5
69C
330
1E
100
AcDbEntity
  8
0
100
AcDbLine
 10
140.0
 20
62.57139999999999
 30
0.0
 11
140.0
 21
50.42860000000001
 31
0.0
  0
LINE
  5
69D
330
1E
100
AcDbEntity
  8
0
100
AcDbLine
 10
140.0
 20
50.42860000000001
 30
0.0
 11
140.0
 21
62.57139999999999
 31
0.0
  0
LINE
  5
69E
330
1E
100
AcDbEntity
  8
0
100
AcDbLine
 10
135.9089999999999
 20
64.0
 30
0.0
 11
137.1359999999999
 21
64.0
 31
0.0
  0
LINE
  5
69F
330
1E
100
AcDbEntity
  8
0
100
AcDbLine
 10
134.682
 20
63.74030000000001
 30
0.0
 11
136.5059999999999
 21
63.8556
 31
0.0
  0
LINE
  5
6A0
330
1E
100
AcDbEntity
  8
0
100
AcDbLine
 10
128.436
 20
63.8286
 30
0.0
 11
131.62
 21
63.2857
 31
0.0
  0
LINE
  5
6A1
330
1E
100
AcDbEntity
  8
0
100
AcDbLine
 10
129.875
 20
64.0
 30
0.0
 11
132.396
 21
64.0
 31
0.0
  0
LINE
  5
6A2
330
1E
100
AcDbEntity
  8
0
100
AcDbLine
 10
128.2729999999999
 20
64.0
 30
0.0
 11
131.2729999999999
 21
64.0
 31
0.0
  0
LINE
  5
6A3
330
1E
100
AcDbEntity
  8
0
100
AcDbLine
 10
129.846
 20
64.0
 30
0.0
 11
132.309
 21
64.0
 31
0.0
  0
LINE
  5
6A4
330
1E
100
AcDbEntity
  8
0
100
AcDbLine
 10
125.0
 20
63.9286
 30
0.0
 11
128.436
 21
63.8286
 31
0.0
  0
LINE
  5
6A5
330
1E
100
AcDbEntity
  8
0
100
AcDbLine
 10
124.8329999999999
 20
64.0
 30
0.0
 11
127.412
 21
64.0
 31
0.0
  0
LINE
  5
6A6
330
1E
100
AcDbEntity
  8
0
100
AcDbLine
 10
124.891
 20
64.0
 30
0.0
 11
127.412
 21
64.0
 31
0.0
  0
LINE
  5
6A7
330
1E
100
AcDbEntity
  8
0
100
AcDbLine
 10
125.0
 20
64.0
 30
0.0
 11
128.2729999999999
 21
64.0
 31
0.0
  0
LINE
  5
6A8
330
1E
100
AcDbEntity
  8
0
100
AcDbLine
 10
127.412
 20
64.0
 30
0.0
 11
129.875
 21
64.0
 31
0.0
  0
LINE
  5
6A9
330
1E
100
AcDbEntity
  8
0
100
AcDbLine
 10
127.412
 20
64.0
 30
0.0
 11
129.846
 21
64.0
 31
0.0
  0
LINE
  5
6AA
330
1E
100
AcDbEntity
  8
0
100
AcDbLine
 10
132.396
 20
64.0
 30
0.0
 11
134.395
 21
64.0
 31
0.0
  0
LINE
  5
6AB
330
1E
100
AcDbEntity
  8
0
100
AcDbLine
 10
132.2959999999999
 20
63.2857
 30
0.0
 11
133.4039999999999
 21
63.2857
 31
0.0
  0
LINE
  5
6AC
330
1E
100
AcDbEntity
  8
0
100
AcDbLine
 10
131.2729999999999
 20
64.0
 30
0.0
 11
133.932
 21
64.0
 31
0.0
  0
LINE
  5
6AD
330
1E
100
AcDbEntity
  8
0
100
AcDbLine
 10
132.309
 20
64.0
 30
0.0
 11
134.482
 21
64.0
 31
0.0
  0
LINE
  5
6AE
330
1E
100
AcDbEntity
  8
0
100
AcDbLine
 10
131.62
 20
63.2857
 30
0.0
 11
132.2959999999999
 21
63.2857
 31
0.0
  0
LINE
  5
6AF
330
1E
100
AcDbEntity
  8
0
100
AcDbLine
 10
134.395
 20
64.0
 30
0.0
 11
135.497
 21
64.0
 31
0.0
  0
LINE
  5
6B0
330
1E
100
AcDbEntity
  8
0
100
AcDbLine
 10
134.482
 20
64.0
 30
0.0
 11
135.583
 21
64.0
 31
0.0
  0
LINE
  5
6B1
330
1E
100
AcDbEntity
  8
0
100
AcDbLine
 10
133.932
 20
64.0
 30
0.0
 11
135.9089999999999
 21
64.0
 31
0.0
  0
LINE
  5
6B2
330
1E
100
AcDbEntity
  8
0
100
AcDbLine
 10
133.4039999999999
 20
63.2857
 30
0.0
 11
134.682
 21
63.74030000000001
 31
0.0
  0
LINE
  5
6B3
330
1E
100
AcDbEntity
  8
0
100
AcDbLine
 10
135.497
 20
64.0
 30
0.0
 11
136.0179999999999
 21
64.0
 31
0.0
  0
LINE
  5
6B4
330
1E
100
AcDbEntity
  8
0
100
AcDbLine
 10
135.583
 20
64.0
 30
0.0
 11
136.0179999999999
 21
64.0
 31
0.0
  0
LINE
  5
6B5
330
1E
100
AcDbEntity
  8
0
100
AcDbLine
 10
138.321
 20
63.701
 30
0.0
 11
139.426
 21
63.2857
 31
0.0
  0
LINE
  5
6B6
330
1E
100
AcDbEntity
  8
0
100
AcDbLine
 10
138.321
 20
63.701
 30
0.0
 11
139.426
 21
63.2857
 31
0.0
  0
LINE
  5
6B7
330
1E
100
AcDbEntity
  8
0
100
AcDbLine
 10
138.636
 20
63.78569999999999
 30
0.0
 11
139.6589999999999
 21
63.2857
 31
0.0
  0
LINE
  5
6B8
330
1E
100
AcDbEntity
  8
0
100
AcDbLine
 10
138.636
 20
63.78569999999999
 30
0.0
 11
139.6589999999999
 21
63.2857
 31
0.0
  0
LINE
  5
6B9
330
1E
100
AcDbEntity
  8
0
100
AcDbLine
 10
137.614
 20
64.0
 30
0.0
 11
138.636
 21
63.78569999999999
 31
0.0
  0
LINE
  5
6BA
330
1E
100
AcDbEntity
  8
0
100
AcDbLine
 10
137.614
 20
64.0
 30
0.0
 11
138.636
 21
63.78569999999999
 31
0.0
  0
LINE
  5
6BB
330
1E
100
AcDbEntity
  8
0
100
AcDbLine
 10
136.5059999999999
 20
63.8556
 30
0.0
 11
138.321
 21
63.701
 31
0.0
  0
LINE
  5
6BC
330
1E
100
AcDbEntity
  8
0
100
AcDbLine
 10
137.1359999999999
 20
64.0
 30
0.0
 11
137.614
 21
64.0
 31
0.0
  0
LINE
  5
6BD
330
1E
100
AcDbEntity
  8
0
100
AcDbLine
 10
139.6589999999999
 20
63.2857
 30
0.0
 11
140.0
 21
62.57139999999999
 31
0.0
  0
LINE
  5
6BE
330
1E
100
AcDbEntity
  8
0
100
AcDbLine
 10
139.426
 20
63.2857
 30
0.0
 11
139.6589999999999
 21
63.2857
 31
0.0
  0
LINE
  5
6BF
330
1E
100
AcDbEntity
  8
0
100
AcDbLine
 10
135.9089999999999
 20
49.0
 30
0.0
 11
137.1359999999999
 21
49.0
 31
0.0
  0
LINE
  5
6C0
330
1E
100
AcDbEntity
  8
0
100
AcDbLine
 10
134.204
 20
49.0
 30
0.0
 11
136.284
 21
49.0
 31
0.0
  0
LINE
  5
6C1
330
1E
100
AcDbEntity
  8
0
100
AcDbLine
 10
134.682
 20
49.2597
 30
0.0
 11
136.5059999999999
 21
49.14439999999999
 31
0.0
  0
LINE
  5
6C2
330
1E
100
AcDbEntity
  8
0
100
AcDbLine
 10
128.2729999999999
 20
49.0
 30
0.0
 11
131.2729999999999
 21
49.0
 31
0.0
  0
LINE
  5
6C3
330
1E
100
AcDbEntity
  8
0
100
AcDbLine
 10
128.436
 20
49.17139999999999
 30
0.0
 11
131.62
 21
49.7143
 31
0.0
  0
LINE
  5
6C4
330
1E
100
AcDbEntity
  8
0
100
AcDbLine
 10
125.0
 20
49.0714
 30
0.0
 11
128.436
 21
49.17139999999999
 31
0.0
  0
LINE
  5
6C5
330
1E
100
AcDbEntity
  8
0
100
AcDbLine
 10
125.0
 20
49.0
 30
0.0
 11
128.2729999999999
 21
49.0
 31
0.0
  0
LINE
  5
6C6
330
1E
100
AcDbEntity
  8
0
100
AcDbLine
 10
133.4039999999999
 20
49.7143
 30
0.0
 11
134.682
 21
49.2597
 31
0.0
  0
LINE
  5
6C7
330
1E
100
AcDbEntity
  8
0
100
AcDbLine
 10
132.2959999999999
 20
49.7143
 30
0.0
 11
133.4039999999999
 21
49.7143
 31
0.0
  0
LINE
  5
6C8
330
1E
100
AcDbEntity
  8
0
100
AcDbLine
 10
131.62
 20
49.7143
 30
0.0
 11
132.2959999999999
 21
49.7143
 31
0.0
  0
LINE
  5
6C9
330
1E
100
AcDbEntity
  8
0
100
AcDbLine
 10
131.2729999999999
 20
49.0
 30
0.0
 11
133.932
 21
49.0
 31
0.0
  0
LINE
  5
6CA
330
1E
100
AcDbEntity
  8
0
100
AcDbLine
 10
133.932
 20
49.0
 30
0.0
 11
135.9089999999999
 21
49.0
 31
0.0
  0
LINE
  5
6CB
330
1E
100
AcDbEntity
  8
0
100
AcDbLine
 10
138.0
 20
45.0
 30
0.0
 11
138.0
 21
49.0
 31
0.0
  0
LINE
  5
6CC
330
1E
100
AcDbEntity
  8
0
100
AcDbLine
 10
138.0
 20
49.0
 30
0.0
 11
138.0
 21
45.0
 31
0.0
  0
LINE
  5
6CD
330
1E
100
AcDbEntity
  8
0
100
AcDbLine
 10
138.321
 20
49.29899999999999
 30
0.0
 11
139.426
 21
49.7143
 31
0.0
  0
LINE
  5
6CE
330
1E
100
AcDbEntity
  8
0
100
AcDbLine
 10
138.636
 20
49.2143
 30
0.0
 11
139.6589999999999
 21
49.7143
 31
0.0
  0
LINE
  5
6CF
330
1E
100
AcDbEntity
  8
0
100
AcDbLine
 10
139.6589999999999
 20
49.7143
 30
0.0
 11
140.0
 21
50.42860000000001
 31
0.0
  0
LINE
  5
6D0
330
1E
100
AcDbEntity
  8
0
100
AcDbLine
 10
139.426
 20
49.7143
 30
0.0
 11
139.6589999999999
 21
49.7143
 31
0.0
  0
LINE
  5
6D1
330
1E
100
AcDbEntity
  8
0
100
AcDbLine
 10
137.532
 20
49.0
 30
0.0
 11
138.0
 21
49.0
 31
0.0
  0
LINE
  5
6D2
330
1E
100
AcDbEntity
  8
0
100
AcDbLine
 10
137.614
 20
49.0
 30
0.0
 11
138.636
 21
49.2143
 31
0.0
  0
LINE
  5
6D3
330
1E
100
AcDbEntity
  8
0
100
AcDbLine
 10
137.614
 20
49.0
 30
0.0
 11
138.0
 21
49.0
 31
0.0
  0
LINE
  5
6D4
330
1E
100
AcDbEntity
  8
0
100
AcDbLine
 10
136.5059999999999
 20
49.14439999999999
 30
0.0
 11
138.321
 21
49.29899999999999
 31
0.0
  0
LINE
  5
6D5
330
1E
100
AcDbEntity
  8
0
100
AcDbLine
 10
136.284
 20
49.0
 30
0.0
 11
137.532
 21
49.0
 31
0.0
  0
LINE
  5
6D6
330
1E
100
AcDbEntity
  8
0
100
AcDbLine
 10
137.1359999999999
 20
49.0
 30
0.0
 11
137.614
 21
49.0
 31
0.0
  0
LINE
  5
6D7
330
1E
100
AcDbEntity
  8
0
100
AcDbLine
 10
193.0
 20
43.0
 30
0.0
 11
153.0
 21
43.0
 31
0.0
  0
LINE
  5
6D8
330
1E
100
AcDbEntity
  8
0
100
AcDbLine
 10
193.0
 20
21.0
 30
0.0
 11
153.0
 21
21.0
 31
0.0
  0
LINE
  5
6D9
330
1E
100
AcDbEntity
  8
0
100
AcDbLine
 10
193.0
 20
32.0
 30
0.0
 11
193.0
 21
35.328
 31
0.0
  0
LINE
  5
6DA
330
1E
100
AcDbEntity
  8
0
100
AcDbLine
 10
193.0
 20
35.328
 30
0.0
 11
193.0
 21
32.0
 31
0.0
  0
LINE
  5
6DB
330
1E
100
AcDbEntity
  8
0
100
AcDbLine
 10
238.0
 20
32.0
 30
0.0
 11
237.532
 21
35.328
 31
0.0
  0
LINE
  5
6DC
330
1E
100
AcDbEntity
  8
0
100
AcDbLine
 10
212.468
 20
35.328
 30
0.0
 11
212.0
 21
32.0
 31
0.0
  0
LINE
  5
6DD
330
1E
100
AcDbEntity
  8
0
100
AcDbLine
 10
213.4319999999999
 20
35.07199999999999
 30
0.0
 11
213.0
 21
32.0
 31
0.0
  0
LINE
  5
6DE
330
1E
100
AcDbEntity
  8
0
100
AcDbLine
 10
213.7199999999999
 20
35.024
 30
0.0
 11
213.288
 21
32.0
 31
0.0
  0
LINE
  5
6DF
330
1E
100
AcDbEntity
  8
0
100
AcDbLine
 10
237.0
 20
32.0
 30
0.0
 11
236.568
 21
35.07199999999999
 31
0.0
  0
LINE
  5
6E0
330
1E
100
AcDbEntity
  8
0
100
AcDbLine
 10
236.7119999999999
 20
32.0
 30
0.0
 11
236.28
 21
35.024
 31
0.0
  0
LINE
  5
6E1
330
1E
100
AcDbEntity
  8
0
100
AcDbLine
 10
215.36
 20
34.56
 30
0.0
 11
215.0
 21
32.0
 31
0.0
  0
LINE
  5
6E2
330
1E
100
AcDbEntity
  8
0
100
AcDbLine
 10
234.0
 20
32.0
 30
0.0
 11
234.0
 21
34.2909
 31
0.0
  0
LINE
  5
6E3
330
1E
100
AcDbEntity
  8
0
100
AcDbLine
 10
234.0
 20
34.2909
 30
0.0
 11
234.0
 21
32.0
 31
0.0
  0
LINE
  5
6E4
330
1E
100
AcDbEntity
  8
0
100
AcDbLine
 10
216.0
 20
34.2909
 30
0.0
 11
216.0
 21
32.0
 31
0.0
  0
LINE
  5
6E5
330
1E
100
AcDbEntity
  8
0
100
AcDbLine
 10
218.1465
 20
33.6081
 30
0.0
 11
217.9418
 21
31.9274
 31
0.0
  0
LINE
  5
6E6
330
1E
100
AcDbEntity
  8
0
100
AcDbLine
 10
222.1799999999999
 20
32.756
 30
0.0
 11
222.072
 21
32.0
 31
0.0
  0
LINE
  5
6E7
330
1E
100
AcDbEntity
  8
0
100
AcDbLine
 10
232.0782
 20
31.8888
 30
0.0
 11
231.8919999999999
 21
33.6081
 31
0.0
  0
LINE
  5
6E8
330
1E
100
AcDbEntity
  8
0
100
AcDbLine
 10
216.0
 20
32.0
 30
0.0
 11
216.0
 21
34.2909
 31
0.0
  0
LINE
  5
6E9
330
1E
100
AcDbEntity
  8
0
100
AcDbLine
 10
227.9279999999999
 20
32.0
 30
0.0
 11
227.82
 21
32.756
 31
0.0
  0
LINE
  5
6EA
330
1E
100
AcDbEntity
  8
0
100
AcDbLine
 10
235.0
 20
32.0
 30
0.0
 11
234.64
 21
34.56
 31
0.0
  0
LINE
  5
6EB
330
1E
100
AcDbEntity
  8
0
100
AcDbLine
 10
250.0
 20
42.5
 30
0.0
 11
250.0
 21
32.0
 31
0.0
  0
LINE
  5
6EC
330
1E
100
AcDbEntity
  8
0
100
AcDbLine
 10
250.0
 20
32.0
 30
0.0
 11
250.0
 21
42.5
 31
0.0
  0
LINE
  5
6ED
330
1E
100
AcDbEntity
  8
0
100
AcDbLine
 10
221.4233
 20
25.6685
 30
0.0
 11
219.8593999999999
 21
26.9049
 31
0.0
  0
LINE
  5
6EE
330
1E
100
AcDbEntity
  8
0
100
AcDbLine
 10
222.5521
 20
23.11939999999999
 30
0.0
 11
220.4187
 21
24.3291
 31
0.0
  0
LINE
  5
6EF
330
1E
100
AcDbEntity
  8
0
100
AcDbLine
 10
222.44
 20
22.36
 30
0.0
 11
220.04
 21
23.32
 31
0.0
  0
LINE
  5
6F0
330
1E
100
AcDbEntity
  8
0
100
AcDbLine
 10
221.9759999999999
 20
20.72
 30
0.0
 11
219.192
 21
21.872
 31
0.0
  0
LINE
  5
6F1
330
1E
100
AcDbEntity
  8
0
100
AcDbLine
 10
221.9279999999999
 20
20.432
 30
0.0
 11
219.0479999999999
 21
21.58399999999999
 31
0.0
  0
LINE
  5
6F2
330
1E
100
AcDbEntity
  8
0
100
AcDbLine
 10
221.672
 20
19.46799999999999
 30
0.0
 11
218.5519999999999
 21
20.71599999999999
 31
0.0
  0
LINE
  5
6F3
330
1E
100
AcDbEntity
  8
0
100
AcDbLine
 10
221.672
 20
10.0
 30
0.0
 11
218.5519999999999
 21
10.0
 31
0.0
  0
LINE
  5
6F4
330
1E
100
AcDbEntity
  8
0
100
AcDbLine
 10
221.672
 20
-0.0000000000000017
 30
0.0
 11
218.5519999999999
 21
-0.0000000000000018
 31
0.0
  0
LINE
  5
6F5
330
1E
100
AcDbEntity
  8
0
100
AcDbLine
 10
222.1474
 20
-0.0000000000000018
 30
0.0
 11
219.4730999999999
 21
-0.0000000000000019
 31
0.0
  0
LINE
  5
6F6
330
1E
100
AcDbEntity
  8
0
100
AcDbLine
 10
221.672
 20
-0.0000000000000032
 30
0.0
 11
218.5519999999999
 21
-0.0000000000000031
 31
0.0
  0
LINE
  5
6F7
330
1E
100
AcDbEntity
  8
0
100
AcDbLine
 10
222.1474
 20
-0.0000000000000031
 30
0.0
 11
219.4730999999999
 21
-0.000000000000003
 31
0.0
  0
LINE
  5
6F8
330
1E
100
AcDbEntity
  8
0
100
AcDbLine
 10
238.0
 20
10.0
 30
0.0
 11
238.0
 21
19.0
 31
0.0
  0
LINE
  5
6F9
330
1E
100
AcDbEntity
  8
0
100
AcDbLine
 10
238.0
 20
19.0
 30
0.0
 11
238.0
 21
10.0
 31
0.0
  0
LINE
  5
6FA
330
1E
100
AcDbEntity
  8
0
100
AcDbLine
 10
231.134
 20
-0.0000000000000017
 30
0.0
 11
231.134
 21
6.0
 31
0.0
  0
LINE
  5
6FB
330
1E
100
AcDbEntity
  8
0
100
AcDbLine
 10
231.134
 20
6.0
 30
0.0
 11
231.134
 21
-0.0000000000000018
 31
0.0
  0
LINE
  5
6FC
330
1E
100
AcDbEntity
  8
0
100
AcDbLine
 10
232.8659999999999
 20
-0.0000000000000017
 30
0.0
 11
232.8659999999999
 21
6.0
 31
0.0
  0
LINE
  5
6FD
330
1E
100
AcDbEntity
  8
0
100
AcDbLine
 10
232.8659999999999
 20
6.0
 30
0.0
 11
232.8659999999999
 21
-0.0000000000000018
 31
0.0
  0
LINE
  5
6FE
330
1E
100
AcDbEntity
  8
0
100
AcDbLine
 10
239.0
 20
6.0
 30
0.0
 11
239.0
 21
-0.0000000000000027
 31
0.0
  0
LINE
  5
6FF
330
1E
100
AcDbEntity
  8
0
100
AcDbLine
 10
239.0
 20
-0.0000000000000024
 30
0.0
 11
239.0
 21
6.0
 31
0.0
  0
LINE
  5
700
330
1E
100
AcDbEntity
  8
0
100
AcDbLine
 10
239.0
 20
-0.0000000000000025
 30
0.0
 11
239.0
 21
6.0
 31
0.0
  0
LINE
  5
701
330
1E
100
AcDbEntity
  8
0
100
AcDbLine
 10
234.6719999999999
 20
-0.0000000000000021
 30
0.0
 11
232.8891
 21
-0.000000000000002
 31
0.0
  0
LINE
  5
702
330
1E
100
AcDbEntity
  8
0
100
AcDbLine
 10
234.6719999999999
 20
-0.0000000000000028
 30
0.0
 11
232.8891
 21
-0.0000000000000029
 31
0.0
  0
LINE
  5
703
330
1E
100
AcDbEntity
  8
0
100
AcDbLine
 10
234.204
 20
-0.0000000000000019
 30
0.0
 11
231.448
 21
-0.0000000000000018
 31
0.0
  0
LINE
  5
704
330
1E
100
AcDbEntity
  8
0
100
AcDbLine
 10
234.204
 20
-0.000000000000003
 30
0.0
 11
231.448
 21
-0.0000000000000031
 31
0.0
  0
LINE
  5
705
330
1E
100
AcDbEntity
  8
0
100
AcDbLine
 10
236.2839999999999
 20
-0.0000000000000021
 30
0.0
 11
234.204
 21
-0.0000000000000019
 31
0.0
  0
LINE
  5
706
330
1E
100
AcDbEntity
  8
0
100
AcDbLine
 10
236.2839999999999
 20
-0.0000000000000028
 30
0.0
 11
234.204
 21
-0.000000000000003
 31
0.0
  0
LINE
  5
707
330
1E
100
AcDbEntity
  8
0
100
AcDbLine
 10
238.0
 20
-0.0000000000000024
 30
0.0
 11
237.532
 21
-0.0000000000000027
 31
0.0
  0
LINE
  5
708
330
1E
100
AcDbEntity
  8
0
100
AcDbLine
 10
238.0
 20
-0.0000000000000024
 30
0.0
 11
237.532
 21
-0.0000000000000022
 31
0.0
  0
LINE
  5
709
330
1E
100
AcDbEntity
  8
0
100
AcDbLine
 10
239.0
 20
-0.0000000000000024
 30
0.0
 11
237.0
 21
-0.0000000000000024
 31
0.0
  0
LINE
  5
70A
330
1E
100
AcDbEntity
  8
0
100
AcDbLine
 10
239.0
 20
-0.0000000000000025
 30
0.0
 11
237.0
 21
-0.0000000000000025
 31
0.0
  0
LINE
  5
70B
330
1E
100
AcDbEntity
  8
0
100
AcDbLine
 10
237.532
 20
-0.0000000000000022
 30
0.0
 11
236.2839999999999
 21
-0.0000000000000021
 31
0.0
  0
LINE
  5
70C
330
1E
100
AcDbEntity
  8
0
100
AcDbLine
 10
237.532
 20
-0.0000000000000027
 30
0.0
 11
236.2839999999999
 21
-0.0000000000000028
 31
0.0
  0
LINE
  5
70D
330
1E
100
AcDbEntity
  8
0
100
AcDbLine
 10
235.7417
 20
-0.0000000000000023
 30
0.0
 11
234.6719999999999
 21
-0.0000000000000021
 31
0.0
  0
LINE
  5
70E
330
1E
100
AcDbEntity
  8
0
100
AcDbLine
 10
235.7417
 20
-0.0000000000000026
 30
0.0
 11
234.6719999999999
 21
-0.0000000000000028
 31
0.0
  0
LINE
  5
70F
330
1E
100
AcDbEntity
  8
0
100
AcDbLine
 10
236.1429
 20
-0.0000000000000024
 30
0.0
 11
235.7417
 21
-0.0000000000000026
 31
0.0
  0
LINE
  5
710
330
1E
100
AcDbEntity
  8
0
100
AcDbLine
 10
236.1429
 20
-0.0000000000000024
 30
0.0
 11
235.7417
 21
-0.0000000000000023
 31
0.0
  0
LINE
  5
711
330
1E
100
AcDbEntity
  8
0
100
AcDbLine
 10
228.3279999999999
 20
-0.0000000000000017
 30
0.0
 11
225.0
 21
-0.0000000000000017
 31
0.0
  0
LINE
  5
712
330
1E
100
AcDbEntity
  8
0
100
AcDbLine
 10
227.8525999999999
 20
-0.0000000000000018
 30
0.0
 11
225.0
 21
-0.0000000000000018
 31
0.0
  0
LINE
  5
713
330
1E
100
AcDbEntity
  8
0
100
AcDbLine
 10
227.8525999999999
 20
-0.0000000000000031
 30
0.0
 11
225.0
 21
-0.0000000000000031
 31
0.0
  0
LINE
  5
714
330
1E
100
AcDbEntity
  8
0
100
AcDbLine
 10
228.3279999999999
 20
-0.0000000000000032
 30
0.0
 11
225.0
 21
-0.0000000000000032
 31
0.0
  0
LINE
  5
715
330
1E
100
AcDbEntity
  8
0
100
AcDbLine
 10
231.134
 20
-0.0000000000000017
 30
0.0
 11
230.134
 21
-0.0000000000000018
 31
0.0
  0
LINE
  5
716
330
1E
100
AcDbEntity
  8
0
100
AcDbLine
 10
231.8659999999999
 20
-0.0000000000000018
 30
0.0
 11
230.134
 21
-0.0000000000000018
 31
0.0
  0
LINE
  5
717
330
1E
100
AcDbEntity
  8
0
100
AcDbLine
 10
231.8659999999999
 20
-0.0000000000000031
 30
0.0
 11
230.134
 21
-0.0000000000000031
 31
0.0
  0
LINE
  5
718
330
1E
100
AcDbEntity
  8
0
100
AcDbLine
 10
231.134
 20
-0.0000000000000032
 30
0.0
 11
230.134
 21
-0.0000000000000031
 31
0.0
  0
LINE
  5
719
330
1E
100
AcDbEntity
  8
0
100
AcDbLine
 10
231.448
 20
-0.0000000000000018
 30
0.0
 11
228.3279999999999
 21
-0.0000000000000017
 31
0.0
  0
LINE
  5
71A
330
1E
100
AcDbEntity
  8
0
100
AcDbLine
 10
230.5269
 20
-0.0000000000000019
 30
0.0
 11
227.8525999999999
 21
-0.0000000000000018
 31
0.0
  0
LINE
  5
71B
330
1E
100
AcDbEntity
  8
0
100
AcDbLine
 10
230.5269
 20
-0.000000000000003
 30
0.0
 11
227.8525999999999
 21
-0.0000000000000031
 31
0.0
  0
LINE
  5
71C
330
1E
100
AcDbEntity
  8
0
100
AcDbLine
 10
231.448
 20
-0.0000000000000031
 30
0.0
 11
228.3279999999999
 21
-0.0000000000000032
 31
0.0
  0
LINE
  5
71D
330
1E
100
AcDbEntity
  8
0
100
AcDbLine
 10
232.8659999999999
 20
-0.0000000000000017
 30
0.0
 11
231.134
 21
-0.0000000000000017
 31
0.0
  0
LINE
  5
71E
330
1E
100
AcDbEntity
  8
0
100
AcDbLine
 10
232.8891
 20
-0.000000000000002
 30
0.0
 11
230.5269
 21
-0.0000000000000019
 31
0.0
  0
LINE
  5
71F
330
1E
100
AcDbEntity
  8
0
100
AcDbLine
 10
232.8891
 20
-0.0000000000000029
 30
0.0
 11
230.5269
 21
-0.000000000000003
 31
0.0
  0
LINE
  5
720
330
1E
100
AcDbEntity
  8
0
100
AcDbLine
 10
232.8659999999999
 20
-0.0000000000000032
 30
0.0
 11
231.134
 21
-0.0000000000000032
 31
0.0
  0
LINE
  5
721
330
1E
100
AcDbEntity
  8
0
100
AcDbLine
 10
232.8659999999999
 20
-0.0000000000000017
 30
0.0
 11
231.8659999999999
 21
-0.0000000000000018
 31
0.0
  0
LINE
  5
722
330
1E
100
AcDbEntity
  8
0
100
AcDbLine
 10
232.8659999999999
 20
-0.0000000000000032
 30
0.0
 11
231.8659999999999
 21
-0.0000000000000031
 31
0.0
  0
LINE
  5
723
330
1E
100
AcDbEntity
  8
0
100
AcDbLine
 10
225.0
 20
-0.0000000000000017
 30
0.0
 11
221.672
 21
-0.0000000000000017
 31
0.0
  0
LINE
  5
724
330
1E
100
AcDbEntity
  8
0
100
AcDbLine
 10
225.0
 20
-0.0000000000000018
 30
0.0
 11
222.1474
 21
-0.0000000000000018
 31
0.0
  0
LINE
  5
725
330
1E
100
AcDbEntity
  8
0
100
AcDbLine
 10
225.0
 20
-0.0000000000000032
 30
0.0
 11
221.672
 21
-0.0000000000000032
 31
0.0
  0
LINE
  5
726
330
1E
100
AcDbEntity
  8
0
100
AcDbLine
 10
225.0
 20
-0.0000000000000031
 30
0.0
 11
222.1474
 21
-0.0000000000000031
 31
0.0
  0
LINE
  5
727
330
1E
100
AcDbEntity
  8
0
100
AcDbLine
 10
234.204
 20
10.0
 30
0.0
 11
231.448
 21
10.0
 31
0.0
  0
LINE
  5
728
330
1E
100
AcDbEntity
  8
0
100
AcDbLine
 10
238.0
 20
10.0
 30
0.0
 11
238.0
 21
6.0
 31
0.0
  0
LINE
  5
729
330
1E
100
AcDbEntity
  8
0
100
AcDbLine
 10
238.0
 20
6.0
 30
0.0
 11
238.0
 21
10.0
 31
0.0
  0
LINE
  5
72A
330
1E
100
AcDbEntity
  8
0
100
AcDbLine
 10
239.0
 20
6.0
 30
0.0
 11
237.8128
 21
6.0
 31
0.0
  0
LINE
  5
72B
330
1E
100
AcDbEntity
  8
0
100
AcDbLine
 10
236.2839999999999
 20
10.0
 30
0.0
 11
234.204
 21
10.0
 31
0.0
  0
LINE
  5
72C
330
1E
100
AcDbEntity
  8
0
100
AcDbLine
 10
238.0
 20
10.0
 30
0.0
 11
237.532
 21
10.0
 31
0.0
  0
LINE
  5
72D
330
1E
100
AcDbEntity
  8
0
100
AcDbLine
 10
237.532
 20
10.0
 30
0.0
 11
236.2839999999999
 21
10.0
 31
0.0
  0
LINE
  5
72E
330
1E
100
AcDbEntity
  8
0
100
AcDbLine
 10
232.8659999999999
 20
6.0
 30
0.0
 11
231.134
 21
6.0
 31
0.0
  0
LINE
  5
72F
330
1E
100
AcDbEntity
  8
0
100
AcDbLine
 10
228.3279999999999
 20
10.0
 30
0.0
 11
225.0
 21
10.0
 31
0.0
  0
LINE
  5
730
330
1E
100
AcDbEntity
  8
0
100
AcDbLine
 10
231.448
 20
10.0
 30
0.0
 11
228.3279999999999
 21
10.0
 31
0.0
  0
LINE
  5
731
330
1E
100
AcDbEntity
  8
0
100
AcDbLine
 10
225.0
 20
10.0
 30
0.0
 11
221.672
 21
10.0
 31
0.0
  0
LINE
  5
732
330
1E
100
AcDbEntity
  8
0
100
AcDbLine
 10
247.5
 20
19.0
 30
0.0
 11
238.0
 21
19.0
 31
0.0
  0
LINE
  5
733
330
1E
100
AcDbEntity
  8
0
100
AcDbLine
 10
247.5
 20
19.0
 30
0.0
 11
237.8085454545455
 21
19.0
 31
0.0
  0
LINE
  5
734
330
1E
100
AcDbEntity
  8
0
100
AcDbLine
 10
247.5
 20
19.0
 30
0.0
 11
237.8085454545455
 21
19.0
 31
0.0
  0
LINE
  5
735
330
1E
100
AcDbEntity
  8
0
100
AcDbLine
 10
247.5
 20
19.0
 30
0.0
 11
238.0
 21
19.0
 31
0.0
  0
LINE
  5
736
330
1E
100
AcDbEntity
  8
0
100
AcDbLine
 10
250.0
 20
32.0
 30
0.0
 11
250.0
 21
21.49999999999999
 31
0.0
  0
LINE
  5
737
330
1E
100
AcDbEntity
  8
0
100
AcDbLine
 10
250.0
 20
21.49999999999999
 30
0.0
 11
250.0
 21
32.0
 31
0.0
  0
LINE
  5
738
330
1E
100
AcDbEntity
  8
0
100
AcDbLine
 10
249.3
 20
19.69999999999999
 30
0.0
 11
248.4999999999999
 21
19.19999999999999
 31
0.0
  0
LINE
  5
739
330
1E
100
AcDbEntity
  8
0
100
AcDbLine
 10
248.4999999999999
 20
19.19999999999999
 30
0.0
 11
247.5
 21
19.0
 31
0.0
  0
LINE
  5
73A
330
1E
100
AcDbEntity
  8
0
100
AcDbLine
 10
250.0
 20
21.49999999999999
 30
0.0
 11
249.8
 21
20.5
 31
0.0
  0
LINE
  5
73B
330
1E
100
AcDbEntity
  8
0
100
AcDbLine
 10
249.8
 20
20.5
 30
0.0
 11
249.3
 21
19.69999999999999
 31
0.0
  0
LINE
  5
73C
330
1E
100
AcDbEntity
  8
0
100
AcDbLine
 10
249.8
 20
20.5
 30
0.0
 11
249.3
 21
19.69999999999999
 31
0.0
  0
LINE
  5
73D
330
1E
100
AcDbEntity
  8
0
100
AcDbLine
 10
225.0
 20
22.0
 30
0.0
 11
224.4797
 21
22.07009999999999
 31
0.0
  0
LINE
  5
73E
330
1E
100
AcDbEntity
  8
0
100
AcDbLine
 10
225.5202999999999
 20
22.07009999999999
 30
0.0
 11
225.0
 21
22.0
 31
0.0
  0
LINE
  5
73F
330
1E
100
AcDbEntity
  8
0
100
AcDbLine
 10
233.496
 20
23.504
 30
0.0
 11
230.952
 21
21.58399999999999
 31
0.0
  0
LINE
  5
740
330
1E
100
AcDbEntity
  8
0
100
AcDbLine
 10
233.2559999999999
 20
23.744
 30
0.0
 11
230.8079999999999
 21
21.872
 31
0.0
  0
LINE
  5
741
330
1E
100
AcDbEntity
  8
0
100
AcDbLine
 10
234.204
 20
22.79599999999999
 30
0.0
 11
231.448
 21
20.71599999999999
 31
0.0
  0
LINE
  5
742
330
1E
100
AcDbEntity
  8
0
100
AcDbLine
 10
228.024
 20
20.72
 30
0.0
 11
225.0
 21
20.28799999999999
 31
0.0
  0
LINE
  5
743
330
1E
100
AcDbEntity
  8
0
100
AcDbLine
 10
228.072
 20
20.432
 30
0.0
 11
225.0
 21
20.0
 31
0.0
  0
LINE
  5
744
330
1E
100
AcDbEntity
  8
0
100
AcDbLine
 10
228.3279999999999
 20
19.46799999999999
 30
0.0
 11
225.0
 21
19.0
 31
0.0
  0
LINE
  5
745
330
1E
100
AcDbEntity
  8
0
100
AcDbLine
 10
231.448
 20
20.71599999999999
 30
0.0
 11
228.3279999999999
 21
19.46799999999999
 31
0.0
  0
LINE
  5
746
330
1E
100
AcDbEntity
  8
0
100
AcDbLine
 10
230.952
 20
21.58399999999999
 30
0.0
 11
228.072
 21
20.432
 31
0.0
  0
LINE
  5
747
330
1E
100
AcDbEntity
  8
0
100
AcDbLine
 10
230.8079999999999
 20
21.872
 30
0.0
 11
228.024
 21
20.72
 31
0.0
  0
LINE
  5
748
330
1E
100
AcDbEntity
  8
0
100
AcDbLine
 10
225.0
 20
19.0
 30
0.0
 11
221.672
 21
19.46799999999999
 31
0.0
  0
LINE
  5
749
330
1E
100
AcDbEntity
  8
0
100
AcDbLine
 10
225.0
 20
20.0
 30
0.0
 11
221.9279999999999
 21
20.432
 31
0.0
  0
LINE
  5
74A
330
1E
100
AcDbEntity
  8
0
100
AcDbLine
 10
225.0
 20
20.28799999999999
 30
0.0
 11
221.9759999999999
 21
20.72
 31
0.0
  0
LINE
  5
74B
330
1E
100
AcDbEntity
  8
0
100
AcDbLine
 10
235.128
 20
26.19199999999999
 30
0.0
 11
233.2559999999999
 21
23.744
 31
0.0
  0
LINE
  5
74C
330
1E
100
AcDbEntity
  8
0
100
AcDbLine
 10
233.8105
 20
27.13639999999999
 30
0.0
 11
233.2285999999999
 21
26.3973
 31
0.0
  0
LINE
  5
74D
330
1E
100
AcDbEntity
  8
0
100
AcDbLine
 10
236.28
 20
28.976
 30
0.0
 11
235.128
 21
26.19199999999999
 31
0.0
  0
LINE
  5
74E
330
1E
100
AcDbEntity
  8
0
100
AcDbLine
 10
236.568
 20
28.928
 30
0.0
 11
235.4159999999999
 21
26.048
 31
0.0
  0
LINE
  5
74F
330
1E
100
AcDbEntity
  8
0
100
AcDbLine
 10
237.532
 20
28.672
 30
0.0
 11
236.2839999999999
 21
25.552
 31
0.0
  0
LINE
  5
750
330
1E
100
AcDbEntity
  8
0
100
AcDbLine
 10
236.2839999999999
 20
25.552
 30
0.0
 11
234.204
 21
22.79599999999999
 31
0.0
  0
LINE
  5
751
330
1E
100
AcDbEntity
  8
0
100
AcDbLine
 10
235.4159999999999
 20
26.048
 30
0.0
 11
233.496
 21
23.504
 31
0.0
  0
LINE
  5
752
330
1E
100
AcDbEntity
  8
0
100
AcDbLine
 10
238.0
 20
32.0
 30
0.0
 11
237.532
 21
28.672
 31
0.0
  0
LINE
  5
753
330
1E
100
AcDbEntity
  8
0
100
AcDbLine
 10
237.0
 20
32.0
 30
0.0
 11
236.568
 21
28.928
 31
0.0
  0
LINE
  5
754
330
1E
100
AcDbEntity
  8
0
100
AcDbLine
 10
236.7119999999999
 20
32.0
 30
0.0
 11
236.28
 21
28.976
 31
0.0
  0
LINE
  5
755
330
1E
100
AcDbEntity
  8
0
100
AcDbLine
 10
234.0
 20
29.70909999999999
 30
0.0
 11
234.0
 21
27.5866
 31
0.0
  0
LINE
  5
756
330
1E
100
AcDbEntity
  8
0
100
AcDbLine
 10
235.0
 20
32.0
 30
0.0
 11
234.64
 21
29.44
 31
0.0
  0
LINE
  5
757
330
1E
100
AcDbEntity
  8
0
100
AcDbLine
 10
234.0
 20
27.5866
 30
0.0
 11
234.0
 21
29.70909999999999
 31
0.0
  0
LINE
  5
758
330
1E
100
AcDbEntity
  8
0
100
AcDbLine
 10
234.64
 20
29.44
 30
0.0
 11
234.0
 21
27.84
 31
0.0
  0
LINE
  5
759
330
1E
100
AcDbEntity
  8
0
100
AcDbLine
 10
234.64
 20
29.44
 30
0.0
 11
234.0
 21
27.84
 31
0.0
  0
LINE
  5
75A
330
1E
100
AcDbEntity
  8
0
100
AcDbLine
 10
234.0
 20
27.5866
 30
0.0
 11
233.8105
 21
27.13639999999999
 31
0.0
  0
LINE
  5
75B
330
1E
100
AcDbEntity
  8
0
100
AcDbLine
 10
234.0
 20
32.0
 30
0.0
 11
234.0
 21
29.70909999999999
 31
0.0
  0
LINE
  5
75C
330
1E
100
AcDbEntity
  8
0
100
AcDbLine
 10
234.0
 20
29.70909999999999
 30
0.0
 11
234.0
 21
32.0
 31
0.0
  0
LINE
  5
75D
330
1E
100
AcDbEntity
  8
0
100
AcDbLine
 10
231.2218
 20
28.5469
 30
0.0
 11
230.1029
 21
26.8855
 31
0.0
  0
LINE
  5
75E
330
1E
100
AcDbEntity
  8
0
100
AcDbLine
 10
228.539
 20
25.6492
 30
0.0
 11
226.7703
 21
24.9345
 31
0.0
  0
LINE
  5
75F
330
1E
100
AcDbEntity
  8
0
100
AcDbLine
 10
227.4478999999999
 20
23.11939999999999
 30
0.0
 11
226.1122999999999
 21
22.3825
 31
0.0
  0
LINE
  5
760
330
1E
100
AcDbEntity
  8
0
100
AcDbLine
 10
227.56
 20
22.36
 30
0.0
 11
225.528223958106
 21
22.0742814941087
 31
0.0
  0
LINE
  5
761
330
1E
100
AcDbEntity
  8
0
100
AcDbLine
 10
231.7263
 20
25.5455
 30
0.0
 11
229.5812999999999
 21
24.3291
 31
0.0
  0
LINE
  5
762
330
1E
100
AcDbEntity
  8
0
100
AcDbLine
 10
232.0799999999999
 20
24.92
 30
0.0
 11
229.96
 21
23.32
 31
0.0
  0
LINE
  5
763
330
1E
100
AcDbEntity
  8
0
100
AcDbLine
 10
229.96
 20
23.32
 30
0.0
 11
227.56
 21
22.36
 31
0.0
  0
LINE
  5
764
330
1E
100
AcDbEntity
  8
0
100
AcDbLine
 10
229.5812999999999
 20
24.3291
 30
0.0
 11
227.4478999999999
 21
23.11939999999999
 31
0.0
  0
LINE
  5
765
330
1E
100
AcDbEntity
  8
0
100
AcDbLine
 10
229.8614870300223
 20
24.4879902113376
 30
0.0
 11
229.464
 21
24.188
 31
0.0
  0
LINE
  5
766
330
1E
100
AcDbEntity
  8
0
100
AcDbLine
 10
229.464
 20
24.188
 30
0.0
 11
229.0174463433799
 21
24.009378537352
 31
0.0
  0
LINE
  5
767
330
1E
100
AcDbEntity
  8
0
100
AcDbLine
 10
233.1697677579973
 20
26.3639422793464
 30
0.0
 11
232.0799999999999
 21
24.92
 31
0.0
  0
LINE
  5
768
330
1E
100
AcDbEntity
  8
0
100
AcDbLine
 10
233.2285999999999
 20
26.3973
 30
0.0
 11
231.7263
 21
25.5455
 31
0.0
  0
LINE
  5
769
330
1E
100
AcDbEntity
  8
0
100
AcDbLine
 10
230.1029
 20
26.8855
 30
0.0
 11
228.539
 21
25.6492
 31
0.0
  0
LINE
  5
76A
330
1E
100
AcDbEntity
  8
0
100
AcDbLine
 10
224.4797
 20
22.07009999999999
 30
0.0
 11
223.8877
 21
22.3825
 31
0.0
  0
LINE
  5
76B
330
1E
100
AcDbEntity
  8
0
100
AcDbLine
 10
224.4717760418939
 20
22.0742814941087
 30
0.0
 11
222.44
 21
22.36
 31
0.0
  0
LINE
  5
76C
330
1E
100
AcDbEntity
  8
0
100
AcDbLine
 10
226.1122999999999
 20
22.3825
 30
0.0
 11
225.5202999999999
 21
22.07009999999999
 31
0.0
  0
LINE
  5
76D
330
1E
100
AcDbEntity
  8
0
100
AcDbLine
 10
223.8877
 20
22.3825
 30
0.0
 11
222.5521
 21
23.11939999999999
 31
0.0
  0
LINE
  5
76E
330
1E
100
AcDbEntity
  8
0
100
AcDbLine
 10
224.9643999999999
 20
24.68329999999999
 30
0.0
 11
223.1734
 21
24.9345
 31
0.0
  0
LINE
  5
76F
330
1E
100
AcDbEntity
  8
0
100
AcDbLine
 10
226.7703
 20
24.9345
 30
0.0
 11
224.9643999999999
 21
24.68329999999999
 31
0.0
  0
LINE
  5
770
330
1E
100
AcDbEntity
  8
0
100
AcDbLine
 10
223.1734
 20
24.9345
 30
0.0
 11
221.4233
 21
25.6685
 31
0.0
  0
LINE
  5
771
330
1E
100
AcDbEntity
  8
0
100
AcDbLine
 10
227.5319999999999
 20
30.548
 30
0.0
 11
227.0639999999999
 21
29.936
 31
0.0
  0
LINE
  5
772
330
1E
100
AcDbEntity
  8
0
100
AcDbLine
 10
231.8362
 20
30.2082
 30
0.0
 11
231.2218
 21
28.5469
 31
0.0
  0
LINE
  5
773
330
1E
100
AcDbEntity
  8
0
100
AcDbLine
 10
232.0782
 20
31.8888
 30
0.0
 11
231.8362
 21
30.2082
 31
0.0
  0
LINE
  5
774
330
1E
100
AcDbEntity
  8
0
100
AcDbLine
 10
227.82
 20
31.244
 30
0.0
 11
227.5319999999999
 21
30.548
 31
0.0
  0
LINE
  5
775
330
1E
100
AcDbEntity
  8
0
100
AcDbLine
 10
227.9279999999999
 20
32.0
 30
0.0
 11
227.82
 21
31.244
 31
0.0
  0
LINE
  5
776
330
1E
100
AcDbEntity
  8
0
100
AcDbLine
 10
223.5479999999999
 20
29.468
 30
0.0
 11
222.936
 21
29.936
 31
0.0
  0
LINE
  5
777
330
1E
100
AcDbEntity
  8
0
100
AcDbLine
 10
227.0639999999999
 20
29.936
 30
0.0
 11
226.452
 21
29.468
 31
0.0
  0
LINE
  5
778
330
1E
100
AcDbEntity
  8
0
100
AcDbLine
 10
225.0
 20
29.07199999999999
 30
0.0
 11
224.244
 21
29.18
 31
0.0
  0
LINE
  5
779
330
1E
100
AcDbEntity
  8
0
100
AcDbLine
 10
226.452
 20
29.468
 30
0.0
 11
225.756
 21
29.18
 31
0.0
  0
LINE
  5
77A
330
1E
100
AcDbEntity
  8
0
100
AcDbLine
 10
225.756
 20
29.18
 30
0.0
 11
225.0
 21
29.07199999999999
 31
0.0
  0
LINE
  5
77B
330
1E
100
AcDbEntity
  8
0
100
AcDbLine
 10
224.244
 20
29.18
 30
0.0
 11
223.5479999999999
 21
29.468
 31
0.0
  0
LINE
  5
77C
330
1E
100
AcDbEntity
  8
0
100
AcDbLine
 10
222.468
 20
30.548
 30
0.0
 11
222.1799999999999
 21
31.244
 31
0.0
  0
LINE
  5
77D
330
1E
100
AcDbEntity
  8
0
100
AcDbLine
 10
222.936
 20
29.936
 30
0.0
 11
222.468
 21
30.548
 31
0.0
  0
LINE
  5
77E
330
1E
100
AcDbEntity
  8
0
100
AcDbLine
 10
222.1799999999999
 20
31.244
 30
0.0
 11
222.072
 21
32.0
 31
0.0
  0
LINE
  5
77F
330
1E
100
AcDbEntity
  8
0
100
AcDbLine
 10
212.0
 20
19.0
 30
0.0
 11
212.0
 21
10.0
 31
0.0
  0
LINE
  5
780
330
1E
100
AcDbEntity
  8
0
100
AcDbLine
 10
212.0
 20
10.0
 30
0.0
 11
212.0
 21
19.0
 31
0.0
  0
LINE
  5
781
330
1E
100
AcDbEntity
  8
0
100
AcDbLine
 10
217.134
 20
-0.0000000000000017
 30
0.0
 11
217.134
 21
6.0
 31
0.0
  0
LINE
  5
782
330
1E
100
AcDbEntity
  8
0
100
AcDbLine
 10
217.134
 20
6.0
 30
0.0
 11
217.134
 21
-0.0000000000000018
 31
0.0
  0
LINE
  5
783
330
1E
100
AcDbEntity
  8
0
100
AcDbLine
 10
218.866
 20
-0.0000000000000017
 30
0.0
 11
218.866
 21
6.0
 31
0.0
  0
LINE
  5
784
330
1E
100
AcDbEntity
  8
0
100
AcDbLine
 10
218.866
 20
6.0
 30
0.0
 11
218.866
 21
-0.0000000000000018
 31
0.0
  0
LINE
  5
785
330
1E
100
AcDbEntity
  8
0
100
AcDbLine
 10
211.0
 20
-0.0000000000000024
 30
0.0
 11
211.0
 21
6.0
 31
0.0
  0
LINE
  5
786
330
1E
100
AcDbEntity
  8
0
100
AcDbLine
 10
211.0
 20
6.0
 30
0.0
 11
211.0
 21
-0.0000000000000027
 31
0.0
  0
LINE
  5
787
330
1E
100
AcDbEntity
  8
0
100
AcDbLine
 10
217.1109
 20
-0.000000000000002
 30
0.0
 11
215.328
 21
-0.0000000000000021
 31
0.0
  0
LINE
  5
788
330
1E
100
AcDbEntity
  8
0
100
AcDbLine
 10
217.1109
 20
-0.0000000000000029
 30
0.0
 11
215.328
 21
-0.0000000000000028
 31
0.0
  0
LINE
  5
789
330
1E
100
AcDbEntity
  8
0
100
AcDbLine
 10
215.796
 20
-0.0000000000000019
 30
0.0
 11
213.716
 21
-0.0000000000000021
 31
0.0
  0
LINE
  5
78A
330
1E
100
AcDbEntity
  8
0
100
AcDbLine
 10
215.796
 20
-0.000000000000003
 30
0.0
 11
213.716
 21
-0.0000000000000028
 31
0.0
  0
LINE
  5
78B
330
1E
100
AcDbEntity
  8
0
100
AcDbLine
 10
219.8659999999999
 20
-0.0000000000000018
 30
0.0
 11
218.134
 21
-0.0000000000000018
 31
0.0
  0
LINE
  5
78C
330
1E
100
AcDbEntity
  8
0
100
AcDbLine
 10
219.8659999999999
 20
-0.0000000000000031
 30
0.0
 11
218.134
 21
-0.0000000000000031
 31
0.0
  0
LINE
  5
78D
330
1E
100
AcDbEntity
  8
0
100
AcDbLine
 10
218.5519999999999
 20
-0.0000000000000018
 30
0.0
 11
215.796
 21
-0.0000000000000019
 31
0.0
  0
LINE
  5
78E
330
1E
100
AcDbEntity
  8
0
100
AcDbLine
 10
218.866
 20
-0.0000000000000017
 30
0.0
 11
217.134
 21
-0.0000000000000017
 31
0.0
  0
LINE
  5
78F
330
1E
100
AcDbEntity
  8
0
100
AcDbLine
 10
219.4730999999999
 20
-0.0000000000000019
 30
0.0
 11
217.1109
 21
-0.000000000000002
 31
0.0
  0
LINE
  5
790
330
1E
100
AcDbEntity
  8
0
100
AcDbLine
 10
218.5519999999999
 20
-0.0000000000000031
 30
0.0
 11
215.796
 21
-0.000000000000003
 31
0.0
  0
LINE
  5
791
330
1E
100
AcDbEntity
  8
0
100
AcDbLine
 10
218.866
 20
-0.0000000000000032
 30
0.0
 11
217.134
 21
-0.0000000000000032
 31
0.0
  0
LINE
  5
792
330
1E
100
AcDbEntity
  8
0
100
AcDbLine
 10
219.4730999999999
 20
-0.000000000000003
 30
0.0
 11
217.1109
 21
-0.0000000000000029
 31
0.0
  0
LINE
  5
793
330
1E
100
AcDbEntity
  8
0
100
AcDbLine
 10
219.8659999999999
 20
-0.0000000000000018
 30
0.0
 11
218.866
 21
-0.0000000000000017
 31
0.0
  0
LINE
  5
794
330
1E
100
AcDbEntity
  8
0
100
AcDbLine
 10
219.8659999999999
 20
-0.0000000000000031
 30
0.0
 11
218.866
 21
-0.0000000000000032
 31
0.0
  0
LINE
  5
795
330
1E
100
AcDbEntity
  8
0
100
AcDbLine
 10
218.134
 20
-0.0000000000000018
 30
0.0
 11
217.134
 21
-0.0000000000000017
 31
0.0
  0
LINE
  5
796
330
1E
100
AcDbEntity
  8
0
100
AcDbLine
 10
218.134
 20
-0.0000000000000031
 30
0.0
 11
217.134
 21
-0.0000000000000032
 31
0.0
  0
LINE
  5
797
330
1E
100
AcDbEntity
  8
0
100
AcDbLine
 10
212.468
 20
-0.0000000000000022
 30
0.0
 11
212.0
 21
-0.0000000000000024
 31
0.0
  0
LINE
  5
798
330
1E
100
AcDbEntity
  8
0
100
AcDbLine
 10
212.468
 20
-0.0000000000000027
 30
0.0
 11
212.0
 21
-0.0000000000000024
 31
0.0
  0
LINE
  5
799
330
1E
100
AcDbEntity
  8
0
100
AcDbLine
 10
213.0
 20
-0.0000000000000025
 30
0.0
 11
211.0
 21
-0.0000000000000025
 31
0.0
  0
LINE
  5
79A
330
1E
100
AcDbEntity
  8
0
100
AcDbLine
 10
213.0
 20
-0.0000000000000024
 30
0.0
 11
211.0
 21
-0.0000000000000024
 31
0.0
  0
LINE
  5
79B
330
1E
100
AcDbEntity
  8
0
100
AcDbLine
 10
215.328
 20
-0.0000000000000021
 30
0.0
 11
214.2583
 21
-0.0000000000000023
 31
0.0
  0
LINE
  5
79C
330
1E
100
AcDbEntity
  8
0
100
AcDbLine
 10
215.328
 20
-0.0000000000000028
 30
0.0
 11
214.2583
 21
-0.0000000000000026
 31
0.0
  0
LINE
  5
79D
330
1E
100
AcDbEntity
  8
0
100
AcDbLine
 10
214.2583
 20
-0.0000000000000023
 30
0.0
 11
213.8571
 21
-0.0000000000000024
 31
0.0
  0
LINE
  5
79E
330
1E
100
AcDbEntity
  8
0
100
AcDbLine
 10
214.2583
 20
-0.0000000000000026
 30
0.0
 11
213.8571
 21
-0.0000000000000024
 31
0.0
  0
LINE
  5
79F
330
1E
100
AcDbEntity
  8
0
100
AcDbLine
 10
213.716
 20
-0.0000000000000021
 30
0.0
 11
212.468
 21
-0.0000000000000022
 31
0.0
  0
LINE
  5
7A0
330
1E
100
AcDbEntity
  8
0
100
AcDbLine
 10
213.716
 20
-0.0000000000000028
 30
0.0
 11
212.468
 21
-0.0000000000000027
 31
0.0
  0
LINE
  5
7A1
330
1E
100
AcDbEntity
  8
0
100
AcDbLine
 10
212.0
 20
6.0
 30
0.0
 11
212.0
 21
10.0
 31
0.0
  0
LINE
  5
7A2
330
1E
100
AcDbEntity
  8
0
100
AcDbLine
 10
212.0
 20
10.0
 30
0.0
 11
212.0
 21
6.0
 31
0.0
  0
LINE
  5
7A3
330
1E
100
AcDbEntity
  8
0
100
AcDbLine
 10
218.866
 20
6.0
 30
0.0
 11
217.134
 21
6.0
 31
0.0
  0
LINE
  5
7A4
330
1E
100
AcDbEntity
  8
0
100
AcDbLine
 10
212.1871999999999
 20
6.0
 30
0.0
 11
211.0
 21
6.0
 31
0.0
  0
LINE
  5
7A5
330
1E
100
AcDbEntity
  8
0
100
AcDbLine
 10
215.796
 20
10.0
 30
0.0
 11
213.716
 21
10.0
 31
0.0
  0
LINE
  5
7A6
330
1E
100
AcDbEntity
  8
0
100
AcDbLine
 10
218.5519999999999
 20
10.0
 30
0.0
 11
215.796
 21
10.0
 31
0.0
  0
LINE
  5
7A7
330
1E
100
AcDbEntity
  8
0
100
AcDbLine
 10
212.468
 20
10.0
 30
0.0
 11
212.0
 21
10.0
 31
0.0
  0
LINE
  5
7A8
330
1E
100
AcDbEntity
  8
0
100
AcDbLine
 10
213.716
 20
10.0
 30
0.0
 11
212.468
 21
10.0
 31
0.0
  0
LINE
  5
7A9
330
1E
100
AcDbEntity
  8
0
100
AcDbLine
 10
212.0
 20
19.0
 30
0.0
 11
193.0
 21
19.0
 31
0.0
  0
LINE
  5
7AA
330
1E
100
AcDbEntity
  8
0
100
AcDbLine
 10
219.0479999999999
 20
21.58399999999999
 30
0.0
 11
216.5039999999999
 21
23.504
 31
0.0
  0
LINE
  5
7AB
330
1E
100
AcDbEntity
  8
0
100
AcDbLine
 10
219.192
 20
21.872
 30
0.0
 11
216.744
 21
23.744
 31
0.0
  0
LINE
  5
7AC
330
1E
100
AcDbEntity
  8
0
100
AcDbLine
 10
218.5519999999999
 20
20.71599999999999
 30
0.0
 11
215.796
 21
22.79599999999999
 31
0.0
  0
LINE
  5
7AD
330
1E
100
AcDbEntity
  8
0
100
AcDbLine
 10
213.716
 20
25.552
 30
0.0
 11
212.468
 21
28.672
 31
0.0
  0
LINE
  5
7AE
330
1E
100
AcDbEntity
  8
0
100
AcDbLine
 10
214.584
 20
26.048
 30
0.0
 11
213.4319999999999
 21
28.928
 31
0.0
  0
LINE
  5
7AF
330
1E
100
AcDbEntity
  8
0
100
AcDbLine
 10
214.872
 20
26.19199999999999
 30
0.0
 11
213.7199999999999
 21
28.976
 31
0.0
  0
LINE
  5
7B0
330
1E
100
AcDbEntity
  8
0
100
AcDbLine
 10
216.0
 20
27.5866
 30
0.0
 11
216.0
 21
26.9874
 31
0.0
  0
LINE
  5
7B1
330
1E
100
AcDbEntity
  8
0
100
AcDbLine
 10
216.0
 20
26.9874
 30
0.0
 11
216.0
 21
27.5866
 31
0.0
  0
LINE
  5
7B2
330
1E
100
AcDbEntity
  8
0
100
AcDbLine
 10
219.8593999999999
 20
26.9049
 30
0.0
 11
218.7982
 21
28.56619999999999
 31
0.0
  0
LINE
  5
7B3
330
1E
100
AcDbEntity
  8
0
100
AcDbLine
 10
216.5039999999999
 20
23.504
 30
0.0
 11
214.584
 21
26.048
 31
0.0
  0
LINE
  5
7B4
330
1E
100
AcDbEntity
  8
0
100
AcDbLine
 10
216.744
 20
23.744
 30
0.0
 11
214.872
 21
26.19199999999999
 31
0.0
  0
LINE
  5
7B5
330
1E
100
AcDbEntity
  8
0
100
AcDbLine
 10
215.796
 20
22.79599999999999
 30
0.0
 11
213.716
 21
25.552
 31
0.0
  0
LINE
  5
7B6
330
1E
100
AcDbEntity
  8
0
100
AcDbLine
 10
220.4187
 20
24.3291
 30
0.0
 11
218.2736999999999
 21
25.5455
 31
0.0
  0
LINE
  5
7B7
330
1E
100
AcDbEntity
  8
0
100
AcDbLine
 10
220.04
 20
23.32
 30
0.0
 11
217.92
 21
24.92
 31
0.0
  0
LINE
  5
7B8
330
1E
100
AcDbEntity
  8
0
100
AcDbLine
 10
220.9825536566201
 20
24.009378537352
 30
0.0
 11
220.536
 21
24.188
 31
0.0
  0
LINE
  5
7B9
330
1E
100
AcDbEntity
  8
0
100
AcDbLine
 10
220.536
 20
24.188
 30
0.0
 11
220.1385129699776
 21
24.4879902113376
 31
0.0
  0
LINE
  5
7BA
330
1E
100
AcDbEntity
  8
0
100
AcDbLine
 10
217.92
 20
24.92
 30
0.0
 11
216.8302322420026
 21
26.3639422793464
 31
0.0
  0
LINE
  5
7BB
330
1E
100
AcDbEntity
  8
0
100
AcDbLine
 10
218.2736999999999
 20
25.5455
 30
0.0
 11
216.7714
 21
26.3973
 31
0.0
  0
LINE
  5
7BC
330
1E
100
AcDbEntity
  8
0
100
AcDbLine
 10
216.2316
 20
26.70339999999999
 30
0.0
 11
216.0
 21
26.9874
 31
0.0
  0
LINE
  5
7BD
330
1E
100
AcDbEntity
  8
0
100
AcDbLine
 10
216.7714
 20
26.3973
 30
0.0
 11
216.2316
 21
26.70339999999999
 31
0.0
  0
LINE
  5
7BE
330
1E
100
AcDbEntity
  8
0
100
AcDbLine
 10
215.36
 20
29.44
 30
0.0
 11
215.0
 21
32.0
 31
0.0
  0
LINE
  5
7BF
330
1E
100
AcDbEntity
  8
0
100
AcDbLine
 10
216.0
 20
29.70909999999999
 30
0.0
 11
216.0
 21
27.5866
 31
0.0
  0
LINE
  5
7C0
330
1E
100
AcDbEntity
  8
0
100
AcDbLine
 10
218.7982
 20
28.56619999999999
 30
0.0
 11
218.1465
 21
30.1888
 31
0.0
  0
LINE
  5
7C1
330
1E
100
AcDbEntity
  8
0
100
AcDbLine
 10
216.0
 20
27.5866
 30
0.0
 11
216.0
 21
29.70909999999999
 31
0.0
  0
LINE
  5
7C2
330
1E
100
AcDbEntity
  8
0
100
AcDbLine
 10
216.0
 20
27.84
 30
0.0
 11
215.36
 21
29.44
 31
0.0
  0
LINE
  5
7C3
330
1E
100
AcDbEntity
  8
0
100
AcDbLine
 10
216.0
 20
32.0
 30
0.0
 11
216.0
 21
29.70909999999999
 31
0.0
  0
LINE
  5
7C4
330
1E
100
AcDbEntity
  8
0
100
AcDbLine
 10
216.0
 20
29.70909999999999
 30
0.0
 11
216.0
 21
32.0
 31
0.0
  0
LINE
  5
7C5
330
1E
100
AcDbEntity
  8
0
100
AcDbLine
 10
218.1465
 20
30.1888
 30
0.0
 11
217.9418
 21
31.9274
 31
0.0
  0
LINE
  5
7C6
330
1E
100
AcDbEntity
  8
0
100
AcDbLine
 10
212.468
 20
28.672
 30
0.0
 11
212.0
 21
32.0
 31
0.0
  0
LINE
  5
7C7
330
1E
100
AcDbEntity
  8
0
100
AcDbLine
 10
213.4319999999999
 20
28.928
 30
0.0
 11
213.0
 21
32.0
 31
0.0
  0
LINE
  5
7C8
330
1E
100
AcDbEntity
  8
0
100
AcDbLine
 10
213.7199999999999
 20
28.976
 30
0.0
 11
213.288
 21
32.0
 31
0.0
  0
LINE
  5
7C9
330
1E
100
AcDbEntity
  8
0
100
AcDbLine
 10
193.0
 20
22.79599999999999
 30
0.0
 11
193.0
 21
20.71599999999999
 31
0.0
  0
LINE
  5
7CA
330
1E
100
AcDbEntity
  8
0
100
AcDbLine
 10
193.0
 20
20.71599999999999
 30
0.0
 11
193.0
 21
22.79599999999999
 31
0.0
  0
LINE
  5
7CB
330
1E
100
AcDbEntity
  8
0
100
AcDbLine
 10
193.0
 20
20.71599999999999
 30
0.0
 11
193.0
 21
19.46799999999999
 31
0.0
  0
LINE
  5
7CC
330
1E
100
AcDbEntity
  8
0
100
AcDbLine
 10
193.0
 20
19.46799999999999
 30
0.0
 11
193.0
 21
20.71599999999999
 31
0.0
  0
LINE
  5
7CD
330
1E
100
AcDbEntity
  8
0
100
AcDbLine
 10
193.0
 20
19.46799999999999
 30
0.0
 11
193.0
 21
19.0
 31
0.0
  0
LINE
  5
7CE
330
1E
100
AcDbEntity
  8
0
100
AcDbLine
 10
193.0
 20
19.0
 30
0.0
 11
193.0
 21
19.46799999999999
 31
0.0
  0
LINE
  5
7CF
330
1E
100
AcDbEntity
  8
0
100
AcDbLine
 10
193.0
 20
28.672
 30
0.0
 11
193.0
 21
25.552
 31
0.0
  0
LINE
  5
7D0
330
1E
100
AcDbEntity
  8
0
100
AcDbLine
 10
193.0
 20
25.552
 30
0.0
 11
193.0
 21
28.672
 31
0.0
  0
LINE
  5
7D1
330
1E
100
AcDbEntity
  8
0
100
AcDbLine
 10
193.0
 20
25.552
 30
0.0
 11
193.0
 21
22.79599999999999
 31
0.0
  0
LINE
  5
7D2
330
1E
100
AcDbEntity
  8
0
100
AcDbLine
 10
193.0
 20
22.79599999999999
 30
0.0
 11
193.0
 21
25.552
 31
0.0
  0
LINE
  5
7D3
330
1E
100
AcDbEntity
  8
0
100
AcDbLine
 10
193.0
 20
32.0
 30
0.0
 11
193.0
 21
28.672
 31
0.0
  0
LINE
  5
7D4
330
1E
100
AcDbEntity
  8
0
100
AcDbLine
 10
193.0
 20
28.672
 30
0.0
 11
193.0
 21
32.0
 31
0.0
  0
LINE
  5
7D5
330
1E
100
AcDbEntity
  8
0
100
AcDbLine
 10
221.672
 20
64.0
 30
0.0
 11
219.8659999999999
 21
64.0
 31
0.0
  0
LINE
  5
7D6
330
1E
100
AcDbEntity
  8
0
100
AcDbLine
 10
221.672
 20
54.0
 30
0.0
 11
218.5519999999999
 21
54.0
 31
0.0
  0
LINE
  5
7D7
330
1E
100
AcDbEntity
  8
0
100
AcDbLine
 10
221.9279999999999
 20
43.568
 30
0.0
 11
219.0479999999999
 21
42.416
 31
0.0
  0
LINE
  5
7D8
330
1E
100
AcDbEntity
  8
0
100
AcDbLine
 10
221.9759999999999
 20
43.28
 30
0.0
 11
219.192
 21
42.128
 31
0.0
  0
LINE
  5
7D9
330
1E
100
AcDbEntity
  8
0
100
AcDbLine
 10
221.672
 20
44.53199999999999
 30
0.0
 11
218.5519999999999
 21
43.284
 31
0.0
  0
LINE
  5
7DA
330
1E
100
AcDbEntity
  8
0
100
AcDbLine
 10
222.44
 20
41.64
 30
0.0
 11
220.04
 21
40.68
 31
0.0
  0
LINE
  5
7DB
330
1E
100
AcDbEntity
  8
0
100
AcDbLine
 10
222.5521
 20
40.88049999999999
 30
0.0
 11
220.4187
 21
39.6709
 31
0.0
  0
LINE
  5
7DC
330
1E
100
AcDbEntity
  8
0
100
AcDbLine
 10
221.4102
 20
38.3216
 30
0.0
 11
219.7662999999999
 21
36.8727
 31
0.0
  0
LINE
  5
7DD
330
1E
100
AcDbEntity
  8
0
100
AcDbLine
 10
238.0
 20
54.0
 30
0.0
 11
238.0
 21
45.0
 31
0.0
  0
LINE
  5
7DE
330
1E
100
AcDbEntity
  8
0
100
AcDbLine
 10
238.0
 20
45.0
 30
0.0
 11
238.0
 21
54.0
 31
0.0
  0
LINE
  5
7DF
330
1E
100
AcDbEntity
  8
0
100
AcDbLine
 10
247.5
 20
45.0
 30
0.0
 11
237.7234545454545
 21
45.0
 31
0.0
  0
LINE
  5
7E0
330
1E
100
AcDbEntity
  8
0
100
AcDbLine
 10
247.5
 20
45.0
 30
0.0
 11
237.7234545454545
 21
45.0
 31
0.0
  0
LINE
  5
7E1
330
1E
100
AcDbEntity
  8
0
100
AcDbLine
 10
249.3
 20
44.29999999999999
 30
0.0
 11
248.4999999999999
 21
44.79999999999999
 31
0.0
  0
LINE
  5
7E2
330
1E
100
AcDbEntity
  8
0
100
AcDbLine
 10
250.0
 20
42.5
 30
0.0
 11
249.8
 21
43.5
 31
0.0
  0
LINE
  5
7E3
330
1E
100
AcDbEntity
  8
0
100
AcDbLine
 10
249.8
 20
43.5
 30
0.0
 11
249.3
 21
44.29999999999999
 31
0.0
  0
LINE
  5
7E4
330
1E
100
AcDbEntity
  8
0
100
AcDbLine
 10
249.8
 20
43.5
 30
0.0
 11
249.3
 21
44.29999999999999
 31
0.0
  0
LINE
  5
7E5
330
1E
100
AcDbEntity
  8
0
100
AcDbLine
 10
248.4999999999999
 20
44.79999999999999
 30
0.0
 11
247.5
 21
45.0
 31
0.0
  0
LINE
  5
7E6
330
1E
100
AcDbEntity
  8
0
100
AcDbLine
 10
234.204
 20
41.20399999999999
 30
0.0
 11
231.448
 21
43.284
 31
0.0
  0
LINE
  5
7E7
330
1E
100
AcDbEntity
  8
0
100
AcDbLine
 10
233.496
 20
40.496
 30
0.0
 11
230.952
 21
42.416
 31
0.0
  0
LINE
  5
7E8
330
1E
100
AcDbEntity
  8
0
100
AcDbLine
 10
233.2559999999999
 20
40.25599999999999
 30
0.0
 11
230.8079999999999
 21
42.128
 31
0.0
  0
LINE
  5
7E9
330
1E
100
AcDbEntity
  8
0
100
AcDbLine
 10
235.128
 20
37.808
 30
0.0
 11
233.2559999999999
 21
40.25599999999999
 31
0.0
  0
LINE
  5
7EA
330
1E
100
AcDbEntity
  8
0
100
AcDbLine
 10
233.8105
 20
36.8637
 30
0.0
 11
233.2285999999999
 21
37.6027
 31
0.0
  0
LINE
  5
7EB
330
1E
100
AcDbEntity
  8
0
100
AcDbLine
 10
237.532
 20
35.328
 30
0.0
 11
236.2839999999999
 21
38.448
 31
0.0
  0
LINE
  5
7EC
330
1E
100
AcDbEntity
  8
0
100
AcDbLine
 10
236.568
 20
35.07199999999999
 30
0.0
 11
235.4159999999999
 21
37.95199999999999
 31
0.0
  0
LINE
  5
7ED
330
1E
100
AcDbEntity
  8
0
100
AcDbLine
 10
236.28
 20
35.024
 30
0.0
 11
235.128
 21
37.808
 31
0.0
  0
LINE
  5
7EE
330
1E
100
AcDbEntity
  8
0
100
AcDbLine
 10
234.0
 20
36.4134
 30
0.0
 11
234.0
 21
34.2909
 31
0.0
  0
LINE
  5
7EF
330
1E
100
AcDbEntity
  8
0
100
AcDbLine
 10
234.0
 20
34.2909
 30
0.0
 11
234.0
 21
36.4134
 31
0.0
  0
LINE
  5
7F0
330
1E
100
AcDbEntity
  8
0
100
AcDbLine
 10
234.64
 20
34.56
 30
0.0
 11
234.0
 21
36.15999999999999
 31
0.0
  0
LINE
  5
7F1
330
1E
100
AcDbEntity
  8
0
100
AcDbLine
 10
234.0
 20
36.4134
 30
0.0
 11
233.8105
 21
36.8637
 31
0.0
  0
LINE
  5
7F2
330
1E
100
AcDbEntity
  8
0
100
AcDbLine
 10
236.2839999999999
 20
38.448
 30
0.0
 11
234.204
 21
41.20399999999999
 31
0.0
  0
LINE
  5
7F3
330
1E
100
AcDbEntity
  8
0
100
AcDbLine
 10
235.4159999999999
 20
37.95199999999999
 30
0.0
 11
233.496
 21
40.496
 31
0.0
  0
LINE
  5
7F4
330
1E
100
AcDbEntity
  8
0
100
AcDbLine
 10
230.2332
 20
36.9307
 30
0.0
 11
228.7065
 21
38.26359999999999
 31
0.0
  0
LINE
  5
7F5
330
1E
100
AcDbEntity
  8
0
100
AcDbLine
 10
227.5319999999999
 20
33.452
 30
0.0
 11
227.0639999999999
 21
34.064
 31
0.0
  0
LINE
  5
7F6
330
1E
100
AcDbEntity
  8
0
100
AcDbLine
 10
231.8919999999999
 20
33.6081
 30
0.0
 11
231.3317
 21
35.2501
 31
0.0
  0
LINE
  5
7F7
330
1E
100
AcDbEntity
  8
0
100
AcDbLine
 10
227.82
 20
32.756
 30
0.0
 11
227.5319999999999
 21
33.452
 31
0.0
  0
LINE
  5
7F8
330
1E
100
AcDbEntity
  8
0
100
AcDbLine
 10
231.3317
 20
35.2501
 30
0.0
 11
230.2332
 21
36.9307
 31
0.0
  0
LINE
  5
7F9
330
1E
100
AcDbEntity
  8
0
100
AcDbLine
 10
223.5479999999999
 20
34.53199999999999
 30
0.0
 11
222.936
 21
34.064
 31
0.0
  0
LINE
  5
7FA
330
1E
100
AcDbEntity
  8
0
100
AcDbLine
 10
227.0639999999999
 20
34.064
 30
0.0
 11
226.452
 21
34.53199999999999
 31
0.0
  0
LINE
  5
7FB
330
1E
100
AcDbEntity
  8
0
100
AcDbLine
 10
222.468
 20
33.452
 30
0.0
 11
222.1799999999999
 21
32.756
 31
0.0
  0
LINE
  5
7FC
330
1E
100
AcDbEntity
  8
0
100
AcDbLine
 10
222.936
 20
34.064
 30
0.0
 11
222.468
 21
33.452
 31
0.0
  0
LINE
  5
7FD
330
1E
100
AcDbEntity
  8
0
100
AcDbLine
 10
225.0
 20
34.928
 30
0.0
 11
224.244
 21
34.82
 31
0.0
  0
LINE
  5
7FE
330
1E
100
AcDbEntity
  8
0
100
AcDbLine
 10
226.452
 20
34.53199999999999
 30
0.0
 11
225.756
 21
34.82
 31
0.0
  0
LINE
  5
7FF
330
1E
100
AcDbEntity
  8
0
100
AcDbLine
 10
225.756
 20
34.82
 30
0.0
 11
225.0
 21
34.928
 31
0.0
  0
LINE
  5
800
330
1E
100
AcDbEntity
  8
0
100
AcDbLine
 10
224.244
 20
34.82
 30
0.0
 11
223.5479999999999
 21
34.53199999999999
 31
0.0
  0
LINE
  5
801
330
1E
100
AcDbEntity
  8
0
100
AcDbLine
 10
227.4478999999999
 20
40.88049999999999
 30
0.0
 11
226.1122999999999
 21
41.6175
 31
0.0
  0
LINE
  5
802
330
1E
100
AcDbEntity
  8
0
100
AcDbLine
 10
227.56
 20
41.64
 30
0.0
 11
225.528223958106
 21
41.92571850589129
 31
0.0
  0
LINE
  5
803
330
1E
100
AcDbEntity
  8
0
100
AcDbLine
 10
228.7065
 20
38.26359999999999
 30
0.0
 11
227.0513999999999
 21
38.9977
 31
0.0
  0
LINE
  5
804
330
1E
100
AcDbEntity
  8
0
100
AcDbLine
 10
232.0799999999999
 20
39.07999999999999
 30
0.0
 11
229.96
 21
40.68
 31
0.0
  0
LINE
  5
805
330
1E
100
AcDbEntity
  8
0
100
AcDbLine
 10
231.7263
 20
38.4545
 30
0.0
 11
229.5812999999999
 21
39.6709
 31
0.0
  0
LINE
  5
806
330
1E
100
AcDbEntity
  8
0
100
AcDbLine
 10
233.1697677579973
 20
37.6360577206536
 30
0.0
 11
232.0799999999999
 21
39.07999999999999
 31
0.0
  0
LINE
  5
807
330
1E
100
AcDbEntity
  8
0
100
AcDbLine
 10
233.2285999999999
 20
37.6027
 30
0.0
 11
231.7263
 21
38.4545
 31
0.0
  0
LINE
  5
808
330
1E
100
AcDbEntity
  8
0
100
AcDbLine
 10
229.96
 20
40.68
 30
0.0
 11
227.56
 21
41.64
 31
0.0
  0
LINE
  5
809
330
1E
100
AcDbEntity
  8
0
100
AcDbLine
 10
229.5812999999999
 20
39.6709
 30
0.0
 11
227.4478999999999
 21
40.88049999999999
 31
0.0
  0
LINE
  5
80A
330
1E
100
AcDbEntity
  8
0
100
AcDbLine
 10
229.8614870300223
 20
39.5120097886624
 30
0.0
 11
229.464
 21
39.81199999999999
 31
0.0
  0
LINE
  5
80B
330
1E
100
AcDbEntity
  8
0
100
AcDbLine
 10
229.464
 20
39.81199999999999
 30
0.0
 11
229.0172880642264
 21
39.99068477430939
 31
0.0
  0
LINE
  5
80C
330
1E
100
AcDbEntity
  8
0
100
AcDbLine
 10
225.0593
 20
39.3454
 30
0.0
 11
223.1789
 21
39.05559999999999
 31
0.0
  0
LINE
  5
80D
330
1E
100
AcDbEntity
  8
0
100
AcDbLine
 10
227.0513999999999
 20
38.9977
 30
0.0
 11
225.0593
 21
39.3454
 31
0.0
  0
LINE
  5
80E
330
1E
100
AcDbEntity
  8
0
100
AcDbLine
 10
223.1789
 20
39.05559999999999
 30
0.0
 11
221.4102
 21
38.3216
 31
0.0
  0
LINE
  5
80F
330
1E
100
AcDbEntity
  8
0
100
AcDbLine
 10
224.4797
 20
41.9299
 30
0.0
 11
223.8877
 21
41.6175
 31
0.0
  0
LINE
  5
810
330
1E
100
AcDbEntity
  8
0
100
AcDbLine
 10
224.4717760418939
 20
41.92571850589129
 30
0.0
 11
222.44
 21
41.64
 31
0.0
  0
LINE
  5
811
330
1E
100
AcDbEntity
  8
0
100
AcDbLine
 10
226.1122999999999
 20
41.6175
 30
0.0
 11
225.5202999999999
 21
41.9299
 31
0.0
  0
LINE
  5
812
330
1E
100
AcDbEntity
  8
0
100
AcDbLine
 10
225.0
 20
42.0
 30
0.0
 11
224.4797
 21
41.9299
 31
0.0
  0
LINE
  5
813
330
1E
100
AcDbEntity
  8
0
100
AcDbLine
 10
225.5202999999999
 20
41.9299
 30
0.0
 11
225.0
 21
42.0
 31
0.0
  0
LINE
  5
814
330
1E
100
AcDbEntity
  8
0
100
AcDbLine
 10
223.8877
 20
41.6175
 30
0.0
 11
222.5521
 21
40.88049999999999
 31
0.0
  0
LINE
  5
815
330
1E
100
AcDbEntity
  8
0
100
AcDbLine
 10
228.3279999999999
 20
44.53199999999999
 30
0.0
 11
225.0
 21
45.0
 31
0.0
  0
LINE
  5
816
330
1E
100
AcDbEntity
  8
0
100
AcDbLine
 10
228.072
 20
43.568
 30
0.0
 11
225.0
 21
44.0
 31
0.0
  0
LINE
  5
817
330
1E
100
AcDbEntity
  8
0
100
AcDbLine
 10
228.024
 20
43.28
 30
0.0
 11
225.0
 21
43.71199999999999
 31
0.0
  0
LINE
  5
818
330
1E
100
AcDbEntity
  8
0
100
AcDbLine
 10
231.448
 20
43.284
 30
0.0
 11
228.3279999999999
 21
44.53199999999999
 31
0.0
  0
LINE
  5
819
330
1E
100
AcDbEntity
  8
0
100
AcDbLine
 10
230.952
 20
42.416
 30
0.0
 11
228.072
 21
43.568
 31
0.0
  0
LINE
  5
81A
330
1E
100
AcDbEntity
  8
0
100
AcDbLine
 10
230.8079999999999
 20
42.128
 30
0.0
 11
228.024
 21
43.28
 31
0.0
  0
LINE
  5
81B
330
1E
100
AcDbEntity
  8
0
100
AcDbLine
 10
225.0
 20
44.0
 30
0.0
 11
221.9279999999999
 21
43.568
 31
0.0
  0
LINE
  5
81C
330
1E
100
AcDbEntity
  8
0
100
AcDbLine
 10
225.0
 20
43.71199999999999
 30
0.0
 11
221.9759999999999
 21
43.28
 31
0.0
  0
LINE
  5
81D
330
1E
100
AcDbEntity
  8
0
100
AcDbLine
 10
225.0
 20
45.0
 30
0.0
 11
221.672
 21
44.53199999999999
 31
0.0
  0
LINE
  5
81E
330
1E
100
AcDbEntity
  8
0
100
AcDbLine
 10
231.134
 20
58.0
 30
0.0
 11
231.134
 21
64.0
 31
0.0
  0
LINE
  5
81F
330
1E
100
AcDbEntity
  8
0
100
AcDbLine
 10
231.134
 20
64.0
 30
0.0
 11
231.134
 21
58.0
 31
0.0
  0
LINE
  5
820
330
1E
100
AcDbEntity
  8
0
100
AcDbLine
 10
232.8659999999999
 20
64.0
 30
0.0
 11
232.8659999999999
 21
58.0
 31
0.0
  0
LINE
  5
821
330
1E
100
AcDbEntity
  8
0
100
AcDbLine
 10
232.8659999999999
 20
58.0
 30
0.0
 11
232.8659999999999
 21
64.0
 31
0.0
  0
LINE
  5
822
330
1E
100
AcDbEntity
  8
0
100
AcDbLine
 10
239.0
 20
64.0
 30
0.0
 11
239.0
 21
58.0
 31
0.0
  0
LINE
  5
823
330
1E
100
AcDbEntity
  8
0
100
AcDbLine
 10
239.0
 20
58.0
 30
0.0
 11
239.0
 21
64.0
 31
0.0
  0
LINE
  5
824
330
1E
100
AcDbEntity
  8
0
100
AcDbLine
 10
234.204
 20
54.0
 30
0.0
 11
231.448
 21
54.0
 31
0.0
  0
LINE
  5
825
330
1E
100
AcDbEntity
  8
0
100
AcDbLine
 10
238.0
 20
54.0
 30
0.0
 11
238.0
 21
58.0
 31
0.0
  0
LINE
  5
826
330
1E
100
AcDbEntity
  8
0
100
AcDbLine
 10
238.0
 20
58.0
 30
0.0
 11
238.0
 21
54.0
 31
0.0
  0
LINE
  5
827
330
1E
100
AcDbEntity
  8
0
100
AcDbLine
 10
236.2839999999999
 20
54.0
 30
0.0
 11
234.204
 21
54.0
 31
0.0
  0
LINE
  5
828
330
1E
100
AcDbEntity
  8
0
100
AcDbLine
 10
238.0
 20
54.0
 30
0.0
 11
237.532
 21
54.0
 31
0.0
  0
LINE
  5
829
330
1E
100
AcDbEntity
  8
0
100
AcDbLine
 10
237.532
 20
54.0
 30
0.0
 11
236.2839999999999
 21
54.0
 31
0.0
  0
LINE
  5
82A
330
1E
100
AcDbEntity
  8
0
100
AcDbLine
 10
239.0
 20
58.0
 30
0.0
 11
238.0
 21
58.0
 31
0.0
  0
LINE
  5
82B
330
1E
100
AcDbEntity
  8
0
100
AcDbLine
 10
239.0
 20
58.0
 30
0.0
 11
237.8128
 21
58.0
 31
0.0
  0
LINE
  5
82C
330
1E
100
AcDbEntity
  8
0
100
AcDbLine
 10
228.3279999999999
 20
54.0
 30
0.0
 11
225.0
 21
54.0
 31
0.0
  0
LINE
  5
82D
330
1E
100
AcDbEntity
  8
0
100
AcDbLine
 10
231.448
 20
54.0
 30
0.0
 11
228.3279999999999
 21
54.0
 31
0.0
  0
LINE
  5
82E
330
1E
100
AcDbEntity
  8
0
100
AcDbLine
 10
225.0
 20
54.0
 30
0.0
 11
221.672
 21
54.0
 31
0.0
  0
LINE
  5
82F
330
1E
100
AcDbEntity
  8
0
100
AcDbLine
 10
232.8659999999999
 20
58.0
 30
0.0
 11
231.134
 21
58.0
 31
0.0
  0
LINE
  5
830
330
1E
100
AcDbEntity
  8
0
100
AcDbLine
 10
232.8659999999999
 20
58.0
 30
0.0
 11
231.8659999999999
 21
58.0
 31
0.0
  0
LINE
  5
831
330
1E
100
AcDbEntity
  8
0
100
AcDbLine
 10
234.204
 20
64.0
 30
0.0
 11
232.8659999999999
 21
64.0
 31
0.0
  0
LINE
  5
832
330
1E
100
AcDbEntity
  8
0
100
AcDbLine
 10
236.2839999999999
 20
64.0
 30
0.0
 11
234.204
 21
64.0
 31
0.0
  0
LINE
  5
833
330
1E
100
AcDbEntity
  8
0
100
AcDbLine
 10
238.0
 20
64.0
 30
0.0
 11
237.532
 21
64.0
 31
0.0
  0
LINE
  5
834
330
1E
100
AcDbEntity
  8
0
100
AcDbLine
 10
239.0
 20
64.0
 30
0.0
 11
238.0
 21
64.0
 31
0.0
  0
LINE
  5
835
330
1E
100
AcDbEntity
  8
0
100
AcDbLine
 10
237.532
 20
64.0
 30
0.0
 11
236.2839999999999
 21
64.0
 31
0.0
  0
LINE
  5
836
330
1E
100
AcDbEntity
  8
0
100
AcDbLine
 10
228.3279999999999
 20
64.0
 30
0.0
 11
225.0
 21
64.0
 31
0.0
  0
LINE
  5
837
330
1E
100
AcDbEntity
  8
0
100
AcDbLine
 10
231.134
 20
64.0
 30
0.0
 11
230.134
 21
64.0
 31
0.0
  0
LINE
  5
838
330
1E
100
AcDbEntity
  8
0
100
AcDbLine
 10
232.8659999999999
 20
64.0
 30
0.0
 11
231.134
 21
64.0
 31
0.0
  0
LINE
  5
839
330
1E
100
AcDbEntity
  8
0
100
AcDbLine
 10
230.134
 20
64.0
 30
0.0
 11
228.3279999999999
 21
64.0
 31
0.0
  0
LINE
  5
83A
330
1E
100
AcDbEntity
  8
0
100
AcDbLine
 10
225.0
 20
64.0
 30
0.0
 11
221.672
 21
64.0
 31
0.0
  0
LINE
  5
83B
330
1E
100
AcDbEntity
  8
0
100
AcDbLine
 10
212.0
 20
45.0
 30
0.0
 11
212.0
 21
54.0
 31
0.0
  0
LINE
  5
83C
330
1E
100
AcDbEntity
  8
0
100
AcDbLine
 10
212.0
 20
54.0
 30
0.0
 11
212.0
 21
45.0
 31
0.0
  0
LINE
  5
83D
330
1E
100
AcDbEntity
  8
0
100
AcDbLine
 10
212.0
 20
45.0
 30
0.0
 11
193.0
 21
45.0
 31
0.0
  0
LINE
  5
83E
330
1E
100
AcDbEntity
  8
0
100
AcDbLine
 10
218.5519999999999
 20
43.284
 30
0.0
 11
215.796
 21
41.20399999999999
 31
0.0
  0
LINE
  5
83F
330
1E
100
AcDbEntity
  8
0
100
AcDbLine
 10
219.0479999999999
 20
42.416
 30
0.0
 11
216.5039999999999
 21
40.496
 31
0.0
  0
LINE
  5
840
330
1E
100
AcDbEntity
  8
0
100
AcDbLine
 10
219.192
 20
42.128
 30
0.0
 11
216.744
 21
40.25599999999999
 31
0.0
  0
LINE
  5
841
330
1E
100
AcDbEntity
  8
0
100
AcDbLine
 10
213.716
 20
38.448
 30
0.0
 11
212.468
 21
35.328
 31
0.0
  0
LINE
  5
842
330
1E
100
AcDbEntity
  8
0
100
AcDbLine
 10
214.584
 20
37.95199999999999
 30
0.0
 11
213.4319999999999
 21
35.07199999999999
 31
0.0
  0
LINE
  5
843
330
1E
100
AcDbEntity
  8
0
100
AcDbLine
 10
214.872
 20
37.808
 30
0.0
 11
213.7199999999999
 21
35.024
 31
0.0
  0
LINE
  5
844
330
1E
100
AcDbEntity
  8
0
100
AcDbLine
 10
216.7714
 20
37.6027
 30
0.0
 11
216.1894
 21
36.8637
 31
0.0
  0
LINE
  5
845
330
1E
100
AcDbEntity
  8
0
100
AcDbLine
 10
216.0
 20
36.4134
 30
0.0
 11
216.0
 21
34.2909
 31
0.0
  0
LINE
  5
846
330
1E
100
AcDbEntity
  8
0
100
AcDbLine
 10
218.6678
 20
35.2307
 30
0.0
 11
218.1465
 21
33.6081
 31
0.0
  0
LINE
  5
847
330
1E
100
AcDbEntity
  8
0
100
AcDbLine
 10
216.0
 20
34.2909
 30
0.0
 11
216.0
 21
36.4134
 31
0.0
  0
LINE
  5
848
330
1E
100
AcDbEntity
  8
0
100
AcDbLine
 10
219.7662999999999
 20
36.8727
 30
0.0
 11
218.6678
 21
35.2307
 31
0.0
  0
LINE
  5
849
330
1E
100
AcDbEntity
  8
0
100
AcDbLine
 10
216.0
 20
36.15999999999999
 30
0.0
 11
215.36
 21
34.56
 31
0.0
  0
LINE
  5
84A
330
1E
100
AcDbEntity
  8
0
100
AcDbLine
 10
216.1894
 20
36.8637
 30
0.0
 11
216.0
 21
36.4134
 31
0.0
  0
LINE
  5
84B
330
1E
100
AcDbEntity
  8
0
100
AcDbLine
 10
215.796
 20
41.20399999999999
 30
0.0
 11
213.716
 21
38.448
 31
0.0
  0
LINE
  5
84C
330
1E
100
AcDbEntity
  8
0
100
AcDbLine
 10
216.5039999999999
 20
40.496
 30
0.0
 11
214.584
 21
37.95199999999999
 31
0.0
  0
LINE
  5
84D
330
1E
100
AcDbEntity
  8
0
100
AcDbLine
 10
216.744
 20
40.25599999999999
 30
0.0
 11
214.872
 21
37.808
 31
0.0
  0
LINE
  5
84E
330
1E
100
AcDbEntity
  8
0
100
AcDbLine
 10
220.04
 20
40.68
 30
0.0
 11
217.92
 21
39.07999999999999
 31
0.0
  0
LINE
  5
84F
330
1E
100
AcDbEntity
  8
0
100
AcDbLine
 10
220.4187
 20
39.6709
 30
0.0
 11
218.2736999999999
 21
38.4545
 31
0.0
  0
LINE
  5
850
330
1E
100
AcDbEntity
  8
0
100
AcDbLine
 10
217.92
 20
39.07999999999999
 30
0.0
 11
216.8302322420026
 21
37.6360577206536
 31
0.0
  0
LINE
  5
851
330
1E
100
AcDbEntity
  8
0
100
AcDbLine
 10
218.2736999999999
 20
38.4545
 30
0.0
 11
216.7714
 21
37.6027
 31
0.0
  0
LINE
  5
852
330
1E
100
AcDbEntity
  8
0
100
AcDbLine
 10
220.9827119357736
 20
39.99068477430939
 30
0.0
 11
220.536
 21
39.81199999999999
 31
0.0
  0
LINE
  5
853
330
1E
100
AcDbEntity
  8
0
100
AcDbLine
 10
220.536
 20
39.81199999999999
 30
0.0
 11
220.1385129699776
 21
39.5120097886624
 31
0.0
  0
LINE
  5
854
330
1E
100
AcDbEntity
  8
0
100
AcDbLine
 10
193.0
 20
43.284
 30
0.0
 11
193.0
 21
41.20399999999999
 31
0.0
  0
LINE
  5
855
330
1E
100
AcDbEntity
  8
0
100
AcDbLine
 10
193.0
 20
41.20399999999999
 30
0.0
 11
193.0
 21
43.284
 31
0.0
  0
LINE
  5
856
330
1E
100
AcDbEntity
  8
0
100
AcDbLine
 10
193.0
 20
35.328
 30
0.0
 11
193.0
 21
38.448
 31
0.0
  0
LINE
  5
857
330
1E
100
AcDbEntity
  8
0
100
AcDbLine
 10
193.0
 20
38.448
 30
0.0
 11
193.0
 21
35.328
 31
0.0
  0
LINE
  5
858
330
1E
100
AcDbEntity
  8
0
100
AcDbLine
 10
193.0
 20
38.448
 30
0.0
 11
193.0
 21
41.20399999999999
 31
0.0
  0
LINE
  5
859
330
1E
100
AcDbEntity
  8
0
100
AcDbLine
 10
193.0
 20
41.20399999999999
 30
0.0
 11
193.0
 21
38.448
 31
0.0
  0
LINE
  5
85A
330
1E
100
AcDbEntity
  8
0
100
AcDbLine
 10
193.0
 20
43.284
 30
0.0
 11
193.0
 21
44.53199999999999
 31
0.0
  0
LINE
  5
85B
330
1E
100
AcDbEntity
  8
0
100
AcDbLine
 10
193.0
 20
44.53199999999999
 30
0.0
 11
193.0
 21
43.284
 31
0.0
  0
LINE
  5
85C
330
1E
100
AcDbEntity
  8
0
100
AcDbLine
 10
193.0
 20
44.53199999999999
 30
0.0
 11
193.0
 21
45.0
 31
0.0
  0
LINE
  5
85D
330
1E
100
AcDbEntity
  8
0
100
AcDbLine
 10
193.0
 20
45.0
 30
0.0
 11
193.0
 21
44.53199999999999
 31
0.0
  0
LINE
  5
85E
330
1E
100
AcDbEntity
  8
0
100
AcDbLine
 10
211.0
 20
64.0
 30
0.0
 11
211.0
 21
58.0
 31
0.0
  0
LINE
  5
85F
330
1E
100
AcDbEntity
  8
0
100
AcDbLine
 10
211.0
 20
58.0
 30
0.0
 11
211.0
 21
64.0
 31
0.0
  0
LINE
  5
860
330
1E
100
AcDbEntity
  8
0
100
AcDbLine
 10
217.134
 20
64.0
 30
0.0
 11
217.134
 21
58.0
 31
0.0
  0
LINE
  5
861
330
1E
100
AcDbEntity
  8
0
100
AcDbLine
 10
218.866
 20
64.0
 30
0.0
 11
218.866
 21
58.0
 31
0.0
  0
LINE
  5
862
330
1E
100
AcDbEntity
  8
0
100
AcDbLine
 10
217.134
 20
58.0
 30
0.0
 11
217.134
 21
64.0
 31
0.0
  0
LINE
  5
863
330
1E
100
AcDbEntity
  8
0
100
AcDbLine
 10
218.866
 20
58.0
 30
0.0
 11
218.866
 21
64.0
 31
0.0
  0
LINE
  5
864
330
1E
100
AcDbEntity
  8
0
100
AcDbLine
 10
212.0
 20
58.0
 30
0.0
 11
212.0
 21
54.0
 31
0.0
  0
LINE
  5
865
330
1E
100
AcDbEntity
  8
0
100
AcDbLine
 10
212.0
 20
54.0
 30
0.0
 11
212.0
 21
58.0
 31
0.0
  0
LINE
  5
866
330
1E
100
AcDbEntity
  8
0
100
AcDbLine
 10
215.796
 20
54.0
 30
0.0
 11
213.716
 21
54.0
 31
0.0
  0
LINE
  5
867
330
1E
100
AcDbEntity
  8
0
100
AcDbLine
 10
218.5519999999999
 20
54.0
 30
0.0
 11
215.796
 21
54.0
 31
0.0
  0
LINE
  5
868
330
1E
100
AcDbEntity
  8
0
100
AcDbLine
 10
212.468
 20
54.0
 30
0.0
 11
212.0
 21
54.0
 31
0.0
  0
LINE
  5
869
330
1E
100
AcDbEntity
  8
0
100
AcDbLine
 10
213.716
 20
54.0
 30
0.0
 11
212.468
 21
54.0
 31
0.0
  0
LINE
  5
86A
330
1E
100
AcDbEntity
  8
0
100
AcDbLine
 10
218.866
 20
58.0
 30
0.0
 11
217.134
 21
58.0
 31
0.0
  0
LINE
  5
86B
330
1E
100
AcDbEntity
  8
0
100
AcDbLine
 10
217.4495999999999
 20
58.0
 30
0.0
 11
217.134
 21
58.0
 31
0.0
  0
LINE
  5
86C
330
1E
100
AcDbEntity
  8
0
100
AcDbLine
 10
212.0
 20
58.0
 30
0.0
 11
211.0
 21
58.0
 31
0.0
  0
LINE
  5
86D
330
1E
100
AcDbEntity
  8
0
100
AcDbLine
 10
212.2808
 20
58.0
 30
0.0
 11
211.0
 21
58.0
 31
0.0
  0
LINE
  5
86E
330
1E
100
AcDbEntity
  8
0
100
AcDbLine
 10
215.796
 20
64.0
 30
0.0
 11
213.716
 21
64.0
 31
0.0
  0
LINE
  5
86F
330
1E
100
AcDbEntity
  8
0
100
AcDbLine
 10
218.866
 20
64.0
 30
0.0
 11
217.134
 21
64.0
 31
0.0
  0
LINE
  5
870
330
1E
100
AcDbEntity
  8
0
100
AcDbLine
 10
219.8659999999999
 20
64.0
 30
0.0
 11
218.866
 21
64.0
 31
0.0
  0
LINE
  5
871
330
1E
100
AcDbEntity
  8
0
100
AcDbLine
 10
217.134
 20
64.0
 30
0.0
 11
215.796
 21
64.0
 31
0.0
  0
LINE
  5
872
330
1E
100
AcDbEntity
  8
0
100
AcDbLine
 10
212.468
 20
64.0
 30
0.0
 11
212.0
 21
64.0
 31
0.0
  0
LINE
  5
873
330
1E
100
AcDbEntity
  8
0
100
AcDbLine
 10
213.716
 20
64.0
 30
0.0
 11
212.468
 21
64.0
 31
0.0
  0
LINE
  5
874
330
1E
100
AcDbEntity
  8
0
100
AcDbLine
 10
212.0
 20
64.0
 30
0.0
 11
211.0
 21
64.0
 31
0.0
  0
ENDSEC
  0
SECTION
  2
OBJECTS
  0
DICTIONARY
  5
C
330
0
100
AcDbDictionary
281
     1
  3
ACAD_GROUP
350
D
  3
ACAD_LAYOUT
350
19
  3
ACAD_MLINESTYLE
350
16
  3
ACAD_PLOTSETTINGS
350
18
  3
ACAD_PLOTSTYLENAME
350
E
  3
AcDbVariableDictionary
350
875
  0
DICTIONARY
  5
D
102
{ACAD_REACTORS
330
C
102
}
330
C
100
AcDbDictionary
281
     1
  0
DICTIONARY
  5
19
102
{ACAD_REACTORS
330
C
102
}
330
C
100
AcDbDictionary
281
     1
  3
Layout1
350
1D
  3
Model
350
21
  0
DICTIONARY
  5
16
102
{ACAD_REACTORS
330
C
102
}
330
C
100
AcDbDictionary
281
     1
  3
Standard
350
17
  0
DICTIONARY
  5
18
102
{ACAD_REACTORS
330
C
102
}
330
C
100
AcDbDictionary
281
     1
  0
ACDBDICTIONARYWDFLT
  5
E
102
{ACAD_REACTORS
330
C
102
}
330
C
100
AcDbDictionary
281
     1
  3
Normal
350
F
100
AcDbDictionaryWithDefault
340
F
  0
DICTIONARY
  5
875
102
{ACAD_REACTORS
330
C
102
}
330
C
100
AcDbDictionary
281
     1
  3
DIMASSOC
350
876
  0
LAYOUT
  5
1D
102
{ACAD_REACTORS
330
19
102
}
330
19
100
AcDbPlotSettings
  1

  2
hp deskjet 980c series
  4

  6

 40
0.0
 41
0.0
 42
0.0
 43
0.0
 44
0.0
 45
0.0
 46
0.0
 47
0.0
 48
0.0
 49
0.0
140
0.0
141
0.0
142
1.0
143
1.0
 70
   688
 72
     0
 73
     0
 74
     5
  7

 75
    16
147
1.0
148
0.0
149
0.0
100
AcDbLayout
  1
Layout1
 70
     1
 71
     1
 10
0.0
 20
0.0
 11
12.0
 21
9.0
 12
0.0
 22
0.0
 32
0.0
 14
1.000000000000000E+20
 24
1.000000000000000E+20
 34
1.000000000000000E+20
 15
-1.000000000000000E+20
 25
-1.000000000000000E+20
 35
-1.000000000000000E+20
146
0.0
 13
0.0
 23
0.0
 33
0.0
 16
1.0
 26
0.0
 36
0.0
 17
0.0
 27
1.0
 37
0.0
 76
     0
330
1A
  0
LAYOUT
  5
21
102
{ACAD_REACTORS
330
19
102
}
330
19
100
AcDbPlotSettings
  1

  2
hp deskjet 980c series
  4

  6

 40
0.0
 41
0.0
 42
0.0
 43
0.0
 44
0.0
 45
0.0
 46
0.0
 47
0.0
 48
0.0
 49
0.0
140
0.0
141
0.0
142
1.0
143
1.0
 70
  1712
 72
     0
 73
     0
 74
     0
  7

 75
     0
147
1.0
148
0.0
149
0.0
100
AcDbLayout
  1
Model
 70
     1
 71
     0
 10
0.0
 20
0.0
 11
12.0
 21
9.0
 12
0.0
 22
0.0
 32
0.0
 14
0.0
 24
0.0
 34
0.0
 15
0.0
 25
0.0
 35
0.0
146
0.0
 13
0.0
 23
0.0
 33
0.0
 16
1.0
 26
0.0
 36
0.0
 17
0.0
 27
1.0
 37
0.0
 76
     0
330
1E
  0
MLINESTYLE
  5
17
102
{ACAD_REACTORS
330
16
102
}
330
16
100
AcDbMlineStyle
  2
STANDARD
 70
     0
  3

 62
   256
 51
90.0
 52
90.0
 71
     2
 49
0.5
 62
   256
  6
BYLAYER
 49
-0.5
 62
   256
  6
BYLAYER
  0
ACDBPLACEHOLDER
  5
F
102
{ACAD_REACTORS
330
E
102
}
330
E
  0
DICTIONARYVAR
  5
876
102
{ACAD_REACTORS
330
875
102
}
330
875
100
DictionaryVariables
280
     0
  1
1
  0
ENDSEC
  0
EOF
