  0
SECTION
  2
HEADER
  9
$ACADVER
  1
AC1015
  9
$ACADMAINTVER
 70
    13
  9
$DWGCODEPAGE
  3
ANSI_1252
  9
$INSBASE
 10
0.0
 20
0.0
 30
0.0
  9
$EXTMIN
 10
0.0
 20
-0.0000000000000027
 30
0.0
  9
$EXTMAX
 10
112.0
 20
30.0
 30
0.0
  9
$LIMMIN
 10
0.0
 20
0.0
  9
$LIMMAX
 10
12.0
 20
9.0
  9
$ORTHOMODE
 70
     0
  9
$REGENMODE
 70
     1
  9
$FILLMODE
 70
     1
  9
$QTEXTMODE
 70
     0
  9
$MIRRTEXT
 70
     1
  9
$LTSCALE
 40
1.0
  9
$ATTMODE
 70
     1
  9
$TEXTSIZE
 40
0.2
  9
$TRACEWID
 40
0.05
  9
$TEXTSTYLE
  7
Standard
  9
$CLAYER
  8
0
  9
$CELTYPE
  6
Continuous
  9
$CECOLOR
 62
   256
  9
$CELTSCALE
 40
1.0
  9
$DISPSILH
 70
     0
  9
$DIMSCALE
 40
1.0
  9
$DIMASZ
 40
0.18
  9
$DIMEXO
 40
0.0625
  9
$DIMDLI
 40
0.38
  9
$DIMRND
 40
0.0
  9
$DIMDLE
 40
0.0
  9
$DIMEXE
 40
0.18
  9
$DIMTP
 40
0.0
  9
$DIMTM
 40
0.0
  9
$DIMTXT
 40
0.18
  9
$DIMCEN
 40
0.09
  9
$DIMTSZ
 40
0.0
  9
$DIMTOL
 70
     0
  9
$DIMLIM
 70
     0
  9
$DIMTIH
 70
     1
  9
$DIMTOH
 70
     1
  9
$DIMSE1
 70
     0
  9
$DIMSE2
 70
     0
  9
$DIMTAD
 70
     0
  9
$DIMZIN
 70
     0
  9
$DIMBLK
  1

  9
$DIMASO
 70
     1
  9
$DIMSHO
 70
     1
  9
$DIMPOST
  1

  9
$DIMAPOST
  1

  9
$DIMALT
 70
     0
  9
$DIMALTD
 70
     2
  9
$DIMALTF
 40
25.4
  9
$DIMLFAC
 40
1.0
  9
$DIMTOFL
 70
     0
  9
$DIMTVP
 40
0.0
  9
$DIMTIX
 70
     0
  9
$DIMSOXD
 70
     0
  9
$DIMSAH
 70
     0
  9
$DIMBLK1
  1

  9
$DIMBLK2
  1

  9
$DIMSTYLE
  2
Standard
  9
$DIMCLRD
 70
     0
  9
$DIMCLRE
 70
     0
  9
$DIMCLRT
 70
     0
  9
$DIMTFAC
 40
1.0
  9
$DIMGAP
 40
0.09
  9
$DIMJUST
 70
     0
  9
$DIMSD1
 70
     0
  9
$DIMSD2
 70
     0
  9
$DIMTOLJ
 70
     1
  9
$DIMTZIN
 70
     0
  9
$DIMALTZ
 70
     0
  9
$DIMALTTZ
 70
     0
  9
$DIMUPT
 70
     0
  9
$DIMDEC
 70
     4
  9
$DIMTDEC
 70
     4
  9
$DIMALTU
 70
     2
  9
$DIMALTTD
 70
     2
  9
$DIMTXSTY
  7
Standard
  9
$DIMAUNIT
 70
     0
  9
$DIMADEC
 70
     0
  9
$DIMALTRND
 40
0.0
  9
$DIMAZIN
 70
     0
  9
$DIMDSEP
 70
    46
  9
$DIMATFIT
 70
     3
  9
$DIMFRAC
 70
     0
  9
$DIMLDRBLK
  1

  9
$DIMLUNIT
 70
     2
  9
$DIMLWD
 70
    -2
  9
$DIMLWE
 70
    -2
  9
$DIMTMOVE
 70
     0
  9
$LUNITS
 70
     2
  9
$LUPREC
 70
     4
  9
$SKETCHINC
 40
0.1
  9
$FILLETRAD
 40
0.0
  9
$AUNITS
 70
     0
  9
$AUPREC
 70
     0
  9
$MENU
  1
.
  9
$ELEVATION
 40
0.0
  9
$PELEVATION
 40
0.0
  9
$THICKNESS
 40
0.0
  9
$LIMCHECK
 70
     0
  9
$CHAMFERA
 40
0.0
  9
$CHAMFERB
 40
0.0
  9
$CHAMFERC
 40
0.0
  9
$CHAMFERD
 40
0.0
  9
$SKPOLY
 70
     0
  9
$TDCREATE
 40
2454834.813511643
  9
$TDUCREATE
 40
2454834.771844977
  9
$TDUPDATE
 40
2454834.813660116
  9
$TDUUPDATE
 40
2454834.771993449
  9
$TDINDWG
 40
0.0001484722
  9
$TDUSRTIMER
 40
0.0001484722
  9
$USRTIMER
 70
     1
  9
$ANGBASE
 50
0.0
  9
$ANGDIR
 70
     0
  9
$PDMODE
 70
     0
  9
$PDSIZE
 40
0.0
  9
$PLINEWID
 40
0.0
  9
$SPLFRAME
 70
     0
  9
$SPLINETYPE
 70
     6
  9
$SPLINESEGS
 70
     8
  9
$HANDSEED
  5
369
  9
$SURFTAB1
 70
     6
  9
$SURFTAB2
 70
     6
  9
$SURFTYPE
 70
     6
  9
$SURFU
 70
     6
  9
$SURFV
 70
     6
  9
$UCSBASE
  2

  9
$UCSNAME
  2

  9
$UCSORG
 10
0.0
 20
0.0
 30
0.0
  9
$UCSXDIR
 10
1.0
 20
0.0
 30
0.0
  9
$UCSYDIR
 10
0.0
 20
1.0
 30
0.0
  9
$UCSORTHOREF
  2

  9
$UCSORTHOVIEW
 70
     1
  9
$UCSORGTOP
 10
0.0
 20
0.0
 30
0.0
  9
$UCSORGBOTTOM
 10
0.0
 20
0.0
 30
0.0
  9
$UCSORGLEFT
 10
0.0
 20
0.0
 30
0.0
  9
$UCSORGRIGHT
 10
0.0
 20
0.0
 30
0.0
  9
$UCSORGFRONT
 10
0.0
 20
0.0
 30
0.0
  9
$UCSORGBACK
 10
0.0
 20
0.0
 30
0.0
  9
$PUCSBASE
  2

  9
$PUCSNAME
  2

  9
$PUCSORG
 10
0.0
 20
0.0
 30
0.0
  9
$PUCSXDIR
 10
1.0
 20
0.0
 30
0.0
  9
$PUCSYDIR
 10
0.0
 20
1.0
 30
0.0
  9
$PUCSORTHOREF
  2

  9
$PUCSORTHOVIEW
 70
     0
  9
$PUCSORGTOP
 10
0.0
 20
0.0
 30
0.0
  9
$PUCSORGBOTTOM
 10
0.0
 20
0.0
 30
0.0
  9
$PUCSORGLEFT
 10
0.0
 20
0.0
 30
0.0
  9
$PUCSORGRIGHT
 10
0.0
 20
0.0
 30
0.0
  9
$PUCSORGFRONT
 10
0.0
 20
0.0
 30
0.0
  9
$PUCSORGBACK
 10
0.0
 20
0.0
 30
0.0
  9
$USERI1
 70
     0
  9
$USERI2
 70
     0
  9
$USERI3
 70
     0
  9
$USERI4
 70
     0
  9
$USERI5
 70
     0
  9
$USERR1
 40
0.0
  9
$USERR2
 40
0.0
  9
$USERR3
 40
0.0
  9
$USERR4
 40
0.0
  9
$USERR5
 40
0.0
  9
$WORLDVIEW
 70
     1
  9
$SHADEDGE
 70
     3
  9
$SHADEDIF
 70
    70
  9
$TILEMODE
 70
     1
  9
$MAXACTVP
 70
    64
  9
$PINSBASE
 10
0.0
 20
0.0
 30
0.0
  9
$PLIMCHECK
 70
     0
  9
$PEXTMIN
 10
1.000000000000000E+20
 20
1.000000000000000E+20
 30
1.000000000000000E+20
  9
$PEXTMAX
 10
-1.000000000000000E+20
 20
-1.000000000000000E+20
 30
-1.000000000000000E+20
  9
$PLIMMIN
 10
0.0
 20
0.0
  9
$PLIMMAX
 10
12.0
 20
9.0
  9
$UNITMODE
 70
     0
  9
$VISRETAIN
 70
     1
  9
$PLINEGEN
 70
     0
  9
$PSLTSCALE
 70
     1
  9
$TREEDEPTH
 70
  3020
  9
$CMLSTYLE
  2
Standard
  9
$CMLJUST
 70
     0
  9
$CMLSCALE
 40
1.0
  9
$PROXYGRAPHICS
 70
     1
  9
$MEASUREMENT
 70
     0
  9
$CELWEIGHT
370
    -1
  9
$ENDCAPS
280
     0
  9
$JOINSTYLE
280
     0
  9
$LWDISPLAY
290
     0
  9
$INSUNITS
 70
     0
  9
$HYPERLINKBASE
  1

  9
$STYLESHEET
  1

  9
$XEDIT
290
     1
  9
$CEPSNTYPE
380
     0
  9
$PSTYLEMODE
290
     1
  9
$FINGERPRINTGUID
  2
{157F53BF-E8B7-4D2B-9619-C015CED40C6A}
  9
$VERSIONGUID
  2
{0D4F7BCD-A70B-4A04-8976-F853372ED45E}
  9
$EXTNAMES
290
     1
  9
$PSVPSCALE
 40
0.0
  9
$OLESTARTUP
290
     0
  0
ENDSEC
  0
SECTION
  2
CLASSES
  0
CLASS
  1
ACDBDICTIONARYWDFLT
  2
AcDbDictionaryWithDefault
  3
AutoCAD 2000
 90
        0
280
     0
281
     0
  0
CLASS
  1
ACDBPLACEHOLDER
  2
AcDbPlaceHolder
  3
AutoCAD 2000
 90
        0
280
     0
281
     0
  0
CLASS
  1
LAYOUT
  2
AcDbLayout
  3
AutoCAD 2000
 90
        0
280
     0
281
     0
  0
CLASS
  1
DICTIONARYVAR
  2
AcDbDictionaryVar
  3
AutoCAD 2000
 90
        0
280
     0
281
     0
  0
ENDSEC
  0
SECTION
  2
TABLES
  0
TABLE
  2
VPORT
  5
8
330
0
100
AcDbSymbolTable
 70
     2
  0
VPORT
  5
368
330
8
100
AcDbSymbolTableRecord
100
AcDbViewportTableRecord
  2
*Active
 70
     0
 10
0.0
 20
0.0
 11
1.0
 21
1.0
 12
56.0
 22
15.0
 13
0.0
 23
0.0
 14
1.0
 24
1.0
 15
0.0
 25
0.0
 16
0.0
 26
0.0
 36
1.0
 17
0.0
 27
0.0
 37
0.0
 40
54.09437610215225
 41
2.078104993597951
 42
50.0
 43
0.0
 44
0.0
 50
0.0
 51
0.0
 71
     0
 72
   100
 73
     1
 74
     3
 75
     0
 76
     0
 77
     0
 78
     0
281
     0
 65
     1
110
0.0
120
0.0
130
0.0
111
1.0
121
0.0
131
0.0
112
0.0
122
1.0
132
0.0
 79
     1
146
0.0
  0
ENDTAB
  0
TABLE
  2
LTYPE
  5
5
330
0
100
AcDbSymbolTable
 70
     1
  0
LTYPE
  5
13
330
5
100
AcDbSymbolTableRecord
100
AcDbLinetypeTableRecord
  2
ByBlock
 70
     0
  3

 72
    65
 73
     0
 40
0.0
  0
LTYPE
  5
14
330
5
100
AcDbSymbolTableRecord
100
AcDbLinetypeTableRecord
  2
ByLayer
 70
     0
  3

 72
    65
 73
     0
 40
0.0
  0
LTYPE
  5
15
330
5
100
AcDbSymbolTableRecord
100
AcDbLinetypeTableRecord
  2
Continuous
 70
     0
  3
Solid line
 72
    65
 73
     0
 40
0.0
  0
ENDTAB
  0
TABLE
  2
LAYER
  5
2
330
0
100
AcDbSymbolTable
 70
     1
  0
LAYER
  5
10
330
2
100
AcDbSymbolTableRecord
100
AcDbLayerTableRecord
  2
0
 70
     0
 62
     7
  6
Continuous
370
    -3
390
F
  0
ENDTAB
  0
TABLE
  2
STYLE
  5
3
330
0
100
AcDbSymbolTable
 70
     1
  0
STYLE
  5
11
330
3
100
AcDbSymbolTableRecord
100
AcDbTextStyleTableRecord
  2
Standard
 70
     0
 40
0.0
 41
1.0
 50
0.0
 71
     0
 42
0.2
  3
txt
  4

  0
ENDTAB
  0
TABLE
  2
VIEW
  5
6
330
0
100
AcDbSymbolTable
 70
     0
  0
ENDTAB
  0
TABLE
  2
UCS
  5
7
330
0
100
AcDbSymbolTable
 70
     0
  0
ENDTAB
  0
TABLE
  2
APPID
  5
9
330
0
100
AcDbSymbolTable
 70
     1
  0
APPID
  5
12
330
9
100
AcDbSymbolTableRecord
100
AcDbRegAppTableRecord
  2
ACAD
 70
     0
  0
ENDTAB
  0
TABLE
  2
DIMSTYLE
  5
A
330
0
100
AcDbSymbolTable
 70
     1
100
AcDbDimStyleTable
 71
     0
  0
DIMSTYLE
105
362
330
A
100
AcDbSymbolTableRecord
100
AcDbDimStyleTableRecord
  2
Standard
 70
     0
340
11
  0
ENDTAB
  0
TABLE
  2
BLOCK_RECORD
  5
1
330
0
100
AcDbSymbolTable
 70
     0
  0
BLOCK_RECORD
  5
1E
330
1
100
AcDbSymbolTableRecord
100
AcDbBlockTableRecord
  2
*Model_Space
340
21
  0
BLOCK_RECORD
  5
1A
330
1
100
AcDbSymbolTableRecord
100
AcDbBlockTableRecord
  2
*Paper_Space
340
1D
  0
ENDTAB
  0
ENDSEC
  0
SECTION
  2
BLOCKS
  0
BLOCK
  5
1F
330
1E
100
AcDbEntity
  8
0
100
AcDbBlockBegin
  2
*Model_Space
 70
     0
 10
0.0
 20
0.0
 30
0.0
  3
*Model_Space
  1

  0
ENDBLK
  5
20
330
1E
100
AcDbEntity
  8
0
100
AcDbBlockEnd
  0
BLOCK
  5
1B
330
1A
100
AcDbEntity
 67
     1
  8
0
100
AcDbBlockBegin
  2
*Paper_Space
 70
     0
 10
0.0
 20
0.0
 30
0.0
  3
*Paper_Space
  1

  0
ENDBLK
  5
1C
330
1A
100
AcDbEntity
 67
     1
  8
0
100
AcDbBlockEnd
  0
ENDSEC
  0
SECTION
  2
ENTITIES
  0
LINE
  5
22
330
1E
100
AcDbEntity
  8
0
100
AcDbLine
 10
16.25799999999999
 20
7.755819999999999
 30
0.0
 11
16.5138
 21
7.746879999999999
 31
0.0
  0
LINE
  5
23
330
1E
100
AcDbEntity
  8
0
100
AcDbLine
 10
16.5138
 20
7.746879999999999
 30
0.0
 11
16.7537
 21
7.73851
 31
0.0
  0
LINE
  5
24
330
1E
100
AcDbEntity
  8
0
100
AcDbLine
 10
16.96559999999999
 20
7.73111
 30
0.0
 11
17.1255
 21
7.725519999999999
 31
0.0
  0
LINE
  5
25
330
1E
100
AcDbEntity
  8
0
100
AcDbLine
 10
16.7537
 20
7.73851
 30
0.0
 11
16.96559999999999
 21
7.73111
 31
0.0
  0
LINE
  5
26
330
1E
100
AcDbEntity
  8
0
100
AcDbLine
 10
17.1255
 20
7.725519999999999
 30
0.0
 11
17.2214
 21
7.722169999999999
 31
0.0
  0
LINE
  5
27
330
1E
100
AcDbEntity
  8
0
100
AcDbLine
 10
17.8941
 20
7.755819999999999
 30
0.0
 11
18.14849999999999
 21
7.746879999999999
 31
0.0
  0
LINE
  5
28
330
1E
100
AcDbEntity
  8
0
100
AcDbLine
 10
18.5121
 20
7.755819999999999
 30
0.0
 11
18.7443
 21
7.746879999999999
 31
0.0
  0
LINE
  5
29
330
1E
100
AcDbEntity
  8
0
100
AcDbLine
 10
18.14849999999999
 20
7.746879999999999
 30
0.0
 11
18.4063
 21
7.73851
 31
0.0
  0
LINE
  5
2A
330
1E
100
AcDbEntity
  8
0
100
AcDbLine
 10
18.4063
 20
7.73851
 30
0.0
 11
18.6573
 21
7.73111
 31
0.0
  0
LINE
  5
2B
330
1E
100
AcDbEntity
  8
0
100
AcDbLine
 10
18.7443
 20
7.746879999999999
 30
0.0
 11
18.9428
 21
7.73851
 31
0.0
  0
LINE
  5
2C
330
1E
100
AcDbEntity
  8
0
100
AcDbLine
 10
18.9428
 20
7.73851
 30
0.0
 11
19.0948
 21
7.73111
 31
0.0
  0
LINE
  5
2D
330
1E
100
AcDbEntity
  8
0
100
AcDbLine
 10
18.6573
 20
7.73111
 30
0.0
 11
18.8748
 21
7.725519999999999
 31
0.0
  0
LINE
  5
2E
330
1E
100
AcDbEntity
  8
0
100
AcDbLine
 10
18.8748
 20
7.725519999999999
 30
0.0
 11
19.04029999999999
 21
7.722169999999999
 31
0.0
  0
LINE
  5
2F
330
1E
100
AcDbEntity
  8
0
100
AcDbLine
 10
19.0948
 20
7.73111
 30
0.0
 11
19.1814
 21
7.725519999999999
 31
0.0
  0
LINE
  5
30
330
1E
100
AcDbEntity
  8
0
100
AcDbLine
 10
19.1985
 20
7.722169999999999
 30
0.0
 11
19.22813517927029
 21
8.61425584297836
 31
0.0
  0
LINE
  5
31
330
1E
100
AcDbEntity
  8
0
100
AcDbLine
 10
19.1985
 20
7.722169999999999
 30
0.0
 11
19.22813517927029
 21
8.61425584297836
 31
0.0
  0
LINE
  5
32
330
1E
100
AcDbEntity
  8
0
100
AcDbLine
 10
19.04029999999999
 20
7.722169999999999
 30
0.0
 11
19.1536
 21
7.720919999999999
 31
0.0
  0
LINE
  5
33
330
1E
100
AcDbEntity
  8
0
100
AcDbLine
 10
17.66189999999999
 20
7.76475
 30
0.0
 11
17.8941
 21
7.755819999999999
 31
0.0
  0
LINE
  5
34
330
1E
100
AcDbEntity
  8
0
100
AcDbLine
 10
17.2574
 20
7.720919999999999
 30
0.0
 11
17.2595982193176
 21
7.78386780526799
 31
0.0
  0
LINE
  5
35
330
1E
100
AcDbEntity
  8
0
100
AcDbLine
 10
18.2577
 20
7.76475
 30
0.0
 11
18.5121
 21
7.755819999999999
 31
0.0
  0
LINE
  5
36
330
1E
100
AcDbEntity
  8
0
100
AcDbLine
 10
17.4634
 20
7.77313
 30
0.0
 11
17.66189999999999
 21
7.76475
 31
0.0
  0
LINE
  5
37
330
1E
100
AcDbEntity
  8
0
100
AcDbLine
 10
17.9999
 20
7.77313
 30
0.0
 11
18.2577
 21
7.76475
 31
0.0
  0
LINE
  5
38
330
1E
100
AcDbEntity
  8
0
100
AcDbLine
 10
17.2595982193176
 20
7.78386780526799
 30
0.0
 11
17.31139999999999
 21
7.78053
 31
0.0
  0
LINE
  5
39
330
1E
100
AcDbEntity
  8
0
100
AcDbLine
 10
17.749
 20
7.78053
 30
0.0
 11
17.9999
 21
7.77313
 31
0.0
  0
LINE
  5
3A
330
1E
100
AcDbEntity
  8
0
100
AcDbLine
 10
17.5314
 20
7.78611
 30
0.0
 11
17.749
 21
7.78053
 31
0.0
  0
LINE
  5
3B
330
1E
100
AcDbEntity
  8
0
100
AcDbLine
 10
17.31139999999999
 20
7.78053
 30
0.0
 11
17.4634
 21
7.77313
 31
0.0
  0
LINE
  5
3C
330
1E
100
AcDbEntity
  8
0
100
AcDbLine
 10
17.2248
 20
7.78611
 30
0.0
 11
17.31139999999999
 21
7.78053
 31
0.0
  0
LINE
  5
3D
330
1E
100
AcDbEntity
  8
0
100
AcDbLine
 10
15.76229999999999
 20
7.77313
 30
0.0
 11
16.00209999999999
 21
7.76475
 31
0.0
  0
LINE
  5
3E
330
1E
100
AcDbEntity
  8
0
100
AcDbLine
 10
15.55039999999999
 20
7.78053
 30
0.0
 11
15.76229999999999
 21
7.77313
 31
0.0
  0
LINE
  5
3F
330
1E
100
AcDbEntity
  8
0
100
AcDbLine
 10
16.00209999999999
 20
7.76475
 30
0.0
 11
16.25799999999999
 21
7.755819999999999
 31
0.0
  0
LINE
  5
40
330
1E
100
AcDbEntity
  8
0
100
AcDbLine
 10
15.3905
 20
7.78611
 30
0.0
 11
15.55039999999999
 21
7.78053
 31
0.0
  0
LINE
  5
41
330
1E
100
AcDbEntity
  8
0
100
AcDbLine
 10
17.366
 20
7.78946
 30
0.0
 11
17.5314
 21
7.78611
 31
0.0
  0
LINE
  5
42
330
1E
100
AcDbEntity
  8
0
100
AcDbLine
 10
17.20769999999999
 20
7.78946
 30
0.0
 11
17.23656162871769
 21
8.658255877234878
 31
0.0
  0
LINE
  5
43
330
1E
100
AcDbEntity
  8
0
100
AcDbLine
 10
15.2946
 20
7.78946
 30
0.0
 11
15.3905
 21
7.78611
 31
0.0
  0
LINE
  5
44
330
1E
100
AcDbEntity
  8
0
100
AcDbLine
 10
22.9368
 20
7.77313
 30
0.0
 11
23.0744
 21
7.76475
 31
0.0
  0
LINE
  5
45
330
1E
100
AcDbEntity
  8
0
100
AcDbLine
 10
22.8595
 20
7.78053
 30
0.0
 11
22.9368
 21
7.77313
 31
0.0
  0
LINE
  5
46
330
1E
100
AcDbEntity
  8
0
100
AcDbLine
 10
24.25829999999999
 20
7.725519999999999
 30
0.0
 11
24.47699999999999
 21
7.722169999999999
 31
0.0
  0
LINE
  5
47
330
1E
100
AcDbEntity
  8
0
100
AcDbLine
 10
24.47699999999999
 20
7.722169999999999
 30
0.0
 11
24.6566
 21
7.720919999999999
 31
0.0
  0
LINE
  5
48
330
1E
100
AcDbEntity
  8
0
100
AcDbLine
 10
23.7389
 20
7.73851
 30
0.0
 11
24.0043
 21
7.73111
 31
0.0
  0
LINE
  5
49
330
1E
100
AcDbEntity
  8
0
100
AcDbLine
 10
24.0043
 20
7.73111
 30
0.0
 11
24.25829999999999
 21
7.725519999999999
 31
0.0
  0
LINE
  5
4A
330
1E
100
AcDbEntity
  8
0
100
AcDbLine
 10
23.2603
 20
7.755819999999999
 30
0.0
 11
23.4884
 21
7.746879999999999
 31
0.0
  0
LINE
  5
4B
330
1E
100
AcDbEntity
  8
0
100
AcDbLine
 10
23.4884
 20
7.746879999999999
 30
0.0
 11
23.7389
 21
7.73851
 31
0.0
  0
LINE
  5
4C
330
1E
100
AcDbEntity
  8
0
100
AcDbLine
 10
23.0744
 20
7.76475
 30
0.0
 11
23.2603
 21
7.755819999999999
 31
0.0
  0
LINE
  5
4D
330
1E
100
AcDbEntity
  8
0
100
AcDbLine
 10
23.2603
 20
7.755819999999999
 30
0.0
 11
23.4884
 21
7.746879999999999
 31
0.0
  0
LINE
  5
4E
330
1E
100
AcDbEntity
  8
0
100
AcDbLine
 10
23.4884
 20
7.746879999999999
 30
0.0
 11
23.7389
 21
7.73851
 31
0.0
  0
LINE
  5
4F
330
1E
100
AcDbEntity
  8
0
100
AcDbLine
 10
23.7389
 20
7.73851
 30
0.0
 11
24.0043
 21
7.73111
 31
0.0
  0
LINE
  5
50
330
1E
100
AcDbEntity
  8
0
100
AcDbLine
 10
24.2077
 20
7.76475
 30
0.0
 11
24.4358
 21
7.755819999999999
 31
0.0
  0
LINE
  5
51
330
1E
100
AcDbEntity
  8
0
100
AcDbLine
 10
24.4358
 20
7.755819999999999
 30
0.0
 11
24.6216
 21
7.746879999999999
 31
0.0
  0
LINE
  5
52
330
1E
100
AcDbEntity
  8
0
100
AcDbLine
 10
24.0043
 20
7.73111
 30
0.0
 11
24.25829999999999
 21
7.725519999999999
 31
0.0
  0
LINE
  5
53
330
1E
100
AcDbEntity
  8
0
100
AcDbLine
 10
24.25829999999999
 20
7.725519999999999
 30
0.0
 11
24.47699999999999
 21
7.722169999999999
 31
0.0
  0
LINE
  5
54
330
1E
100
AcDbEntity
  8
0
100
AcDbLine
 10
30.9923
 20
7.41103
 30
0.0
 11
31.1522
 21
7.40545
 31
0.0
  0
LINE
  5
55
330
1E
100
AcDbEntity
  8
0
100
AcDbLine
 10
30.5405
 20
7.42681
 30
0.0
 11
30.7804
 21
7.418429999999999
 31
0.0
  0
LINE
  5
56
330
1E
100
AcDbEntity
  8
0
100
AcDbLine
 10
30.2847
 20
7.435739999999999
 30
0.0
 11
30.5405
 21
7.42681
 31
0.0
  0
LINE
  5
57
330
1E
100
AcDbEntity
  8
0
100
AcDbLine
 10
30.7804
 20
7.418429999999999
 30
0.0
 11
30.9923
 21
7.41103
 31
0.0
  0
LINE
  5
58
330
1E
100
AcDbEntity
  8
0
100
AcDbLine
 10
31.1522
 20
7.40545
 30
0.0
 11
31.2481
 21
7.402099999999999
 31
0.0
  0
LINE
  5
59
330
1E
100
AcDbEntity
  8
0
100
AcDbLine
 10
31.2841
 20
7.400839999999999
 30
0.0
 11
31.3159892355047
 21
8.314014300030279
 31
0.0
  0
LINE
  5
5A
330
1E
100
AcDbEntity
  8
0
100
AcDbLine
 10
34.20729999999999
 20
7.460449999999999
 30
0.0
 11
34.28459999999999
 21
7.45305
 31
0.0
  0
LINE
  5
5B
330
1E
100
AcDbEntity
  8
0
100
AcDbLine
 10
29.789
 20
7.45305
 30
0.0
 11
30.0288
 21
7.444679999999999
 31
0.0
  0
LINE
  5
5C
330
1E
100
AcDbEntity
  8
0
100
AcDbLine
 10
30.0288
 20
7.444679999999999
 30
0.0
 11
30.2847
 21
7.435739999999999
 31
0.0
  0
LINE
  5
5D
330
1E
100
AcDbEntity
  8
0
100
AcDbLine
 10
29.5771
 20
7.460449999999999
 30
0.0
 11
29.789
 21
7.45305
 31
0.0
  0
LINE
  5
5E
330
1E
100
AcDbEntity
  8
0
100
AcDbLine
 10
29.4172
 20
7.466039999999999
 30
0.0
 11
29.5771
 21
7.460449999999999
 31
0.0
  0
LINE
  5
5F
330
1E
100
AcDbEntity
  8
0
100
AcDbLine
 10
34.20729999999999
 20
7.460449999999999
 30
0.0
 11
34.28459999999999
 21
7.45305
 31
0.0
  0
LINE
  5
60
330
1E
100
AcDbEntity
  8
0
100
AcDbLine
 10
24.6566
 20
7.720919999999999
 30
0.0
 11
24.7779
 21
7.722169999999999
 31
0.0
  0
LINE
  5
61
330
1E
100
AcDbEntity
  8
0
100
AcDbLine
 10
33.2277
 20
7.720919999999999
 30
0.0
 11
33.4136
 21
7.722169999999999
 31
0.0
  0
LINE
  5
62
330
1E
100
AcDbEntity
  8
0
100
AcDbLine
 10
33.2277
 20
7.720919999999999
 30
0.0
 11
33.4136
 21
7.722169999999999
 31
0.0
  0
LINE
  5
63
330
1E
100
AcDbEntity
  8
0
100
AcDbLine
 10
29.3213
 20
7.469389999999999
 30
0.0
 11
29.4172
 21
7.466039999999999
 31
0.0
  0
LINE
  5
64
330
1E
100
AcDbEntity
  8
0
100
AcDbLine
 10
29.2853
 20
7.470639999999999
 30
0.0
 11
29.3162892580588
 21
8.35804271092644
 31
0.0
  0
LINE
  5
65
330
1E
100
AcDbEntity
  8
0
100
AcDbLine
 10
34.2025
 20
7.466039999999999
 30
0.0
 11
34.22759219049449
 21
8.35371731887834
 31
0.0
  0
LINE
  5
66
330
1E
100
AcDbEntity
  8
0
100
AcDbLine
 10
34.2025
 20
7.466039999999999
 30
0.0
 11
34.266
 21
7.469389999999999
 31
0.0
  0
LINE
  5
67
330
1E
100
AcDbEntity
  8
0
100
AcDbLine
 10
34.4223
 20
7.444679999999999
 30
0.0
 11
34.6081
 21
7.435739999999999
 31
0.0
  0
LINE
  5
68
330
1E
100
AcDbEntity
  8
0
100
AcDbLine
 10
34.28459999999999
 20
7.45305
 30
0.0
 11
34.4223
 21
7.444679999999999
 31
0.0
  0
LINE
  5
69
330
1E
100
AcDbEntity
  8
0
100
AcDbLine
 10
35.8248
 20
7.402099999999999
 30
0.0
 11
36.00439999999999
 21
7.400839999999999
 31
0.0
  0
LINE
  5
6A
330
1E
100
AcDbEntity
  8
0
100
AcDbLine
 10
36.00439999999999
 20
7.400839999999999
 30
0.0
 11
36.12579999999999
 21
7.402099999999999
 31
0.0
  0
LINE
  5
6B
330
1E
100
AcDbEntity
  8
0
100
AcDbLine
 10
36.12579999999999
 20
7.402099999999999
 30
0.0
 11
36.1892
 21
7.40545
 31
0.0
  0
LINE
  5
6C
330
1E
100
AcDbEntity
  8
0
100
AcDbLine
 10
43.31719999999999
 20
7.238699999999999
 30
0.0
 11
43.4772
 21
7.23591
 31
0.0
  0
LINE
  5
6D
330
1E
100
AcDbEntity
  8
0
100
AcDbLine
 10
45.0529
 20
7.20841
 30
0.0
 11
45.1489
 21
7.20673
 31
0.0
  0
LINE
  5
6E
330
1E
100
AcDbEntity
  8
0
100
AcDbLine
 10
44.1851
 20
7.22356
 30
0.0
 11
44.441
 21
7.219089999999999
 31
0.0
  0
LINE
  5
6F
330
1E
100
AcDbEntity
  8
0
100
AcDbLine
 10
44.681
 20
7.2149
 30
0.0
 11
44.893
 21
7.211199999999999
 31
0.0
  0
LINE
  5
70
330
1E
100
AcDbEntity
  8
0
100
AcDbLine
 10
44.441
 20
7.219089999999999
 30
0.0
 11
44.681
 21
7.2149
 31
0.0
  0
LINE
  5
71
330
1E
100
AcDbEntity
  8
0
100
AcDbLine
 10
44.893
 20
7.211199999999999
 30
0.0
 11
45.0529
 21
7.20841
 31
0.0
  0
LINE
  5
72
330
1E
100
AcDbEntity
  8
0
100
AcDbLine
 10
54.0
 20
2.0
 30
0.0
 11
54.0
 21
7.5
 31
0.0
  0
LINE
  5
73
330
1E
100
AcDbEntity
  8
0
100
AcDbLine
 10
54.0
 20
2.0
 30
0.0
 11
54.1757
 21
1.150529999999999
 31
0.0
  0
LINE
  5
74
330
1E
100
AcDbEntity
  8
0
100
AcDbLine
 10
54.5548
 20
0.621075999999998
 30
0.0
 11
55.2062
 21
0.164481999999998
 31
0.0
  0
LINE
  5
75
330
1E
100
AcDbEntity
  8
0
100
AcDbLine
 10
56.0
 20
-0.0000000000000017
 30
0.0
 11
56.67419999999999
 21
0.130479999999998
 31
0.0
  0
LINE
  5
76
330
1E
100
AcDbEntity
  8
0
100
AcDbLine
 10
56.0
 20
-0.0000000000000017
 30
0.0
 11
56.67419999999999
 21
0.130479999999998
 31
0.0
  0
LINE
  5
77
330
1E
100
AcDbEntity
  8
0
100
AcDbLine
 10
56.67419999999999
 20
0.130479999999998
 30
0.0
 11
57.3791
 21
0.5530729999999979
 31
0.0
  0
LINE
  5
78
330
1E
100
AcDbEntity
  8
0
100
AcDbLine
 10
55.2062
 20
0.164481999999998
 30
0.0
 11
56.0
 21
-0.0000000000000017
 31
0.0
  0
LINE
  5
79
330
1E
100
AcDbEntity
  8
0
100
AcDbLine
 10
55.2062
 20
0.164481999999998
 30
0.0
 11
56.0
 21
-0.0000000000000017
 31
0.0
  0
LINE
  5
7A
330
1E
100
AcDbEntity
  8
0
100
AcDbLine
 10
57.3791
 20
0.5530729999999979
 30
0.0
 11
57.7922
 21
1.126239999999999
 31
0.0
  0
LINE
  5
7B
330
1E
100
AcDbEntity
  8
0
100
AcDbLine
 10
57.7922
 20
1.126239999999999
 30
0.0
 11
58.0
 21
2.0
 31
0.0
  0
LINE
  5
7C
330
1E
100
AcDbEntity
  8
0
100
AcDbLine
 10
55.2062
 20
0.164481999999997
 30
0.0
 11
56.0
 21
-0.0000000000000027
 31
0.0
  0
LINE
  5
7D
330
1E
100
AcDbEntity
  8
0
100
AcDbLine
 10
55.2062
 20
0.164481999999997
 30
0.0
 11
56.0
 21
-0.0000000000000027
 31
0.0
  0
LINE
  5
7E
330
1E
100
AcDbEntity
  8
0
100
AcDbLine
 10
54.5548
 20
0.6210759999999971
 30
0.0
 11
55.2062
 21
0.164481999999997
 31
0.0
  0
LINE
  5
7F
330
1E
100
AcDbEntity
  8
0
100
AcDbLine
 10
54.5548
 20
0.6210759999999971
 30
0.0
 11
55.2062
 21
0.164481999999997
 31
0.0
  0
LINE
  5
80
330
1E
100
AcDbEntity
  8
0
100
AcDbLine
 10
58.0
 20
2.0
 30
0.0
 11
58.0
 21
7.5
 31
0.0
  0
LINE
  5
81
330
1E
100
AcDbEntity
  8
0
100
AcDbLine
 10
54.1757
 20
1.150529999999999
 30
0.0
 11
54.5548
 21
0.621075999999998
 31
0.0
  0
LINE
  5
82
330
1E
100
AcDbEntity
  8
0
100
AcDbLine
 10
54.1757
 20
1.150529999999999
 30
0.0
 11
54.5548
 21
0.6210759999999971
 31
0.0
  0
LINE
  5
83
330
1E
100
AcDbEntity
  8
0
100
AcDbLine
 10
54.0
 20
2.0
 30
0.0
 11
54.1757
 21
1.150529999999999
 31
0.0
  0
LINE
  5
84
330
1E
100
AcDbEntity
  8
0
100
AcDbLine
 10
54.0
 20
2.0
 30
0.0
 11
54.0
 21
7.5
 31
0.0
  0
LINE
  5
85
330
1E
100
AcDbEntity
  8
0
100
AcDbLine
 10
52.658
 20
7.2061
 30
0.0
 11
52.8903
 21
7.20673
 31
0.0
  0
LINE
  5
86
330
1E
100
AcDbEntity
  8
0
100
AcDbLine
 10
52.1455
 20
7.20841
 30
0.0
 11
52.40339999999999
 21
7.20673
 31
0.0
  0
LINE
  5
87
330
1E
100
AcDbEntity
  8
0
100
AcDbLine
 10
51.6767
 20
7.2149
 30
0.0
 11
51.8944
 21
7.211199999999999
 31
0.0
  0
LINE
  5
88
330
1E
100
AcDbEntity
  8
0
100
AcDbLine
 10
51.3979
 20
7.22356
 30
0.0
 11
51.5113
 21
7.219089999999999
 31
0.0
  0
LINE
  5
89
330
1E
100
AcDbEntity
  8
0
100
AcDbLine
 10
51.3531
 20
7.228019999999999
 30
0.0
 11
51.3545689123369
 21
7.5
 31
0.0
  0
LINE
  5
8A
330
1E
100
AcDbEntity
  8
0
100
AcDbLine
 10
51.5113
 20
7.219089999999999
 30
0.0
 11
51.6767
 21
7.2149
 31
0.0
  0
LINE
  5
8B
330
1E
100
AcDbEntity
  8
0
100
AcDbLine
 10
51.3979
 20
7.22356
 30
0.0
 11
51.5113
 21
7.219089999999999
 31
0.0
  0
LINE
  5
8C
330
1E
100
AcDbEntity
  8
0
100
AcDbLine
 10
51.5113
 20
7.219089999999999
 30
0.0
 11
51.6767
 21
7.2149
 31
0.0
  0
LINE
  5
8D
330
1E
100
AcDbEntity
  8
0
100
AcDbLine
 10
51.8944
 20
7.211199999999999
 30
0.0
 11
52.1455
 21
7.20841
 31
0.0
  0
LINE
  5
8E
330
1E
100
AcDbEntity
  8
0
100
AcDbLine
 10
51.6767
 20
7.2149
 30
0.0
 11
51.8944
 21
7.211199999999999
 31
0.0
  0
LINE
  5
8F
330
1E
100
AcDbEntity
  8
0
100
AcDbLine
 10
51.8944
 20
7.211199999999999
 30
0.0
 11
52.1455
 21
7.20841
 31
0.0
  0
LINE
  5
90
330
1E
100
AcDbEntity
  8
0
100
AcDbLine
 10
52.8903
 20
7.20673
 30
0.0
 11
53.0889
 21
7.20841
 31
0.0
  0
LINE
  5
91
330
1E
100
AcDbEntity
  8
0
100
AcDbLine
 10
52.40339999999999
 20
7.20673
 30
0.0
 11
52.658
 21
7.2061
 31
0.0
  0
LINE
  5
92
330
1E
100
AcDbEntity
  8
0
100
AcDbLine
 10
52.1455
 20
7.20841
 30
0.0
 11
52.40339999999999
 21
7.20673
 31
0.0
  0
LINE
  5
93
330
1E
100
AcDbEntity
  8
0
100
AcDbLine
 10
52.40339999999999
 20
7.20673
 30
0.0
 11
52.658
 21
7.2061
 31
0.0
  0
LINE
  5
94
330
1E
100
AcDbEntity
  8
0
100
AcDbLine
 10
53.24110000000001
 20
7.211199999999999
 30
0.0
 11
53.3278
 21
7.2149
 31
0.0
  0
LINE
  5
95
330
1E
100
AcDbEntity
  8
0
100
AcDbLine
 10
53.0889
 20
7.20841
 30
0.0
 11
53.24110000000001
 21
7.211199999999999
 31
0.0
  0
LINE
  5
96
330
1E
100
AcDbEntity
  8
0
100
AcDbLine
 10
53.3449
 20
7.219089999999999
 30
0.0
 11
53.350466696838
 21
8.2498
 31
0.0
  0
LINE
  5
97
330
1E
100
AcDbEntity
  8
0
100
AcDbLine
 10
53.24110000000001
 20
7.211199999999999
 30
0.0
 11
53.3278
 21
7.2149
 31
0.0
  0
LINE
  5
98
330
1E
100
AcDbEntity
  8
0
100
AcDbLine
 10
53.0889
 20
7.20841
 30
0.0
 11
53.24110000000001
 21
7.211199999999999
 31
0.0
  0
LINE
  5
99
330
1E
100
AcDbEntity
  8
0
100
AcDbLine
 10
52.8903
 20
7.20673
 30
0.0
 11
53.0889
 21
7.20841
 31
0.0
  0
LINE
  5
9A
330
1E
100
AcDbEntity
  8
0
100
AcDbLine
 10
52.658
 20
7.2061
 30
0.0
 11
52.8903
 21
7.20673
 31
0.0
  0
LINE
  5
9B
330
1E
100
AcDbEntity
  8
0
100
AcDbLine
 10
45.18489999999999
 20
7.2061
 30
0.0
 11
45.20311529729459
 21
8.2498
 31
0.0
  0
LINE
  5
9C
330
1E
100
AcDbEntity
  8
0
100
AcDbLine
 10
51.3531
 20
7.228019999999999
 30
0.0
 11
51.35861843976599
 21
8.2498
 31
0.0
  0
LINE
  5
9D
330
1E
100
AcDbEntity
  8
0
100
AcDbLine
 10
51.37019999999999
 20
7.23221
 30
0.0
 11
51.4569
 21
7.23591
 31
0.0
  0
LINE
  5
9E
330
1E
100
AcDbEntity
  8
0
100
AcDbLine
 10
53.1867
 20
7.228019999999999
 30
0.0
 11
53.3
 21
7.22356
 31
0.0
  0
LINE
  5
9F
330
1E
100
AcDbEntity
  8
0
100
AcDbLine
 10
53.0213
 20
7.23221
 30
0.0
 11
53.1867
 21
7.228019999999999
 31
0.0
  0
LINE
  5
A0
330
1E
100
AcDbEntity
  8
0
100
AcDbLine
 10
52.8036
 20
7.23591
 30
0.0
 11
53.0213
 21
7.23221
 31
0.0
  0
LINE
  5
A1
330
1E
100
AcDbEntity
  8
0
100
AcDbLine
 10
52.5525
 20
7.238699999999999
 30
0.0
 11
52.8036
 21
7.23591
 31
0.0
  0
LINE
  5
A2
330
1E
100
AcDbEntity
  8
0
100
AcDbLine
 10
51.4569
 20
7.23591
 30
0.0
 11
51.6091
 21
7.238699999999999
 31
0.0
  0
LINE
  5
A3
330
1E
100
AcDbEntity
  8
0
100
AcDbLine
 10
51.6091
 20
7.238699999999999
 30
0.0
 11
51.80769999999999
 21
7.24038
 31
0.0
  0
LINE
  5
A4
330
1E
100
AcDbEntity
  8
0
100
AcDbLine
 10
43.6892
 20
7.23221
 30
0.0
 11
43.92909999999999
 21
7.228019999999999
 31
0.0
  0
LINE
  5
A5
330
1E
100
AcDbEntity
  8
0
100
AcDbLine
 10
43.92909999999999
 20
7.228019999999999
 30
0.0
 11
44.1851
 21
7.22356
 31
0.0
  0
LINE
  5
A6
330
1E
100
AcDbEntity
  8
0
100
AcDbLine
 10
43.4772
 20
7.23591
 30
0.0
 11
43.6892
 21
7.23221
 31
0.0
  0
LINE
  5
A7
330
1E
100
AcDbEntity
  8
0
100
AcDbLine
 10
48.3624
 20
7.400839999999999
 30
0.0
 11
48.5947
 21
7.402099999999999
 31
0.0
  0
LINE
  5
A8
330
1E
100
AcDbEntity
  8
0
100
AcDbLine
 10
48.1078
 20
7.402099999999999
 30
0.0
 11
48.3624
 21
7.400839999999999
 31
0.0
  0
LINE
  5
A9
330
1E
100
AcDbEntity
  8
0
100
AcDbLine
 10
52.2946
 20
7.24038
 30
0.0
 11
52.5525
 21
7.238699999999999
 31
0.0
  0
LINE
  5
AA
330
1E
100
AcDbEntity
  8
0
100
AcDbLine
 10
52.04
 20
7.24101
 30
0.0
 11
52.2946
 21
7.24038
 31
0.0
  0
LINE
  5
AB
330
1E
100
AcDbEntity
  8
0
100
AcDbLine
 10
51.80769999999999
 20
7.24038
 30
0.0
 11
52.04
 21
7.24101
 31
0.0
  0
LINE
  5
AC
330
1E
100
AcDbEntity
  8
0
100
AcDbLine
 10
48.5947
 20
7.402099999999999
 30
0.0
 11
48.7933
 21
7.40545
 31
0.0
  0
LINE
  5
AD
330
1E
100
AcDbEntity
  8
0
100
AcDbLine
 10
48.3624
 20
7.400839999999999
 30
0.0
 11
48.5947
 21
7.402099999999999
 31
0.0
  0
LINE
  5
AE
330
1E
100
AcDbEntity
  8
0
100
AcDbLine
 10
43.2212
 20
7.24038
 30
0.0
 11
43.31719999999999
 21
7.238699999999999
 31
0.0
  0
LINE
  5
AF
330
1E
100
AcDbEntity
  8
0
100
AcDbLine
 10
43.1852
 20
7.24101
 30
0.0
 11
43.1937954167052
 21
7.733507674248079
 31
0.0
  0
LINE
  5
B0
330
1E
100
AcDbEntity
  8
0
100
AcDbLine
 10
36.12579999999999
 20
7.402099999999999
 30
0.0
 11
36.1892
 21
7.40545
 31
0.0
  0
LINE
  5
B1
330
1E
100
AcDbEntity
  8
0
100
AcDbLine
 10
36.00439999999999
 20
7.400839999999999
 30
0.0
 11
36.12579999999999
 21
7.402099999999999
 31
0.0
  0
LINE
  5
B2
330
1E
100
AcDbEntity
  8
0
100
AcDbLine
 10
35.3522
 20
7.41103
 30
0.0
 11
35.6061
 21
7.40545
 31
0.0
  0
LINE
  5
B3
330
1E
100
AcDbEntity
  8
0
100
AcDbLine
 10
35.6061
 20
7.40545
 30
0.0
 11
35.8248
 21
7.402099999999999
 31
0.0
  0
LINE
  5
B4
330
1E
100
AcDbEntity
  8
0
100
AcDbLine
 10
34.8362
 20
7.42681
 30
0.0
 11
35.0867
 21
7.418429999999999
 31
0.0
  0
LINE
  5
B5
330
1E
100
AcDbEntity
  8
0
100
AcDbLine
 10
35.0867
 20
7.418429999999999
 30
0.0
 11
35.3522
 21
7.41103
 31
0.0
  0
LINE
  5
B6
330
1E
100
AcDbEntity
  8
0
100
AcDbLine
 10
34.6081
 20
7.435739999999999
 30
0.0
 11
34.8362
 21
7.42681
 31
0.0
  0
LINE
  5
B7
330
1E
100
AcDbEntity
  8
0
100
AcDbLine
 10
34.6081
 20
7.435739999999999
 30
0.0
 11
34.8362
 21
7.42681
 31
0.0
  0
LINE
  5
B8
330
1E
100
AcDbEntity
  8
0
100
AcDbLine
 10
34.8362
 20
7.42681
 30
0.0
 11
35.0867
 21
7.418429999999999
 31
0.0
  0
LINE
  5
B9
330
1E
100
AcDbEntity
  8
0
100
AcDbLine
 10
35.5555
 20
7.444679999999999
 30
0.0
 11
35.7837
 21
7.435739999999999
 31
0.0
  0
LINE
  5
BA
330
1E
100
AcDbEntity
  8
0
100
AcDbLine
 10
35.30499999999999
 20
7.45305
 30
0.0
 11
35.5555
 21
7.444679999999999
 31
0.0
  0
LINE
  5
BB
330
1E
100
AcDbEntity
  8
0
100
AcDbLine
 10
35.0867
 20
7.418429999999999
 30
0.0
 11
35.3522
 21
7.41103
 31
0.0
  0
LINE
  5
BC
330
1E
100
AcDbEntity
  8
0
100
AcDbLine
 10
35.3522
 20
7.41103
 30
0.0
 11
35.6061
 21
7.40545
 31
0.0
  0
LINE
  5
BD
330
1E
100
AcDbEntity
  8
0
100
AcDbLine
 10
48.5947
 20
7.402099999999999
 30
0.0
 11
48.7933
 21
7.40545
 31
0.0
  0
LINE
  5
BE
330
1E
100
AcDbEntity
  8
0
100
AcDbLine
 10
48.1078
 20
7.402099999999999
 30
0.0
 11
48.3624
 21
7.400839999999999
 31
0.0
  0
LINE
  5
BF
330
1E
100
AcDbEntity
  8
0
100
AcDbLine
 10
47.84989999999999
 20
7.40545
 30
0.0
 11
48.1078
 21
7.402099999999999
 31
0.0
  0
LINE
  5
C0
330
1E
100
AcDbEntity
  8
0
100
AcDbLine
 10
48.7933
 20
7.40545
 30
0.0
 11
48.9455
 21
7.41103
 31
0.0
  0
LINE
  5
C1
330
1E
100
AcDbEntity
  8
0
100
AcDbLine
 10
35.7837
 20
7.435739999999999
 30
0.0
 11
35.96949999999999
 21
7.42681
 31
0.0
  0
LINE
  5
C2
330
1E
100
AcDbEntity
  8
0
100
AcDbLine
 10
35.96949999999999
 20
7.42681
 30
0.0
 11
36.1071
 21
7.418429999999999
 31
0.0
  0
LINE
  5
C3
330
1E
100
AcDbEntity
  8
0
100
AcDbLine
 10
36.1071
 20
7.418429999999999
 30
0.0
 11
36.1845
 21
7.41103
 31
0.0
  0
LINE
  5
C4
330
1E
100
AcDbEntity
  8
0
100
AcDbLine
 10
48.7933
 20
7.40545
 30
0.0
 11
48.9455
 21
7.41103
 31
0.0
  0
LINE
  5
C5
330
1E
100
AcDbEntity
  8
0
100
AcDbLine
 10
47.84989999999999
 20
7.40545
 30
0.0
 11
48.1078
 21
7.402099999999999
 31
0.0
  0
LINE
  5
C6
330
1E
100
AcDbEntity
  8
0
100
AcDbLine
 10
47.59879999999999
 20
7.41103
 30
0.0
 11
47.84989999999999
 21
7.40545
 31
0.0
  0
LINE
  5
C7
330
1E
100
AcDbEntity
  8
0
100
AcDbLine
 10
48.9455
 20
7.41103
 30
0.0
 11
49.03220000000001
 21
7.418429999999999
 31
0.0
  0
LINE
  5
C8
330
1E
100
AcDbEntity
  8
0
100
AcDbLine
 10
47.59879999999999
 20
7.41103
 30
0.0
 11
47.84989999999999
 21
7.40545
 31
0.0
  0
LINE
  5
C9
330
1E
100
AcDbEntity
  8
0
100
AcDbLine
 10
47.2158
 20
7.42681
 30
0.0
 11
47.3812
 21
7.418429999999999
 31
0.0
  0
LINE
  5
CA
330
1E
100
AcDbEntity
  8
0
100
AcDbLine
 10
47.0577
 20
7.444679999999999
 30
0.0
 11
47.0679121926128
 21
8.39407192328338
 31
0.0
  0
LINE
  5
CB
330
1E
100
AcDbEntity
  8
0
100
AcDbLine
 10
47.1025
 20
7.435739999999999
 30
0.0
 11
47.2158
 21
7.42681
 31
0.0
  0
LINE
  5
CC
330
1E
100
AcDbEntity
  8
0
100
AcDbLine
 10
47.0577
 20
7.444679999999999
 30
0.0
 11
47.06636032279689
 21
8.2498
 31
0.0
  0
LINE
  5
CD
330
1E
100
AcDbEntity
  8
0
100
AcDbLine
 10
47.1025
 20
7.435739999999999
 30
0.0
 11
47.2158
 21
7.42681
 31
0.0
  0
LINE
  5
CE
330
1E
100
AcDbEntity
  8
0
100
AcDbLine
 10
48.8913
 20
7.444679999999999
 30
0.0
 11
49.0046
 21
7.435739999999999
 31
0.0
  0
LINE
  5
CF
330
1E
100
AcDbEntity
  8
0
100
AcDbLine
 10
47.3812
 20
7.418429999999999
 30
0.0
 11
47.59879999999999
 21
7.41103
 31
0.0
  0
LINE
  5
D0
330
1E
100
AcDbEntity
  8
0
100
AcDbLine
 10
47.2158
 20
7.42681
 30
0.0
 11
47.3812
 21
7.418429999999999
 31
0.0
  0
LINE
  5
D1
330
1E
100
AcDbEntity
  8
0
100
AcDbLine
 10
47.3812
 20
7.418429999999999
 30
0.0
 11
47.59879999999999
 21
7.41103
 31
0.0
  0
LINE
  5
D2
330
1E
100
AcDbEntity
  8
0
100
AcDbLine
 10
49.04939999999999
 20
7.42681
 30
0.0
 11
49.0589066783775
 21
8.306521046639218
 31
0.0
  0
LINE
  5
D3
330
1E
100
AcDbEntity
  8
0
100
AcDbLine
 10
49.04939999999999
 20
7.42681
 30
0.0
 11
49.0582937171675
 21
8.2498
 31
0.0
  0
LINE
  5
D4
330
1E
100
AcDbEntity
  8
0
100
AcDbLine
 10
48.9455
 20
7.41103
 30
0.0
 11
49.03220000000001
 21
7.418429999999999
 31
0.0
  0
LINE
  5
D5
330
1E
100
AcDbEntity
  8
0
100
AcDbLine
 10
36.1892
 20
7.40545
 30
0.0
 11
36.2149661639452
 21
8.316970233104779
 31
0.0
  0
LINE
  5
D6
330
1E
100
AcDbEntity
  8
0
100
AcDbLine
 10
35.6061
 20
7.40545
 30
0.0
 11
35.8248
 21
7.402099999999999
 31
0.0
  0
LINE
  5
D7
330
1E
100
AcDbEntity
  8
0
100
AcDbLine
 10
35.8248
 20
7.402099999999999
 30
0.0
 11
36.00439999999999
 21
7.400839999999999
 31
0.0
  0
LINE
  5
D8
330
1E
100
AcDbEntity
  8
0
100
AcDbLine
 10
34.4223
 20
7.444679999999999
 30
0.0
 11
34.6081
 21
7.435739999999999
 31
0.0
  0
LINE
  5
D9
330
1E
100
AcDbEntity
  8
0
100
AcDbLine
 10
48.7259
 20
7.45305
 30
0.0
 11
48.8913
 21
7.444679999999999
 31
0.0
  0
LINE
  5
DA
330
1E
100
AcDbEntity
  8
0
100
AcDbLine
 10
47.0748
 20
7.45305
 30
0.0
 11
47.16149999999999
 21
7.460449999999999
 31
0.0
  0
LINE
  5
DB
330
1E
100
AcDbEntity
  8
0
100
AcDbLine
 10
47.16149999999999
 20
7.460449999999999
 30
0.0
 11
47.3137
 21
7.466039999999999
 31
0.0
  0
LINE
  5
DC
330
1E
100
AcDbEntity
  8
0
100
AcDbLine
 10
48.5082
 20
7.460449999999999
 30
0.0
 11
48.7259
 21
7.45305
 31
0.0
  0
LINE
  5
DD
330
1E
100
AcDbEntity
  8
0
100
AcDbLine
 10
48.2572
 20
7.466039999999999
 30
0.0
 11
48.5082
 21
7.460449999999999
 31
0.0
  0
LINE
  5
DE
330
1E
100
AcDbEntity
  8
0
100
AcDbLine
 10
47.3137
 20
7.466039999999999
 30
0.0
 11
47.5123
 21
7.469389999999999
 31
0.0
  0
LINE
  5
DF
330
1E
100
AcDbEntity
  8
0
100
AcDbLine
 10
35.0396
 20
7.460449999999999
 30
0.0
 11
35.30499999999999
 21
7.45305
 31
0.0
  0
LINE
  5
E0
330
1E
100
AcDbEntity
  8
0
100
AcDbLine
 10
34.7856
 20
7.466039999999999
 30
0.0
 11
35.0396
 21
7.460449999999999
 31
0.0
  0
LINE
  5
E1
330
1E
100
AcDbEntity
  8
0
100
AcDbLine
 10
47.99929999999999
 20
7.469389999999999
 30
0.0
 11
48.2572
 21
7.466039999999999
 31
0.0
  0
LINE
  5
E2
330
1E
100
AcDbEntity
  8
0
100
AcDbLine
 10
54.0
 20
7.5
 30
0.0
 11
54.0
 21
2.0
 31
0.0
  0
LINE
  5
E3
330
1E
100
AcDbEntity
  8
0
100
AcDbLine
 10
54.0
 20
7.5
 30
0.0
 11
54.0
 21
2.0
 31
0.0
  0
LINE
  5
E4
330
1E
100
AcDbEntity
  8
0
100
AcDbLine
 10
56.0
 20
7.5
 30
0.0
 11
57.28
 21
7.5
 31
0.0
  0
LINE
  5
E5
330
1E
100
AcDbEntity
  8
0
100
AcDbLine
 10
58.0
 20
7.5
 30
0.0
 11
58.0
 21
2.0
 31
0.0
  0
LINE
  5
E6
330
1E
100
AcDbEntity
  8
0
100
AcDbLine
 10
57.28
 20
7.5
 30
0.0
 11
58.47999999999999
 21
7.5
 31
0.0
  0
LINE
  5
E7
330
1E
100
AcDbEntity
  8
0
100
AcDbLine
 10
58.47999999999999
 20
7.5
 30
0.0
 11
59.54
 21
7.5
 31
0.0
  0
LINE
  5
E8
330
1E
100
AcDbEntity
  8
0
100
AcDbLine
 10
59.54
 20
7.5
 30
0.0
 11
60.34
 21
7.5
 31
0.0
  0
LINE
  5
E9
330
1E
100
AcDbEntity
  8
0
100
AcDbLine
 10
60.34
 20
7.5
 30
0.0
 11
60.82
 21
7.5
 31
0.0
  0
LINE
  5
EA
330
1E
100
AcDbEntity
  8
0
100
AcDbLine
 10
60.82
 20
7.5
 30
0.0
 11
61.0
 21
7.5
 31
0.0
  0
LINE
  5
EB
330
1E
100
AcDbEntity
  8
0
100
AcDbLine
 10
61.0
 20
7.5
 30
0.0
 11
61.0
 21
8.2498
 31
0.0
  0
LINE
  5
EC
330
1E
100
AcDbEntity
  8
0
100
AcDbLine
 10
54.72
 20
7.5
 30
0.0
 11
56.0
 21
7.5
 31
0.0
  0
LINE
  5
ED
330
1E
100
AcDbEntity
  8
0
100
AcDbLine
 10
53.52
 20
7.5
 30
0.0
 11
54.72
 21
7.5
 31
0.0
  0
LINE
  5
EE
330
1E
100
AcDbEntity
  8
0
100
AcDbLine
 10
53.34641714915811
 20
7.5
 30
0.0
 11
53.52
 21
7.5
 31
0.0
  0
LINE
  5
EF
330
1E
100
AcDbEntity
  8
0
100
AcDbLine
 10
51.18
 20
7.5
 30
0.0
 11
51.3545689123369
 21
7.5
 31
0.0
  0
LINE
  5
F0
330
1E
100
AcDbEntity
  8
0
100
AcDbLine
 10
51.0
 20
7.5
 30
0.0
 11
51.18
 21
7.5
 31
0.0
  0
LINE
  5
F1
330
1E
100
AcDbEntity
  8
0
100
AcDbLine
 10
51.0
 20
7.5
 30
0.0
 11
51.0
 21
8.2498
 31
0.0
  0
LINE
  5
F2
330
1E
100
AcDbEntity
  8
0
100
AcDbLine
 10
47.74469999999999
 20
7.470639999999999
 30
0.0
 11
47.99929999999999
 21
7.469389999999999
 31
0.0
  0
LINE
  5
F3
330
1E
100
AcDbEntity
  8
0
100
AcDbLine
 10
47.5123
 20
7.469389999999999
 30
0.0
 11
47.74469999999999
 21
7.470639999999999
 31
0.0
  0
LINE
  5
F4
330
1E
100
AcDbEntity
  8
0
100
AcDbLine
 10
56.0
 20
7.720919999999999
 30
0.0
 11
56.256
 21
7.722169999999999
 31
0.0
  0
LINE
  5
F5
330
1E
100
AcDbEntity
  8
0
100
AcDbLine
 10
44.0279
 20
7.720919999999999
 30
0.0
 11
44.2602
 21
7.722169999999999
 31
0.0
  0
LINE
  5
F6
330
1E
100
AcDbEntity
  8
0
100
AcDbLine
 10
34.5669
 20
7.469389999999999
 30
0.0
 11
34.7856
 21
7.466039999999999
 31
0.0
  0
LINE
  5
F7
330
1E
100
AcDbEntity
  8
0
100
AcDbLine
 10
34.3873
 20
7.470639999999999
 30
0.0
 11
34.5669
 21
7.469389999999999
 31
0.0
  0
LINE
  5
F8
330
1E
100
AcDbEntity
  8
0
100
AcDbLine
 10
34.28459999999999
 20
7.45305
 30
0.0
 11
34.4223
 21
7.444679999999999
 31
0.0
  0
LINE
  5
F9
330
1E
100
AcDbEntity
  8
0
100
AcDbLine
 10
34.266
 20
7.469389999999999
 30
0.0
 11
34.3873
 21
7.470639999999999
 31
0.0
  0
LINE
  5
FA
330
1E
100
AcDbEntity
  8
0
100
AcDbLine
 10
24.7779
 20
7.722169999999999
 30
0.0
 11
24.8414
 21
7.725519999999999
 31
0.0
  0
LINE
  5
FB
330
1E
100
AcDbEntity
  8
0
100
AcDbLine
 10
24.6216
 20
7.746879999999999
 30
0.0
 11
24.75929999999999
 21
7.73851
 31
0.0
  0
LINE
  5
FC
330
1E
100
AcDbEntity
  8
0
100
AcDbLine
 10
24.75929999999999
 20
7.73851
 30
0.0
 11
24.8366
 21
7.73111
 31
0.0
  0
LINE
  5
FD
330
1E
100
AcDbEntity
  8
0
100
AcDbLine
 10
32.7488
 20
7.725519999999999
 30
0.0
 11
32.9994
 21
7.722169999999999
 31
0.0
  0
LINE
  5
FE
330
1E
100
AcDbEntity
  8
0
100
AcDbLine
 10
32.9994
 20
7.722169999999999
 30
0.0
 11
33.2277
 21
7.720919999999999
 31
0.0
  0
LINE
  5
FF
330
1E
100
AcDbEntity
  8
0
100
AcDbLine
 10
32.7488
 20
7.725519999999999
 30
0.0
 11
32.9994
 21
7.722169999999999
 31
0.0
  0
LINE
  5
100
330
1E
100
AcDbEntity
  8
0
100
AcDbLine
 10
56.256
 20
7.722169999999999
 30
0.0
 11
56.496
 21
7.725519999999999
 31
0.0
  0
LINE
  5
101
330
1E
100
AcDbEntity
  8
0
100
AcDbLine
 10
55.744
 20
7.722169999999999
 30
0.0
 11
56.0
 21
7.720919999999999
 31
0.0
  0
LINE
  5
102
330
1E
100
AcDbEntity
  8
0
100
AcDbLine
 10
44.2602
 20
7.722169999999999
 30
0.0
 11
44.45879999999999
 21
7.725519999999999
 31
0.0
  0
LINE
  5
103
330
1E
100
AcDbEntity
  8
0
100
AcDbLine
 10
43.77329999999999
 20
7.722169999999999
 30
0.0
 11
44.0279
 21
7.720919999999999
 31
0.0
  0
LINE
  5
104
330
1E
100
AcDbEntity
  8
0
100
AcDbLine
 10
33.4136
 20
7.722169999999999
 30
0.0
 11
33.5514
 21
7.725519999999999
 31
0.0
  0
LINE
  5
105
330
1E
100
AcDbEntity
  8
0
100
AcDbLine
 10
33.5514
 20
7.725519999999999
 30
0.0
 11
33.6289
 21
7.73111
 31
0.0
  0
LINE
  5
106
330
1E
100
AcDbEntity
  8
0
100
AcDbLine
 10
56.496
 20
7.725519999999999
 30
0.0
 11
56.70799999999999
 21
7.73111
 31
0.0
  0
LINE
  5
107
330
1E
100
AcDbEntity
  8
0
100
AcDbLine
 10
55.50399999999999
 20
7.725519999999999
 30
0.0
 11
55.744
 21
7.722169999999999
 31
0.0
  0
LINE
  5
108
330
1E
100
AcDbEntity
  8
0
100
AcDbLine
 10
44.45879999999999
 20
7.725519999999999
 30
0.0
 11
44.611
 21
7.73111
 31
0.0
  0
LINE
  5
109
330
1E
100
AcDbEntity
  8
0
100
AcDbLine
 10
43.51539999999999
 20
7.725519999999999
 30
0.0
 11
43.77329999999999
 21
7.722169999999999
 31
0.0
  0
LINE
  5
10A
330
1E
100
AcDbEntity
  8
0
100
AcDbLine
 10
33.5514
 20
7.725519999999999
 30
0.0
 11
33.6289
 21
7.73111
 31
0.0
  0
LINE
  5
10B
330
1E
100
AcDbEntity
  8
0
100
AcDbLine
 10
33.4136
 20
7.722169999999999
 30
0.0
 11
33.5514
 21
7.725519999999999
 31
0.0
  0
LINE
  5
10C
330
1E
100
AcDbEntity
  8
0
100
AcDbLine
 10
32.9994
 20
7.722169999999999
 30
0.0
 11
33.2277
 21
7.720919999999999
 31
0.0
  0
LINE
  5
10D
330
1E
100
AcDbEntity
  8
0
100
AcDbLine
 10
32.22939999999999
 20
7.73851
 30
0.0
 11
32.4833
 21
7.73111
 31
0.0
  0
LINE
  5
10E
330
1E
100
AcDbEntity
  8
0
100
AcDbLine
 10
32.4833
 20
7.73111
 30
0.0
 11
32.7488
 21
7.725519999999999
 31
0.0
  0
LINE
  5
10F
330
1E
100
AcDbEntity
  8
0
100
AcDbLine
 10
31.8312
 20
7.755819999999999
 30
0.0
 11
32.0107
 21
7.746879999999999
 31
0.0
  0
LINE
  5
110
330
1E
100
AcDbEntity
  8
0
100
AcDbLine
 10
32.0107
 20
7.746879999999999
 30
0.0
 11
32.22939999999999
 21
7.73851
 31
0.0
  0
LINE
  5
111
330
1E
100
AcDbEntity
  8
0
100
AcDbLine
 10
31.71
 20
7.76475
 30
0.0
 11
31.8312
 21
7.755819999999999
 31
0.0
  0
LINE
  5
112
330
1E
100
AcDbEntity
  8
0
100
AcDbLine
 10
31.8312
 20
7.755819999999999
 30
0.0
 11
32.0107
 21
7.746879999999999
 31
0.0
  0
LINE
  5
113
330
1E
100
AcDbEntity
  8
0
100
AcDbLine
 10
32.0107
 20
7.746879999999999
 30
0.0
 11
32.22939999999999
 21
7.73851
 31
0.0
  0
LINE
  5
114
330
1E
100
AcDbEntity
  8
0
100
AcDbLine
 10
32.22939999999999
 20
7.73851
 30
0.0
 11
32.4833
 21
7.73111
 31
0.0
  0
LINE
  5
115
330
1E
100
AcDbEntity
  8
0
100
AcDbLine
 10
56.70799999999999
 20
7.73111
 30
0.0
 11
56.868
 21
7.738510000000009
 31
0.0
  0
LINE
  5
116
330
1E
100
AcDbEntity
  8
0
100
AcDbLine
 10
55.292
 20
7.73111
 30
0.0
 11
55.50399999999999
 21
7.725519999999999
 31
0.0
  0
LINE
  5
117
330
1E
100
AcDbEntity
  8
0
100
AcDbLine
 10
44.611
 20
7.73111
 30
0.0
 11
44.69769999999999
 21
7.73851
 31
0.0
  0
LINE
  5
118
330
1E
100
AcDbEntity
  8
0
100
AcDbLine
 10
43.2643
 20
7.73111
 30
0.0
 11
43.51539999999999
 21
7.725519999999999
 31
0.0
  0
LINE
  5
119
330
1E
100
AcDbEntity
  8
0
100
AcDbLine
 10
33.2697
 20
7.76475
 30
0.0
 11
33.4492
 21
7.755819999999999
 31
0.0
  0
LINE
  5
11A
330
1E
100
AcDbEntity
  8
0
100
AcDbLine
 10
33.4492
 20
7.755819999999999
 30
0.0
 11
33.5705
 21
7.746879999999999
 31
0.0
  0
LINE
  5
11B
330
1E
100
AcDbEntity
  8
0
100
AcDbLine
 10
33.5705
 20
7.746879999999999
 30
0.0
 11
33.6338
 21
7.73851
 31
0.0
  0
LINE
  5
11C
330
1E
100
AcDbEntity
  8
0
100
AcDbLine
 10
42.8813
 20
7.746879999999999
 30
0.0
 11
43.0467
 21
7.73851
 31
0.0
  0
LINE
  5
11D
330
1E
100
AcDbEntity
  8
0
100
AcDbLine
 10
42.768
 20
7.755819999999999
 30
0.0
 11
42.8813
 21
7.746879999999999
 31
0.0
  0
LINE
  5
11E
330
1E
100
AcDbEntity
  8
0
100
AcDbLine
 10
42.72319999999999
 20
7.76475
 30
0.0
 11
42.73202022993199
 21
8.584736008533839
 31
0.0
  0
LINE
  5
11F
330
1E
100
AcDbEntity
  8
0
100
AcDbLine
 10
42.768
 20
7.755819999999999
 30
0.0
 11
42.8813
 21
7.746879999999999
 31
0.0
  0
LINE
  5
120
330
1E
100
AcDbEntity
  8
0
100
AcDbLine
 10
44.5568
 20
7.76475
 30
0.0
 11
44.6701
 21
7.755819999999999
 31
0.0
  0
LINE
  5
121
330
1E
100
AcDbEntity
  8
0
100
AcDbLine
 10
55.036
 20
7.746879999999999
 30
0.0
 11
55.132
 21
7.738510000000009
 31
0.0
  0
LINE
  5
122
330
1E
100
AcDbEntity
  8
0
100
AcDbLine
 10
57.0
 20
7.755820000000009
 30
0.0
 11
57.0
 21
8.7498
 31
0.0
  0
LINE
  5
123
330
1E
100
AcDbEntity
  8
0
100
AcDbLine
 10
56.868
 20
7.738510000000009
 30
0.0
 11
56.964
 21
7.746879999999999
 31
0.0
  0
LINE
  5
124
330
1E
100
AcDbEntity
  8
0
100
AcDbLine
 10
55.132
 20
7.738510000000009
 30
0.0
 11
55.292
 21
7.73111
 31
0.0
  0
LINE
  5
125
330
1E
100
AcDbEntity
  8
0
100
AcDbLine
 10
55.0
 20
7.755820000000009
 30
0.0
 11
55.0
 21
8.7498
 31
0.0
  0
LINE
  5
126
330
1E
100
AcDbEntity
  8
0
100
AcDbLine
 10
44.7149
 20
7.746879999999999
 30
0.0
 11
44.7255195227781
 21
8.72956933973977
 31
0.0
  0
LINE
  5
127
330
1E
100
AcDbEntity
  8
0
100
AcDbLine
 10
43.0467
 20
7.73851
 30
0.0
 11
43.2643
 21
7.73111
 31
0.0
  0
LINE
  5
128
330
1E
100
AcDbEntity
  8
0
100
AcDbLine
 10
42.8813
 20
7.746879999999999
 30
0.0
 11
43.0467
 21
7.73851
 31
0.0
  0
LINE
  5
129
330
1E
100
AcDbEntity
  8
0
100
AcDbLine
 10
43.0467
 20
7.73851
 30
0.0
 11
43.1937954167052
 21
7.733507674248079
 31
0.0
  0
LINE
  5
12A
330
1E
100
AcDbEntity
  8
0
100
AcDbLine
 10
33.6338
 20
7.73851
 30
0.0
 11
33.65157582966929
 21
8.6029862244874
 31
0.0
  0
LINE
  5
12B
330
1E
100
AcDbEntity
  8
0
100
AcDbLine
 10
32.4833
 20
7.73111
 30
0.0
 11
32.7488
 21
7.725519999999999
 31
0.0
  0
LINE
  5
12C
330
1E
100
AcDbEntity
  8
0
100
AcDbLine
 10
31.71
 20
7.76475
 30
0.0
 11
31.8312
 21
7.755819999999999
 31
0.0
  0
LINE
  5
12D
330
1E
100
AcDbEntity
  8
0
100
AcDbLine
 10
24.8414
 20
7.725519999999999
 30
0.0
 11
24.8671121784382
 21
8.635134958239969
 31
0.0
  0
LINE
  5
12E
330
1E
100
AcDbEntity
  8
0
100
AcDbLine
 10
24.7779
 20
7.722169999999999
 30
0.0
 11
24.8414
 21
7.725519999999999
 31
0.0
  0
LINE
  5
12F
330
1E
100
AcDbEntity
  8
0
100
AcDbLine
 10
24.6566
 20
7.720919999999999
 30
0.0
 11
24.7779
 21
7.722169999999999
 31
0.0
  0
LINE
  5
130
330
1E
100
AcDbEntity
  8
0
100
AcDbLine
 10
24.47699999999999
 20
7.722169999999999
 30
0.0
 11
24.6566
 21
7.720919999999999
 31
0.0
  0
LINE
  5
131
330
1E
100
AcDbEntity
  8
0
100
AcDbLine
 10
31.6466
 20
7.77313
 30
0.0
 11
31.6574825968315
 21
8.302373720070409
 31
0.0
  0
LINE
  5
132
330
1E
100
AcDbEntity
  8
0
100
AcDbLine
 10
31.6466
 20
7.77313
 30
0.0
 11
31.71
 21
7.76475
 31
0.0
  0
LINE
  5
133
330
1E
100
AcDbEntity
  8
0
100
AcDbLine
 10
55.036
 20
7.76475
 30
0.0
 11
55.132
 21
7.77313
 31
0.0
  0
LINE
  5
134
330
1E
100
AcDbEntity
  8
0
100
AcDbLine
 10
44.3914
 20
7.77313
 30
0.0
 11
44.5568
 21
7.76475
 31
0.0
  0
LINE
  5
135
330
1E
100
AcDbEntity
  8
0
100
AcDbLine
 10
42.74029999999999
 20
7.77313
 30
0.0
 11
42.827
 21
7.78053
 31
0.0
  0
LINE
  5
136
330
1E
100
AcDbEntity
  8
0
100
AcDbLine
 10
33.05109999999999
 20
7.77313
 30
0.0
 11
33.2697
 21
7.76475
 31
0.0
  0
LINE
  5
137
330
1E
100
AcDbEntity
  8
0
100
AcDbLine
 10
31.6466
 20
7.77313
 30
0.0
 11
31.6649300395507
 21
8.664558624166259
 31
0.0
  0
LINE
  5
138
330
1E
100
AcDbEntity
  8
0
100
AcDbLine
 10
31.6466
 20
7.77313
 30
0.0
 11
31.71
 21
7.76475
 31
0.0
  0
LINE
  5
139
330
1E
100
AcDbEntity
  8
0
100
AcDbLine
 10
31.6466
 20
7.77313
 30
0.0
 11
31.6649300395507
 21
8.664558624166259
 31
0.0
  0
LINE
  5
13A
330
1E
100
AcDbEntity
  8
0
100
AcDbLine
 10
56.868
 20
7.77313
 30
0.0
 11
56.964
 21
7.76475
 31
0.0
  0
LINE
  5
13B
330
1E
100
AcDbEntity
  8
0
100
AcDbLine
 10
55.132
 20
7.77313
 30
0.0
 11
55.292
 21
7.780530000000009
 31
0.0
  0
LINE
  5
13C
330
1E
100
AcDbEntity
  8
0
100
AcDbLine
 10
44.1737
 20
7.78053
 30
0.0
 11
44.3914
 21
7.77313
 31
0.0
  0
LINE
  5
13D
330
1E
100
AcDbEntity
  8
0
100
AcDbLine
 10
42.827
 20
7.78053
 30
0.0
 11
42.9793
 21
7.78611
 31
0.0
  0
LINE
  5
13E
330
1E
100
AcDbEntity
  8
0
100
AcDbLine
 10
32.7971
 20
7.78053
 30
0.0
 11
33.05109999999999
 21
7.77313
 31
0.0
  0
LINE
  5
13F
330
1E
100
AcDbEntity
  8
0
100
AcDbLine
 10
31.6516
 20
7.78053
 30
0.0
 11
31.72909999999999
 21
7.78611
 31
0.0
  0
LINE
  5
140
330
1E
100
AcDbEntity
  8
0
100
AcDbLine
 10
23.9572
 20
7.77313
 30
0.0
 11
24.2077
 21
7.76475
 31
0.0
  0
LINE
  5
141
330
1E
100
AcDbEntity
  8
0
100
AcDbLine
 10
23.6918
 20
7.78053
 30
0.0
 11
23.9572
 21
7.77313
 31
0.0
  0
LINE
  5
142
330
1E
100
AcDbEntity
  8
0
100
AcDbLine
 10
23.0744
 20
7.76475
 30
0.0
 11
23.2603
 21
7.755819999999999
 31
0.0
  0
LINE
  5
143
330
1E
100
AcDbEntity
  8
0
100
AcDbLine
 10
22.9368
 20
7.77313
 30
0.0
 11
23.0744
 21
7.76475
 31
0.0
  0
LINE
  5
144
330
1E
100
AcDbEntity
  8
0
100
AcDbLine
 10
56.70799999999999
 20
7.780530000000009
 30
0.0
 11
56.868
 21
7.77313
 31
0.0
  0
LINE
  5
145
330
1E
100
AcDbEntity
  8
0
100
AcDbLine
 10
55.292
 20
7.780530000000009
 30
0.0
 11
55.50399999999999
 21
7.786110000000009
 31
0.0
  0
LINE
  5
146
330
1E
100
AcDbEntity
  8
0
100
AcDbLine
 10
43.92269999999999
 20
7.78611
 30
0.0
 11
44.1737
 21
7.78053
 31
0.0
  0
LINE
  5
147
330
1E
100
AcDbEntity
  8
0
100
AcDbLine
 10
42.9793
 20
7.78611
 30
0.0
 11
43.1779
 21
7.78946
 31
0.0
  0
LINE
  5
148
330
1E
100
AcDbEntity
  8
0
100
AcDbLine
 10
32.53159999999999
 20
7.78611
 30
0.0
 11
32.7971
 21
7.78053
 31
0.0
  0
LINE
  5
149
330
1E
100
AcDbEntity
  8
0
100
AcDbLine
 10
31.72909999999999
 20
7.78611
 30
0.0
 11
31.8668
 21
7.78946
 31
0.0
  0
LINE
  5
14A
330
1E
100
AcDbEntity
  8
0
100
AcDbLine
 10
56.496
 20
7.786110000000009
 30
0.0
 11
56.70799999999999
 21
7.780530000000009
 31
0.0
  0
LINE
  5
14B
330
1E
100
AcDbEntity
  8
0
100
AcDbLine
 10
55.50399999999999
 20
7.786110000000009
 30
0.0
 11
55.744
 21
7.789460000000009
 31
0.0
  0
LINE
  5
14C
330
1E
100
AcDbEntity
  8
0
100
AcDbLine
 10
43.6648
 20
7.78946
 30
0.0
 11
43.92269999999999
 21
7.78611
 31
0.0
  0
LINE
  5
14D
330
1E
100
AcDbEntity
  8
0
100
AcDbLine
 10
43.1779
 20
7.78946
 30
0.0
 11
43.4102
 21
7.790719999999999
 31
0.0
  0
LINE
  5
14E
330
1E
100
AcDbEntity
  8
0
100
AcDbLine
 10
32.2811
 20
7.78946
 30
0.0
 11
32.53159999999999
 21
7.78611
 31
0.0
  0
LINE
  5
14F
330
1E
100
AcDbEntity
  8
0
100
AcDbLine
 10
31.8668
 20
7.78946
 30
0.0
 11
32.0528
 21
7.790719999999999
 31
0.0
  0
LINE
  5
150
330
1E
100
AcDbEntity
  8
0
100
AcDbLine
 10
23.4378
 20
7.78611
 30
0.0
 11
23.6918
 21
7.78053
 31
0.0
  0
LINE
  5
151
330
1E
100
AcDbEntity
  8
0
100
AcDbLine
 10
23.2191
 20
7.78946
 30
0.0
 11
23.4378
 21
7.78611
 31
0.0
  0
LINE
  5
152
330
1E
100
AcDbEntity
  8
0
100
AcDbLine
 10
22.8595
 20
7.78053
 30
0.0
 11
22.9368
 21
7.77313
 31
0.0
  0
LINE
  5
153
330
1E
100
AcDbEntity
  8
0
100
AcDbLine
 10
22.8547
 20
7.78611
 30
0.0
 11
22.88027424535589
 21
8.690840798804599
 31
0.0
  0
LINE
  5
154
330
1E
100
AcDbEntity
  8
0
100
AcDbLine
 10
22.8547
 20
7.78611
 30
0.0
 11
22.91809999999999
 21
7.78946
 31
0.0
  0
LINE
  5
155
330
1E
100
AcDbEntity
  8
0
100
AcDbLine
 10
17.2526
 20
7.790719999999999
 30
0.0
 11
17.366
 21
7.78946
 31
0.0
  0
LINE
  5
156
330
1E
100
AcDbEntity
  8
0
100
AcDbLine
 10
15.25859999999999
 20
7.790719999999999
 30
0.0
 11
15.28919679936979
 21
8.666884335877758
 31
0.0
  0
LINE
  5
157
330
1E
100
AcDbEntity
  8
0
100
AcDbLine
 10
56.256
 20
7.789460000000009
 30
0.0
 11
56.496
 21
7.786110000000009
 31
0.0
  0
LINE
  5
158
330
1E
100
AcDbEntity
  8
0
100
AcDbLine
 10
55.744
 20
7.789460000000009
 30
0.0
 11
56.0
 21
7.790720000000009
 31
0.0
  0
LINE
  5
159
330
1E
100
AcDbEntity
  8
0
100
AcDbLine
 10
43.4102
 20
7.790719999999999
 30
0.0
 11
43.6648
 21
7.78946
 31
0.0
  0
LINE
  5
15A
330
1E
100
AcDbEntity
  8
0
100
AcDbLine
 10
45.20311529729459
 20
8.2498
 30
0.0
 11
47.06636032279689
 21
8.2498
 31
0.0
  0
LINE
  5
15B
330
1E
100
AcDbEntity
  8
0
100
AcDbLine
 10
42.6053
 20
8.2498
 30
0.0
 11
42.7284174701568
 21
8.2498
 31
0.0
  0
LINE
  5
15C
330
1E
100
AcDbEntity
  8
0
100
AcDbLine
 10
42.6053
 20
8.2498
 30
0.0
 11
42.7284174701568
 21
8.2498
 31
0.0
  0
LINE
  5
15D
330
1E
100
AcDbEntity
  8
0
100
AcDbLine
 10
40.46009999999999
 20
8.2498
 30
0.0
 11
42.6053
 21
8.2498
 31
0.0
  0
LINE
  5
15E
330
1E
100
AcDbEntity
  8
0
100
AcDbLine
 10
49.0582937171675
 20
8.2498
 30
0.0
 11
50.3488
 21
8.2498
 31
0.0
  0
LINE
  5
15F
330
1E
100
AcDbEntity
  8
0
100
AcDbLine
 10
49.0582937171675
 20
8.2498
 30
0.0
 11
50.3488
 21
8.2498
 31
0.0
  0
LINE
  5
160
330
1E
100
AcDbEntity
  8
0
100
AcDbLine
 10
50.3488
 20
8.2498
 30
0.0
 11
51.0
 21
8.2498
 31
0.0
  0
LINE
  5
161
330
1E
100
AcDbEntity
  8
0
100
AcDbLine
 10
56.0
 20
7.790720000000009
 30
0.0
 11
56.256
 21
7.789460000000009
 31
0.0
  0
LINE
  5
162
330
1E
100
AcDbEntity
  8
0
100
AcDbLine
 10
32.0528
 20
7.790719999999999
 30
0.0
 11
32.2811
 21
7.78946
 31
0.0
  0
LINE
  5
163
330
1E
100
AcDbEntity
  8
0
100
AcDbLine
 10
23.03949999999999
 20
7.790719999999999
 30
0.0
 11
23.2191
 21
7.78946
 31
0.0
  0
LINE
  5
164
330
1E
100
AcDbEntity
  8
0
100
AcDbLine
 10
22.91809999999999
 20
7.78946
 30
0.0
 11
23.03949999999999
 21
7.790719999999999
 31
0.0
  0
LINE
  5
165
330
1E
100
AcDbEntity
  8
0
100
AcDbLine
 10
62.9678
 20
7.418429999999999
 30
0.0
 11
63.0545
 21
7.41103
 31
0.0
  0
LINE
  5
166
330
1E
100
AcDbEntity
  8
0
100
AcDbLine
 10
63.0545
 20
7.41103
 30
0.0
 11
63.20669999999999
 21
7.40545
 31
0.0
  0
LINE
  5
167
330
1E
100
AcDbEntity
  8
0
100
AcDbLine
 10
62.9678
 20
7.418429999999999
 30
0.0
 11
63.0545
 21
7.41103
 31
0.0
  0
LINE
  5
168
330
1E
100
AcDbEntity
  8
0
100
AcDbLine
 10
63.0545
 20
7.41103
 30
0.0
 11
63.20669999999999
 21
7.40545
 31
0.0
  0
LINE
  5
169
330
1E
100
AcDbEntity
  8
0
100
AcDbLine
 10
62.9954
 20
7.435739999999999
 30
0.0
 11
63.1087
 21
7.444679999999999
 31
0.0
  0
LINE
  5
16A
330
1E
100
AcDbEntity
  8
0
100
AcDbLine
 10
63.4053
 20
7.402099999999999
 30
0.0
 11
63.6376
 21
7.400839999999999
 31
0.0
  0
LINE
  5
16B
330
1E
100
AcDbEntity
  8
0
100
AcDbLine
 10
63.20669999999999
 20
7.40545
 30
0.0
 11
63.4053
 21
7.402099999999999
 31
0.0
  0
LINE
  5
16C
330
1E
100
AcDbEntity
  8
0
100
AcDbLine
 10
63.20669999999999
 20
7.40545
 30
0.0
 11
63.4053
 21
7.402099999999999
 31
0.0
  0
LINE
  5
16D
330
1E
100
AcDbEntity
  8
0
100
AcDbLine
 10
63.4053
 20
7.402099999999999
 30
0.0
 11
63.6376
 21
7.400839999999999
 31
0.0
  0
LINE
  5
16E
330
1E
100
AcDbEntity
  8
0
100
AcDbLine
 10
63.1087
 20
7.444679999999999
 30
0.0
 11
63.2741
 21
7.45305
 31
0.0
  0
LINE
  5
16F
330
1E
100
AcDbEntity
  8
0
100
AcDbLine
 10
63.2741
 20
7.45305
 30
0.0
 11
63.4918
 21
7.460449999999999
 31
0.0
  0
LINE
  5
170
330
1E
100
AcDbEntity
  8
0
100
AcDbLine
 10
63.6376
 20
7.400839999999999
 30
0.0
 11
63.8922
 21
7.402099999999999
 31
0.0
  0
LINE
  5
171
330
1E
100
AcDbEntity
  8
0
100
AcDbLine
 10
63.8922
 20
7.402099999999999
 30
0.0
 11
64.15009999999999
 21
7.40545
 31
0.0
  0
LINE
  5
172
330
1E
100
AcDbEntity
  8
0
100
AcDbLine
 10
63.8922
 20
7.402099999999999
 30
0.0
 11
64.15009999999999
 21
7.40545
 31
0.0
  0
LINE
  5
173
330
1E
100
AcDbEntity
  8
0
100
AcDbLine
 10
63.6376
 20
7.400839999999999
 30
0.0
 11
63.8922
 21
7.402099999999999
 31
0.0
  0
LINE
  5
174
330
1E
100
AcDbEntity
  8
0
100
AcDbLine
 10
63.4918
 20
7.460449999999999
 30
0.0
 11
63.7428
 21
7.466039999999999
 31
0.0
  0
LINE
  5
175
330
1E
100
AcDbEntity
  8
0
100
AcDbLine
 10
63.7428
 20
7.466039999999999
 30
0.0
 11
64.00069999999999
 21
7.469389999999999
 31
0.0
  0
LINE
  5
176
330
1E
100
AcDbEntity
  8
0
100
AcDbLine
 10
64.5648
 20
7.20841
 30
0.0
 11
64.6282
 21
7.20673
 31
0.0
  0
LINE
  5
177
330
1E
100
AcDbEntity
  8
0
100
AcDbLine
 10
64.6282
 20
7.20673
 30
0.0
 11
64.7496
 21
7.2061
 31
0.0
  0
LINE
  5
178
330
1E
100
AcDbEntity
  8
0
100
AcDbLine
 10
64.56959999999999
 20
7.211199999999999
 30
0.0
 11
64.6471
 21
7.2149
 31
0.0
  0
LINE
  5
179
330
1E
100
AcDbEntity
  8
0
100
AcDbLine
 10
64.5648
 20
7.20841
 30
0.0
 11
64.6282
 21
7.20673
 31
0.0
  0
LINE
  5
17A
330
1E
100
AcDbEntity
  8
0
100
AcDbLine
 10
64.7496
 20
7.2061
 30
0.0
 11
64.92919999999999
 21
7.20673
 31
0.0
  0
LINE
  5
17B
330
1E
100
AcDbEntity
  8
0
100
AcDbLine
 10
64.92919999999999
 20
7.20673
 30
0.0
 11
65.14790000000001
 21
7.20841
 31
0.0
  0
LINE
  5
17C
330
1E
100
AcDbEntity
  8
0
100
AcDbLine
 10
65.14790000000001
 20
7.20841
 30
0.0
 11
65.40189999999999
 21
7.211199999999999
 31
0.0
  0
LINE
  5
17D
330
1E
100
AcDbEntity
  8
0
100
AcDbLine
 10
65.14790000000001
 20
7.20841
 30
0.0
 11
65.40189999999999
 21
7.211199999999999
 31
0.0
  0
LINE
  5
17E
330
1E
100
AcDbEntity
  8
0
100
AcDbLine
 10
64.92919999999999
 20
7.20673
 30
0.0
 11
65.14790000000001
 21
7.20841
 31
0.0
  0
LINE
  5
17F
330
1E
100
AcDbEntity
  8
0
100
AcDbLine
 10
64.7496
 20
7.2061
 30
0.0
 11
64.92919999999999
 21
7.20673
 31
0.0
  0
LINE
  5
180
330
1E
100
AcDbEntity
  8
0
100
AcDbLine
 10
64.78480000000001
 20
7.219089999999999
 30
0.0
 11
64.97069999999999
 21
7.22356
 31
0.0
  0
LINE
  5
181
330
1E
100
AcDbEntity
  8
0
100
AcDbLine
 10
64.6471
 20
7.2149
 30
0.0
 11
64.78480000000001
 21
7.219089999999999
 31
0.0
  0
LINE
  5
182
330
1E
100
AcDbEntity
  8
0
100
AcDbLine
 10
64.6282
 20
7.20673
 30
0.0
 11
64.7496
 21
7.2061
 31
0.0
  0
LINE
  5
183
330
1E
100
AcDbEntity
  8
0
100
AcDbLine
 10
64.97069999999999
 20
7.22356
 30
0.0
 11
65.1989
 21
7.228019999999999
 31
0.0
  0
LINE
  5
184
330
1E
100
AcDbEntity
  8
0
100
AcDbLine
 10
65.40189999999999
 20
7.211199999999999
 30
0.0
 11
65.6675
 21
7.2149
 31
0.0
  0
LINE
  5
185
330
1E
100
AcDbEntity
  8
0
100
AcDbLine
 10
65.6675
 20
7.2149
 30
0.0
 11
65.918
 21
7.219089999999999
 31
0.0
  0
LINE
  5
186
330
1E
100
AcDbEntity
  8
0
100
AcDbLine
 10
65.6675
 20
7.2149
 30
0.0
 11
65.918
 21
7.219089999999999
 31
0.0
  0
LINE
  5
187
330
1E
100
AcDbEntity
  8
0
100
AcDbLine
 10
65.40189999999999
 20
7.211199999999999
 30
0.0
 11
65.6675
 21
7.2149
 31
0.0
  0
LINE
  5
188
330
1E
100
AcDbEntity
  8
0
100
AcDbLine
 10
65.1989
 20
7.228019999999999
 30
0.0
 11
65.4495
 21
7.23221
 31
0.0
  0
LINE
  5
189
330
1E
100
AcDbEntity
  8
0
100
AcDbLine
 10
65.4495
 20
7.23221
 30
0.0
 11
65.715
 21
7.23591
 31
0.0
  0
LINE
  5
18A
330
1E
100
AcDbEntity
  8
0
100
AcDbLine
 10
65.918
 20
7.219089999999999
 30
0.0
 11
66.1463
 21
7.22356
 31
0.0
  0
LINE
  5
18B
330
1E
100
AcDbEntity
  8
0
100
AcDbLine
 10
66.1463
 20
7.22356
 30
0.0
 11
66.3322
 21
7.228019999999999
 31
0.0
  0
LINE
  5
18C
330
1E
100
AcDbEntity
  8
0
100
AcDbLine
 10
66.1463
 20
7.22356
 30
0.0
 11
66.3322
 21
7.228019999999999
 31
0.0
  0
LINE
  5
18D
330
1E
100
AcDbEntity
  8
0
100
AcDbLine
 10
65.918
 20
7.219089999999999
 30
0.0
 11
66.1463
 21
7.22356
 31
0.0
  0
LINE
  5
18E
330
1E
100
AcDbEntity
  8
0
100
AcDbLine
 10
65.715
 20
7.23591
 30
0.0
 11
65.9691
 21
7.238699999999999
 31
0.0
  0
LINE
  5
18F
330
1E
100
AcDbEntity
  8
0
100
AcDbLine
 10
64.15009999999999
 20
7.40545
 30
0.0
 11
64.4012
 21
7.41103
 31
0.0
  0
LINE
  5
190
330
1E
100
AcDbEntity
  8
0
100
AcDbLine
 10
65.9691
 20
7.238699999999999
 30
0.0
 11
66.1878
 21
7.24038
 31
0.0
  0
LINE
  5
191
330
1E
100
AcDbEntity
  8
0
100
AcDbLine
 10
66.3322
 20
7.228019999999999
 30
0.0
 11
66.46989999999999
 21
7.23221
 31
0.0
  0
LINE
  5
192
330
1E
100
AcDbEntity
  8
0
100
AcDbLine
 10
66.46989999999999
 20
7.23221
 30
0.0
 11
66.5473
 21
7.23591
 31
0.0
  0
LINE
  5
193
330
1E
100
AcDbEntity
  8
0
100
AcDbLine
 10
66.3322
 20
7.228019999999999
 30
0.0
 11
66.46989999999999
 21
7.23221
 31
0.0
  0
LINE
  5
194
330
1E
100
AcDbEntity
  8
0
100
AcDbLine
 10
66.46989999999999
 20
7.23221
 30
0.0
 11
66.5473
 21
7.23591
 31
0.0
  0
LINE
  5
195
330
1E
100
AcDbEntity
  8
0
100
AcDbLine
 10
66.48869999999999
 20
7.24038
 30
0.0
 11
66.5521
 21
7.238699999999999
 31
0.0
  0
LINE
  5
196
330
1E
100
AcDbEntity
  8
0
100
AcDbLine
 10
66.3674
 20
7.24101
 30
0.0
 11
66.48869999999999
 21
7.24038
 31
0.0
  0
LINE
  5
197
330
1E
100
AcDbEntity
  8
0
100
AcDbLine
 10
66.1878
 20
7.24038
 30
0.0
 11
66.3674
 21
7.24101
 31
0.0
  0
LINE
  5
198
330
1E
100
AcDbEntity
  8
0
100
AcDbLine
 10
64.4012
 20
7.41103
 30
0.0
 11
64.561865563434
 21
7.41649381052119
 31
0.0
  0
LINE
  5
199
330
1E
100
AcDbEntity
  8
0
100
AcDbLine
 10
64.25530000000001
 20
7.470639999999999
 30
0.0
 11
64.4876
 21
7.469389999999999
 31
0.0
  0
LINE
  5
19A
330
1E
100
AcDbEntity
  8
0
100
AcDbLine
 10
64.561865563434
 20
7.416493810521199
 30
0.0
 11
64.5648
 21
7.20841
 31
0.0
  0
LINE
  5
19B
330
1E
100
AcDbEntity
  8
0
100
AcDbLine
 10
64.561865563434
 20
7.416493810521199
 30
0.0
 11
64.5648
 21
7.20841
 31
0.0
  0
LINE
  5
19C
330
1E
100
AcDbEntity
  8
0
100
AcDbLine
 10
64.6863
 20
7.466039999999999
 30
0.0
 11
64.8385
 21
7.460449999999999
 31
0.0
  0
LINE
  5
19D
330
1E
100
AcDbEntity
  8
0
100
AcDbLine
 10
64.4876
 20
7.469389999999999
 30
0.0
 11
64.6863
 21
7.466039999999999
 31
0.0
  0
LINE
  5
19E
330
1E
100
AcDbEntity
  8
0
100
AcDbLine
 10
67.3023
 20
7.73851
 30
0.0
 11
67.389
 21
7.73111
 31
0.0
  0
LINE
  5
19F
330
1E
100
AcDbEntity
  8
0
100
AcDbLine
 10
67.389
 20
7.73111
 30
0.0
 11
67.5412
 21
7.725519999999999
 31
0.0
  0
LINE
  5
1A0
330
1E
100
AcDbEntity
  8
0
100
AcDbLine
 10
64.8385
 20
7.460449999999999
 30
0.0
 11
64.9252
 21
7.45305
 31
0.0
  0
LINE
  5
1A1
330
1E
100
AcDbEntity
  8
0
100
AcDbLine
 10
64.78419999999999
 20
7.42681
 30
0.0
 11
64.89749999999999
 21
7.435739999999999
 31
0.0
  0
LINE
  5
1A2
330
1E
100
AcDbEntity
  8
0
100
AcDbLine
 10
64.61879999999999
 20
7.418429999999999
 30
0.0
 11
64.78419999999999
 21
7.42681
 31
0.0
  0
LINE
  5
1A3
330
1E
100
AcDbEntity
  8
0
100
AcDbLine
 10
64.4012
 20
7.41103
 30
0.0
 11
64.61879999999999
 21
7.418429999999999
 31
0.0
  0
LINE
  5
1A4
330
1E
100
AcDbEntity
  8
0
100
AcDbLine
 10
64.15009999999999
 20
7.40545
 30
0.0
 11
64.4012
 21
7.41103
 31
0.0
  0
LINE
  5
1A5
330
1E
100
AcDbEntity
  8
0
100
AcDbLine
 10
64.00069999999999
 20
7.469389999999999
 30
0.0
 11
64.25530000000001
 21
7.470639999999999
 31
0.0
  0
LINE
  5
1A6
330
1E
100
AcDbEntity
  8
0
100
AcDbLine
 10
67.3023
 20
7.73851
 30
0.0
 11
67.389
 21
7.73111
 31
0.0
  0
LINE
  5
1A7
330
1E
100
AcDbEntity
  8
0
100
AcDbLine
 10
67.389
 20
7.73111
 30
0.0
 11
67.5412
 21
7.725519999999999
 31
0.0
  0
LINE
  5
1A8
330
1E
100
AcDbEntity
  8
0
100
AcDbLine
 10
67.3299
 20
7.755819999999999
 30
0.0
 11
67.4432
 21
7.76475
 31
0.0
  0
LINE
  5
1A9
330
1E
100
AcDbEntity
  8
0
100
AcDbLine
 10
67.7398
 20
7.722169999999999
 30
0.0
 11
67.97209999999999
 21
7.720919999999999
 31
0.0
  0
LINE
  5
1AA
330
1E
100
AcDbEntity
  8
0
100
AcDbLine
 10
67.5412
 20
7.725519999999999
 30
0.0
 11
67.7398
 21
7.722169999999999
 31
0.0
  0
LINE
  5
1AB
330
1E
100
AcDbEntity
  8
0
100
AcDbLine
 10
67.5412
 20
7.725519999999999
 30
0.0
 11
67.7398
 21
7.722169999999999
 31
0.0
  0
LINE
  5
1AC
330
1E
100
AcDbEntity
  8
0
100
AcDbLine
 10
67.7398
 20
7.722169999999999
 30
0.0
 11
67.97209999999999
 21
7.720919999999999
 31
0.0
  0
LINE
  5
1AD
330
1E
100
AcDbEntity
  8
0
100
AcDbLine
 10
67.4432
 20
7.76475
 30
0.0
 11
67.6086
 21
7.77313
 31
0.0
  0
LINE
  5
1AE
330
1E
100
AcDbEntity
  8
0
100
AcDbLine
 10
67.6086
 20
7.77313
 30
0.0
 11
67.82630000000001
 21
7.78053
 31
0.0
  0
LINE
  5
1AF
330
1E
100
AcDbEntity
  8
0
100
AcDbLine
 10
67.97209999999999
 20
7.720919999999999
 30
0.0
 11
68.22669999999999
 21
7.722169999999999
 31
0.0
  0
LINE
  5
1B0
330
1E
100
AcDbEntity
  8
0
100
AcDbLine
 10
68.22669999999999
 20
7.722169999999999
 30
0.0
 11
68.4846
 21
7.725519999999999
 31
0.0
  0
LINE
  5
1B1
330
1E
100
AcDbEntity
  8
0
100
AcDbLine
 10
68.22669999999999
 20
7.722169999999999
 30
0.0
 11
68.4846
 21
7.725519999999999
 31
0.0
  0
LINE
  5
1B2
330
1E
100
AcDbEntity
  8
0
100
AcDbLine
 10
67.97209999999999
 20
7.720919999999999
 30
0.0
 11
68.22669999999999
 21
7.722169999999999
 31
0.0
  0
LINE
  5
1B3
330
1E
100
AcDbEntity
  8
0
100
AcDbLine
 10
67.82630000000001
 20
7.78053
 30
0.0
 11
68.07729999999999
 21
7.78611
 31
0.0
  0
LINE
  5
1B4
330
1E
100
AcDbEntity
  8
0
100
AcDbLine
 10
62.9417062828325
 20
8.2498
 30
0.0
 11
62.9506
 21
7.42681
 31
0.0
  0
LINE
  5
1B5
330
1E
100
AcDbEntity
  8
0
100
AcDbLine
 10
67.2796651487407
 20
8.2498
 30
0.0
 11
67.28509999999999
 21
7.746879999999999
 31
0.0
  0
LINE
  5
1B6
330
1E
100
AcDbEntity
  8
0
100
AcDbLine
 10
68.07729999999999
 20
7.78611
 30
0.0
 11
68.3352
 21
7.78946
 31
0.0
  0
LINE
  5
1B7
330
1E
100
AcDbEntity
  8
0
100
AcDbLine
 10
68.4846
 20
7.725519999999999
 30
0.0
 11
68.73569999999999
 21
7.73111
 31
0.0
  0
LINE
  5
1B8
330
1E
100
AcDbEntity
  8
0
100
AcDbLine
 10
68.73569999999999
 20
7.73111
 30
0.0
 11
68.9533
 21
7.73851
 31
0.0
  0
LINE
  5
1B9
330
1E
100
AcDbEntity
  8
0
100
AcDbLine
 10
68.58979999999999
 20
7.790719999999999
 30
0.0
 11
68.8221
 21
7.78946
 31
0.0
  0
LINE
  5
1BA
330
1E
100
AcDbEntity
  8
0
100
AcDbLine
 10
68.9533
 20
7.73851
 30
0.0
 11
69.1187
 21
7.746879999999999
 31
0.0
  0
LINE
  5
1BB
330
1E
100
AcDbEntity
  8
0
100
AcDbLine
 10
69.1187
 20
7.746879999999999
 30
0.0
 11
69.232
 21
7.755819999999999
 31
0.0
  0
LINE
  5
1BC
330
1E
100
AcDbEntity
  8
0
100
AcDbLine
 10
69.02070000000001
 20
7.78611
 30
0.0
 11
69.173
 21
7.78053
 31
0.0
  0
LINE
  5
1BD
330
1E
100
AcDbEntity
  8
0
100
AcDbLine
 10
68.8221
 20
7.78946
 30
0.0
 11
69.02070000000001
 21
7.78611
 31
0.0
  0
LINE
  5
1BE
330
1E
100
AcDbEntity
  8
0
100
AcDbLine
 10
69.173
 20
7.78053
 30
0.0
 11
69.25969999999999
 21
7.77313
 31
0.0
  0
LINE
  5
1BF
330
1E
100
AcDbEntity
  8
0
100
AcDbLine
 10
69.1187
 20
7.746879999999999
 30
0.0
 11
69.232
 21
7.755819999999999
 31
0.0
  0
LINE
  5
1C0
330
1E
100
AcDbEntity
  8
0
100
AcDbLine
 10
68.9533
 20
7.73851
 30
0.0
 11
69.1187
 21
7.746879999999999
 31
0.0
  0
LINE
  5
1C1
330
1E
100
AcDbEntity
  8
0
100
AcDbLine
 10
68.73569999999999
 20
7.73111
 30
0.0
 11
68.9533
 21
7.73851
 31
0.0
  0
LINE
  5
1C2
330
1E
100
AcDbEntity
  8
0
100
AcDbLine
 10
68.4846
 20
7.725519999999999
 30
0.0
 11
68.73569999999999
 21
7.73111
 31
0.0
  0
LINE
  5
1C3
330
1E
100
AcDbEntity
  8
0
100
AcDbLine
 10
68.3352
 20
7.78946
 30
0.0
 11
68.58979999999999
 21
7.790719999999999
 31
0.0
  0
LINE
  5
1C4
330
1E
100
AcDbEntity
  8
0
100
AcDbLine
 10
66.5378413512027
 20
8.2498
 30
0.0
 11
66.9528
 21
8.2498
 31
0.0
  0
LINE
  5
1C5
330
1E
100
AcDbEntity
  8
0
100
AcDbLine
 10
69.2715825298432
 20
8.2498
 30
0.0
 11
69.3947
 21
8.2498
 31
0.0
  0
LINE
  5
1C6
330
1E
100
AcDbEntity
  8
0
100
AcDbLine
 10
66.9528
 20
8.2498
 30
0.0
 11
67.2796651487407
 21
8.2498
 31
0.0
  0
LINE
  5
1C7
330
1E
100
AcDbEntity
  8
0
100
AcDbLine
 10
75.8742
 20
7.402099999999999
 30
0.0
 11
75.9956
 21
7.400839999999999
 31
0.0
  0
LINE
  5
1C8
330
1E
100
AcDbEntity
  8
0
100
AcDbLine
 10
75.9956
 20
7.400839999999999
 30
0.0
 11
76.1752
 21
7.402099999999999
 31
0.0
  0
LINE
  5
1C9
330
1E
100
AcDbEntity
  8
0
100
AcDbLine
 10
76.1752
 20
7.402099999999999
 30
0.0
 11
76.3939
 21
7.40545
 31
0.0
  0
LINE
  5
1CA
330
1E
100
AcDbEntity
  8
0
100
AcDbLine
 10
76.1752
 20
7.402099999999999
 30
0.0
 11
76.3939
 21
7.40545
 31
0.0
  0
LINE
  5
1CB
330
1E
100
AcDbEntity
  8
0
100
AcDbLine
 10
75.9956
 20
7.400839999999999
 30
0.0
 11
76.1752
 21
7.402099999999999
 31
0.0
  0
LINE
  5
1CC
330
1E
100
AcDbEntity
  8
0
100
AcDbLine
 10
75.8108
 20
7.40545
 30
0.0
 11
75.8742
 21
7.402099999999999
 31
0.0
  0
LINE
  5
1CD
330
1E
100
AcDbEntity
  8
0
100
AcDbLine
 10
76.0305
 20
7.42681
 30
0.0
 11
76.2163
 21
7.435739999999999
 31
0.0
  0
LINE
  5
1CE
330
1E
100
AcDbEntity
  8
0
100
AcDbLine
 10
75.8929
 20
7.418429999999999
 30
0.0
 11
76.0305
 21
7.42681
 31
0.0
  0
LINE
  5
1CF
330
1E
100
AcDbEntity
  8
0
100
AcDbLine
 10
75.8155
 20
7.41103
 30
0.0
 11
75.8929
 21
7.418429999999999
 31
0.0
  0
LINE
  5
1D0
330
1E
100
AcDbEntity
  8
0
100
AcDbLine
 10
75.8108
 20
7.40545
 30
0.0
 11
75.8742
 21
7.402099999999999
 31
0.0
  0
LINE
  5
1D1
330
1E
100
AcDbEntity
  8
0
100
AcDbLine
 10
75.8742
 20
7.402099999999999
 30
0.0
 11
75.9956
 21
7.400839999999999
 31
0.0
  0
LINE
  5
1D2
330
1E
100
AcDbEntity
  8
0
100
AcDbLine
 10
76.3939
 20
7.40545
 30
0.0
 11
76.6478
 21
7.41103
 31
0.0
  0
LINE
  5
1D3
330
1E
100
AcDbEntity
  8
0
100
AcDbLine
 10
76.6478
 20
7.41103
 30
0.0
 11
76.9133
 21
7.418429999999999
 31
0.0
  0
LINE
  5
1D4
330
1E
100
AcDbEntity
  8
0
100
AcDbLine
 10
76.6478
 20
7.41103
 30
0.0
 11
76.9133
 21
7.418429999999999
 31
0.0
  0
LINE
  5
1D5
330
1E
100
AcDbEntity
  8
0
100
AcDbLine
 10
76.3939
 20
7.40545
 30
0.0
 11
76.6478
 21
7.41103
 31
0.0
  0
LINE
  5
1D6
330
1E
100
AcDbEntity
  8
0
100
AcDbLine
 10
76.2163
 20
7.435739999999999
 30
0.0
 11
76.4445
 21
7.444679999999999
 31
0.0
  0
LINE
  5
1D7
330
1E
100
AcDbEntity
  8
0
100
AcDbLine
 10
76.4445
 20
7.444679999999999
 30
0.0
 11
76.69499999999999
 21
7.45305
 31
0.0
  0
LINE
  5
1D8
330
1E
100
AcDbEntity
  8
0
100
AcDbLine
 10
76.9133
 20
7.418429999999999
 30
0.0
 11
77.1638
 21
7.42681
 31
0.0
  0
LINE
  5
1D9
330
1E
100
AcDbEntity
  8
0
100
AcDbLine
 10
77.1638
 20
7.42681
 30
0.0
 11
77.3919
 21
7.435739999999999
 31
0.0
  0
LINE
  5
1DA
330
1E
100
AcDbEntity
  8
0
100
AcDbLine
 10
77.1638
 20
7.42681
 30
0.0
 11
77.3919
 21
7.435739999999999
 31
0.0
  0
LINE
  5
1DB
330
1E
100
AcDbEntity
  8
0
100
AcDbLine
 10
76.9133
 20
7.418429999999999
 30
0.0
 11
77.1638
 21
7.42681
 31
0.0
  0
LINE
  5
1DC
330
1E
100
AcDbEntity
  8
0
100
AcDbLine
 10
76.69499999999999
 20
7.45305
 30
0.0
 11
76.9604
 21
7.460449999999999
 31
0.0
  0
LINE
  5
1DD
330
1E
100
AcDbEntity
  8
0
100
AcDbLine
 10
76.9604
 20
7.460449999999999
 30
0.0
 11
77.2144
 21
7.466039999999999
 31
0.0
  0
LINE
  5
1DE
330
1E
100
AcDbEntity
  8
0
100
AcDbLine
 10
77.3919
 20
7.435739999999999
 30
0.0
 11
77.57769999999999
 21
7.444679999999999
 31
0.0
  0
LINE
  5
1DF
330
1E
100
AcDbEntity
  8
0
100
AcDbLine
 10
77.57769999999999
 20
7.444679999999999
 30
0.0
 11
77.7154
 21
7.45305
 31
0.0
  0
LINE
  5
1E0
330
1E
100
AcDbEntity
  8
0
100
AcDbLine
 10
77.3919
 20
7.435739999999999
 30
0.0
 11
77.57769999999999
 21
7.444679999999999
 31
0.0
  0
LINE
  5
1E1
330
1E
100
AcDbEntity
  8
0
100
AcDbLine
 10
77.7154
 20
7.45305
 30
0.0
 11
77.7927
 21
7.460449999999999
 31
0.0
  0
LINE
  5
1E2
330
1E
100
AcDbEntity
  8
0
100
AcDbLine
 10
77.57769999999999
 20
7.444679999999999
 30
0.0
 11
77.7154
 21
7.45305
 31
0.0
  0
LINE
  5
1E3
330
1E
100
AcDbEntity
  8
0
100
AcDbLine
 10
77.7154
 20
7.45305
 30
0.0
 11
77.7927
 21
7.460449999999999
 31
0.0
  0
LINE
  5
1E4
330
1E
100
AcDbEntity
  8
0
100
AcDbLine
 10
77.73399999999999
 20
7.469389999999999
 30
0.0
 11
77.79749999999999
 21
7.466039999999999
 31
0.0
  0
LINE
  5
1E5
330
1E
100
AcDbEntity
  8
0
100
AcDbLine
 10
77.2144
 20
7.466039999999999
 30
0.0
 11
77.4331
 21
7.469389999999999
 31
0.0
  0
LINE
  5
1E6
330
1E
100
AcDbEntity
  8
0
100
AcDbLine
 10
77.6126
 20
7.470639999999999
 30
0.0
 11
77.73399999999999
 21
7.469389999999999
 31
0.0
  0
LINE
  5
1E7
330
1E
100
AcDbEntity
  8
0
100
AcDbLine
 10
77.4331
 20
7.469389999999999
 30
0.0
 11
77.6126
 21
7.470639999999999
 31
0.0
  0
LINE
  5
1E8
330
1E
100
AcDbEntity
  8
0
100
AcDbLine
 10
69.3947
 20
8.2498
 30
0.0
 11
71.5399
 21
8.2498
 31
0.0
  0
LINE
  5
1E9
330
1E
100
AcDbEntity
  8
0
100
AcDbLine
 10
61.6512
 20
8.2498
 30
0.0
 11
62.9417062828325
 21
8.2498
 31
0.0
  0
LINE
  5
1EA
330
1E
100
AcDbEntity
  8
0
100
AcDbLine
 10
61.0
 20
8.2498
 30
0.0
 11
61.6512
 21
8.2498
 31
0.0
  0
LINE
  5
1EB
330
1E
100
AcDbEntity
  8
0
100
AcDbLine
 10
36.21306744664249
 20
8.2498
 30
0.0
 11
37.0566
 21
8.2498
 31
0.0
  0
LINE
  5
1EC
330
1E
100
AcDbEntity
  8
0
100
AcDbLine
 10
37.0566
 20
8.2498
 30
0.0
 11
38.6107
 21
8.2498
 31
0.0
  0
LINE
  5
1ED
330
1E
100
AcDbEntity
  8
0
100
AcDbLine
 10
38.6107
 20
8.2498
 30
0.0
 11
40.46009999999999
 21
8.2498
 31
0.0
  0
LINE
  5
1EE
330
1E
100
AcDbEntity
  8
0
100
AcDbLine
 10
31.2962088321247
 20
8.310402025952789
 30
0.0
 11
31.6574825968315
 21
8.302373720070409
 31
0.0
  0
LINE
  5
1EF
330
1E
100
AcDbEntity
  8
0
100
AcDbLine
 10
31.2962088321247
 20
8.310402025952789
 30
0.0
 11
31.6574825968315
 21
8.302373720070409
 31
0.0
  0
LINE
  5
1F0
330
1E
100
AcDbEntity
  8
0
100
AcDbLine
 10
24.8619746341333
 20
8.45338500813037
 30
0.0
 11
29.33209012763539
 21
8.35404910827477
 31
0.0
  0
LINE
  5
1F1
330
1E
100
AcDbEntity
  8
0
100
AcDbLine
 10
24.8619746341333
 20
8.45338500813037
 30
0.0
 11
29.33209012763539
 21
8.35404910827477
 31
0.0
  0
LINE
  5
1F2
330
1E
100
AcDbEntity
  8
0
100
AcDbLine
 10
13.093
 20
8.7498
 30
0.0
 11
15.005
 21
8.7498
 31
0.0
  0
LINE
  5
1F3
330
1E
100
AcDbEntity
  8
0
100
AcDbLine
 10
15.005
 20
8.7498
 30
0.0
 11
17.5213
 21
8.7498
 31
0.0
  0
LINE
  5
1F4
330
1E
100
AcDbEntity
  8
0
100
AcDbLine
 10
17.5213
 20
8.7498
 30
0.0
 11
20.77739999999999
 21
8.7498
 31
0.0
  0
LINE
  5
1F5
330
1E
100
AcDbEntity
  8
0
100
AcDbLine
 10
28.9146
 20
8.7498
 30
0.0
 11
33.7984
 21
8.7498
 31
0.0
  0
LINE
  5
1F6
330
1E
100
AcDbEntity
  8
0
100
AcDbLine
 10
24.5516
 20
8.7498
 30
0.0
 11
28.9146
 21
8.7498
 31
0.0
  0
LINE
  5
1F7
330
1E
100
AcDbEntity
  8
0
100
AcDbLine
 10
20.77739999999999
 20
8.7498
 30
0.0
 11
24.5516
 21
8.7498
 31
0.0
  0
LINE
  5
1F8
330
1E
100
AcDbEntity
  8
0
100
AcDbLine
 10
11.9419
 20
8.7498
 30
0.0
 11
13.093
 21
8.7498
 31
0.0
  0
LINE
  5
1F9
330
1E
100
AcDbEntity
  8
0
100
AcDbLine
 10
11.5233
 20
8.7498
 30
0.0
 11
11.9419
 21
8.7498
 31
0.0
  0
LINE
  5
1FA
330
1E
100
AcDbEntity
  8
0
100
AcDbLine
 10
11.5233
 20
8.7498
 30
0.0
 11
15.3049472661572
 21
8.6657633940854
 31
0.0
  0
LINE
  5
1FB
330
1E
100
AcDbEntity
  8
0
100
AcDbLine
 10
11.5233
 20
8.7498
 30
0.0
 11
15.3049472661572
 21
8.6657633940854
 31
0.0
  0
LINE
  5
1FC
330
1E
100
AcDbEntity
  8
0
100
AcDbLine
 10
19.2269509463466
 20
8.57860775674786
 30
0.0
 11
22.8748102838727
 21
8.49754421591394
 31
0.0
  0
LINE
  5
1FD
330
1E
100
AcDbEntity
  8
0
100
AcDbLine
 10
51.0
 20
8.2498
 30
0.0
 11
51.0
 21
7.5
 31
0.0
  0
LINE
  5
1FE
330
1E
100
AcDbEntity
  8
0
100
AcDbLine
 10
33.7984
 20
8.7498
 30
0.0
 11
38.97829999999999
 21
8.7498
 31
0.0
  0
LINE
  5
1FF
330
1E
100
AcDbEntity
  8
0
100
AcDbLine
 10
38.97829999999999
 20
8.7498
 30
0.0
 11
44.48839999999999
 21
8.7498
 31
0.0
  0
LINE
  5
200
330
1E
100
AcDbEntity
  8
0
100
AcDbLine
 10
44.48839999999999
 20
8.7498
 30
0.0
 11
50.2441
 21
8.7498
 31
0.0
  0
LINE
  5
201
330
1E
100
AcDbEntity
  8
0
100
AcDbLine
 10
56.0
 20
8.7498
 30
0.0
 11
61.75589999999999
 21
8.7498
 31
0.0
  0
LINE
  5
202
330
1E
100
AcDbEntity
  8
0
100
AcDbLine
 10
50.2441
 20
8.7498
 30
0.0
 11
56.0
 21
8.7498
 31
0.0
  0
LINE
  5
203
330
1E
100
AcDbEntity
  8
0
100
AcDbLine
 10
33.64448651976639
 20
8.258218077338529
 30
0.0
 11
34.0233
 21
8.2498
 31
0.0
  0
LINE
  5
204
330
1E
100
AcDbEntity
  8
0
100
AcDbLine
 10
33.64448651976639
 20
8.258218077338529
 30
0.0
 11
34.0233
 21
8.2498
 31
0.0
  0
LINE
  5
205
330
1E
100
AcDbEntity
  8
0
100
AcDbLine
 10
34.0233
 20
8.2498
 30
0.0
 11
34.224654734388
 21
8.2498
 31
0.0
  0
LINE
  5
206
330
1E
100
AcDbEntity
  8
0
100
AcDbLine
 10
61.0
 20
8.2498
 30
0.0
 11
61.0
 21
7.5
 31
0.0
  0
LINE
  5
207
330
1E
100
AcDbEntity
  8
0
100
AcDbLine
 10
66.5378413512027
 20
8.2498
 30
0.0
 11
66.5521
 21
7.238699999999999
 31
0.0
  0
LINE
  5
208
330
1E
100
AcDbEntity
  8
0
100
AcDbLine
 10
64.9320878073872
 20
8.39407192328338
 30
0.0
 11
64.9423
 21
7.444679999999999
 31
0.0
  0
LINE
  5
209
330
1E
100
AcDbEntity
  8
0
100
AcDbLine
 10
62.9410933216225
 20
8.306521046639218
 30
0.0
 11
62.9506
 21
7.42681
 31
0.0
  0
LINE
  5
20A
330
1E
100
AcDbEntity
  8
0
100
AcDbLine
 10
69.26797977006799
 20
8.584736008533839
 30
0.0
 11
69.27679999999999
 21
7.76475
 31
0.0
  0
LINE
  5
20B
330
1E
100
AcDbEntity
  8
0
100
AcDbLine
 10
73.0217
 20
8.7498
 30
0.0
 11
78.2016
 21
8.7498
 31
0.0
  0
LINE
  5
20C
330
1E
100
AcDbEntity
  8
0
100
AcDbLine
 10
67.5116
 20
8.7498
 30
0.0
 11
73.0217
 21
8.7498
 31
0.0
  0
LINE
  5
20D
330
1E
100
AcDbEntity
  8
0
100
AcDbLine
 10
61.75589999999999
 20
8.7498
 30
0.0
 11
67.5116
 21
8.7498
 31
0.0
  0
LINE
  5
20E
330
1E
100
AcDbEntity
  8
0
100
AcDbLine
 10
67.2744804772219
 20
8.72956933973977
 30
0.0
 11
67.28509999999999
 21
7.746879999999999
 31
0.0
  0
LINE
  5
20F
330
1E
100
AcDbEntity
  8
0
100
AcDbLine
 10
57.0
 20
8.7498
 30
0.0
 11
57.0
 21
7.755820000000009
 31
0.0
  0
LINE
  5
210
330
1E
100
AcDbEntity
  8
0
100
AcDbLine
 10
55.0
 20
8.7498
 30
0.0
 11
55.0
 21
7.755820000000009
 31
0.0
  0
LINE
  5
211
330
1E
100
AcDbEntity
  8
0
100
AcDbLine
 10
75.78693255335759
 20
8.2498
 30
0.0
 11
75.8108
 21
7.40545
 31
0.0
  0
LINE
  5
212
330
1E
100
AcDbEntity
  8
0
100
AcDbLine
 10
77.77240780950549
 20
8.35371731887834
 30
0.0
 11
77.79749999999999
 21
7.466039999999999
 31
0.0
  0
LINE
  5
213
330
1E
100
AcDbEntity
  8
0
100
AcDbLine
 10
75.78503383605479
 20
8.316970233104779
 30
0.0
 11
75.8108
 21
7.40545
 31
0.0
  0
LINE
  5
214
330
1E
100
AcDbEntity
  8
0
100
AcDbLine
 10
74.9434
 20
8.2498
 30
0.0
 11
75.78693255335759
 21
8.2498
 31
0.0
  0
LINE
  5
215
330
1E
100
AcDbEntity
  8
0
100
AcDbLine
 10
73.38930000000001
 20
8.2498
 30
0.0
 11
74.9434
 21
8.2498
 31
0.0
  0
LINE
  5
216
330
1E
100
AcDbEntity
  8
0
100
AcDbLine
 10
71.5399
 20
8.2498
 30
0.0
 11
73.38930000000001
 21
8.2498
 31
0.0
  0
LINE
  5
217
330
1E
100
AcDbEntity
  8
0
100
AcDbLine
 10
78.4486
 20
7.725519999999999
 30
0.0
 11
78.5864
 21
7.722169999999999
 31
0.0
  0
LINE
  5
218
330
1E
100
AcDbEntity
  8
0
100
AcDbLine
 10
78.3711
 20
7.73111
 30
0.0
 11
78.4486
 21
7.725519999999999
 31
0.0
  0
LINE
  5
219
330
1E
100
AcDbEntity
  8
0
100
AcDbLine
 10
78.3662
 20
7.73851
 30
0.0
 11
78.4295
 21
7.746879999999999
 31
0.0
  0
LINE
  5
21A
330
1E
100
AcDbEntity
  8
0
100
AcDbLine
 10
78.4295
 20
7.746879999999999
 30
0.0
 11
78.5508
 21
7.755819999999999
 31
0.0
  0
LINE
  5
21B
330
1E
100
AcDbEntity
  8
0
100
AcDbLine
 10
78.3711
 20
7.73111
 30
0.0
 11
78.4486
 21
7.725519999999999
 31
0.0
  0
LINE
  5
21C
330
1E
100
AcDbEntity
  8
0
100
AcDbLine
 10
78.4486
 20
7.725519999999999
 30
0.0
 11
78.5864
 21
7.722169999999999
 31
0.0
  0
LINE
  5
21D
330
1E
100
AcDbEntity
  8
0
100
AcDbLine
 10
78.5864
 20
7.722169999999999
 30
0.0
 11
78.7723
 21
7.720919999999999
 31
0.0
  0
LINE
  5
21E
330
1E
100
AcDbEntity
  8
0
100
AcDbLine
 10
78.7723
 20
7.720919999999999
 30
0.0
 11
79.0006
 21
7.722169999999999
 31
0.0
  0
LINE
  5
21F
330
1E
100
AcDbEntity
  8
0
100
AcDbLine
 10
78.7723
 20
7.720919999999999
 30
0.0
 11
79.0006
 21
7.722169999999999
 31
0.0
  0
LINE
  5
220
330
1E
100
AcDbEntity
  8
0
100
AcDbLine
 10
78.5864
 20
7.722169999999999
 30
0.0
 11
78.7723
 21
7.720919999999999
 31
0.0
  0
LINE
  5
221
330
1E
100
AcDbEntity
  8
0
100
AcDbLine
 10
78.5508
 20
7.755819999999999
 30
0.0
 11
78.73029999999999
 21
7.76475
 31
0.0
  0
LINE
  5
222
330
1E
100
AcDbEntity
  8
0
100
AcDbLine
 10
78.73029999999999
 20
7.76475
 30
0.0
 11
78.9489
 21
7.77313
 31
0.0
  0
LINE
  5
223
330
1E
100
AcDbEntity
  8
0
100
AcDbLine
 10
79.0006
 20
7.722169999999999
 30
0.0
 11
79.25119999999999
 21
7.725519999999999
 31
0.0
  0
LINE
  5
224
330
1E
100
AcDbEntity
  8
0
100
AcDbLine
 10
79.25119999999999
 20
7.725519999999999
 30
0.0
 11
79.5167
 21
7.73111
 31
0.0
  0
LINE
  5
225
330
1E
100
AcDbEntity
  8
0
100
AcDbLine
 10
79.25119999999999
 20
7.725519999999999
 30
0.0
 11
79.5167
 21
7.73111
 31
0.0
  0
LINE
  5
226
330
1E
100
AcDbEntity
  8
0
100
AcDbLine
 10
79.0006
 20
7.722169999999999
 30
0.0
 11
79.25119999999999
 21
7.725519999999999
 31
0.0
  0
LINE
  5
227
330
1E
100
AcDbEntity
  8
0
100
AcDbLine
 10
78.9489
 20
7.77313
 30
0.0
 11
79.2029
 21
7.78053
 31
0.0
  0
LINE
  5
228
330
1E
100
AcDbEntity
  8
0
100
AcDbLine
 10
79.2029
 20
7.78053
 30
0.0
 11
79.4684
 21
7.78611
 31
0.0
  0
LINE
  5
229
330
1E
100
AcDbEntity
  8
0
100
AcDbLine
 10
79.5167
 20
7.73111
 30
0.0
 11
79.7706
 21
7.73851
 31
0.0
  0
LINE
  5
22A
330
1E
100
AcDbEntity
  8
0
100
AcDbLine
 10
79.7706
 20
7.73851
 30
0.0
 11
79.9893
 21
7.746879999999999
 31
0.0
  0
LINE
  5
22B
330
1E
100
AcDbEntity
  8
0
100
AcDbLine
 10
79.9893
 20
7.746879999999999
 30
0.0
 11
80.1688
 21
7.755819999999999
 31
0.0
  0
LINE
  5
22C
330
1E
100
AcDbEntity
  8
0
100
AcDbLine
 10
80.1688
 20
7.755819999999999
 30
0.0
 11
80.29000000000001
 21
7.76475
 31
0.0
  0
LINE
  5
22D
330
1E
100
AcDbEntity
  8
0
100
AcDbLine
 10
80.29000000000001
 20
7.76475
 30
0.0
 11
80.35339999999999
 21
7.77313
 31
0.0
  0
LINE
  5
22E
330
1E
100
AcDbEntity
  8
0
100
AcDbLine
 10
80.1688
 20
7.755819999999999
 30
0.0
 11
80.29000000000001
 21
7.76475
 31
0.0
  0
LINE
  5
22F
330
1E
100
AcDbEntity
  8
0
100
AcDbLine
 10
80.29000000000001
 20
7.76475
 30
0.0
 11
80.35339999999999
 21
7.77313
 31
0.0
  0
LINE
  5
230
330
1E
100
AcDbEntity
  8
0
100
AcDbLine
 10
80.27089999999999
 20
7.78611
 30
0.0
 11
80.3484
 21
7.78053
 31
0.0
  0
LINE
  5
231
330
1E
100
AcDbEntity
  8
0
100
AcDbLine
 10
80.1332
 20
7.78946
 30
0.0
 11
80.27089999999999
 21
7.78611
 31
0.0
  0
LINE
  5
232
330
1E
100
AcDbEntity
  8
0
100
AcDbLine
 10
79.9893
 20
7.746879999999999
 30
0.0
 11
80.1688
 21
7.755819999999999
 31
0.0
  0
LINE
  5
233
330
1E
100
AcDbEntity
  8
0
100
AcDbLine
 10
79.7706
 20
7.73851
 30
0.0
 11
79.9893
 21
7.746879999999999
 31
0.0
  0
LINE
  5
234
330
1E
100
AcDbEntity
  8
0
100
AcDbLine
 10
79.5167
 20
7.73111
 30
0.0
 11
79.7706
 21
7.73851
 31
0.0
  0
LINE
  5
235
330
1E
100
AcDbEntity
  8
0
100
AcDbLine
 10
79.4684
 20
7.78611
 30
0.0
 11
79.71890000000001
 21
7.78946
 31
0.0
  0
LINE
  5
236
330
1E
100
AcDbEntity
  8
0
100
AcDbLine
 10
78.3555134825405
 20
8.25821796515026
 30
0.0
 11
78.3662
 21
7.73851
 31
0.0
  0
LINE
  5
237
330
1E
100
AcDbEntity
  8
0
100
AcDbLine
 10
79.9472
 20
7.790719999999999
 30
0.0
 11
80.1332
 21
7.78946
 31
0.0
  0
LINE
  5
238
330
1E
100
AcDbEntity
  8
0
100
AcDbLine
 10
79.71890000000001
 20
7.78946
 30
0.0
 11
79.9472
 21
7.790719999999999
 31
0.0
  0
LINE
  5
239
330
1E
100
AcDbEntity
  8
0
100
AcDbLine
 10
81.4595
 20
7.42681
 30
0.0
 11
81.7153
 21
7.435739999999999
 31
0.0
  0
LINE
  5
23A
330
1E
100
AcDbEntity
  8
0
100
AcDbLine
 10
81.21959999999999
 20
7.418429999999999
 30
0.0
 11
81.4595
 21
7.42681
 31
0.0
  0
LINE
  5
23B
330
1E
100
AcDbEntity
  8
0
100
AcDbLine
 10
81.0077
 20
7.41103
 30
0.0
 11
81.21959999999999
 21
7.418429999999999
 31
0.0
  0
LINE
  5
23C
330
1E
100
AcDbEntity
  8
0
100
AcDbLine
 10
80.8478
 20
7.40545
 30
0.0
 11
81.0077
 21
7.41103
 31
0.0
  0
LINE
  5
23D
330
1E
100
AcDbEntity
  8
0
100
AcDbLine
 10
80.7519
 20
7.402099999999999
 30
0.0
 11
80.8478
 21
7.40545
 31
0.0
  0
LINE
  5
23E
330
1E
100
AcDbEntity
  8
0
100
AcDbLine
 10
81.7153
 20
7.435739999999999
 30
0.0
 11
81.97119999999999
 21
7.444679999999999
 31
0.0
  0
LINE
  5
23F
330
1E
100
AcDbEntity
  8
0
100
AcDbLine
 10
81.97119999999999
 20
7.444679999999999
 30
0.0
 11
82.21099999999999
 21
7.45305
 31
0.0
  0
LINE
  5
240
330
1E
100
AcDbEntity
  8
0
100
AcDbLine
 10
82.21099999999999
 20
7.45305
 30
0.0
 11
82.4229
 21
7.460449999999999
 31
0.0
  0
LINE
  5
241
330
1E
100
AcDbEntity
  8
0
100
AcDbLine
 10
82.4229
 20
7.460449999999999
 30
0.0
 11
82.5828
 21
7.466039999999999
 31
0.0
  0
LINE
  5
242
330
1E
100
AcDbEntity
  8
0
100
AcDbLine
 10
82.5828
 20
7.466039999999999
 30
0.0
 11
82.6787
 21
7.469389999999999
 31
0.0
  0
LINE
  5
243
330
1E
100
AcDbEntity
  8
0
100
AcDbLine
 10
87.15860000000001
 20
7.725519999999999
 30
0.0
 11
87.2221
 21
7.722169999999999
 31
0.0
  0
LINE
  5
244
330
1E
100
AcDbEntity
  8
0
100
AcDbLine
 10
87.2221
 20
7.722169999999999
 30
0.0
 11
87.34340000000001
 21
7.720919999999999
 31
0.0
  0
LINE
  5
245
330
1E
100
AcDbEntity
  8
0
100
AcDbLine
 10
87.1634
 20
7.73111
 30
0.0
 11
87.24070000000001
 21
7.73851
 31
0.0
  0
LINE
  5
246
330
1E
100
AcDbEntity
  8
0
100
AcDbLine
 10
87.15860000000001
 20
7.725519999999999
 30
0.0
 11
87.2221
 21
7.722169999999999
 31
0.0
  0
LINE
  5
247
330
1E
100
AcDbEntity
  8
0
100
AcDbLine
 10
87.34340000000001
 20
7.720919999999999
 30
0.0
 11
87.52299999999999
 21
7.722169999999999
 31
0.0
  0
LINE
  5
248
330
1E
100
AcDbEntity
  8
0
100
AcDbLine
 10
87.52299999999999
 20
7.722169999999999
 30
0.0
 11
87.74169999999999
 21
7.725519999999999
 31
0.0
  0
LINE
  5
249
330
1E
100
AcDbEntity
  8
0
100
AcDbLine
 10
87.74169999999999
 20
7.725519999999999
 30
0.0
 11
87.99570000000001
 21
7.73111
 31
0.0
  0
LINE
  5
24A
330
1E
100
AcDbEntity
  8
0
100
AcDbLine
 10
87.74169999999999
 20
7.725519999999999
 30
0.0
 11
87.99570000000001
 21
7.73111
 31
0.0
  0
LINE
  5
24B
330
1E
100
AcDbEntity
  8
0
100
AcDbLine
 10
87.52299999999999
 20
7.722169999999999
 30
0.0
 11
87.74169999999999
 21
7.725519999999999
 31
0.0
  0
LINE
  5
24C
330
1E
100
AcDbEntity
  8
0
100
AcDbLine
 10
87.34340000000001
 20
7.720919999999999
 30
0.0
 11
87.52299999999999
 21
7.722169999999999
 31
0.0
  0
LINE
  5
24D
330
1E
100
AcDbEntity
  8
0
100
AcDbLine
 10
87.3783
 20
7.746879999999999
 30
0.0
 11
87.5642
 21
7.755819999999999
 31
0.0
  0
LINE
  5
24E
330
1E
100
AcDbEntity
  8
0
100
AcDbLine
 10
87.24070000000001
 20
7.73851
 30
0.0
 11
87.3783
 21
7.746879999999999
 31
0.0
  0
LINE
  5
24F
330
1E
100
AcDbEntity
  8
0
100
AcDbLine
 10
87.2221
 20
7.722169999999999
 30
0.0
 11
87.34340000000001
 21
7.720919999999999
 31
0.0
  0
LINE
  5
250
330
1E
100
AcDbEntity
  8
0
100
AcDbLine
 10
87.5642
 20
7.755819999999999
 30
0.0
 11
87.7923
 21
7.76475
 31
0.0
  0
LINE
  5
251
330
1E
100
AcDbEntity
  8
0
100
AcDbLine
 10
87.99570000000001
 20
7.73111
 30
0.0
 11
88.26109999999999
 21
7.73851
 31
0.0
  0
LINE
  5
252
330
1E
100
AcDbEntity
  8
0
100
AcDbLine
 10
88.26109999999999
 20
7.73851
 30
0.0
 11
88.5116
 21
7.746879999999999
 31
0.0
  0
LINE
  5
253
330
1E
100
AcDbEntity
  8
0
100
AcDbLine
 10
88.26109999999999
 20
7.73851
 30
0.0
 11
88.5116
 21
7.746879999999999
 31
0.0
  0
LINE
  5
254
330
1E
100
AcDbEntity
  8
0
100
AcDbLine
 10
87.99570000000001
 20
7.73111
 30
0.0
 11
88.26109999999999
 21
7.73851
 31
0.0
  0
LINE
  5
255
330
1E
100
AcDbEntity
  8
0
100
AcDbLine
 10
87.7923
 20
7.76475
 30
0.0
 11
88.0428
 21
7.77313
 31
0.0
  0
LINE
  5
256
330
1E
100
AcDbEntity
  8
0
100
AcDbLine
 10
88.0428
 20
7.77313
 30
0.0
 11
88.30820000000001
 21
7.78053
 31
0.0
  0
LINE
  5
257
330
1E
100
AcDbEntity
  8
0
100
AcDbLine
 10
88.5116
 20
7.746879999999999
 30
0.0
 11
88.73969999999999
 21
7.755819999999999
 31
0.0
  0
LINE
  5
258
330
1E
100
AcDbEntity
  8
0
100
AcDbLine
 10
94.77859999999999
 20
7.722169999999999
 30
0.0
 11
94.8745
 21
7.725519999999999
 31
0.0
  0
LINE
  5
259
330
1E
100
AcDbEntity
  8
0
100
AcDbLine
 10
94.8745
 20
7.725519999999999
 30
0.0
 11
95.03440000000001
 21
7.73111
 31
0.0
  0
LINE
  5
25A
330
1E
100
AcDbEntity
  8
0
100
AcDbLine
 10
93.12520000000001
 20
7.725519999999999
 30
0.0
 11
93.3427
 21
7.73111
 31
0.0
  0
LINE
  5
25B
330
1E
100
AcDbEntity
  8
0
100
AcDbLine
 10
92.9597
 20
7.722169999999999
 30
0.0
 11
93.12520000000001
 21
7.725519999999999
 31
0.0
  0
LINE
  5
25C
330
1E
100
AcDbEntity
  8
0
100
AcDbLine
 10
92.84640000000001
 20
7.720919999999999
 30
0.0
 11
92.9597
 21
7.722169999999999
 31
0.0
  0
LINE
  5
25D
330
1E
100
AcDbEntity
  8
0
100
AcDbLine
 10
95.2463
 20
7.73851
 30
0.0
 11
95.48619999999999
 21
7.746879999999999
 31
0.0
  0
LINE
  5
25E
330
1E
100
AcDbEntity
  8
0
100
AcDbLine
 10
95.03440000000001
 20
7.73111
 30
0.0
 11
95.2463
 21
7.73851
 31
0.0
  0
LINE
  5
25F
330
1E
100
AcDbEntity
  8
0
100
AcDbLine
 10
93.5937
 20
7.73851
 30
0.0
 11
93.85150000000001
 21
7.746879999999999
 31
0.0
  0
LINE
  5
260
330
1E
100
AcDbEntity
  8
0
100
AcDbLine
 10
93.3427
 20
7.73111
 30
0.0
 11
93.5937
 21
7.73851
 31
0.0
  0
LINE
  5
261
330
1E
100
AcDbEntity
  8
0
100
AcDbLine
 10
95.48619999999999
 20
7.746879999999999
 30
0.0
 11
95.74200000000001
 21
7.755819999999999
 31
0.0
  0
LINE
  5
262
330
1E
100
AcDbEntity
  8
0
100
AcDbLine
 10
93.85150000000001
 20
7.746879999999999
 30
0.0
 11
94.1059
 21
7.755819999999999
 31
0.0
  0
LINE
  5
263
330
1E
100
AcDbEntity
  8
0
100
AcDbLine
 10
93.2557
 20
7.746879999999999
 30
0.0
 11
93.48789999999999
 21
7.755819999999999
 31
0.0
  0
LINE
  5
264
330
1E
100
AcDbEntity
  8
0
100
AcDbLine
 10
93.05719999999999
 20
7.73851
 30
0.0
 11
93.2557
 21
7.746879999999999
 31
0.0
  0
LINE
  5
265
330
1E
100
AcDbEntity
  8
0
100
AcDbLine
 10
92.90519999999999
 20
7.73111
 30
0.0
 11
93.05719999999999
 21
7.73851
 31
0.0
  0
LINE
  5
266
330
1E
100
AcDbEntity
  8
0
100
AcDbLine
 10
92.81859999999999
 20
7.725519999999999
 30
0.0
 11
92.90519999999999
 21
7.73111
 31
0.0
  0
LINE
  5
267
330
1E
100
AcDbEntity
  8
0
100
AcDbLine
 10
88.73969999999999
 20
7.755819999999999
 30
0.0
 11
88.92560000000001
 21
7.76475
 31
0.0
  0
LINE
  5
268
330
1E
100
AcDbEntity
  8
0
100
AcDbLine
 10
88.92560000000001
 20
7.76475
 30
0.0
 11
89.06319999999999
 21
7.77313
 31
0.0
  0
LINE
  5
269
330
1E
100
AcDbEntity
  8
0
100
AcDbLine
 10
88.73969999999999
 20
7.755819999999999
 30
0.0
 11
88.92560000000001
 21
7.76475
 31
0.0
  0
LINE
  5
26A
330
1E
100
AcDbEntity
  8
0
100
AcDbLine
 10
89.06319999999999
 20
7.77313
 30
0.0
 11
89.14050000000001
 21
7.78053
 31
0.0
  0
LINE
  5
26B
330
1E
100
AcDbEntity
  8
0
100
AcDbLine
 10
88.92560000000001
 20
7.76475
 30
0.0
 11
89.06319999999999
 21
7.77313
 31
0.0
  0
LINE
  5
26C
330
1E
100
AcDbEntity
  8
0
100
AcDbLine
 10
89.06319999999999
 20
7.77313
 30
0.0
 11
89.14050000000001
 21
7.78053
 31
0.0
  0
LINE
  5
26D
330
1E
100
AcDbEntity
  8
0
100
AcDbLine
 10
93.48789999999999
 20
7.755819999999999
 30
0.0
 11
93.7423
 21
7.76475
 31
0.0
  0
LINE
  5
26E
330
1E
100
AcDbEntity
  8
0
100
AcDbLine
 10
93.7423
 20
7.76475
 30
0.0
 11
94.00009999999999
 21
7.77313
 31
0.0
  0
LINE
  5
26F
330
1E
100
AcDbEntity
  8
0
100
AcDbLine
 10
94.1059
 20
7.755819999999999
 30
0.0
 11
94.33809999999999
 21
7.76475
 31
0.0
  0
LINE
  5
270
330
1E
100
AcDbEntity
  8
0
100
AcDbLine
 10
94.33809999999999
 20
7.76475
 30
0.0
 11
94.53660000000001
 21
7.77313
 31
0.0
  0
LINE
  5
271
330
1E
100
AcDbEntity
  8
0
100
AcDbLine
 10
95.74200000000001
 20
7.755819999999999
 30
0.0
 11
95.9978
 21
7.76475
 31
0.0
  0
LINE
  5
272
330
1E
100
AcDbEntity
  8
0
100
AcDbLine
 10
95.9978
 20
7.76475
 30
0.0
 11
96.2377
 21
7.77313
 31
0.0
  0
LINE
  5
273
330
1E
100
AcDbEntity
  8
0
100
AcDbLine
 10
96.2377
 20
7.77313
 30
0.0
 11
96.44960000000001
 21
7.78053
 31
0.0
  0
LINE
  5
274
330
1E
100
AcDbEntity
  8
0
100
AcDbLine
 10
96.44960000000001
 20
7.78053
 30
0.0
 11
96.60949999999999
 21
7.78611
 31
0.0
  0
LINE
  5
275
330
1E
100
AcDbEntity
  8
0
100
AcDbLine
 10
94.53660000000001
 20
7.77313
 30
0.0
 11
94.68859999999999
 21
7.78053
 31
0.0
  0
LINE
  5
276
330
1E
100
AcDbEntity
  8
0
100
AcDbLine
 10
94.68859999999999
 20
7.78053
 30
0.0
 11
94.7752
 21
7.78611
 31
0.0
  0
LINE
  5
277
330
1E
100
AcDbEntity
  8
0
100
AcDbLine
 10
94.68859999999999
 20
7.78053
 30
0.0
 11
94.74040178068241
 21
7.78386780526799
 31
0.0
  0
LINE
  5
278
330
1E
100
AcDbEntity
  8
0
100
AcDbLine
 10
94.00009999999999
 20
7.77313
 30
0.0
 11
94.251
 21
7.78053
 31
0.0
  0
LINE
  5
279
330
1E
100
AcDbEntity
  8
0
100
AcDbLine
 10
94.251
 20
7.78053
 30
0.0
 11
94.46859999999999
 21
7.78611
 31
0.0
  0
LINE
  5
27A
330
1E
100
AcDbEntity
  8
0
100
AcDbLine
 10
88.5116
 20
7.746879999999999
 30
0.0
 11
88.73969999999999
 21
7.755819999999999
 31
0.0
  0
LINE
  5
27B
330
1E
100
AcDbEntity
  8
0
100
AcDbLine
 10
88.30820000000001
 20
7.78053
 30
0.0
 11
88.5622
 21
7.78611
 31
0.0
  0
LINE
  5
27C
330
1E
100
AcDbEntity
  8
0
100
AcDbLine
 10
82.66790994589841
 20
8.354047719939249
 30
0.0
 11
87.13802544254759
 21
8.453382295403789
 31
0.0
  0
LINE
  5
27D
330
1E
100
AcDbEntity
  8
0
100
AcDbLine
 10
80.684010794096
 20
8.314013452389881
 30
0.0
 11
80.7159
 21
7.400839999999999
 31
0.0
  0
LINE
  5
27E
330
1E
100
AcDbEntity
  8
0
100
AcDbLine
 10
88.5622
 20
7.78611
 30
0.0
 11
88.7809
 21
7.78946
 31
0.0
  0
LINE
  5
27F
330
1E
100
AcDbEntity
  8
0
100
AcDbLine
 10
94.74040178068241
 20
7.78386780526799
 30
0.0
 11
94.74259999999999
 21
7.720919999999999
 31
0.0
  0
LINE
  5
280
330
1E
100
AcDbEntity
  8
0
100
AcDbLine
 10
96.60949999999999
 20
7.78611
 30
0.0
 11
96.7054
 21
7.78946
 31
0.0
  0
LINE
  5
281
330
1E
100
AcDbEntity
  8
0
100
AcDbLine
 10
94.46859999999999
 20
7.78611
 30
0.0
 11
94.634
 21
7.78946
 31
0.0
  0
LINE
  5
282
330
1E
100
AcDbEntity
  8
0
100
AcDbLine
 10
94.634
 20
7.78946
 30
0.0
 11
94.7474
 21
7.790719999999999
 31
0.0
  0
LINE
  5
283
330
1E
100
AcDbEntity
  8
0
100
AcDbLine
 10
89.08179999999999
 20
7.78946
 30
0.0
 11
89.1453
 21
7.78611
 31
0.0
  0
LINE
  5
284
330
1E
100
AcDbEntity
  8
0
100
AcDbLine
 10
88.9605
 20
7.790719999999999
 30
0.0
 11
89.08179999999999
 21
7.78946
 31
0.0
  0
LINE
  5
285
330
1E
100
AcDbEntity
  8
0
100
AcDbLine
 10
88.7809
 20
7.78946
 30
0.0
 11
88.9605
 21
7.790719999999999
 31
0.0
  0
LINE
  5
286
330
1E
100
AcDbEntity
  8
0
100
AcDbLine
 10
80.3425174175757
 20
8.302373019416981
 30
0.0
 11
80.70379121062208
 21
8.310401218886459
 31
0.0
  0
LINE
  5
287
330
1E
100
AcDbEntity
  8
0
100
AcDbLine
 10
87.13802544254759
 20
8.453382295403779
 30
0.0
 11
87.15860000000001
 21
7.725519999999999
 31
0.0
  0
LINE
  5
288
330
1E
100
AcDbEntity
  8
0
100
AcDbLine
 10
87.13802544254759
 20
8.453382295403789
 30
0.0
 11
87.15860000000001
 21
7.725519999999999
 31
0.0
  0
LINE
  5
289
330
1E
100
AcDbEntity
  8
0
100
AcDbLine
 10
82.6837107918377
 20
8.35804128210303
 30
0.0
 11
82.71469999999998
 21
7.470639999999999
 31
0.0
  0
LINE
  5
28A
330
1E
100
AcDbEntity
  8
0
100
AcDbLine
 10
80.33506996044929
 20
8.664558624166259
 30
0.0
 11
80.35339999999999
 21
7.77313
 31
0.0
  0
LINE
  5
28B
330
1E
100
AcDbEntity
  8
0
100
AcDbLine
 10
87.1328878215618
 20
8.635134958239969
 30
0.0
 11
87.15860000000001
 21
7.725519999999999
 31
0.0
  0
LINE
  5
28C
330
1E
100
AcDbEntity
  8
0
100
AcDbLine
 10
80.33506996044929
 20
8.664558624166259
 30
0.0
 11
80.35339999999999
 21
7.77313
 31
0.0
  0
LINE
  5
28D
330
1E
100
AcDbEntity
  8
0
100
AcDbLine
 10
78.3484241703307
 20
8.6029862244874
 30
0.0
 11
78.3662
 21
7.73851
 31
0.0
  0
LINE
  5
28E
330
1E
100
AcDbEntity
  8
0
100
AcDbLine
 10
92.7730491991844
 20
8.578603375936859
 30
0.0
 11
92.8015
 21
7.722169999999999
 31
0.0
  0
LINE
  5
28F
330
1E
100
AcDbEntity
  8
0
100
AcDbLine
 10
94.76343837128229
 20
8.658255877234878
 30
0.0
 11
94.79229999999999
 21
7.78946
 31
0.0
  0
LINE
  5
290
330
1E
100
AcDbEntity
  8
0
100
AcDbLine
 10
96.6950530272507
 20
8.665757854500839
 30
0.0
 11
100.477
 21
8.7498
 31
0.0
  0
LINE
  5
291
330
1E
100
AcDbEntity
  8
0
100
AcDbLine
 10
94.76343837128229
 20
8.658255877234878
 30
0.0
 11
94.79229999999999
 21
7.78946
 31
0.0
  0
LINE
  5
292
330
1E
100
AcDbEntity
  8
0
100
AcDbLine
 10
92.77186482072968
 20
8.61425584297836
 30
0.0
 11
92.8015
 21
7.722169999999999
 31
0.0
  0
LINE
  5
293
330
1E
100
AcDbEntity
  8
0
100
AcDbLine
 10
89.1251898094414
 20
8.497540914775388
 30
0.0
 11
92.7730491991844
 21
8.578603375936859
 31
0.0
  0
LINE
  5
294
330
1E
100
AcDbEntity
  8
0
100
AcDbLine
 10
82.66790994589841
 20
8.354047719939259
 30
0.0
 11
87.13802544254759
 21
8.453382295403789
 31
0.0
  0
LINE
  5
295
330
1E
100
AcDbEntity
  8
0
100
AcDbLine
 10
77.9767
 20
8.2498
 30
0.0
 11
78.3555134825405
 21
8.25821796515026
 31
0.0
  0
LINE
  5
296
330
1E
100
AcDbEntity
  8
0
100
AcDbLine
 10
77.9767
 20
8.2498
 30
0.0
 11
78.3555134825405
 21
8.25821796515026
 31
0.0
  0
LINE
  5
297
330
1E
100
AcDbEntity
  8
0
100
AcDbLine
 10
96.71080339289259
 20
8.66687883028892
 30
0.0
 11
96.74140000000001
 21
7.790719999999999
 31
0.0
  0
LINE
  5
298
330
1E
100
AcDbEntity
  8
0
100
AcDbLine
 10
89.11972575464409
 20
8.690840798804599
 30
0.0
 11
89.1453
 21
7.78611
 31
0.0
  0
LINE
  5
299
330
1E
100
AcDbEntity
  8
0
100
AcDbLine
 10
78.2016
 20
8.7498
 30
0.0
 11
83.0854
 21
8.7498
 31
0.0
  0
LINE
  5
29A
330
1E
100
AcDbEntity
  8
0
100
AcDbLine
 10
83.0854
 20
8.7498
 30
0.0
 11
87.44840000000001
 21
8.7498
 31
0.0
  0
LINE
  5
29B
330
1E
100
AcDbEntity
  8
0
100
AcDbLine
 10
94.47869999999999
 20
8.7498
 30
0.0
 11
96.995
 21
8.7498
 31
0.0
  0
LINE
  5
29C
330
1E
100
AcDbEntity
  8
0
100
AcDbLine
 10
91.2226
 20
8.7498
 30
0.0
 11
94.47869999999999
 21
8.7498
 31
0.0
  0
LINE
  5
29D
330
1E
100
AcDbEntity
  8
0
100
AcDbLine
 10
87.44840000000001
 20
8.7498
 30
0.0
 11
91.2226
 21
8.7498
 31
0.0
  0
LINE
  5
29E
330
1E
100
AcDbEntity
  8
0
100
AcDbLine
 10
96.995
 20
8.7498
 30
0.0
 11
98.90700000000002
 21
8.7498
 31
0.0
  0
LINE
  5
29F
330
1E
100
AcDbEntity
  8
0
100
AcDbLine
 10
98.90700000000002
 20
8.7498
 30
0.0
 11
100.058
 21
8.7498
 31
0.0
  0
LINE
  5
2A0
330
1E
100
AcDbEntity
  8
0
100
AcDbLine
 10
100.058
 20
8.7498
 30
0.0
 11
100.477
 21
8.7498
 31
0.0
  0
LINE
  5
2A1
330
1E
100
AcDbEntity
  8
0
100
AcDbLine
 10
100.477
 20
8.7498
 30
0.0
 11
101.0
 21
9.2498
 31
0.0
  0
LINE
  5
2A2
330
1E
100
AcDbEntity
  8
0
100
AcDbLine
 10
96.6950530272507
 20
8.665757854500839
 30
0.0
 11
100.477
 21
8.7498
 31
0.0
  0
LINE
  5
2A3
330
1E
100
AcDbEntity
  8
0
100
AcDbLine
 10
77.77534526561201
 20
8.2498
 30
0.0
 11
77.9767
 21
8.2498
 31
0.0
  0
LINE
  5
2A4
330
1E
100
AcDbEntity
  8
0
100
AcDbLine
 10
99.4302
 20
9.2498
 30
0.0
 11
100.581
 21
9.2498
 31
0.0
  0
LINE
  5
2A5
330
1E
100
AcDbEntity
  8
0
100
AcDbLine
 10
103.092
 20
9.2498
 30
0.0
 11
103.4939999999999
 21
9.2619
 31
0.0
  0
LINE
  5
2A6
330
1E
100
AcDbEntity
  8
0
100
AcDbLine
 10
100.581
 20
9.2498
 30
0.0
 11
103.092
 21
9.2498
 31
0.0
  0
LINE
  5
2A7
330
1E
100
AcDbEntity
  8
0
100
AcDbLine
 10
100.581
 20
9.2498
 30
0.0
 11
101.0
 21
9.2498
 31
0.0
  0
LINE
  5
2A8
330
1E
100
AcDbEntity
  8
0
100
AcDbLine
 10
12.5698
 20
9.2498
 30
0.0
 11
14.561
 21
9.2498
 31
0.0
  0
LINE
  5
2A9
330
1E
100
AcDbEntity
  8
0
100
AcDbLine
 10
11.4186
 20
9.2498
 30
0.0
 11
12.5698
 21
9.2498
 31
0.0
  0
LINE
  5
2AA
330
1E
100
AcDbEntity
  8
0
100
AcDbLine
 10
11.0
 20
9.2498
 30
0.0
 11
11.4186
 21
9.2498
 31
0.0
  0
LINE
  5
2AB
330
1E
100
AcDbEntity
  8
0
100
AcDbLine
 10
11.0
 20
9.2498
 30
0.0
 11
11.5233
 21
8.7498
 31
0.0
  0
LINE
  5
2AC
330
1E
100
AcDbEntity
  8
0
100
AcDbLine
 10
8.90788
 20
9.2498
 30
0.0
 11
11.0
 21
9.2498
 31
0.0
  0
LINE
  5
2AD
330
1E
100
AcDbEntity
  8
0
100
AcDbLine
 10
8.90788
 20
9.2498
 30
0.0
 11
11.4186
 21
9.2498
 31
0.0
  0
LINE
  5
2AE
330
1E
100
AcDbEntity
  8
0
100
AcDbLine
 10
7.797469999999999
 20
9.511699999999999
 30
0.0
 11
8.50633
 21
9.2619
 31
0.0
  0
LINE
  5
2AF
330
1E
100
AcDbEntity
  8
0
100
AcDbLine
 10
78.4975
 20
9.2498
 30
0.0
 11
83.3814
 21
9.2498
 31
0.0
  0
LINE
  5
2B0
330
1E
100
AcDbEntity
  8
0
100
AcDbLine
 10
83.3814
 20
9.2498
 30
0.0
 11
87.81969999999999
 21
9.2498
 31
0.0
  0
LINE
  5
2B1
330
1E
100
AcDbEntity
  8
0
100
AcDbLine
 10
87.81969999999999
 20
9.2498
 30
0.0
 11
91.6666
 21
9.2498
 31
0.0
  0
LINE
  5
2B2
330
1E
100
AcDbEntity
  8
0
100
AcDbLine
 10
91.6666
 20
9.2498
 30
0.0
 11
94.92279999999999
 21
9.2498
 31
0.0
  0
LINE
  5
2B3
330
1E
100
AcDbEntity
  8
0
100
AcDbLine
 10
94.92279999999999
 20
9.2498
 30
0.0
 11
97.439
 21
9.2498
 31
0.0
  0
LINE
  5
2B4
330
1E
100
AcDbEntity
  8
0
100
AcDbLine
 10
97.439
 20
9.2498
 30
0.0
 11
99.4302
 21
9.2498
 31
0.0
  0
LINE
  5
2B5
330
1E
100
AcDbEntity
  8
0
100
AcDbLine
 10
33.50249999999999
 20
9.2498
 30
0.0
 11
38.8303
 21
9.2498
 31
0.0
  0
LINE
  5
2B6
330
1E
100
AcDbEntity
  8
0
100
AcDbLine
 10
28.6186
 20
9.2498
 30
0.0
 11
33.50249999999999
 21
9.2498
 31
0.0
  0
LINE
  5
2B7
330
1E
100
AcDbEntity
  8
0
100
AcDbLine
 10
24.18029999999999
 20
9.2498
 30
0.0
 11
28.6186
 21
9.2498
 31
0.0
  0
LINE
  5
2B8
330
1E
100
AcDbEntity
  8
0
100
AcDbLine
 10
20.3334
 20
9.2498
 30
0.0
 11
24.18029999999999
 21
9.2498
 31
0.0
  0
LINE
  5
2B9
330
1E
100
AcDbEntity
  8
0
100
AcDbLine
 10
17.0772
 20
9.2498
 30
0.0
 11
20.3334
 21
9.2498
 31
0.0
  0
LINE
  5
2BA
330
1E
100
AcDbEntity
  8
0
100
AcDbLine
 10
56.0
 20
9.2498
 30
0.0
 11
61.8605
 21
9.2498
 31
0.0
  0
LINE
  5
2BB
330
1E
100
AcDbEntity
  8
0
100
AcDbLine
 10
61.8605
 20
9.2498
 30
0.0
 11
67.6163
 21
9.2498
 31
0.0
  0
LINE
  5
2BC
330
1E
100
AcDbEntity
  8
0
100
AcDbLine
 10
67.6163
 20
9.2498
 30
0.0
 11
73.16970000000001
 21
9.2498
 31
0.0
  0
LINE
  5
2BD
330
1E
100
AcDbEntity
  8
0
100
AcDbLine
 10
73.16970000000001
 20
9.2498
 30
0.0
 11
78.4975
 21
9.2498
 31
0.0
  0
LINE
  5
2BE
330
1E
100
AcDbEntity
  8
0
100
AcDbLine
 10
50.1395
 20
9.2498
 30
0.0
 11
56.0
 21
9.2498
 31
0.0
  0
LINE
  5
2BF
330
1E
100
AcDbEntity
  8
0
100
AcDbLine
 10
44.38369999999999
 20
9.2498
 30
0.0
 11
50.1395
 21
9.2498
 31
0.0
  0
LINE
  5
2C0
330
1E
100
AcDbEntity
  8
0
100
AcDbLine
 10
38.8303
 20
9.2498
 30
0.0
 11
44.38369999999999
 21
9.2498
 31
0.0
  0
LINE
  5
2C1
330
1E
100
AcDbEntity
  8
0
100
AcDbLine
 10
14.561
 20
9.2498
 30
0.0
 11
17.0772
 21
9.2498
 31
0.0
  0
LINE
  5
2C2
330
1E
100
AcDbEntity
  8
0
100
AcDbLine
 10
8.50633
 20
9.2619
 30
0.0
 11
8.90788
 21
9.2498
 31
0.0
  0
LINE
  5
2C3
330
1E
100
AcDbEntity
  8
0
100
AcDbLine
 10
101.0
 20
9.2498
 30
0.0
 11
103.092
 21
9.2498
 31
0.0
  0
LINE
  5
2C4
330
1E
100
AcDbEntity
  8
0
100
AcDbLine
 10
103.4939999999999
 20
9.2619
 30
0.0
 11
104.203
 21
9.511699999999999
 31
0.0
  0
LINE
  5
2C5
330
1E
100
AcDbEntity
  8
0
100
AcDbLine
 10
7.08861
 20
10.2611
 30
0.0
 11
7.797469999999999
 21
9.511699999999999
 31
0.0
  0
LINE
  5
2C6
330
1E
100
AcDbEntity
  8
0
100
AcDbLine
 10
6.73418
 20
12.7589
 30
0.0
 11
7.08861
 21
10.2611
 31
0.0
  0
LINE
  5
2C7
330
1E
100
AcDbEntity
  8
0
100
AcDbLine
 10
104.203
 20
9.511699999999999
 30
0.0
 11
104.9109999999999
 21
10.2611
 31
0.0
  0
LINE
  5
2C8
330
1E
100
AcDbEntity
  8
0
100
AcDbLine
 10
104.9109999999999
 20
10.2611
 30
0.0
 11
105.266
 21
12.7589
 31
0.0
  0
LINE
  5
2C9
330
1E
100
AcDbEntity
  8
0
100
AcDbLine
 10
5.670889999999999
 20
16.2559
 30
0.0
 11
6.73418
 21
12.7589
 31
0.0
  0
LINE
  5
2CC
330
1E
100
AcDbEntity
  8
0
100
AcDbLine
 10
3.544299999999999
 20
19.7528
 30
0.0
 11
5.670889999999999
 21
16.2559
 31
0.0
  0
LINE
  5
2CE
330
1E
100
AcDbEntity
  8
0
100
AcDbLine
 10
105.266
 20
12.7589
 30
0.0
 11
106.3289999999999
 21
16.2559
 31
0.0
  0
LINE
  5
2CF
330
1E
100
AcDbEntity
  8
0
100
AcDbLine
 10
106.3289999999999
 20
16.2559
 30
0.0
 11
108.4559999999999
 21
19.7528
 31
0.0
  0
LINE
  5
2E0
330
1E
100
AcDbEntity
  8
0
100
AcDbLine
 10
1.67164
 20
21.7511
 30
0.0
 11
3.544299999999999
 21
19.7528
 31
0.0
  0
LINE
  5
2E1
330
1E
100
AcDbEntity
  8
0
100
AcDbLine
 10
1.67164
 20
21.7511
 30
0.0
 11
3.544299999999999
 21
19.7528
 31
0.0
  0
LINE
  5
2E2
330
1E
100
AcDbEntity
  8
0
100
AcDbLine
 10
0.4179100000000001
 20
22.2507
 30
0.0
 11
1.67164
 21
21.7511
 31
0.0
  0
LINE
  5
2F3
330
1E
100
AcDbEntity
  8
0
100
AcDbLine
 10
0.4179100000000001
 20
22.2507
 30
0.0
 11
1.67164
 21
21.7511
 31
0.0
  0
LINE
  5
2F7
330
1E
100
AcDbEntity
  8
0
100
AcDbLine
 10
108.4559999999999
 20
19.7528
 30
0.0
 11
110.3279999999999
 21
21.7511
 31
0.0
  0
LINE
  5
2F8
330
1E
100
AcDbEntity
  8
0
100
AcDbLine
 10
110.3279999999999
 20
21.7511
 30
0.0
 11
111.582
 21
22.2507
 31
0.0
  0
LINE
  5
2F9
330
1E
100
AcDbEntity
  8
0
100
AcDbLine
 10
0.0
 20
23.0
 30
0.0
 11
0.585075
 21
23.0
 31
0.0
  0
LINE
  5
2FA
330
1E
100
AcDbEntity
  8
0
100
AcDbLine
 10
0.0
 20
23.0
 30
0.0
 11
0.0
 21
22.7502
 31
0.0
  0
LINE
  5
308
330
1E
100
AcDbEntity
  8
0
100
AcDbLine
 10
0.585075
 20
22.7502
 30
0.0
 11
2.00597
 21
22.7502
 31
0.0
  0
LINE
  5
309
330
1E
100
AcDbEntity
  8
0
100
AcDbLine
 10
4.346269999999999
 20
22.7502
 30
0.0
 11
7.597139999999999
 21
22.7502
 31
0.0
  0
LINE
  5
30A
330
1E
100
AcDbEntity
  8
0
100
AcDbLine
 10
7.597139999999999
 20
22.7502
 30
0.0
 11
11.6754
 21
22.7502
 31
0.0
  0
LINE
  5
30B
330
1E
100
AcDbEntity
  8
0
100
AcDbLine
 10
28.04289999999999
 20
22.7502
 30
0.0
 11
34.603
 21
22.7502
 31
0.0
  0
LINE
  5
30C
330
1E
100
AcDbEntity
  8
0
100
AcDbLine
 10
21.95559999999999
 20
22.7502
 30
0.0
 11
28.04289999999999
 21
22.7502
 31
0.0
  0
LINE
  5
30E
330
1E
100
AcDbEntity
  8
0
100
AcDbLine
 10
34.603
 20
22.7502
 30
0.0
 11
41.5403
 21
22.7502
 31
0.0
  0
LINE
  5
30F
330
1E
100
AcDbEntity
  8
0
100
AcDbLine
 10
41.5403
 20
22.7502
 30
0.0
 11
48.7284
 21
22.7502
 31
0.0
  0
LINE
  5
310
330
1E
100
AcDbEntity
  8
0
100
AcDbLine
 10
77.39699999999999
 20
22.7502
 30
0.0
 11
83.95709999999999
 21
22.7502
 31
0.0
  0
LINE
  5
311
330
1E
100
AcDbEntity
  8
0
100
AcDbLine
 10
83.95709999999999
 20
22.7502
 30
0.0
 11
90.0444
 21
22.7502
 31
0.0
  0
LINE
  5
312
330
1E
100
AcDbEntity
  8
0
100
AcDbLine
 10
70.4597
 20
22.7502
 30
0.0
 11
77.39699999999999
 21
22.7502
 31
0.0
  0
LINE
  5
313
330
1E
100
AcDbEntity
  8
0
100
AcDbLine
 10
63.2716
 20
22.7502
 30
0.0
 11
70.4597
 21
22.7502
 31
0.0
  0
LINE
  5
314
330
1E
100
AcDbEntity
  8
0
100
AcDbLine
 10
56.0
 20
22.7502
 30
0.0
 11
63.2716
 21
22.7502
 31
0.0
  0
LINE
  5
315
330
1E
100
AcDbEntity
  8
0
100
AcDbLine
 10
48.7284
 20
22.7502
 30
0.0
 11
56.0
 21
22.7502
 31
0.0
  0
LINE
  5
317
330
1E
100
AcDbEntity
  8
0
100
AcDbLine
 10
16.4022
 20
22.7502
 30
0.0
 11
21.95559999999999
 21
22.7502
 31
0.0
  0
LINE
  5
319
330
1E
100
AcDbEntity
  8
0
100
AcDbLine
 10
11.6754
 20
22.7502
 30
0.0
 11
16.4022
 21
22.7502
 31
0.0
  0
LINE
  5
31B
330
1E
100
AcDbEntity
  8
0
100
AcDbLine
 10
4.346269999999999
 20
23.0
 30
0.0
 11
7.597139999999999
 21
23.0
 31
0.0
  0
LINE
  5
31C
330
1E
100
AcDbEntity
  8
0
100
AcDbLine
 10
2.00597
 20
22.7502
 30
0.0
 11
4.346269999999999
 21
22.7502
 31
0.0
  0
LINE
  5
31D
330
1E
100
AcDbEntity
  8
0
100
AcDbLine
 10
8.0
 20
23.0
 30
0.0
 11
8.0
 21
30.0
 31
0.0
  0
LINE
  5
31E
330
1E
100
AcDbEntity
  8
0
100
AcDbLine
 10
7.597139999999999
 20
23.0
 30
0.0
 11
11.6754
 21
23.0
 31
0.0
  0
LINE
  5
31F
330
1E
100
AcDbEntity
  8
0
100
AcDbLine
 10
16.4037
 20
23.0
 30
0.0
 11
21.95559999999999
 21
23.0
 31
0.0
  0
LINE
  5
320
330
1E
100
AcDbEntity
  8
0
100
AcDbLine
 10
11.6754
 20
23.0
 30
0.0
 11
16.4037
 21
23.0
 31
0.0
  0
LINE
  5
321
330
1E
100
AcDbEntity
  8
0
100
AcDbLine
 10
70.4597
 20
23.0
 30
0.0
 11
77.39699999999999
 21
23.0
 31
0.0
  0
LINE
  5
322
330
1E
100
AcDbEntity
  8
0
100
AcDbLine
 10
63.2716
 20
23.0
 30
0.0
 11
70.4597
 21
23.0
 31
0.0
  0
LINE
  5
323
330
1E
100
AcDbEntity
  8
0
100
AcDbLine
 10
56.0
 20
23.0
 30
0.0
 11
63.2716
 21
23.0
 31
0.0
  0
LINE
  5
324
330
1E
100
AcDbEntity
  8
0
100
AcDbLine
 10
77.39699999999999
 20
23.0
 30
0.0
 11
83.95709999999999
 21
23.0
 31
0.0
  0
LINE
  5
325
330
1E
100
AcDbEntity
  8
0
100
AcDbLine
 10
83.95709999999999
 20
23.0
 30
0.0
 11
90.0444
 21
23.0
 31
0.0
  0
LINE
  5
326
330
1E
100
AcDbEntity
  8
0
100
AcDbLine
 10
41.5403
 20
23.0
 30
0.0
 11
48.7284
 21
23.0
 31
0.0
  0
LINE
  5
327
330
1E
100
AcDbEntity
  8
0
100
AcDbLine
 10
48.7284
 20
23.0
 30
0.0
 11
56.0
 21
23.0
 31
0.0
  0
LINE
  5
328
330
1E
100
AcDbEntity
  8
0
100
AcDbLine
 10
34.603
 20
23.0
 30
0.0
 11
41.5403
 21
23.0
 31
0.0
  0
LINE
  5
329
330
1E
100
AcDbEntity
  8
0
100
AcDbLine
 10
28.04289999999999
 20
23.0
 30
0.0
 11
34.603
 21
23.0
 31
0.0
  0
LINE
  5
32A
330
1E
100
AcDbEntity
  8
0
100
AcDbLine
 10
21.95559999999999
 20
23.0
 30
0.0
 11
28.04289999999999
 21
23.0
 31
0.0
  0
LINE
  5
32B
330
1E
100
AcDbEntity
  8
0
100
AcDbLine
 10
2.00597
 20
23.0
 30
0.0
 11
4.346269999999999
 21
23.0
 31
0.0
  0
LINE
  5
32C
330
1E
100
AcDbEntity
  8
0
100
AcDbLine
 10
0.585075
 20
23.0
 30
0.0
 11
2.00597
 21
23.0
 31
0.0
  0
LINE
  5
32D
330
1E
100
AcDbEntity
  8
0
100
AcDbLine
 10
0.0
 20
22.7502
 30
0.0
 11
0.0
 21
23.0
 31
0.0
  0
LINE
  5
32E
330
1E
100
AcDbEntity
  8
0
100
AcDbLine
 10
0.0
 20
22.7502
 30
0.0
 11
0.4179100000000001
 21
22.2507
 31
0.0
  0
LINE
  5
32F
330
1E
100
AcDbEntity
  8
0
100
AcDbLine
 10
0.0
 20
22.7502
 30
0.0
 11
0.585075
 21
22.7502
 31
0.0
  0
LINE
  5
330
330
1E
100
AcDbEntity
  8
0
100
AcDbLine
 10
90.0444
 20
22.7502
 30
0.0
 11
95.59780000000001
 21
22.7502
 31
0.0
  0
LINE
  5
334
330
1E
100
AcDbEntity
  8
0
100
AcDbLine
 10
95.59780000000001
 20
22.7502
 30
0.0
 11
100.3249999999999
 21
22.7502
 31
0.0
  0
LINE
  5
336
330
1E
100
AcDbEntity
  8
0
100
AcDbLine
 10
95.5963
 20
23.0
 30
0.0
 11
100.3249999999999
 21
23.0
 31
0.0
  0
LINE
  5
337
330
1E
100
AcDbEntity
  8
0
100
AcDbLine
 10
90.0444
 20
23.0
 30
0.0
 11
95.5963
 21
23.0
 31
0.0
  0
LINE
  5
338
330
1E
100
AcDbEntity
  8
0
100
AcDbLine
 10
22.0968
 20
30.0
 30
0.0
 11
26.7958
 21
30.0
 31
0.0
  0
LINE
  5
339
330
1E
100
AcDbEntity
  8
0
100
AcDbLine
 10
26.7958
 20
30.0
 30
0.0
 11
32.1011
 21
30.0
 31
0.0
  0
LINE
  5
33A
330
1E
100
AcDbEntity
  8
0
100
AcDbLine
 10
32.1011
 20
30.0
 30
0.0
 11
37.6589
 21
30.0
 31
0.0
  0
LINE
  5
33B
330
1E
100
AcDbEntity
  8
0
100
AcDbLine
 10
37.6589
 20
30.0
 30
0.0
 11
43.6211
 21
30.0
 31
0.0
  0
LINE
  5
33C
330
1E
100
AcDbEntity
  8
0
100
AcDbLine
 10
43.6211
 20
30.0
 30
0.0
 11
49.73469999999999
 21
30.0
 31
0.0
  0
LINE
  5
33D
330
1E
100
AcDbEntity
  8
0
100
AcDbLine
 10
85.20419999999999
 20
30.0
 30
0.0
 11
89.9032
 21
30.0
 31
0.0
  0
LINE
  5
33E
330
1E
100
AcDbEntity
  8
0
100
AcDbLine
 10
79.89889999999999
 20
30.0
 30
0.0
 11
85.20419999999999
 21
30.0
 31
0.0
  0
LINE
  5
33F
330
1E
100
AcDbEntity
  8
0
100
AcDbLine
 10
74.3411
 20
30.0
 30
0.0
 11
79.89889999999999
 21
30.0
 31
0.0
  0
LINE
  5
340
330
1E
100
AcDbEntity
  8
0
100
AcDbLine
 10
68.3789
 20
30.0
 30
0.0
 11
74.3411
 21
30.0
 31
0.0
  0
LINE
  5
341
330
1E
100
AcDbEntity
  8
0
100
AcDbLine
 10
62.2653
 20
30.0
 30
0.0
 11
68.3789
 21
30.0
 31
0.0
  0
LINE
  5
342
330
1E
100
AcDbEntity
  8
0
100
AcDbLine
 10
56.0
 20
30.0
 30
0.0
 11
62.2653
 21
30.0
 31
0.0
  0
LINE
  5
343
330
1E
100
AcDbEntity
  8
0
100
AcDbLine
 10
89.9032
 20
30.0
 30
0.0
 11
93.9958
 21
30.0
 31
0.0
  0
LINE
  5
344
330
1E
100
AcDbEntity
  8
0
100
AcDbLine
 10
93.9958
 20
30.0
 30
0.0
 11
97.58320000000001
 21
30.0
 31
0.0
  0
LINE
  5
345
330
1E
100
AcDbEntity
  8
0
100
AcDbLine
 10
97.58320000000001
 20
30.0
 30
0.0
 11
100.261
 21
30.0
 31
0.0
  0
LINE
  5
346
330
1E
100
AcDbEntity
  8
0
100
AcDbLine
 10
49.73469999999999
 20
30.0
 30
0.0
 11
56.0
 21
30.0
 31
0.0
  0
LINE
  5
347
330
1E
100
AcDbEntity
  8
0
100
AcDbLine
 10
18.0042
 20
30.0
 30
0.0
 11
22.0968
 21
30.0
 31
0.0
  0
LINE
  5
348
330
1E
100
AcDbEntity
  8
0
100
AcDbLine
 10
14.4168
 20
30.0
 30
0.0
 11
18.0042
 21
30.0
 31
0.0
  0
LINE
  5
349
330
1E
100
AcDbEntity
  8
0
100
AcDbLine
 10
11.73889999999999
 20
30.0
 30
0.0
 11
14.4168
 21
30.0
 31
0.0
  0
LINE
  5
34A
330
1E
100
AcDbEntity
  8
0
100
AcDbLine
 10
9.7179
 20
30.0
 30
0.0
 11
11.73889999999999
 21
30.0
 31
0.0
  0
LINE
  5
34B
330
1E
100
AcDbEntity
  8
0
100
AcDbLine
 10
8.505259999999999
 20
30.0
 30
0.0
 11
9.7179
 21
30.0
 31
0.0
  0
LINE
  5
34C
330
1E
100
AcDbEntity
  8
0
100
AcDbLine
 10
8.0
 20
30.0
 30
0.0
 11
8.0
 21
23.0
 31
0.0
  0
LINE
  5
34D
330
1E
100
AcDbEntity
  8
0
100
AcDbLine
 10
8.0
 20
30.0
 30
0.0
 11
8.505259999999999
 21
30.0
 31
0.0
  0
LINE
  5
34E
330
1E
100
AcDbEntity
  8
0
100
AcDbLine
 10
100.3249999999999
 20
22.7502
 30
0.0
 11
104.403
 21
22.7502
 31
0.0
  0
LINE
  5
34F
330
1E
100
AcDbEntity
  8
0
100
AcDbLine
 10
100.3249999999999
 20
23.0
 30
0.0
 11
104.403
 21
23.0
 31
0.0
  0
LINE
  5
350
330
1E
100
AcDbEntity
  8
0
100
AcDbLine
 10
104.403
 20
22.7502
 30
0.0
 11
107.654
 21
22.7502
 31
0.0
  0
LINE
  5
351
330
1E
100
AcDbEntity
  8
0
100
AcDbLine
 10
107.654
 20
22.7502
 30
0.0
 11
109.9939999999999
 21
22.7502
 31
0.0
  0
LINE
  5
352
330
1E
100
AcDbEntity
  8
0
100
AcDbLine
 10
109.9939999999999
 20
22.7502
 30
0.0
 11
111.415
 21
22.7502
 31
0.0
  0
LINE
  5
353
330
1E
100
AcDbEntity
  8
0
100
AcDbLine
 10
111.415
 20
22.7502
 30
0.0
 11
112.0
 21
22.7502
 31
0.0
  0
LINE
  5
354
330
1E
100
AcDbEntity
  8
0
100
AcDbLine
 10
107.654
 20
23.0
 30
0.0
 11
109.9939999999999
 21
23.0
 31
0.0
  0
LINE
  5
355
330
1E
100
AcDbEntity
  8
0
100
AcDbLine
 10
104.403
 20
23.0
 30
0.0
 11
107.654
 21
23.0
 31
0.0
  0
LINE
  5
356
330
1E
100
AcDbEntity
  8
0
100
AcDbLine
 10
109.9939999999999
 20
23.0
 30
0.0
 11
111.415
 21
23.0
 31
0.0
  0
LINE
  5
357
330
1E
100
AcDbEntity
  8
0
100
AcDbLine
 10
112.0
 20
22.7502
 30
0.0
 11
112.0
 21
23.0
 31
0.0
  0
LINE
  5
358
330
1E
100
AcDbEntity
  8
0
100
AcDbLine
 10
111.415
 20
23.0
 30
0.0
 11
112.0
 21
23.0
 31
0.0
  0
LINE
  5
359
330
1E
100
AcDbEntity
  8
0
100
AcDbLine
 10
104.0
 20
23.0
 30
0.0
 11
104.0
 21
30.0
 31
0.0
  0
LINE
  5
35A
330
1E
100
AcDbEntity
  8
0
100
AcDbLine
 10
100.261
 20
30.0
 30
0.0
 11
102.282
 21
30.0
 31
0.0
  0
LINE
  5
35B
330
1E
100
AcDbEntity
  8
0
100
AcDbLine
 10
102.282
 20
30.0
 30
0.0
 11
103.495
 21
30.0
 31
0.0
  0
LINE
  5
35C
330
1E
100
AcDbEntity
  8
0
100
AcDbLine
 10
104.0
 20
30.0
 30
0.0
 11
104.0
 21
23.0
 31
0.0
  0
LINE
  5
35D
330
1E
100
AcDbEntity
  8
0
100
AcDbLine
 10
103.495
 20
30.0
 30
0.0
 11
104.0
 21
30.0
 31
0.0
  0
LINE
  5
360
330
1E
100
AcDbEntity
  8
0
100
AcDbLine
 10
111.582
 20
22.2507
 30
0.0
 11
112.0
 21
22.7502
 31
0.0
  0
LINE
  5
361
330
1E
100
AcDbEntity
  8
0
100
AcDbLine
 10
112.0
 20
23.0
 30
0.0
 11
112.0
 21
22.7502
 31
0.0
  0
ENDSEC
  0
SECTION
  2
OBJECTS
  0
DICTIONARY
  5
C
330
0
100
AcDbDictionary
281
     1
  3
ACAD_GROUP
350
D
  3
ACAD_LAYOUT
350
19
  3
ACAD_MLINESTYLE
350
16
  3
ACAD_PLOTSETTINGS
350
18
  3
ACAD_PLOTSTYLENAME
350
E
  3
AcDbVariableDictionary
350
366
  0
DICTIONARY
  5
D
102
{ACAD_REACTORS
330
C
102
}
330
C
100
AcDbDictionary
281
     1
  0
DICTIONARY
  5
19
102
{ACAD_REACTORS
330
C
102
}
330
C
100
AcDbDictionary
281
     1
  3
Layout1
350
1D
  3
Model
350
21
  0
DICTIONARY
  5
16
102
{ACAD_REACTORS
330
C
102
}
330
C
100
AcDbDictionary
281
     1
  3
Standard
350
17
  0
DICTIONARY
  5
18
102
{ACAD_REACTORS
330
C
102
}
330
C
100
AcDbDictionary
281
     1
  0
ACDBDICTIONARYWDFLT
  5
E
102
{ACAD_REACTORS
330
C
102
}
330
C
100
AcDbDictionary
281
     1
  3
Normal
350
F
100
AcDbDictionaryWithDefault
340
F
  0
DICTIONARY
  5
366
102
{ACAD_REACTORS
330
C
102
}
330
C
100
AcDbDictionary
281
     1
  3
DIMASSOC
350
367
  0
LAYOUT
  5
1D
102
{ACAD_REACTORS
330
19
102
}
330
19
100
AcDbPlotSettings
  1

  2
hp deskjet 980c series
  4

  6

 40
0.0
 41
0.0
 42
0.0
 43
0.0
 44
0.0
 45
0.0
 46
0.0
 47
0.0
 48
0.0
 49
0.0
140
0.0
141
0.0
142
1.0
143
1.0
 70
   688
 72
     0
 73
     0
 74
     5
  7

 75
    16
147
1.0
148
0.0
149
0.0
100
AcDbLayout
  1
Layout1
 70
     1
 71
     1
 10
0.0
 20
0.0
 11
12.0
 21
9.0
 12
0.0
 22
0.0
 32
0.0
 14
1.000000000000000E+20
 24
1.000000000000000E+20
 34
1.000000000000000E+20
 15
-1.000000000000000E+20
 25
-1.000000000000000E+20
 35
-1.000000000000000E+20
146
0.0
 13
0.0
 23
0.0
 33
0.0
 16
1.0
 26
0.0
 36
0.0
 17
0.0
 27
1.0
 37
0.0
 76
     0
330
1A
  0
LAYOUT
  5
21
102
{ACAD_REACTORS
330
19
102
}
330
19
100
AcDbPlotSettings
  1

  2
hp deskjet 980c series
  4

  6

 40
0.0
 41
0.0
 42
0.0
 43
0.0
 44
0.0
 45
0.0
 46
0.0
 47
0.0
 48
0.0
 49
0.0
140
0.0
141
0.0
142
1.0
143
1.0
 70
  1712
 72
     0
 73
     0
 74
     0
  7

 75
     0
147
1.0
148
0.0
149
0.0
100
AcDbLayout
  1
Model
 70
     1
 71
     0
 10
0.0
 20
0.0
 11
12.0
 21
9.0
 12
0.0
 22
0.0
 32
0.0
 14
0.0
 24
0.0
 34
0.0
 15
0.0
 25
0.0
 35
0.0
146
0.0
 13
0.0
 23
0.0
 33
0.0
 16
1.0
 26
0.0
 36
0.0
 17
0.0
 27
1.0
 37
0.0
 76
     0
330
1E
  0
MLINESTYLE
  5
17
102
{ACAD_REACTORS
330
16
102
}
330
16
100
AcDbMlineStyle
  2
STANDARD
 70
     0
  3

 62
   256
 51
90.0
 52
90.0
 71
     2
 49
0.5
 62
   256
  6
BYLAYER
 49
-0.5
 62
   256
  6
BYLAYER
  0
ACDBPLACEHOLDER
  5
F
102
{ACAD_REACTORS
330
E
102
}
330
E
  0
DICTIONARYVAR
  5
367
102
{ACAD_REACTORS
330
366
102
}
330
366
100
DictionaryVariables
280
     0
  1
1
  0
ENDSEC
  0
EOF
